  0
SECTION
  2
HEADER
  9
$ACADVER
  1
AC1032
  9
$ACADMAINTVER
 90
      174
  9
$DWGCODEPAGE
  3
ANSI_932
  9
$LASTSAVEDBY
  1
c23053
  9
$REQUIREDVERSIONS
160
                 0
  9
$INSBASE
 10
0.0
 20
0.0
 30
0.0
  9
$EXTMIN
 10
359.5187928241497
 20
183.5938762293409
 30
-0.0015258207003583
  9
$EXTMAX
 10
409.52394332864
 20
208.337422066246
 30
0.0000000349246037
  9
$LIMMIN
 10
349.6358742972824
 20
171.1280036110333
  9
$LIMMAX
 10
417.6697521724332
 20
217.776579572701
  9
$ORTHOMODE
 70
     0
  9
$REGENMODE
 70
     1
  9
$FILLMODE
 70
     1
  9
$QTEXTMODE
 70
     0
  9
$MIRRTEXT
 70
     0
  9
$LTSCALE
 40
1.0
  9
$ATTMODE
 70
     1
  9
$TEXTSIZE
 40
2.5
  9
$TRACEWID
 40
1.0
  9
$TEXTSTYLE
  7
Standard
  9
$CLAYER
  8
0
  9
$CELTYPE
  6
ByLayer
  9
$CECOLOR
 62
   256
  9
$CELTSCALE
 40
1.0
  9
$DISPSILH
 70
     0
  9
$DIMSCALE
 40
1.0
  9
$DIMASZ
 40
2.5
  9
$DIMEXO
 40
0.625
  9
$DIMDLI
 40
3.75
  9
$DIMRND
 40
0.0
  9
$DIMDLE
 40
0.0
  9
$DIMEXE
 40
1.25
  9
$DIMTP
 40
0.0
  9
$DIMTM
 40
0.0
  9
$DIMTXT
 40
2.5
  9
$DIMCEN
 40
2.5
  9
$DIMTSZ
 40
0.0
  9
$DIMTOL
 70
     0
  9
$DIMLIM
 70
     0
  9
$DIMTIH
 70
     0
  9
$DIMTOH
 70
     0
  9
$DIMSE1
 70
     0
  9
$DIMSE2
 70
     0
  9
$DIMTAD
 70
     1
  9
$DIMZIN
 70
     8
  9
$DIMBLK
  1

  9
$DIMASO
 70
     1
  9
$DIMSHO
 70
     1
  9
$DIMPOST
  1

  9
$DIMAPOST
  1

  9
$DIMALT
 70
     0
  9
$DIMALTD
 70
     3
  9
$DIMALTF
 40
0.03937007874016
  9
$DIMLFAC
 40
1.0
  9
$DIMTOFL
 70
     1
  9
$DIMTVP
 40
0.0
  9
$DIMTIX
 70
     0
  9
$DIMSOXD
 70
     0
  9
$DIMSAH
 70
     0
  9
$DIMBLK1
  1

  9
$DIMBLK2
  1

  9
$DIMSTYLE
  2
ISO-25
  9
$DIMCLRD
 70
     0
  9
$DIMCLRE
 70
     0
  9
$DIMCLRT
 70
     0
  9
$DIMTFAC
 40
1.0
  9
$DIMGAP
 40
0.625
  9
$DIMJUST
 70
     0
  9
$DIMSD1
 70
     0
  9
$DIMSD2
 70
     0
  9
$DIMTOLJ
 70
     0
  9
$DIMTZIN
 70
     8
  9
$DIMALTZ
 70
     0
  9
$DIMALTTZ
 70
     0
  9
$DIMUPT
 70
     0
  9
$DIMDEC
 70
     2
  9
$DIMTDEC
 70
     2
  9
$DIMALTU
 70
     2
  9
$DIMALTTD
 70
     3
  9
$DIMTXSTY
  7
Standard
  9
$DIMAUNIT
 70
     0
  9
$DIMADEC
 70
     0
  9
$DIMALTRND
 40
0.0
  9
$DIMAZIN
 70
     0
  9
$DIMDSEP
 70
    44
  9
$DIMATFIT
 70
     3
  9
$DIMFRAC
 70
     0
  9
$DIMLDRBLK
  1

  9
$DIMLUNIT
 70
     2
  9
$DIMLWD
 70
    -2
  9
$DIMLWE
 70
    -2
  9
$DIMTMOVE
 70
     0
  9
$DIMFXL
 40
1.0
  9
$DIMFXLON
 70
     0
  9
$DIMJOGANG
 40
0.7853981633974483
  9
$DIMTFILL
 70
     0
  9
$DIMTFILLCLR
 70
     0
  9
$DIMARCSYM
 70
     0
  9
$DIMLTYPE
  6

  9
$DIMLTEX1
  6

  9
$DIMLTEX2
  6

  9
$DIMTXTDIRECTION
 70
     0
  9
$LUNITS
 70
     2
  9
$LUPREC
 70
     4
  9
$SKETCHINC
 40
1.0
  9
$FILLETRAD
 40
0.0
  9
$AUNITS
 70
     0
  9
$AUPREC
 70
     0
  9
$MENU
  1
.
  9
$ELEVATION
 40
0.0
  9
$PELEVATION
 40
0.0
  9
$THICKNESS
 40
0.0
  9
$LIMCHECK
 70
     0
  9
$CHAMFERA
 40
0.0
  9
$CHAMFERB
 40
0.0
  9
$CHAMFERC
 40
0.0
  9
$CHAMFERD
 40
0.0
  9
$SKPOLY
 70
     0
  9
$TDCREATE
 40
2459508.690347222
  9
$TDUCREATE
 40
2459508.357013889
  9
$TDUPDATE
 40
2459508.696539352
  9
$TDUUPDATE
 40
2459508.363206019
  9
$TDINDWG
 40
0.0024537037
  9
$TDUSRTIMER
 40
0.0024537037
  9
$USRTIMER
 70
     1
  9
$ANGBASE
 50
0.0
  9
$ANGDIR
 70
     0
  9
$PDMODE
 70
     0
  9
$PDSIZE
 40
0.0
  9
$PLINEWID
 40
0.0
  9
$SPLFRAME
 70
     0
  9
$SPLINETYPE
 70
     6
  9
$SPLINESEGS
 70
     8
  9
$HANDSEED
  5
24C
  9
$SURFTAB1
 70
     6
  9
$SURFTAB2
 70
     6
  9
$SURFTYPE
 70
     6
  9
$SURFU
 70
     6
  9
$SURFV
 70
     6
  9
$UCSBASE
  2

  9
$UCSNAME
  2

  9
$UCSORG
 10
0.0
 20
0.0
 30
0.0
  9
$UCSXDIR
 10
1.0
 20
0.0
 30
0.0
  9
$UCSYDIR
 10
0.0
 20
1.0
 30
0.0
  9
$UCSORTHOREF
  2

  9
$UCSORTHOVIEW
 70
     0
  9
$UCSORGTOP
 10
0.0
 20
0.0
 30
0.0
  9
$UCSORGBOTTOM
 10
0.0
 20
0.0
 30
0.0
  9
$UCSORGLEFT
 10
0.0
 20
0.0
 30
0.0
  9
$UCSORGRIGHT
 10
0.0
 20
0.0
 30
0.0
  9
$UCSORGFRONT
 10
0.0
 20
0.0
 30
0.0
  9
$UCSORGBACK
 10
0.0
 20
0.0
 30
0.0
  9
$PUCSBASE
  2

  9
$PUCSNAME
  2

  9
$PUCSORG
 10
0.0
 20
0.0
 30
0.0
  9
$PUCSXDIR
 10
1.0
 20
0.0
 30
0.0
  9
$PUCSYDIR
 10
0.0
 20
1.0
 30
0.0
  9
$PUCSORTHOREF
  2

  9
$PUCSORTHOVIEW
 70
     0
  9
$PUCSORGTOP
 10
0.0
 20
0.0
 30
0.0
  9
$PUCSORGBOTTOM
 10
0.0
 20
0.0
 30
0.0
  9
$PUCSORGLEFT
 10
0.0
 20
0.0
 30
0.0
  9
$PUCSORGRIGHT
 10
0.0
 20
0.0
 30
0.0
  9
$PUCSORGFRONT
 10
0.0
 20
0.0
 30
0.0
  9
$PUCSORGBACK
 10
0.0
 20
0.0
 30
0.0
  9
$USERI1
 70
     0
  9
$USERI2
 70
     0
  9
$USERI3
 70
     0
  9
$USERI4
 70
     0
  9
$USERI5
 70
     0
  9
$USERR1
 40
0.0
  9
$USERR2
 40
0.0
  9
$USERR3
 40
0.0
  9
$USERR4
 40
0.0
  9
$USERR5
 40
0.0
  9
$WORLDVIEW
 70
     1
  9
$SHADEDGE
 70
     3
  9
$SHADEDIF
 70
    70
  9
$TILEMODE
 70
     1
  9
$MAXACTVP
 70
    64
  9
$PINSBASE
 10
0.0
 20
0.0
 30
0.0
  9
$PLIMCHECK
 70
     0
  9
$PEXTMIN
 10
0.0
 20
0.0
 30
0.0
  9
$PEXTMAX
 10
0.0
 20
0.0
 30
0.0
  9
$PLIMMIN
 10
0.0
 20
0.0
  9
$PLIMMAX
 10
12.0
 20
9.0
  9
$UNITMODE
 70
     0
  9
$VISRETAIN
 70
     1
  9
$PLINEGEN
 70
     0
  9
$PSLTSCALE
 70
     1
  9
$TREEDEPTH
 70
  3020
  9
$CMLSTYLE
  2
Standard
  9
$CMLJUST
 70
     0
  9
$CMLSCALE
 40
20.0
  9
$PROXYGRAPHICS
 70
     1
  9
$MEASUREMENT
 70
     1
  9
$CELWEIGHT
370
    -1
  9
$ENDCAPS
280
     0
  9
$JOINSTYLE
280
     0
  9
$LWDISPLAY
290
     0
  9
$INSUNITS
 70
     4
  9
$HYPERLINKBASE
  1

  9
$STYLESHEET
  1

  9
$XEDIT
290
     1
  9
$CEPSNTYPE
380
     0
  9
$PSTYLEMODE
290
     1
  9
$FINGERPRINTGUID
  2
{B6DE90E3-00DF-A540-8355-AA2036216746}
  9
$VERSIONGUID
  2
{2492EFC3-FFD6-D445-8E94-C9552D4F9116}
  9
$EXTNAMES
290
     1
  9
$PSVPSCALE
 40
0.0
  9
$OLESTARTUP
290
     0
  9
$SORTENTS
280
   127
  9
$INDEXCTL
280
     0
  9
$HIDETEXT
280
     1
  9
$XCLIPFRAME
280
     2
  9
$HALOGAP
280
     0
  9
$OBSCOLOR
 70
   257
  9
$OBSLTYPE
280
     0
  9
$INTERSECTIONDISPLAY
280
     0
  9
$INTERSECTIONCOLOR
 70
   257
  9
$DIMASSOC
280
     2
  9
$PROJECTNAME
  1

  9
$CAMERADISPLAY
290
     0
  9
$LENSLENGTH
 40
50.0
  9
$CAMERAHEIGHT
 40
0.0
  9
$STEPSPERSEC
 40
2.0
  9
$STEPSIZE
 40
6.0
  9
$3DDWFPREC
 40
2.0
  9
$PSOLWIDTH
 40
5.0
  9
$PSOLHEIGHT
 40
80.0
  9
$LOFTANG1
 40
1.570796326794896
  9
$LOFTANG2
 40
1.570796326794896
  9
$LOFTMAG1
 40
0.0
  9
$LOFTMAG2
 40
0.0
  9
$LOFTPARAM
 70
     7
  9
$LOFTNORMALS
280
     1
  9
$LATITUDE
 40
37.795
  9
$LONGITUDE
 40
-122.394
  9
$NORTHDIRECTION
 40
0.0
  9
$TIMEZONE
 70
 -8000
  9
$LIGHTGLYPHDISPLAY
280
     1
  9
$TILEMODELIGHTSYNCH
280
     1
  9
$CMATERIAL
347
38
  9
$SOLIDHIST
280
     0
  9
$SHOWHIST
280
     1
  9
$DWFFRAME
280
     2
  9
$DGNFRAME
280
     0
  9
$REALWORLDSCALE
290
     1
  9
$INTERFERECOLOR
 62
     1
  9
$INTERFEREOBJVS
345
51
  9
$INTERFEREVPVS
346
52
  9
$CSHADOW
280
     0
  9
$SHADOWPLANELOCATION
 40
0.0
  0
ENDSEC
  0
SECTION
  2
CLASSES
  0
CLASS
  1
ACDBDICTIONARYWDFLT
  2
AcDbDictionaryWithDefault
  3
ObjectDBX Classes
 90
        0
 91
        1
280
     0
281
     0
  0
CLASS
  1
DICTIONARYVAR
  2
AcDbDictionaryVar
  3
ObjectDBX Classes
 90
        0
 91
       13
280
     0
281
     0
  0
CLASS
  1
TABLESTYLE
  2
AcDbTableStyle
  3
ObjectDBX Classes
 90
     4095
 91
        1
280
     0
281
     0
  0
CLASS
  1
MATERIAL
  2
AcDbMaterial
  3
ObjectDBX Classes
 90
     1153
 91
        3
280
     0
281
     0
  0
CLASS
  1
VISUALSTYLE
  2
AcDbVisualStyle
  3
ObjectDBX Classes
 90
     4095
 91
       24
280
     0
281
     0
  0
CLASS
  1
SCALE
  2
AcDbScale
  3
ObjectDBX Classes
 90
     1153
 91
       17
280
     0
281
     0
  0
CLASS
  1
MLEADERSTYLE
  2
AcDbMLeaderStyle
  3
ACDB_MLEADERSTYLE_CLASS
 90
     4095
 91
        1
280
     0
281
     0
  0
CLASS
  1
CELLSTYLEMAP
  2
AcDbCellStyleMap
  3
ObjectDBX Classes
 90
     1152
 91
        2
280
     0
281
     0
  0
CLASS
  1
EXACXREFPANELOBJECT
  2
ExAcXREFPanelObject
  3
EXAC_ESW
 90
     1025
 91
        0
280
     1
281
     0
  0
CLASS
  1
NPOCOLLECTION
  2
AcDbImpNonPersistentObjectsCollection
  3
ObjectDBX Classes
 90
     1153
 91
        0
280
     0
281
     0
  0
CLASS
  1
LAYER_INDEX
  2
AcDbLayerIndex
  3
ObjectDBX Classes
 90
        0
 91
        0
280
     0
281
     0
  0
CLASS
  1
SPATIAL_INDEX
  2
AcDbSpatialIndex
  3
ObjectDBX Classes
 90
        0
 91
        0
280
     0
281
     0
  0
CLASS
  1
IDBUFFER
  2
AcDbIdBuffer
  3
ObjectDBX Classes
 90
        0
 91
        0
280
     0
281
     0
  0
CLASS
  1
ACDBSECTIONVIEWSTYLE
  2
AcDbSectionViewStyle
  3
ObjectDBX Classes
 90
     1025
 91
        1
280
     0
281
     0
  0
CLASS
  1
ACDBDETAILVIEWSTYLE
  2
AcDbDetailViewStyle
  3
ObjectDBX Classes
 90
     1025
 91
        1
280
     0
281
     0
  0
ENDSEC
  0
SECTION
  2
TABLES
  0
TABLE
  2
VPORT
  5
28
330
0
100
AcDbSymbolTable
 70
     1
  0
VPORT
  5
29
330
28
100
AcDbSymbolTableRecord
100
AcDbViewportTableRecord
  2
*Active
 70
     0
 10
0.0
 20
0.0
 11
1.0
 21
1.0
 12
383.6528132348578
 22
194.4522915918671
 13
0.0
 23
0.0
 14
10.0
 24
10.0
 15
10.0
 25
10.0
 16
0.0
 26
0.0
 36
1.0
 17
0.0
 27
0.0
 37
0.0
 40
46.92351845260077
 41
1.845624385447394
 42
50.0
 43
0.0
 44
0.0
 50
0.0
 51
0.0
 71
     0
 72
  1000
 73
     1
 74
     3
 75
     0
 76
     1
 77
     0
 78
     0
281
     0
 65
     1
110
0.0
120
0.0
130
0.0
111
1.0
121
0.0
131
0.0
112
0.0
122
1.0
132
0.0
 79
     0
146
0.0
348
2A
 60
     3
 61
     5
292
     1
282
     1
141
0.0
142
0.0
 63
   250
421
  3355443
1001
ACAD_NAV_VCDISPLAY
1070
     3
  0
ENDTAB
  0
TABLE
  2
LTYPE
  5
23
330
0
100
AcDbSymbolTable
 70
     1
  0
LTYPE
  5
24
330
23
100
AcDbSymbolTableRecord
100
AcDbLinetypeTableRecord
  2
ByBlock
 70
     0
  3

 72
    65
 73
     0
 40
0.0
  0
LTYPE
  5
25
330
23
100
AcDbSymbolTableRecord
100
AcDbLinetypeTableRecord
  2
ByLayer
 70
     0
  3

 72
    65
 73
     0
 40
0.0
  0
LTYPE
  5
13
330
23
100
AcDbSymbolTableRecord
100
AcDbLinetypeTableRecord
  2
Continuous
 70
     0
  3
Solid line
 72
    65
 73
     0
 40
0.0
  0
ENDTAB
  0
TABLE
  2
LAYER
  5
1D
102
{ACAD_XDICTIONARY
360
1E
102
}
330
0
100
AcDbSymbolTable
 70
     1
  0
LAYER
  5
5
102
{ACAD_XDICTIONARY
360
6
102
}
330
1D
100
AcDbSymbolTableRecord
100
AcDbLayerTableRecord
  2
0
 70
     0
 62
     7
  6
Continuous
370
    -3
390
7
347
A
348
0
  0
ENDTAB
  0
TABLE
  2
STYLE
  5
20
330
0
100
AcDbSymbolTable
 70
     1
  0
STYLE
  5
21
330
20
100
AcDbSymbolTableRecord
100
AcDbTextStyleTableRecord
  2
Standard
 70
     0
 40
0.0
 41
1.0
 50
0.0
 71
     0
 42
2.5
  3
arial.ttf
  4

1001
ACAD
1000
Arial
1071
       34
  0
ENDTAB
  0
TABLE
  2
VIEW
  5
26
330
0
100
AcDbSymbolTable
 70
     0
  0
ENDTAB
  0
TABLE
  2
UCS
  5
27
330
0
100
AcDbSymbolTable
 70
     0
  0
ENDTAB
  0
TABLE
  2
APPID
  5
2D
330
0
100
AcDbSymbolTable
 70
     7
  0
APPID
  5
12
330
2D
100
AcDbSymbolTableRecord
100
AcDbRegAppTableRecord
  2
ACAD
 70
     0
  0
APPID
  5
18
330
2D
100
AcDbSymbolTableRecord
100
AcDbRegAppTableRecord
  2
ACAD_PSEXT
 70
     0
  0
APPID
  5
31
330
2D
100
AcDbSymbolTableRecord
100
AcDbRegAppTableRecord
  2
AcadAnnotative
 70
     0
  0
APPID
  5
32
330
2D
100
AcDbSymbolTableRecord
100
AcDbRegAppTableRecord
  2
ACAD_DSTYLE_DIMJAG
 70
     0
  0
APPID
  5
33
330
2D
100
AcDbSymbolTableRecord
100
AcDbRegAppTableRecord
  2
ACAD_DSTYLE_DIMTALN
 70
     0
  0
APPID
  5
2C
330
2D
100
AcDbSymbolTableRecord
100
AcDbRegAppTableRecord
  2
ACAD_NAV_VCDISPLAY
 70
     0
  0
APPID
  5
23D
330
2D
100
AcDbSymbolTableRecord
100
AcDbRegAppTableRecord
  2
ACAD_EXEMPT_FROM_CAD_STANDARDS
 70
     0
  0
ENDTAB
  0
TABLE
  2
DIMSTYLE
  5
2E
330
0
100
AcDbSymbolTable
 70
     2
100
AcDbDimStyleTable
 71
     2
340
2F
340
30
  0
DIMSTYLE
105
30
330
2E
100
AcDbSymbolTableRecord
100
AcDbDimStyleTableRecord
  2
Annotative
 70
     0
 40
0.0
 41
2.5
 42
0.625
 43
3.75
 44
1.25
 73
     0
 74
     0
 77
     1
 78
     8
140
2.5
141
2.5
143
0.03937007874016
147
0.625
171
     3
172
     1
271
     2
272
     2
274
     3
278
    44
283
     0
284
     8
340
21
1001
AcadAnnotative
1000
AnnotativeData
1002
{
1070
     1
1070
     1
1002
}
1001
ACAD_DSTYLE_DIMJAG
1070
   388
1040
1.5
1001
ACAD_DSTYLE_DIMTALN
1070
   392
1070
     0
  0
DIMSTYLE
105
2F
330
2E
100
AcDbSymbolTableRecord
100
AcDbDimStyleTableRecord
  2
ISO-25
 70
     0
 41
2.5
 42
0.625
 43
3.75
 44
1.25
 73
     0
 74
     0
 77
     1
 78
     8
140
2.5
141
2.5
143
0.03937007874016
147
0.625
171
     3
172
     1
271
     2
272
     2
274
     3
278
    44
283
     0
284
     8
340
21
  0
ENDTAB
  0
TABLE
  2
BLOCK_RECORD
  5
1
330
0
100
AcDbSymbolTable
 70
     0
  0
BLOCK_RECORD
  5
2
102
{ACAD_XDICTIONARY
360
3
102
}
330
1
100
AcDbSymbolTableRecord
100
AcDbBlockTableRecord
  2
*Model_Space
340
15
 70
     0
280
     1
281
     0
  0
BLOCK_RECORD
  5
19
330
1
100
AcDbSymbolTableRecord
100
AcDbBlockTableRecord
  2
*Paper_Space
340
1C
 70
     0
280
     1
281
     0
  0
ENDTAB
  0
ENDSEC
  0
SECTION
  2
BLOCKS
  0
BLOCK
  5
4
330
2
100
AcDbEntity
  8
0
100
AcDbBlockBegin
  2
*Model_Space
 70
     0
 10
0.0
 20
0.0
 30
0.0
  3
*Model_Space
  1

  0
ENDBLK
  5
14
330
2
100
AcDbEntity
  8
0
100
AcDbBlockEnd
  0
BLOCK
  5
1A
330
19
100
AcDbEntity
 67
     1
  8
0
100
AcDbBlockBegin
  2
*Paper_Space
 70
     0
 10
0.0
 20
0.0
 30
0.0
  3
*Paper_Space
  1

  0
ENDBLK
  5
1B
330
19
100
AcDbEntity
 67
     1
  8
0
100
AcDbBlockEnd
  0
ENDSEC
  0
SECTION
  2
ENTITIES
  0
LINE
  5
65
330
2
100
AcDbEntity
  8
0
100
AcDbLine
 10
362.9646870212628
 20
184.4367368135506
 30
0.0
 11
408.5379670969198
 21
197.59260957331
 31
0.0
  0
LINE
  5
66
330
2
100
AcDbEntity
  8
0
100
AcDbLine
 10
407.5225141822756
 20
201.4840458093131
 30
0.0
 11
407.8592504219373
 21
201.581253188614
 31
0.0
  0
LINE
  5
67
330
2
100
AcDbEntity
  8
0
100
AcDbLine
 10
407.8962076830525
 20
201.7399042997927
 30
0.0
 11
407.3943578517487
 21
201.5950327321803
 31
0.0
  0
LINE
  5
68
330
2
100
AcDbEntity
  8
0
100
AcDbLine
 10
407.9444132328631
 20
201.3223926642567
 30
0.0
 11
408.0441520730722
 21
201.3511847873826
 31
0.0
  0
LINE
  5
69
330
2
100
AcDbEntity
  8
0
100
AcDbLine
 10
407.9767234901528
 20
201.9142917434431
 30
0.0
 11
407.2634623298181
 21
201.7083909819603
 31
0.0
  0
LINE
  5
6A
330
2
100
AcDbEntity
  8
0
100
AcDbLine
 10
405.9950950836308
 20
203.4966689112502
 30
0.0
 11
405.9569501494673
 21
203.4856574171913
 31
0.0
  0
LINE
  5
6B
330
2
100
AcDbEntity
  8
0
100
AcDbLine
 10
406.3796362751721
 20
202.4738078882947
 30
0.0
 11
406.4883190998511
 21
202.5051819173252
 31
0.0
  0
LINE
  5
6C
330
2
100
AcDbEntity
  8
0
100
AcDbLine
 10
408.4042973965948
 20
201.4102385053061
 30
0.0
 11
408.3661524624313
 21
201.3992270113351
 31
0.0
  0
LINE
  5
6D
330
2
100
AcDbEntity
  8
0
100
AcDbLine
 10
408.2550298946033
 20
202.0074168535564
 30
0.0
 11
407.9727692043097
 21
201.9259352107297
 31
0.0
  0
LINE
  5
6E
330
2
100
AcDbEntity
  8
0
100
AcDbLine
 10
408.4933815342424
 20
201.761301935629
 30
0.0
 11
408.4933815342424
 21
201.7994450935009
 31
0.0
  0
LINE
  5
6F
330
2
100
AcDbEntity
  8
0
100
AcDbLine
 10
405.2967241549299
 20
200.6406989207226
 30
0.0
 11
359.5249403003104
 21
187.427523055904
 31
0.0
  0
LINE
  5
70
330
2
100
AcDbEntity
  8
0
100
AcDbLine
 10
405.7547809422376
 20
200.2440101064949
 30
0.0
 11
405.6777203545023
 21
200.2217646309664
 31
0.0
  0
LINE
  5
71
330
2
100
AcDbEntity
  8
0
100
AcDbLine
 10
360.1278261595444
 20
186.7236614342964
 30
0.0
 11
405.8996100140761
 21
199.9368372992035
 31
0.0
  0
LINE
  5
72
330
2
100
AcDbEntity
  8
0
100
AcDbLine
 10
405.8619658062288
 20
204.1828870194659
 30
0.0
 11
360.0901819516975
 21
190.9697111545588
 31
0.0
  0
LINE
  5
73
330
2
100
AcDbEntity
  8
0
100
AcDbLine
 10
406.5744783633681
 20
203.2466789193211
 30
0.0
 11
406.7760840481374
 21
203.3048774674994
 31
0.0
  0
LINE
  5
74
330
2
100
AcDbEntity
  8
0
100
AcDbLine
 10
406.6635650611129
 20
204.6100903387094
 30
0.0
 11
396.1360543197857
 21
201.5710597585328
 31
0.0
  0
LINE
  5
75
330
2
100
AcDbEntity
  8
0
100
AcDbLine
 10
409.0096264351076
 20
197.4252312243
 30
0.0
 11
408.9616599420292
 21
197.4113844905039
 31
0.0
  0
LINE
  5
76
330
2
100
AcDbEntity
  8
0
100
AcDbLine
 10
407.3095311939573
 20
204.0545109088202
 30
0.0
 11
407.1668366745673
 21
204.0133185492936
 31
0.0
  0
LINE
  5
77
330
2
100
AcDbEntity
  8
0
100
AcDbLine
 10
363.7394275188094
 20
183.5959229087871
 30
0.0
 11
409.5112113734288
 21
196.8090987736936
 31
0.0
  0
LINE
  5
78
330
2
100
AcDbEntity
  8
0
100
AcDbLine
 10
407.4636849059029
 20
203.9210098782019
 30
0.0
 11
407.3540563015126
 21
203.8893628261219
 31
0.0
  0
LINE
  5
79
330
2
100
AcDbEntity
  8
0
100
AcDbLine
 10
409.4676832225036
 20
197.0285424100718
 30
0.0
 11
409.3906226346803
 21
197.0062969345438
 31
0.0
  0
LINE
  5
7A
330
2
100
AcDbEntity
  8
0
100
AcDbLine
 10
406.5439338924961
 20
203.1234320103526
 30
0.0
 11
407.7010063094157
 21
203.4574500460471
 31
0.0
  0
LINE
  5
7B
330
2
100
AcDbEntity
  8
0
100
AcDbLine
 10
407.6633619579861
 20
203.7442408273475
 30
0.0
 11
407.5235638891601
 21
203.7038846009923
 31
0.0
  0
LINE
  5
7C
330
2
100
AcDbEntity
  8
0
100
AcDbLine
 10
408.0318514391729
 20
203.2001044212275
 30
0.0
 11
406.5040093138486
 21
202.7590543900574
 31
0.0
  0
LINE
  5
7D
330
2
100
AcDbEntity
  8
0
100
AcDbLine
 10
408.0851841448898
 20
202.9885767899152
 30
0.0
 11
408.1502542462166
 21
203.0073609101437
 31
0.0
  0
LINE
  5
7E
330
2
100
AcDbEntity
  8
0
100
AcDbLine
 10
395.4750531742284
 20
201.3802451638658
 30
0.0
 11
386.3532863023703
 21
198.7470178844082
 31
0.0
  0
LINE
  5
7F
330
2
100
AcDbEntity
  8
0
100
AcDbLine
 10
382.2829377275704
 20
197.5720094617463
 30
0.0
 11
372.0295824749197
 21
194.6121207541578
 31
0.0
  0
LINE
  5
80
330
2
100
AcDbEntity
  8
0
100
AcDbLine
 10
371.3685813293623
 20
194.421306159491
 30
0.0
 11
360.8917812064933
 21
191.3969144738907
 31
0.0
  0
LINE
  5
81
330
2
100
AcDbEntity
  8
0
100
AcDbLine
 10
367.5976230493225
 20
200.0991386997309
 30
0.0
 11
367.2874625775699
 21
201.3780977816884
 31
0.0
  0
LINE
  5
82
330
2
100
AcDbEntity
  8
0
100
AcDbLine
 10
367.1504920194788
 20
201.3448809842944
 30
0.0
 11
367.4606524912316
 21
200.0659219024249
 31
0.0
  0
LINE
  5
83
330
2
100
AcDbEntity
  8
0
100
AcDbLine
 10
367.7917764264758
 20
200.1066874578894
 30
0.0
 11
370.4038700940042
 21
196.4613372894621
 31
0.0
  0
LINE
  5
84
330
2
100
AcDbEntity
  8
0
100
AcDbLine
 10
370.5184348763501
 20
196.5434293210896
 30
0.0
 11
367.8970607207152
 21
200.2017312440325
 31
0.0
  0
SPLINE
  5
85
330
2
100
AcDbEntity
  8
0
100
AcDbSpline
210
0.0
220
0.0
230
1.0
 70
     8
 71
     3
 72
    16
 73
    12
 74
     0
 42
0.000000001
 43
0.0000000001
 40
0.0
 40
0.0
 40
0.0
 40
0.0
 40
0.0762781444063161
 40
0.2227692253810097
 40
0.3751897856119756
 40
0.5069086649675966
 40
0.6161047331295017
 40
0.7159909876585046
 40
0.8158547770197447
 40
0.9149239720871191
 40
1.0
 40
1.0
 40
1.0
 40
1.0
 10
367.4606524912392
 20
200.0659219024044
 30
0.0
 10
367.4643409263203
 20
200.0523103403032
 30
0.0
 10
367.4751129480082
 20
200.0125579686496
 30
0.0
 10
367.5032833744581
 20
199.9495929082156
 30
0.0
 10
367.5443631968741
 20
199.8922335059776
 30
0.0
 10
367.5907936159934
 20
199.8561550254066
 30
0.0
 10
367.6413063264285
 20
199.8421564146317
 30
0.0
 10
367.6897654262212
 20
199.851256027561
 30
0.0
 10
367.7271251028328
 20
199.8793571278515
 30
0.0
 10
367.7497353032045
 20
199.9153628085219
 30
0.0
 10
367.7568535069295
 20
199.9423828287752
 30
0.0
 10
367.7601421531895
 20
199.9548662153117
 30
0.0
  0
SPLINE
  5
86
330
2
100
AcDbEntity
  8
0
100
AcDbSpline
210
0.0
220
0.0
230
1.0
 70
     8
 71
     3
 72
     8
 73
     4
 74
     0
 42
0.000000001
 43
0.0000000001
 40
0.0
 40
0.0
 40
0.0
 40
0.0
 40
1.0
 40
1.0
 40
1.0
 40
1.0
 10
367.6294498674456
 20
200.0185785006774
 30
0.0
 10
367.6098534172738
 20
200.0562055443379
 30
0.0
 10
367.6018773895567
 20
200.0842043779232
 30
0.0
 10
367.5976230492984
 20
200.0991386997605
 30
0.0
  0
LINE
  5
87
330
2
100
AcDbEntity
  8
0
100
AcDbLine
 10
367.7601421532098
 20
199.9548662152863
 30
0.0
 11
367.7987736086457
 21
200.1402694539724
 31
0.0
  0
LINE
  5
88
330
2
100
AcDbEntity
  8
0
100
AcDbLine
 10
367.6607963316778
 20
200.169019149416
 30
0.0
 11
367.6294498674456
 21
200.0185785006774
 31
0.0
  0
SPLINE
  5
89
330
2
100
AcDbEntity
  8
0
100
AcDbSpline
210
0.0
220
0.0
230
1.0
 70
     8
 71
     3
 72
    14
 73
    10
 74
     0
 42
0.000000001
 43
0.0000000001
 40
0.0
 40
0.0
 40
0.0
 40
0.0
 40
0.1144052998709051
 40
0.3009458168193719
 40
0.4557758314286522
 40
0.5974470572681378
 40
0.7390545073058578
 40
0.8796110368451552
 40
1.0
 40
1.0
 40
1.0
 40
1.0
 10
367.8970607206933
 20
200.201731244056
 30
0.0
 10
367.8891176636335
 20
200.2119118222204
 30
0.0
 10
367.8682232662786
 20
200.2386920711667
 30
0.0
 10
367.8299518233122
 20
200.2677016373441
 30
0.0
 10
367.7795399278183
 20
200.2817537089832
 30
0.0
 10
367.7310804036907
 20
200.272583141902
 30
0.0
 10
367.6937554729533
 20
200.2444624356806
 30
0.0
 10
367.6711833461313
 20
200.2084686004382
 30
0.0
 10
367.6640755577623
 20
200.1814735144242
 30
0.0
 10
367.660796331656
 20
200.1690191494074
 30
0.0
  0
SPLINE
  5
8A
330
2
100
AcDbEntity
  8
0
100
AcDbSpline
210
0.0
220
0.0
230
1.0
 70
    24
 71
     1
 72
     4
 73
     2
 74
     0
 42
0.000000001
 43
0.0000000001
 40
0.0
 40
0.0
 40
1.0
 40
1.0
 10
367.7987736086333
 20
200.1402694539288
 30
0.0
 10
367.8000315399537
 20
200.1443549676026
 30
0.0
  0
LINE
  5
8B
330
2
100
AcDbEntity
  8
0
100
AcDbLine
 10
370.5334348884179
 20
196.2345916377614
 30
0.0
 11
371.4481785895463
 21
194.2484824456364
 31
0.0
  0
LINE
  5
8C
330
2
100
AcDbEntity
  8
0
100
AcDbLine
 10
371.5851399848293
 20
194.2880198185712
 30
0.0
 11
370.6614506755077
 21
196.2935518113363
 31
0.0
  0
SPLINE
  5
8D
330
2
100
AcDbEntity
  8
0
100
AcDbSpline
210
0.0
220
0.0
230
1.0
 70
     8
 71
     3
 72
    10
 73
     6
 74
     0
 42
0.000000001
 43
0.0000000001
 40
0.0
 40
0.0
 40
0.0
 40
0.0
 40
0.2663699363972297
 40
0.774811240930633
 40
1.0
 40
1.0
 40
1.0
 40
1.0
 10
370.6614506754836
 20
196.2935518112988
 30
0.0
 10
370.649841470517
 20
196.3178677424953
 30
0.0
 10
370.6160728604869
 20
196.3885974092118
 30
0.0
 10
370.5676753530438
 20
196.4723946119195
 30
0.0
 10
370.5299995240256
 20
196.5267460670152
 30
0.0
 10
370.518434876386
 20
196.543429321061
 30
0.0
  0
SPLINE
  5
8E
330
2
100
AcDbEntity
  8
0
100
AcDbSpline
210
0.0
220
0.0
230
1.0
 70
     8
 71
     3
 72
    10
 73
     6
 74
     0
 42
0.000000001
 43
0.0000000001
 40
0.0
 40
0.0
 40
0.0
 40
0.0
 40
0.2663357011751287
 40
0.7723594424794861
 40
1.0
 40
1.0
 40
1.0
 40
1.0
 10
370.4038700939609
 20
196.4613372894336
 30
0.0
 10
370.4160567826316
 20
196.443659045942
 30
0.0
 10
370.4513975350196
 20
196.3923930751134
 30
0.0
 10
370.495116372068
 20
196.3152531396009
 30
0.0
 10
370.5243609215596
 20
196.2536925807656
 30
0.0
 10
370.5334348884422
 20
196.2345916377908
 30
0.0
  0
LINE
  5
8F
330
2
100
AcDbEntity
  8
0
100
AcDbLine
 10
391.7040948941886
 20
207.0580777041937
 30
0.0
 11
391.3939344224359
 21
208.3370367860632
 31
0.0
  0
LINE
  5
90
330
2
100
AcDbEntity
  8
0
100
AcDbLine
 10
391.2569638644327
 20
208.3038199887574
 30
0.0
 11
391.5671243360975
 21
207.0248609067996
 31
0.0
  0
LINE
  5
91
330
2
100
AcDbEntity
  8
0
100
AcDbLine
 10
391.8982482713413
 20
207.0656264623522
 30
0.0
 11
394.5103419388702
 21
203.4202762938369
 31
0.0
  0
LINE
  5
92
330
2
100
AcDbEntity
  8
0
100
AcDbLine
 10
394.6249067213043
 20
203.5023683254644
 30
0.0
 11
392.0035325655813
 21
207.1606702484953
 31
0.0
  0
SPLINE
  5
93
330
2
100
AcDbEntity
  8
0
100
AcDbSpline
210
0.0
220
0.0
230
1.0
 70
     8
 71
     3
 72
    16
 73
    12
 74
     0
 42
0.000000001
 43
0.0000000001
 40
0.0
 40
0.0
 40
0.0
 40
0.0
 40
0.0762781444063161
 40
0.2227692253810097
 40
0.3751897856119756
 40
0.5069086649675966
 40
0.6161047331295017
 40
0.7159909876585046
 40
0.8158547770197447
 40
0.9149239720871191
 40
1.0
 40
1.0
 40
1.0
 40
1.0
 10
391.5671243361198
 20
207.0248609068315
 30
0.0
 10
391.570812771201
 20
207.0112493447302
 30
0.0
 10
391.5815847928893
 20
206.9714969730764
 30
0.0
 10
391.6097552193392
 20
206.9085319126427
 30
0.0
 10
391.6508350417553
 20
206.8511725104047
 30
0.0
 10
391.697265460874
 20
206.815094029834
 30
0.0
 10
391.7477781713092
 20
206.8010954190588
 30
0.0
 10
391.7962372711017
 20
206.8101950319881
 30
0.0
 10
391.8335969477134
 20
206.8382961322786
 30
0.0
 10
391.8562071480851
 20
206.8743018129487
 30
0.0
 10
391.8633253518105
 20
206.9013218332024
 30
0.0
 10
391.8666139980701
 20
206.9138052197388
 30
0.0
  0
SPLINE
  5
94
330
2
100
AcDbEntity
  8
0
100
AcDbSpline
210
0.0
220
0.0
230
1.0
 70
     8
 71
     3
 72
     8
 73
     4
 74
     0
 42
0.000000001
 43
0.0000000001
 40
0.0
 40
0.0
 40
0.0
 40
0.0
 40
1.0
 40
1.0
 40
1.0
 40
1.0
 10
391.7359217123117
 20
206.9775175051402
 30
0.0
 10
391.7163252621545
 20
207.0151445487652
 30
0.0
 10
391.7083492344377
 20
207.0431433823503
 30
0.0
 10
391.7040948941794
 20
207.0580777041878
 30
0.0
  0
LINE
  5
95
330
2
100
AcDbEntity
  8
0
100
AcDbLine
 10
391.8666139980761
 20
206.913805219749
 30
0.0
 11
391.9052454535117
 21
207.0992084583472
 31
0.0
  0
LINE
  5
96
330
2
100
AcDbEntity
  8
0
100
AcDbLine
 10
391.7672681765439
 20
207.1279581537908
 30
0.0
 11
391.7359217123117
 21
206.9775175051402
 31
0.0
  0
SPLINE
  5
97
330
2
100
AcDbEntity
  8
0
100
AcDbSpline
210
0.0
220
0.0
230
1.0
 70
     8
 71
     3
 72
    14
 73
    10
 74
     0
 42
0.000000001
 43
0.0000000001
 40
0.0
 40
0.0
 40
0.0
 40
0.0
 40
0.1144052998709051
 40
0.3009458168193719
 40
0.4557758314286522
 40
0.5974470572681378
 40
0.7390545073058578
 40
0.8796110368451552
 40
1.0
 40
1.0
 40
1.0
 40
1.0
 10
392.003532565574
 20
207.160670248483
 30
0.0
 10
391.995589508514
 20
207.1708508266474
 30
0.0
 10
391.9746951111592
 20
207.1976310755935
 30
0.0
 10
391.9364236681931
 20
207.2266406417711
 30
0.0
 10
391.886011772699
 20
207.24069271341
 30
0.0
 10
391.8375522485717
 20
207.2315221463293
 30
0.0
 10
391.8002273178345
 20
207.2034014401077
 30
0.0
 10
391.777655191012
 20
207.1674076048655
 30
0.0
 10
391.7705474026433
 20
207.1404125188514
 30
0.0
 10
391.7672681765366
 20
207.1279581538345
 30
0.0
  0
SPLINE
  5
98
330
2
100
AcDbEntity
  8
0
100
AcDbSpline
210
0.0
220
0.0
230
1.0
 70
     8
 71
     3
 72
     9
 73
     5
 74
     0
 42
0.000000001
 43
0.0000000001
 40
0.0
 40
0.0
 40
0.0
 40
0.0
 40
0.7044400790284377
 40
1.0
 40
1.0
 40
1.0
 40
1.0
 10
391.905245453514
 20
207.0992084583559
 30
0.0
 10
391.9065033848347
 20
207.1032939720296
 30
0.0
 10
391.9082891028221
 20
207.1090936330588
 30
0.0
 10
391.9077152950931
 20
207.1080906015914
 30
0.0
 10
391.9075457005265
 20
207.1077941456899
 30
0.0
  0
LINE
  5
99
330
2
100
AcDbEntity
  8
0
100
AcDbLine
 10
394.6399067332841
 20
203.1935306422242
 30
0.0
 11
395.5546504344125
 21
201.2074214500112
 31
0.0
  0
LINE
  5
9A
330
2
100
AcDbEntity
  8
0
100
AcDbLine
 10
395.6916118296949
 20
201.246958822946
 30
0.0
 11
394.7679225203738
 21
203.2524908157111
 31
0.0
  0
SPLINE
  5
9B
330
2
100
AcDbEntity
  8
0
100
AcDbSpline
210
0.0
220
0.0
230
1.0
 70
     8
 71
     3
 72
    10
 73
     6
 74
     0
 42
0.000000001
 43
0.0000000001
 40
0.0
 40
0.0
 40
0.0
 40
0.0
 40
0.2663699363972297
 40
0.774811240930633
 40
1.0
 40
1.0
 40
1.0
 40
1.0
 10
394.7679225203641
 20
203.2524908157259
 30
0.0
 10
394.7563133153981
 20
203.2768067469224
 30
0.0
 10
394.7225447053679
 20
203.3475364136389
 30
0.0
 10
394.6741471979249
 20
203.4313336163464
 30
0.0
 10
394.6364713689068
 20
203.4856850714423
 30
0.0
 10
394.6249067212666
 20
203.5023683254879
 30
0.0
  0
SPLINE
  5
9C
330
2
100
AcDbEntity
  8
0
100
AcDbSpline
210
0.0
220
0.0
230
1.0
 70
     8
 71
     3
 72
    10
 73
     6
 74
     0
 42
0.000000001
 43
0.0000000001
 40
0.0
 40
0.0
 40
0.0
 40
0.0
 40
0.2663357011751287
 40
0.7723594424794861
 40
1.0
 40
1.0
 40
1.0
 40
1.0
 10
394.510341938842
 20
203.4202762938605
 30
0.0
 10
394.5225286275126
 20
203.4025980503691
 30
0.0
 10
394.5578693799003
 20
203.3513320795405
 30
0.0
 10
394.601588216949
 20
203.2741921440281
 30
0.0
 10
394.6308327664405
 20
203.2126315851926
 30
0.0
 10
394.6399067333232
 20
203.1935306422176
 30
0.0
  0
SPLINE
  5
9D
330
2
100
AcDbEntity
  8
0
100
AcDbSpline
210
0.0
220
0.0
230
1.0
 70
     8
 71
     3
 72
    11
 73
     7
 74
     0
 42
0.000000001
 43
0.0000000001
 40
0.0
 40
0.0
 40
0.0
 40
0.0
 40
0.2420881447544749
 40
0.5681144692265912
 40
0.9069513673633295
 40
1.0
 40
1.0
 40
1.0
 40
1.0
 10
360.3487834538523
 20
186.7527934866894
 30
0.0
 10
360.349219031415
 20
186.7457239279499
 30
0.0
 10
360.3502412124735
 20
186.7291336128191
 30
0.0
 10
360.3592721036293
 20
186.7024505146541
 30
0.0
 10
360.3708536023214
 20
186.6837646342233
 30
0.0
 10
360.3796954610921
 20
186.6755296412506
 30
0.0
 10
360.3816004169425
 20
186.6737554330836
 30
0.0
  0
LINE
  5
9E
330
2
100
AcDbEntity
  8
0
100
AcDbLine
 10
360.3487834538623
 20
186.7874460267637
 30
0.0
 11
360.3487834538623
 21
186.7527934867062
 31
0.0
  0
LINE
  5
9F
330
2
100
AcDbEntity
  8
0
100
AcDbLine
 10
360.3816004169589
 20
186.6737554331196
 30
0.0
 11
362.9683012957785
 21
184.433606760004
 31
0.0
  0
LINE
  5
A0
330
2
100
AcDbEntity
  8
0
100
AcDbLine
 10
363.0165014110985
 20
184.4205654541615
 30
0.0
 11
363.0961987788792
 21
184.4390254634793
 31
0.0
  0
SPLINE
  5
A1
330
2
100
AcDbEntity
  8
0
100
AcDbSpline
210
0.0
220
0.0
230
1.0
 70
     8
 71
     3
 72
    10
 73
     6
 74
     0
 42
0.000000001
 43
0.0000000001
 40
0.0
 40
0.0
 40
0.0
 40
0.0
 40
0.4026334187600301
 40
0.7700005614294067
 40
1.0
 40
1.0
 40
1.0
 40
1.0
 10
362.9683012957744
 20
184.4336067600235
 30
0.0
 10
362.9738467144871
 20
184.4296445489997
 30
0.0
 10
362.9844518339905
 20
184.4220671732266
 30
0.0
 10
363.0021555529884
 20
184.4179637954003
 30
0.0
 10
363.0123578360372
 20
184.4204244297955
 30
0.0
 10
363.0162859422403
 20
184.4213718288417
 30
0.0
  0
SPLINE
  5
A2
330
2
100
AcDbEntity
  8
0
100
AcDbSpline
210
0.0
220
0.0
230
1.0
 70
     8
 71
     3
 72
    10
 73
     6
 74
     0
 42
0.000000001
 43
0.0000000001
 40
0.0
 40
0.0
 40
0.0
 40
0.0
 40
0.4026013207574504
 40
0.7699377504115608
 40
1.0
 40
1.0
 40
1.0
 40
1.0
 10
406.0737341569343
 20
202.7387269142023
 30
0.0
 10
406.0681887556347
 20
202.7426893157829
 30
0.0
 10
406.0575836890802
 20
202.7502670419399
 30
0.0
 10
406.0398783610171
 20
202.754369865283
 30
0.0
 10
406.0296749257209
 20
202.7519091220411
 30
0.0
 10
406.0257455141577
 20
202.7509614732671
 30
0.0
  0
LINE
  5
A3
330
2
100
AcDbEntity
  8
0
100
AcDbLine
 10
406.0255340416119
 20
202.7517682911264
 30
0.0
 11
405.926805894277
 21
202.7288347705282
 31
0.0
  0
LINE
  5
A4
330
2
100
AcDbEntity
  8
0
100
AcDbLine
 10
408.6604350357513
 20
200.4985782411693
 30
0.0
 11
406.0737341569315
 21
202.738726914197
 31
0.0
  0
SPLINE
  5
A5
330
2
100
AcDbEntity
  8
0
100
AcDbSpline
210
0.0
220
0.0
230
1.0
 70
     8
 71
     3
 72
    12
 73
     8
 74
     0
 42
0.000000001
 43
0.0000000001
 40
0.0
 40
0.0
 40
0.0
 40
0.0
 40
0.0263648108401365
 40
0.2735933885900756
 40
0.4926871295295895
 40
0.7172531422629712
 40
1.0
 40
1.0
 40
1.0
 40
1.0
 10
408.6556231075274
 20
197.5957768902644
 30
0.0
 10
408.6562938447371
 20
197.5958853962971
 30
0.0
 10
408.6632542309561
 20
197.5970113870514
 30
0.0
 10
408.6739489453643
 20
197.6052985049873
 30
0.0
 10
408.6850693006748
 20
197.6187639028553
 30
0.0
 10
408.6919935978703
 20
197.6358173874325
 30
0.0
 10
408.6928016418617
 20
197.6485745109323
 30
0.0
 10
408.6932519988563
 20
197.6556845938678
 30
0.0
  0
LINE
  5
A6
330
2
100
AcDbEntity
  8
0
100
AcDbLine
 10
408.5796244382163
 20
197.5689599611219
 30
0.0
 11
408.6561895634995
 21
197.5956099953566
 31
0.0
  0
LINE
  5
A7
330
2
100
AcDbEntity
  8
0
100
AcDbLine
 10
408.693251998848
 20
197.6556845938612
 30
0.0
 11
408.693251998848
 21
200.4195402585817
 31
0.0
  0
SPLINE
  5
A8
330
2
100
AcDbEntity
  8
0
100
AcDbSpline
210
0.0
220
0.0
230
1.0
 70
     8
 71
     3
 72
    11
 73
     7
 74
     0
 42
0.000000001
 43
0.0000000001
 40
0.0
 40
0.0
 40
0.0
 40
0.0
 40
0.2420898305392934
 40
0.5681153729955116
 40
0.9069517246644204
 40
1.0
 40
1.0
 40
1.0
 40
1.0
 10
408.6932519988563
 20
200.4195402585835
 30
0.0
 10
408.6928164273444
 20
200.4266098648818
 30
0.0
 10
408.6917942659788
 20
200.4432002024853
 30
0.0
 10
408.6827633369733
 20
200.4698832973477
 30
0.0
 10
408.6711818680673
 20
200.4885691669608
 30
0.0
 10
408.6623399920121
 20
200.4968040580302
 30
0.0
 10
408.6604350357661
 20
200.498578241142
 30
0.0
  0
LINE
  5
A9
330
2
100
AcDbEntity
  8
0
100
AcDbLine
 10
386.3532863679952
 20
198.5512163687003
 30
0.0
 11
386.3532863679952
 21
200.6096046039554
 31
0.0
  0
LINE
  5
AA
330
2
100
AcDbEntity
  8
0
100
AcDbLine
 10
386.2864402028181
 20
200.6532156777744
 30
0.0
 11
382.2966666344605
 21
199.5014672559489
 31
0.0
  0
LINE
  5
AB
330
2
100
AcDbEntity
  8
0
100
AcDbLine
 10
386.7842651405053
 20
200.3386001521967
 30
0.0
 11
386.3828008396495
 21
200.6862784354416
 31
0.0
  0
LINE
  5
AC
330
2
100
AcDbEntity
  8
0
100
AcDbLine
 10
381.7811759257002
 20
197.8186958018516
 30
0.0
 11
381.7811759257002
 21
197.7805527149783
 31
0.0
  0
LINE
  5
AD
330
2
100
AcDbEntity
  8
0
100
AcDbLine
 10
407.9003693983946
 20
201.4571178028141
 30
0.0
 11
407.9003693983946
 21
201.1568135859252
 31
0.0
  0
ARC
  5
AE
330
2
100
AcDbEntity
  8
0
100
AcDbCircle
 10
407.9176306518934
 20
201.4589107899233
 30
0.0
 40
0.0173541256127473
100
AcDbArc
 50
140.5016298711036
 51
185.930246583794
  0
LINE
  5
AF
330
2
100
AcDbEntity
  8
0
100
AcDbLine
 10
407.9708396291721
 20
201.5276265107107
 30
0.0
 11
407.9042394679502
 21
201.4699489903642
 31
0.0
  0
LINE
  5
B0
330
2
100
AcDbEntity
  8
0
100
AcDbLine
 10
407.9708396291721
 20
201.6257144102904
 30
0.0
 11
407.9708396291721
 21
201.5276265107107
 31
0.0
  0
ARC
  5
B1
330
2
100
AcDbEntity
  8
0
100
AcDbCircle
 10
407.954140783559
 20
201.6258561176319
 30
0.0
 40
0.016699446856878
100
AcDbArc
 50
359.5137966405933
 51
42.58962241620581
  0
LINE
  5
B2
330
2
100
AcDbEntity
  8
0
100
AcDbLine
 10
407.9136331688328
 20
201.6828852844656
 30
0.0
 11
407.9664352448792
 21
201.6371573452668
 31
0.0
  0
ARC
  5
B3
330
2
100
AcDbEntity
  8
0
100
AcDbCircle
 10
407.9118689884722
 20
201.6815712542621
 30
0.0
 40
0.0021997744761678
100
AcDbArc
 50
36.68017571710244
 51
157.7452031084951
  0
LINE
  5
B4
330
2
100
AcDbEntity
  8
0
100
AcDbLine
 10
407.8633212799626
 20
201.5851997160328
 30
0.0
 11
407.9098330778392
 21
201.6824043662843
 31
0.0
  0
LWPOLYLINE
  5
B5
330
2
100
AcDbEntity
  8
0
100
AcDbPolyline
 90
        9
 70
   128
 43
0.0
 10
407.8405208981088
 20
201.6280858755893
 10
407.838832306008
 20
201.621111140666
 10
407.8391363806359
 20
201.6119337130376
 10
407.8413868521834
 20
201.6019507705132
 10
407.8452410063814
 20
201.5926821894161
 10
407.8501121879343
 20
201.5855389484539
 10
407.8552587307398
 20
201.5816085841839
 10
407.8598971700492
 20
201.5814894558689
 10
407.8633212799626
 20
201.5851997160328
  0
LINE
  5
B6
330
2
100
AcDbEntity
  8
0
100
AcDbLine
 10
407.8921368659878
 20
201.7359577368745
 30
0.0
 11
407.8405208981088
 21
201.6280858755893
 31
0.0
  0
LWPOLYLINE
  5
B7
330
2
100
AcDbEntity
  8
0
100
AcDbPolyline
 90
        9
 70
   128
 43
0.0
 10
407.8921368659878
 20
201.7359577368745
 10
407.8930998303148
 20
201.7375876030178
 10
407.8942390946048
 20
201.7388276023544
 10
407.8955356261598
 20
201.7396565805909
 10
407.8969673566867
 20
201.7400606612505
 10
407.8985100848452
 20
201.7400330239561
 10
407.9001378045521
 20
201.7395740770835
 10
407.9018229510093
 20
201.7386916180794
 10
407.9035370569584
 20
201.7374005580123
  0
LINE
  5
B8
330
2
100
AcDbEntity
  8
0
100
AcDbLine
 10
407.9664352448792
 20
201.682929129481
 30
0.0
 11
407.9035370569584
 21
201.7374005580123
 31
0.0
  0
LWPOLYLINE
  5
B9
330
2
100
AcDbEntity
  8
0
100
AcDbPolyline
 90
        9
 70
   128
 43
0.0
 10
407.9664352448792
 20
201.682929129481
 10
407.9672945129114
 20
201.6823315607194
 10
407.968120719464
 20
201.6820501606931
 10
407.9688821979297
 20
201.6820956619361
 10
407.9695496606896
 20
201.6824663371338
 10
407.9700974296984
 20
201.6831479724335
 10
407.9705044211316
 20
201.6841143958816
 10
407.970755047761
 20
201.6853284274525
 10
407.9708396291721
 20
201.6867434470125
  0
LINE
  5
BA
330
2
100
AcDbEntity
  8
0
100
AcDbLine
 10
407.9708396291721
 20
201.9003450977814
 30
0.0
 11
407.9708396291721
 21
201.6867434470125
 31
0.0
  0
LWPOLYLINE
  5
BB
330
2
100
AcDbEntity
  8
0
100
AcDbPolyline
 90
        9
 70
   128
 43
0.0
 10
407.9972660170251
 20
201.8774591746235
 10
407.9962602287968
 20
201.887088266815
 10
407.9933959473812
 20
201.8969935192158
 10
407.9891092879006
 20
201.9056669205811
 10
407.9840528640596
 20
201.9117879883615
 10
407.9789963582088
 20
201.9144249746209
 10
407.974709698728
 20
201.9131762853312
 10
407.9718454174003
 20
201.9082321136689
 10
407.9708396291721
 20
201.9003450977814
  0
LINE
  5
BC
330
2
100
AcDbEntity
  8
0
100
AcDbLine
 10
407.9972660170251
 20
201.473141760744
 30
0.0
 11
407.9972660170251
 21
201.8774591746235
 31
0.0
  0
ARC
  5
BD
330
2
100
AcDbEntity
  8
0
100
AcDbCircle
 10
408.0139654700031
 20
201.4730002959964
 30
0.0
 40
0.0167000521728983
100
AcDbArc
 50
179.5146464769046
 51
222.5888023937924
  0
LINE
  5
BE
330
2
100
AcDbEntity
  8
0
100
AcDbLine
 10
408.0214657242691
 20
201.4445555821331
 30
0.0
 11
408.0016704013173
 21
201.4616988346645
 31
0.0
  0
ARC
  5
BF
330
2
100
AcDbEntity
  8
0
100
AcDbCircle
 10
407.9899445102432
 20
201.4139208928932
 30
0.0
 40
0.0439553309329841
100
AcDbArc
 50
12.19069614990315
 51
44.18285014049241
  0
LINE
  5
C0
330
2
100
AcDbEntity
  8
0
100
AcDbLine
 10
408.0468944456801
 20
201.3691332529333
 30
0.0
 11
408.0329086571313
 21
201.4232027677658
 31
0.0
  0
LWPOLYLINE
  5
C1
330
2
100
AcDbEntity
  8
0
100
AcDbPolyline
 90
        9
 70
   128
 43
0.0
 10
408.0468944456801
 20
201.3691332529333
 10
408.0477744693198
 20
201.3646913491248
 10
408.0480746470303
 20
201.3604825155992
 10
408.0477744693198
 20
201.3567936051077
 10
408.0468944456801
 20
201.353875982632
 10
408.0454946280546
 20
201.3519283669289
 10
408.0436702627375
 20
201.3510836517128
 10
408.0415457197982
 20
201.3513993497948
 10
408.0392658784451
 20
201.3528538982421
  0
LINE
  5
C2
330
2
100
AcDbEntity
  8
0
100
AcDbLine
 10
407.9682596101088
 20
201.4143471304624
 30
0.0
 11
408.0392658784451
 21
201.3528538982421
 31
0.0
  0
ARC
  5
C3
330
2
100
AcDbEntity
  8
0
100
AcDbCircle
 10
407.9664543475196
 20
201.4129085792063
 30
0.0
 40
0.0023083333355256
100
AcDbArc
 50
38.55012605220951
 51
124.5487069078858
  0
LINE
  5
C4
330
2
100
AcDbEntity
  8
0
100
AcDbLine
 10
407.9457032918997
 20
201.3979726791388
 30
0.0
 11
407.9651452763967
 21
201.4148098250321
 31
0.0
  0
ARC
  5
C5
330
2
100
AcDbEntity
  8
0
100
AcDbCircle
 10
407.9501674093465
 20
201.3942932284881
 30
0.0
 40
0.0057850412545241
100
AcDbArc
 50
140.5036975908967
 51
185.929872816799
  0
LINE
  5
C6
330
2
100
AcDbEntity
  8
0
100
AcDbLine
 10
407.9444133234172
 20
201.1186704279651
 30
0.0
 11
407.9444133234172
 21
201.3936955692602
 31
0.0
  0
LINE
  5
C7
330
2
100
AcDbEntity
  8
0
100
AcDbLine
 10
407.5968542179928
 20
201.4196662217466
 30
0.0
 11
407.9708396291721
 21
201.5276265107107
 31
0.0
  0
LINE
  5
D3
330
2
100
AcDbEntity
  8
0
100
AcDbLine
 10
406.2668036199618
 20
202.6162986577022
 30
0.0
 11
406.2515461009883
 21
202.6118941913119
 31
0.0
  0
ARC
  5
D4
330
2
100
AcDbEntity
  8
0
100
AcDbCircle
 10
406.2593192285543
 20
202.5766193730617
 30
0.0
 40
0.0361211062613334
100
AcDbArc
 50
102.4270425628887
 51
137.4454643363024
  0
ARC
  5
D5
330
2
100
AcDbEntity
  8
0
100
AcDbCircle
 10
406.2956161900364
 20
202.6347887263771
 30
0.0
 40
0.0830740821135994
100
AcDbArc
 50
265.7142138312918
 51
285.3534531254927
  0
LINE
  5
D6
330
2
100
AcDbEntity
  8
0
100
AcDbLine
 10
406.3557546081778
 20
202.5656903276315
 30
0.0
 11
406.3176119475612
 21
202.5546794899149
 31
0.0
  0
ARC
  5
D7
330
2
100
AcDbEntity
  8
0
100
AcDbCircle
 10
406.3772868119248
 20
202.497826915496
 30
0.0
 40
0.0711974613991368
100
AcDbArc
 50
57.13640465639898
 51
107.6035756508051
  0
LINE
  5
D8
330
2
100
AcDbEntity
  8
0
100
AcDbLine
 10
406.4687742394207
 20
202.5118584317616
 30
0.0
 11
406.4159214638033
 21
202.5576302781658
 31
0.0
  0
LINE
  5
D9
330
2
100
AcDbEntity
  8
0
100
AcDbLine
 10
405.9144523018789
 20
202.9214438502086
 30
0.0
 11
406.2668036199618
 21
202.6162986577022
 31
0.0
  0
ARC
  5
DA
330
2
100
AcDbEntity
  8
0
100
AcDbCircle
 10
406.24111440353
 20
202.6992366646425
 30
0.0
 40
0.0868253928549227
100
AcDbArc
 50
287.2098431970873
 51
357.1671898673994
  0
ARC
  5
DB
330
2
100
AcDbEntity
  8
0
100
AcDbCircle
 10
405.9048210065228
 20
202.9906858475415
 30
0.0
 40
0.0325561002307708
100
AcDbArc
 50
287.2077275490042
 51
357.1714781924037
  0
LINE
  5
DC
330
2
100
AcDbEntity
  8
0
100
AcDbLine
 10
405.9144523018789
 20
202.9595870081687
 30
0.0
 11
405.9094164794045
 21
202.9581332914467
 31
0.0
  0
LINE
  5
DD
330
2
100
AcDbEntity
  8
0
100
AcDbLine
 10
405.9373374435222
 20
202.9890793027409
 30
0.0
 11
405.9373374435222
 21
203.4391684741438
 31
0.0
  0
LWPOLYLINE
  5
DE
330
2
100
AcDbEntity
  8
0
100
AcDbPolyline
 90
       17
 70
   128
 43
0.0
 10
406.2771831533023
 20
202.960040519934
 10
406.2719865262192
 20
202.919290997072
 10
406.2571879032033
 20
202.8937459563788
 10
406.2350401351427
 20
202.8872944128131
 10
406.2089150735777
 20
202.9009186286323
 10
406.1827900120124
 20
202.9325443467192
 10
406.160642243952
 20
202.9773569499789
 10
406.1458436210241
 20
203.0285339574107
 10
406.1406469939416
 20
203.078284302449
 10
406.1458436210241
 20
203.1190338253107
 10
406.160642243952
 20
203.1445788660039
 10
406.1827900120124
 20
203.1510303740706
 10
406.2089150735777
 20
203.1374061937504
 10
406.2350401351427
 20
203.1057804400764
 10
406.2571879032033
 20
203.060967872404
 10
406.2719865262192
 20
203.0097908649725
 10
406.2771831533023
 20
202.960040519934
  0
LINE
  5
DF
330
2
100
AcDbEntity
  8
0
100
AcDbLine
 10
406.0195262206102
 20
203.4883231793681
 30
0.0
 11
406.3850907736681
 21
203.1717349896951
 31
0.0
  0
ARC
  5
E0
330
2
100
AcDbEntity
  8
0
100
AcDbCircle
 10
406.2621418908461
 20
203.0587209485941
 30
0.0
 40
0.1669988062090195
100
AcDbArc
 50
359.5143781081937
 51
42.58907672529459
  0
LINE
  5
E1
330
2
100
AcDbEntity
  8
0
100
AcDbLine
 10
406.4291346986906
 20
203.0573055336083
 30
0.0
 11
406.4291346986906
 21
202.8052736322645
 31
0.0
  0
ARC
  5
E2
330
2
100
AcDbEntity
  8
0
100
AcDbCircle
 10
406.3778940418077
 20
202.798094628786
 30
0.0
 40
0.0517411152229088
100
AcDbArc
 50
313.3344161690046
 51
7.975435252793317
  0
LINE
  5
E3
330
2
100
AcDbEntity
  8
0
100
AcDbLine
 10
406.4134016607921
 20
202.7604601764906
 30
0.0
 11
406.3278336957682
 21
202.7102028389195
 31
0.0
  0
LINE
  5
E4
330
2
100
AcDbEntity
  8
0
100
AcDbLine
 10
406.3278336957682
 20
202.7102028389195
 30
0.0
 11
406.3278336957682
 21
202.6949456041175
 31
0.0
  0
LWPOLYLINE
  5
E5
330
2
100
AcDbEntity
  8
0
100
AcDbPolyline
 90
        7
 70
   128
 43
0.0
 10
405.9373374435222
 20
203.4391684741438
 10
405.9381837495164
 20
203.4533182613655
 10
405.9406900161582
 20
203.4654585685335
 10
405.9447600948709
 20
203.4751226692092
 10
405.9502376207602
 20
203.4819391464957
 10
405.9569117555914
 20
203.4856463693911
 10
405.9569501494673
 20
203.4856574171913
  0
LWPOLYLINE
  5
E6
330
2
100
AcDbEntity
  8
0
100
AcDbPolyline
 90
        9
 70
   128
 43
0.0
 10
406.4687742394207
 20
202.5118584317616
 10
406.4756482193891
 20
202.507078094929
 10
406.4822581183693
 20
202.5048266105475
 10
406.4883497820777
 20
202.5051907982527
 10
406.493689237684
 20
202.5081564486829
 10
406.498071143546
 20
202.5136096731644
 10
406.5013272393021
 20
202.5213409536345
 10
406.5033323346961
 20
202.5310530999704
 10
406.5040093138486
 20
202.5423730433636
  0
LINE
  5
E7
330
2
100
AcDbEntity
  8
0
100
AcDbLine
 10
406.5040093138486
 20
203.0321017325054
 30
0.0
 11
406.5040093138486
 21
202.5423730433636
 31
0.0
  0
ARC
  5
E8
330
2
100
AcDbEntity
  8
0
100
AcDbCircle
 10
406.1478788537333
 20
203.3851812233961
 30
0.0
 40
0.0711975313661729
100
AcDbArc
 50
57.13639929890027
 51
107.6016708048127
  0
LINE
  5
E9
330
2
100
AcDbEntity
  8
0
100
AcDbLine
 10
406.0767818416252
 20
203.4387366451115
 30
0.0
 11
406.1263488849506
 21
203.4530454181036
 31
0.0
  0
LINE
  5
EA
330
2
100
AcDbEntity
  8
0
100
AcDbLine
 10
406.1865135491275
 20
203.4449846412965
 30
0.0
 11
406.2569837799046
 21
203.3839556311773
 31
0.0
  0
ARC
  5
EB
330
2
100
AcDbEntity
  8
0
100
AcDbCircle
 10
406.2549678567543
 20
203.5632399038588
 30
0.0
 40
0.1424009617170174
100
AcDbArc
 50
57.13753380401138
 51
107.6014914178905
  0
ARC
  5
EC
330
2
100
AcDbEntity
  8
0
100
AcDbCircle
 10
406.5279572650015
 20
203.0329369224319
 30
0.0
 40
0.0239625105002827
100
AcDbArc
 50
157.7465720280024
 51
181.9973930386046
  0
LINE
  5
ED
330
2
100
AcDbEntity
  8
0
100
AcDbLine
 10
406.5697589851678
 20
203.1785420732947
 30
0.0
 11
406.5057795338638
 21
203.0420116207931
 31
0.0
  0
ARC
  5
EE
330
2
100
AcDbEntity
  8
0
100
AcDbCircle
 10
405.9418669765809
 20
203.9325234106457
 30
0.0
 40
0.2993070080105926
100
AcDbArc
 50
263.775661444497
 51
285.3684715205099
  0
LINE
  5
EF
330
2
100
AcDbEntity
  8
0
100
AcDbLine
 10
406.021190983718
 20
203.6439192060343
 30
0.0
 11
406.2119065603464
 21
203.6989740507834
 31
0.0
  0
LINE
  5
F0
330
2
100
AcDbEntity
  8
0
100
AcDbLine
 10
406.3322380800603
 20
203.6828532245104
 30
0.0
 11
406.5392444701982
 21
203.5035804318759
 31
0.0
  0
ARC
  5
F1
330
2
100
AcDbEntity
  8
0
100
AcDbCircle
 10
406.510617967619
 20
203.2027414691484
 30
0.0
 40
0.0639004750189293
100
AcDbArc
 50
337.7465420820987
 51
1.997160954996708
  0
ARC
  5
F2
330
2
100
AcDbEntity
  8
0
100
AcDbCircle
 10
406.2157613723843
 20
203.3372406731539
 30
0.0
 40
0.0545112245642141
100
AcDbArc
 50
303.9418382367126
 51
356.9808134131033
  0
LINE
  5
F3
330
2
100
AcDbEntity
  8
0
100
AcDbLine
 10
406.27019693287
 20
203.349626817439
 30
0.0
 11
406.27019693287
 21
203.3343695471374
 31
0.0
  0
LINE
  5
F4
330
2
100
AcDbEntity
  8
0
100
AcDbLine
 10
406.5744796266358
 20
203.412036845742
 30
0.0
 11
406.5744796266358
 21
203.2049683991338
 31
0.0
  0
ARC
  5
F5
330
2
100
AcDbEntity
  8
0
100
AcDbCircle
 10
406.2200994190493
 20
203.3500515720493
 30
0.0
 40
0.0500993144181334
100
AcDbArc
 50
359.5142261389974
 51
42.58918297949035
  0
ARC
  5
F6
330
2
100
AcDbEntity
  8
0
100
AcDbCircle
 10
406.4408851505913
 20
203.4131690926908
 30
0.0
 40
0.133599273997939
100
AcDbArc
 50
359.5144154010961
 51
42.58904837669351
  0
LINE
  5
F7
330
2
100
AcDbEntity
  8
0
100
AcDbLine
 10
408.6932524482722
 20
199.3244962728929
 30
0.0
 11
408.7242412259465
 21
198.9932566675743
 31
0.0
  0
LINE
  5
F8
330
2
100
AcDbEntity
  8
0
100
AcDbLine
 10
408.3098099934812
 20
201.4682324697505
 30
0.0
 11
408.3098099934812
 21
200.9785037806969
 31
0.0
  0
LWPOLYLINE
  5
F9
330
2
100
AcDbEntity
  8
0
100
AcDbPolyline
 90
        9
 70
   128
 43
0.0
 10
408.767950681281
 20
198.9620267532377
 10
408.7664533202953
 20
198.9494988660237
 10
408.7621650200031
 20
198.9412680529153
 10
408.7556687439368
 20
198.9384535908964
 10
408.7478480433023
 20
198.9414381397791
 10
408.7397662970977
 20
198.9498157362907
 10
408.7325224889846
 20
198.9624473523927
 10
408.727101897699
 20
198.9776150676675
 10
408.7242412259465
 20
198.9932566675743
  0
ARC
  5
FA
330
2
100
AcDbEntity
  8
0
100
AcDbCircle
 10
408.4434038171471
 20
200.9773712294925
 30
0.0
 40
0.1335986242184391
100
AcDbArc
 50
179.5142825896041
 51
222.58910665289
  0
LINE
  5
FB
330
2
100
AcDbEntity
  8
0
100
AcDbLine
 10
408.345045067821
 20
200.8869602299742
 30
0.0
 11
408.3978978435266
 21
200.8411883836582
 31
0.0
  0
LWPOLYLINE
  5
FC
330
2
100
AcDbEntity
  8
0
100
AcDbPolyline
 90
        9
 70
   128
 43
0.0
 10
408.3817748308256
 20
200.8111053461625
 10
408.3887928728993
 20
200.8136198953512
 10
408.3946967458508
 20
200.8167711904548
 10
408.3992548006058
 20
200.8204369432708
 10
408.4022976531533
 20
200.8244776954284
 10
408.4037030433909
 20
200.8287368049983
 10
408.4034219455061
 20
200.8330519623032
 10
408.4014597580494
 20
200.8372557283999
 10
408.3978978435266
 20
200.8411883836582
  0
LINE
  5
FD
330
2
100
AcDbEntity
  8
0
100
AcDbLine
 10
408.3817748308256
 20
200.8111053461625
 30
0.0
 11
408.3436321702093
 21
200.8000945085341
 31
0.0
  0
ARC
  5
FE
330
2
100
AcDbEntity
  8
0
100
AcDbCircle
 10
408.3514061937155
 20
200.7648181343888
 30
0.0
 40
0.0361228183933731
100
AcDbArc
 50
102.4278992908955
 51
137.4446076085017
  0
LINE
  5
FF
330
2
100
AcDbEntity
  8
0
100
AcDbLine
 10
408.7773068538385
 20
200.4421390808448
 30
0.0
 11
408.762049334865
 21
200.4377346145425
 31
0.0
  0
LWPOLYLINE
  5
100
330
2
100
AcDbEntity
  8
0
100
AcDbPolyline
 90
        9
 70
   128
 43
0.0
 10
408.7459286778088
 20
200.4076521623906
 10
408.7423644076407
 20
200.4115842323051
 10
408.7404044936433
 20
200.4157886547444
 10
408.7401212043091
 20
200.420103084708
 10
408.7415288681823
 20
200.4243628505321
 10
408.7445693650845
 20
200.4284030174342
 10
408.7491297753963
 20
200.432069355506
 10
408.7550312928788
 20
200.4352200653539
 10
408.762049334865
 20
200.4377346145425
  0
LINE
  5
101
330
2
100
AcDbEntity
  8
0
100
AcDbLine
 10
408.7547374463937
 20
200.4000235449455
 30
0.0
 11
408.7459286778088
 21
200.4076521623906
 31
0.0
  0
LINE
  5
102
330
2
100
AcDbEntity
  8
0
100
AcDbLine
 10
408.767950681281
 20
198.9620267532377
 30
0.0
 11
408.767950681281
 21
200.3656946957078
 31
0.0
  0
LINE
  5
103
330
2
100
AcDbEntity
  8
0
100
AcDbLine
 10
408.7942930866313
 20
201.0853045838389
 30
0.0
 11
408.4287285335736
 21
201.4018927735122
 31
0.0
  0
ARC
  5
104
330
2
100
AcDbEntity
  8
0
100
AcDbCircle
 10
408.6713447639597
 20
200.9722908789695
 30
0.0
 40
0.1669981662403869
100
AcDbArc
 50
359.5142852642045
 51
42.58912186668871
  0
LINE
  5
105
330
2
100
AcDbEntity
  8
0
100
AcDbLine
 10
408.8383369296447
 20
200.970875198839
 30
0.0
 11
408.8383369296447
 21
200.5207860273483
 31
0.0
  0
LINE
  5
106
330
2
100
AcDbEntity
  8
0
100
AcDbLine
 10
408.3622727123747
 20
201.0286423610669
 30
0.0
 11
408.4478406773986
 21
200.830176960686
 31
0.0
  0
LINE
  5
107
330
2
100
AcDbEntity
  8
0
100
AcDbLine
 10
408.2440603221621
 20
201.7285545818304
 30
0.0
 11
408.3080397733779
 21
201.4812084691216
 31
0.0
  0
ARC
  5
108
330
2
100
AcDbEntity
  8
0
100
AcDbCircle
 10
408.5354921538713
 20
201.1042091179365
 30
0.0
 40
0.1889849456086382
100
AcDbArc
 50
181.062051449905
 51
203.569174150006
  0
LINE
  5
109
330
2
100
AcDbEntity
  8
0
100
AcDbLine
 10
408.3495334346157
 20
200.7890836708177
 30
0.0
 11
408.3387209653309
 21
200.7984475439255
 31
0.0
  0
LINE
  5
10A
330
2
100
AcDbEntity
  8
0
100
AcDbLine
 10
408.3465396744759
 20
201.3527381392866
 30
0.0
 11
408.3465396744759
 21
201.1007062379428
 31
0.0
  0
ARC
  5
10B
330
2
100
AcDbEntity
  8
0
100
AcDbCircle
 10
408.4153242403989
 20
200.8165262707723
 30
0.0
 40
0.0325561002307732
100
AcDbArc
 50
287.2077275491134
 51
357.1714781922993
  0
ARC
  5
10C
330
2
100
AcDbEntity
  8
0
100
AcDbCircle
 10
408.7516176374061
 20
200.5250770878736
 30
0.0
 40
0.0868253928550655
100
AcDbArc
 50
287.2098431971965
 51
357.1671898672952
  0
ARC
  5
10D
330
2
100
AcDbEntity
  8
0
100
AcDbCircle
 10
408.3881679718913
 20
200.8488867259725
 30
0.0
 40
0.0711971409384821
100
AcDbArc
 50
237.1363477797974
 51
287.6018346913038
  0
LINE
  5
10E
330
2
100
AcDbEntity
  8
0
100
AcDbLine
 10
408.4249555356676
 20
200.7854274313995
 30
0.0
 11
408.4096980167818
 21
200.7810229650092
 31
0.0
  0
LINE
  5
10F
330
2
100
AcDbEntity
  8
0
100
AcDbLine
 10
408.4478406773986
 20
200.830176960686
 30
0.0
 11
408.4478406773986
 21
200.8149197258839
 31
0.0
  0
ARC
  5
110
330
2
100
AcDbEntity
  8
0
100
AcDbCircle
 10
408.2571407990792
 20
201.4676559480797
 30
0.0
 40
0.052672349586424
100
AcDbArc
 50
0.6271396482001116
 51
14.90982995499286
  0
ARC
  5
111
330
2
100
AcDbEntity
  8
0
100
AcDbCircle
 10
408.3797930355449
 20
201.7646951462673
 30
0.0
 40
0.1404617737910862
100
AcDbArc
 50
180.627316136899
 51
194.9098082900015
  0
LINE
  5
112
330
2
100
AcDbEntity
  8
0
100
AcDbLine
 10
408.2393396806058
 20
201.9702257452236
 30
0.0
 11
408.2393396806058
 21
201.7631572987034
 31
0.0
  0
LWPOLYLINE
  5
113
330
2
100
AcDbEntity
  8
0
100
AcDbPolyline
 90
        7
 70
   128
 43
0.0
 10
408.3465396744759
 20
201.3527381392866
 10
408.3473859803826
 20
201.3668879265083
 10
408.3498923291221
 20
201.3790281626773
 10
408.3539624078343
 20
201.3886922633531
 10
408.3594398516257
 20
201.3955088117266
 10
408.3661141506532
 20
201.3992158924482
 10
408.3661524624313
 20
201.3992270113351
  0
LWPOLYLINE
  5
114
330
2
100
AcDbEntity
  8
0
100
AcDbPolyline
 90
        9
 70
   128
 43
0.0
 10
408.2393396806058
 20
201.9702257452236
 10
408.2400167417686
 20
201.981545564325
 10
408.2420218371622
 20
201.9912577283665
 10
408.2452778509086
 20
201.998989044424
 10
408.2496598387804
 20
202.0044422689054
 10
408.2549992122888
 20
202.0074079904227
 10
408.2610909580953
 20
202.0077720715412
 10
408.2677007750652
 20
202.0055206937461
 10
408.2745748370435
 20
202.0007402502392
  0
ARC
  5
115
330
2
100
AcDbEntity
  8
0
100
AcDbCircle
 10
407.9823106270833
 20
201.9048867931276
 30
0.0
 40
0.0231100547729711
100
AcDbArc
 50
114.3851821557128
 51
168.8407192757047
  0
LWPOLYLINE
  5
116
330
2
100
AcDbEntity
  8
0
100
AcDbPolyline
 90
        6
 70
   128
 43
0.0
 10
408.4493375575125
 20
201.7231588100851
 10
408.4633736414843
 20
201.7281879084628
 10
408.4751790319187
 20
201.7344899134141
 10
408.4842975789945
 20
201.7418219332149
 10
408.4903809285329
 20
201.7499028522745
 10
408.4931940646537
 20
201.7584216565815
  0
LINE
  5
117
330
2
100
AcDbEntity
  8
0
100
AcDbLine
 10
408.2596220267858
 20
201.6683926536998
 30
0.0
 11
408.4493375575125
 21
201.7231588100851
 31
0.0
  0
LINE
  5
118
330
2
100
AcDbEntity
  8
0
100
AcDbLine
 10
408.4815812271813
 20
201.8214674576047
 30
0.0
 11
408.2745748370435
 21
202.0007402502392
 31
0.0
  0
ARC
  5
119
330
2
100
AcDbEntity
  8
0
100
AcDbCircle
 10
408.4641127098766
 20
201.7979345730741
 30
0.0
 40
0.0293077763313231
100
AcDbArc
 50
2.954328796101946
 51
53.4134113441107
  0
ARC
  5
11A
330
2
100
AcDbEntity
  8
0
100
AcDbCircle
 10
408.7178530532983
 20
200.3661193533335
 30
0.0
 40
0.0500994277835607
100
AcDbArc
 50
359.5143381913047
 51
42.58926968780023
  0
LINE
  5
11B
330
2
100
AcDbEntity
  8
0
100
AcDbLine
 10
407.4129435861914
 20
201.7515424741455
 30
0.0
 11
407.4125397941957
 21
201.7518921682304
 31
0.0
  0
LINE
  5
11C
330
2
100
AcDbEntity
  8
0
100
AcDbLine
 10
359.5210177263524
 20
187.2809100016477
 30
0.0
 11
405.2928015808843
 21
200.4940858665545
 31
0.0
  0
ARC
  5
11D
330
2
100
AcDbEntity
  8
0
100
AcDbCircle
 10
405.3762984670873
 20
200.4933782746769
 30
0.0
 40
0.0834998843614199
100
AcDbArc
 50
179.5144602797971
 51
222.5889885909067
  0
ARC
  5
11E
330
2
100
AcDbEntity
  8
0
100
AcDbCircle
 10
359.604514612468
 20
187.280202409858
 30
0.0
 40
0.0834998843612949
100
AcDbArc
 50
179.5144602797971
 51
222.5889885909918
  0
ARC
  5
11F
330
2
100
AcDbEntity
  8
0
100
AcDbCircle
 10
409.0295618487248
 20
197.3666303381037
 30
0.0
 40
0.0334002904193106
100
AcDbArc
 50
359.5142893806031
 51
42.58868246900365
  0
LINE
  5
120
330
2
100
AcDbEntity
  8
0
100
AcDbLine
 10
409.0629609389621
 20
197.3663471989591
 30
0.0
 11
409.0629609389621
 21
197.3053182599267
 31
0.0
  0
ARC
  5
121
330
2
100
AcDbEntity
  8
0
100
AcDbCircle
 10
409.0963604893693
 20
197.3050355783987
 30
0.0
 40
0.0334007465695906
100
AcDbArc
 50
179.5150812606044
 51
222.5883676101047
  0
LINE
  5
122
330
2
100
AcDbEntity
  8
0
100
AcDbLine
 10
409.4549518798725
 20
196.9505869122933
 30
0.0
 11
409.0717697076351
 21
197.2824324077673
 31
0.0
  0
LWPOLYLINE
  5
123
330
2
100
AcDbEntity
  8
0
100
AcDbPolyline
 90
        9
 70
   128
 43
0.0
 10
409.4549518798725
 20
196.9505869122933
 10
409.4566704158477
 20
196.94939189915
 10
409.4583228291294
 20
196.9488290635102
 10
409.4598457860611
 20
196.9489200038943
 10
409.4611805473846
 20
196.9496615941528
 10
409.4622760854011
 20
196.9510247048724
 10
409.4630900682695
 20
196.9529576137825
 10
409.4635913216157
 20
196.9553855793235
 10
409.4637606484575
 20
196.9582155296505
  0
LINE
  5
124
330
2
100
AcDbEntity
  8
0
100
AcDbLine
 10
409.4637606484575
 20
197.0192444686829
 30
0.0
 11
409.4637606484575
 21
196.9582155296505
 31
0.0
  0
LWPOLYLINE
  5
125
330
2
100
AcDbEntity
  8
0
100
AcDbPolyline
 90
        9
 70
   128
 43
0.0
 10
409.4637606484575
 20
197.0192444686829
 10
409.4639298111919
 20
197.0220745611834
 10
409.4644310645381
 20
197.0245028108961
 10
409.4652452115138
 20
197.0264352935492
 10
409.4663405854229
 20
197.0277988305256
 10
409.4676755108539
 20
197.0285402786987
 10
409.4691984678738
 20
197.0286312189946
 10
409.4708508810676
 20
197.0280683834426
 10
409.4725694170423
 20
197.0268733702996
  0
LINE
  5
126
330
2
100
AcDbEntity
  8
0
100
AcDbLine
 10
409.4725694170423
 20
197.0268733702996
 30
0.0
 11
409.5122089577726
 21
196.9925445210617
 31
0.0
  0
ARC
  5
127
330
2
100
AcDbEntity
  8
0
100
AcDbCircle
 10
409.48761818053
 20
196.9699413485809
 30
0.0
 40
0.0334007444479052
100
AcDbArc
 50
359.5145967588035
 51
42.58837509079161
  0
LINE
  5
128
330
2
100
AcDbEntity
  8
0
100
AcDbLine
 10
409.5210177263575
 20
196.9696583847312
 30
0.0
 11
409.5210177263575
 21
196.8323432718641
 31
0.0
  0
LWPOLYLINE
  5
129
330
2
100
AcDbEntity
  8
0
100
AcDbPolyline
 90
        9
 70
   128
 43
0.0
 10
409.5210177263575
 20
196.8323432718641
 10
409.5205945733605
 20
196.8252682538732
 10
409.5193413580294
 20
196.8191982690216
 10
409.5173063186734
 20
196.8143660677451
 10
409.5145675557287
 20
196.8109577935583
 10
409.5112305703228
 20
196.8091043152997
 10
409.5074231779049
 20
196.8088768223861
 10
409.5032920628669
 20
196.8102838402228
 10
409.4989957228856
 20
196.8132716573404
  0
LINE
  5
12A
330
2
100
AcDbEntity
  8
0
100
AcDbLine
 10
409.4989957228856
 20
196.8132716573404
 30
0.0
 11
408.92642477969
 21
197.3091326396481
 31
0.0
  0
ARC
  5
12B
330
2
100
AcDbEntity
  8
0
100
AcDbCircle
 10
408.9878983960701
 20
197.3656391626781
 30
0.0
 40
0.0834984590572842
100
AcDbArc
 50
179.5140495355956
 51
222.5892085245989
  0
LINE
  5
12C
330
2
100
AcDbEntity
  8
0
100
AcDbLine
 10
408.9044029402375
 20
197.3663473410449
 30
0.0
 11
408.9044029402375
 21
201.4171499549332
 31
0.0
  0
ARC
  5
12D
330
2
100
AcDbEntity
  8
0
100
AcDbCircle
 10
408.8209060751746
 20
201.417857484797
 30
0.0
 40
0.083499862704214
100
AcDbArc
 50
359.5145027222975
 51
42.58899385099151
  0
LINE
  5
12E
330
2
100
AcDbEntity
  8
0
100
AcDbLine
 10
408.8823809366767
 20
201.4743647274167
 30
0.0
 11
408.049950868687
 21
202.1952703131753
 31
0.0
  0
ARC
  5
12F
330
2
100
AcDbEntity
  8
0
100
AcDbCircle
 10
408.1114251878321
 20
202.2517772867748
 30
0.0
 40
0.0834992813698725
100
AcDbArc
 50
179.5143391026928
 51
222.5891097680898
  0
LINE
  5
130
330
2
100
AcDbEntity
  8
0
100
AcDbLine
 10
408.0279289061758
 20
202.2524850500715
 30
0.0
 11
408.0279289061758
 21
203.1908065864247
 31
0.0
  0
LWPOLYLINE
  5
131
330
2
100
AcDbEntity
  8
0
100
AcDbPolyline
 90
        9
 70
   128
 43
0.0
 10
408.0279289061758
 20
203.1908065864247
 10
408.0280981509199
 20
203.1936366078387
 10
408.0285994042656
 20
203.1960645733798
 10
408.0294134281829
 20
203.1979974467904
 10
408.0305089251509
 20
203.1993607350949
 10
408.0318437685723
 20
203.2001021121812
 10
408.0333666845431
 20
203.2001932301503
 10
408.0350191797465
 20
203.1996303235994
 10
408.0367376747608
 20
203.1984352037818
  0
LINE
  5
132
330
2
100
AcDbEntity
  8
0
100
AcDbLine
 10
408.0367376747608
 20
203.1984352037818
 30
0.0
 11
408.0939947526608
 21
203.1488491198302
 31
0.0
  0
LWPOLYLINE
  5
133
330
2
100
AcDbEntity
  8
0
100
AcDbPolyline
 90
        9
 70
   128
 43
0.0
 10
408.0939947526608
 20
203.1488491198302
 10
408.0957132886354
 20
203.1476539645132
 10
408.0973657839271
 20
203.1470910578744
 10
408.0988886588492
 20
203.1471822114308
 10
408.1002235022706
 20
203.147923588517
 10
408.1013190401995
 20
203.1492868413222
 10
408.1021330231555
 20
203.1512197502325
 10
408.1026342765015
 20
203.1536478578591
 10
408.1028035212456
 20
203.1564777371873
  0
LINE
  5
134
330
2
100
AcDbEntity
  8
0
100
AcDbLine
 10
408.1028035212456
 20
203.1564777371873
 30
0.0
 11
408.1028035212456
 21
203.2327640531075
 31
0.0
  0
ARC
  5
135
330
2
100
AcDbEntity
  8
0
100
AcDbCircle
 10
408.0193070968871
 20
203.2334718406285
 30
0.0
 40
0.0834994242646734
100
AcDbArc
 50
359.5143233041993
 51
42.58903016139448
  0
LINE
  5
136
330
2
100
AcDbEntity
  8
0
100
AcDbLine
 10
408.0807815997836
 20
203.2899788255031
 30
0.0
 11
407.7328346454685
 21
203.5913097271691
 31
0.0
  0
LWPOLYLINE
  5
137
330
2
100
AcDbEntity
  8
0
100
AcDbPolyline
 90
        9
 70
   128
 43
0.0
 10
407.7328346454685
 20
203.5913097271691
 10
407.7285383669722
 20
203.5942974909935
 10
407.7244072108856
 20
203.5957045444179
 10
407.7205999004773
 20
203.5954769803293
 10
407.7172627715756
 20
203.593623484365
 10
407.7145240495922
 20
203.5902151746786
 10
407.7124890103243
 20
203.5853831154
 10
407.7112358359545
 20
203.5793129529632
 10
407.7108126829568
 20
203.5722380771463
  0
LINE
  5
138
330
2
100
AcDbEntity
  8
0
100
AcDbLine
 10
407.7108126829568
 20
203.5722380771463
 30
0.0
 11
407.7108126829568
 21
203.4806945264236
 31
0.0
  0
LWPOLYLINE
  5
139
330
2
100
AcDbEntity
  8
0
100
AcDbPolyline
 90
        9
 70
   128
 43
0.0
 10
407.7108126829568
 20
203.4806945264236
 10
407.7103895504841
 20
203.4736196328126
 10
407.7091363555901
 20
203.4675494881699
 10
407.7071013162337
 20
203.462717428891
 10
407.7043625943378
 20
203.4593092612904
 10
407.7010254653486
 20
203.4574556232403
 10
407.6972181755531
 20
203.4572280414461
 10
407.6930869989423
 20
203.4586352546619
 10
407.6887907204458
 20
203.4616230185745
  0
LINE
  5
13A
330
2
100
AcDbEntity
  8
0
100
AcDbLine
 10
407.1250285867959
 20
203.9498553479375
 30
0.0
 11
407.6887907204458
 21
203.4616230185745
 31
0.0
  0
ARC
  5
13B
330
2
100
AcDbEntity
  8
0
100
AcDbCircle
 10
407.1865026531289
 20
204.0063622233192
 30
0.0
 40
0.0834990287129629
100
AcDbArc
 50
179.5143189875993
 51
222.5891775857054
  0
LINE
  5
13C
330
2
100
AcDbEntity
  8
0
100
AcDbLine
 10
407.1030066243724
 20
204.0986135644691
 30
0.0
 11
407.1030066243724
 21
204.0070700137467
 31
0.0
  0
ARC
  5
13D
330
2
100
AcDbEntity
  8
0
100
AcDbCircle
 10
407.0195099175162
 20
204.0993212343046
 30
0.0
 40
0.0834997056709207
100
AcDbArc
 50
359.5144057003933
 51
42.58899546789119
  0
LINE
  5
13E
330
2
100
AcDbEntity
  8
0
100
AcDbLine
 10
406.7330377074581
 20
204.4571592740301
 30
0.0
 11
407.0809846618614
 21
204.1558283724523
 31
0.0
  0
LWPOLYLINE
  5
13F
330
2
100
AcDbEntity
  8
0
100
AcDbPolyline
 90
        9
 70
   128
 43
0.0
 10
406.7110157859961
 20
204.4380875885078
 10
406.7114389389935
 20
204.445162464325
 10
406.7126920723143
 20
204.4512326623492
 10
406.7147271116708
 20
204.4560647215399
 10
406.7174658746153
 20
204.4594729957266
 10
406.7208029830799
 20
204.4613265094849
 10
406.7246102524391
 20
204.4615541090727
 10
406.728741449575
 20
204.460147020061
 10
406.7330377074581
 20
204.4571592740301
  0
LINE
  5
140
330
2
100
AcDbEntity
  8
0
100
AcDbLine
 10
406.7110157859961
 20
204.3618012725874
 30
0.0
 11
406.7110157859961
 21
204.4380875885078
 31
0.0
  0
ARC
  5
141
330
2
100
AcDbEntity
  8
0
100
AcDbCircle
 10
406.7444138038517
 20
204.3615180012232
 30
0.0
 40
0.033399219096191
100
AcDbArc
 50
179.5140471357039
 51
222.5894017351046
  0
LINE
  5
142
330
2
100
AcDbEntity
  8
0
100
AcDbLine
 10
406.7770816324808
 20
204.2893293363884
 30
0.0
 11
406.7198245545808
 21
204.3389154204283
 31
0.0
  0
ARC
  5
143
330
2
100
AcDbEntity
  8
0
100
AcDbCircle
 10
406.7524923058694
 20
204.2667267258198
 30
0.0
 40
0.03339929625206
100
AcDbArc
 50
359.5140993738972
 51
42.58934949680582
  0
LINE
  5
144
330
2
100
AcDbEntity
  8
0
100
AcDbLine
 10
406.7858904011541
 20
203.3281219479639
 30
0.0
 11
406.7858904011541
 21
204.2664434843173
 31
0.0
  0
LWPOLYLINE
  5
145
330
2
100
AcDbEntity
  8
0
100
AcDbPolyline
 90
        9
 70
   128
 43
0.0
 10
406.7638684386428
 20
203.30905036894
 10
406.7681647375755
 20
203.3060625696162
 10
406.7722958936617
 20
203.3046554451928
 10
406.7761032040703
 20
203.304883026987
 10
406.7794403125351
 20
203.3067365939505
 10
406.7821790344304
 20
203.3101448682251
 10
406.7842140737866
 20
203.314976927416
 10
406.7854672481566
 20
203.3210470365593
 10
406.7858904011541
 20
203.3281219479639
  0
LINE
  5
146
330
2
100
AcDbEntity
  8
0
100
AcDbLine
 10
405.931438370565
 20
204.0299559546986
 30
0.0
 11
406.7638684386428
 21
203.30905036894
 31
0.0
  0
LWPOLYLINE
  5
147
330
2
100
AcDbEntity
  8
0
100
AcDbPolyline
 90
        9
 70
   128
 43
0.0
 10
405.9094163670923
 20
204.0108844112617
 10
405.9098395200903
 20
204.0179593048726
 10
405.9110927354208
 20
204.0240293786051
 10
405.9131277747768
 20
204.0288614377957
 10
405.9158665377216
 20
204.0322696763949
 10
405.919203687235
 20
204.034123207947
 10
405.9230109155461
 20
204.0343508608278
 10
405.927142194691
 20
204.0329436297304
 10
405.931438370565
 20
204.0299559546986
  0
LINE
  5
148
330
2
100
AcDbEntity
  8
0
100
AcDbLine
 10
405.9094163670923
 20
199.9600817973737
 30
0.0
 11
405.9094163670923
 21
204.0108844112617
 31
0.0
  0
LWPOLYLINE
  5
149
330
2
100
AcDbEntity
  8
0
100
AcDbPolyline
 90
        9
 70
   128
 43
0.0
 10
405.88739452764
 20
199.9410100407644
 10
405.8916907035141
 20
199.9380223657326
 10
405.8958219827473
 20
199.9366152057218
 10
405.8996292110582
 20
199.936842840809
 10
405.9029663604837
 20
199.9386961769824
 10
405.9057051234279
 20
199.9421044511689
 10
405.9077401627842
 20
199.9469366524456
 10
405.9089933782029
 20
199.9530066372971
 10
405.9094163670923
 20
199.9600817973737
  0
LINE
  5
14A
330
2
100
AcDbEntity
  8
0
100
AcDbLine
 10
405.3148235844441
 20
200.4368710230719
 30
0.0
 11
405.88739452764
 21
199.9410100407644
 31
0.0
  0
LINE
  5
14B
330
2
100
AcDbEntity
  8
0
100
AcDbLine
 10
405.2928015808843
 20
200.6314009794216
 30
0.0
 11
405.2928015808843
 21
200.4940858665545
 31
0.0
  0
LWPOLYLINE
  5
14C
330
2
100
AcDbEntity
  8
0
100
AcDbPolyline
 90
        9
 70
   128
 43
0.0
 10
405.3016103494692
 20
200.6390298809502
 10
405.2998918134943
 20
200.6402248940935
 10
405.2982394003006
 20
200.6407877297334
 10
405.2967164432807
 20
200.6406967893495
 10
405.2953816819571
 20
200.6399551990905
 10
405.2942861439401
 20
200.6385918041999
 10
405.2934721610721
 20
200.636659179461
 10
405.2929709077261
 20
200.6342309297486
 10
405.2928015808843
 20
200.6314009794216
  0
LINE
  5
14D
330
2
100
AcDbEntity
  8
0
100
AcDbLine
 10
405.3412498901994
 20
200.6047010317125
 30
0.0
 11
405.3016103494692
 21
200.6390298809502
 31
0.0
  0
ARC
  5
14E
330
2
100
AcDbEntity
  8
0
100
AcDbCircle
 10
405.3166604392953
 20
200.5820983697006
 30
0.0
 40
0.0333994224658716
100
AcDbArc
 50
359.513701749399
 51
42.58927010000127
  0
LINE
  5
14F
330
2
100
AcDbEntity
  8
0
100
AcDbLine
 10
405.3500586587841
 20
200.581814895382
 30
0.0
 11
405.3500586587841
 21
200.5207859563493
 31
0.0
  0
ARC
  5
150
330
2
100
AcDbEntity
  8
0
100
AcDbCircle
 10
405.383458209104
 20
200.5205032748213
 30
0.0
 40
0.0334007465696457
100
AcDbArc
 50
179.5150812607998
 51
222.5883676103006
  0
LINE
  5
151
330
2
100
AcDbEntity
  8
0
100
AcDbLine
 10
405.3588674273691
 20
200.4979001041902
 30
0.0
 11
405.7420495996948
 21
200.1660546087162
 31
0.0
  0
LWPOLYLINE
  5
152
330
2
100
AcDbEntity
  8
0
100
AcDbPolyline
 90
        9
 70
   128
 43
0.0
 10
405.7508583682797
 20
200.1736832260731
 10
405.7506890414378
 20
200.1708532757464
 10
405.7501877880921
 20
200.1684253102051
 10
405.7493738052234
 20
200.1664924012953
 10
405.7482782672066
 20
200.1651292905756
 10
405.7469435058838
 20
200.1643877003169
 10
405.7454205488634
 20
200.164296759933
 10
405.7437681356701
 20
200.164859595573
 10
405.7420495996948
 20
200.1660546087162
  0
LINE
  5
153
330
2
100
AcDbEntity
  8
0
100
AcDbLine
 10
405.7508583682797
 20
200.2347121651057
 30
0.0
 11
405.7508583682797
 21
200.1736832260731
 31
0.0
  0
LWPOLYLINE
  5
154
330
2
100
AcDbEntity
  8
0
100
AcDbPolyline
 90
        9
 70
   128
 43
0.0
 10
405.7596671368647
 20
200.2423410667222
 10
405.7579486008899
 20
200.2435360798656
 10
405.7562961876078
 20
200.2440989154175
 10
405.7547732306761
 20
200.2440079751214
 10
405.7534383052452
 20
200.2432665269482
 10
405.7523429313359
 20
200.2419029899718
 10
405.7515289484681
 20
200.2399703651449
 10
405.7510275310146
 20
200.2375422576063
 10
405.7508583682797
 20
200.2347121651057
  0
LINE
  5
155
330
2
100
AcDbEntity
  8
0
100
AcDbLine
 10
405.7993066775952
 20
200.2080122174848
 30
0.0
 11
405.7596671368647
 21
200.2423410667222
 31
0.0
  0
ARC
  5
156
330
2
100
AcDbEntity
  8
0
100
AcDbCircle
 10
405.7747159003525
 20
200.1854090450036
 30
0.0
 40
0.0334007444483422
100
AcDbArc
 50
359.5145967588035
 51
42.58837509040549
  0
LINE
  5
157
330
2
100
AcDbEntity
  8
0
100
AcDbLine
 10
405.8081154461796
 20
200.1240971420334
 30
0.0
 11
405.8081154461796
 21
200.1851260811541
 31
0.0
  0
ARC
  5
158
330
2
100
AcDbEntity
  8
0
100
AcDbCircle
 10
405.8415149964996
 20
200.1238144605934
 30
0.0
 40
0.0334007465697194
100
AcDbArc
 50
179.5150812606956
 51
222.5883676101047
  0
LINE
  5
159
330
2
100
AcDbEntity
  8
0
100
AcDbLine
 10
405.8169242147646
 20
200.1012112899623
 30
0.0
 11
405.8433505206076
 21
200.0783254378029
 31
0.0
  0
LWPOLYLINE
  5
15A
330
2
100
AcDbEntity
  8
0
100
AcDbPolyline
 90
        9
 70
   128
 43
0.0
 10
405.852159289193
 20
200.0859540551601
 10
405.8519901263703
 20
200.0831239627475
 10
405.8514888731123
 20
200.0806959972065
 10
405.8506747260483
 20
200.078763230382
 10
405.8495793521392
 20
200.0773999774888
 10
405.8482444267083
 20
200.0766585294036
 10
405.8467214697761
 20
200.0765675890197
 10
405.8450690565828
 20
200.0771304246598
 10
405.8433505206076
 20
200.0783254378029
  0
LINE
  5
15B
330
2
100
AcDbEntity
  8
0
100
AcDbLine
 10
405.852159289193
 20
200.0859540551601
 30
0.0
 11
405.852159289193
 21
204.1596426988806
 31
0.0
  0
LWPOLYLINE
  5
15C
330
2
100
AcDbEntity
  8
0
100
AcDbPolyline
 90
        9
 70
   128
 43
0.0
 10
405.8741812926648
 20
204.1787142423173
 10
405.869885116791
 20
204.1817019173493
 10
405.8657538375578
 20
204.1831091483587
 10
405.8619466092468
 20
204.1828814777721
 10
405.8586094598211
 20
204.1810279640138
 10
405.855870696877
 20
204.1776197253264
 10
405.8538356575208
 20
204.1727876661357
 10
405.8525824421021
 20
204.1667175746977
 10
405.852159289193
 20
204.1596426988806
  0
LINE
  5
15D
330
2
100
AcDbEntity
  8
0
100
AcDbLine
 10
405.8741812926648
 20
204.1787142423173
 30
0.0
 11
406.7066113196938
 21
203.4578086920581
 31
0.0
  0
LWPOLYLINE
  5
15E
330
2
100
AcDbEntity
  8
0
100
AcDbPolyline
 90
        9
 70
   128
 43
0.0
 10
406.7286333231658
 20
203.4768801999953
 10
406.7282101702566
 20
203.4698053241782
 10
406.7269569958871
 20
203.4637351972408
 10
406.724921956531
 20
203.4589031379621
 10
406.7221832346353
 20
203.4554948637754
 10
406.7188460851216
 20
203.453641350105
 10
406.7150387748011
 20
203.4534137505172
 10
406.7109076596755
 20
203.454820839441
 10
406.7066113196938
 20
203.4578086920581
  0
LINE
  5
15F
330
2
100
AcDbEntity
  8
0
100
AcDbLine
 10
406.7286333231658
 20
203.4768801999953
 30
0.0
 11
406.7286333231658
 21
204.1939714771195
 31
0.0
  0
ARC
  5
160
330
2
100
AcDbEntity
  8
0
100
AcDbCircle
 10
406.6451368585513
 20
204.194679160961
 30
0.0
 40
0.0834994636611508
100
AcDbArc
 50
359.5143946575963
 51
42.58910191559069
  0
LINE
  5
161
330
2
100
AcDbEntity
  8
0
100
AcDbLine
 10
406.7066113196938
 20
204.2511862495151
 30
0.0
 11
406.6757806295586
 21
204.2778864103968
 31
0.0
  0
ARC
  5
162
330
2
100
AcDbEntity
  8
0
100
AcDbCircle
 10
406.7372552193096
 20
204.3343935475755
 30
0.0
 40
0.0834995912510731
100
AcDbArc
 50
179.5144775177955
 51
222.589066757999
  0
LINE
  5
163
330
2
100
AcDbEntity
  8
0
100
AcDbLine
 10
406.6537586260858
 20
204.3351011117936
 30
0.0
 11
406.6537586260858
 21
204.5868459116261
 31
0.0
  0
LWPOLYLINE
  5
164
330
2
100
AcDbEntity
  8
0
100
AcDbPolyline
 90
        9
 70
   128
 43
0.0
 10
406.6757806295586
 20
204.6059175260614
 10
406.6714843715867
 20
204.6089052721802
 10
406.6673531744513
 20
204.610312361104
 10
406.6635458641306
 20
204.6100847970156
 10
406.6602087146174
 20
204.6082313188449
 10
406.6574700337705
 20
204.6048229735713
 10
406.6554349944142
 20
204.5999909143804
 10
406.6541817789955
 20
204.593920787443
 10
406.6537586260858
 20
204.5868459116261
  0
LINE
  5
165
330
2
100
AcDbEntity
  8
0
100
AcDbLine
 10
406.6757806295586
 20
204.6059175260614
 30
0.0
 11
407.1382417602857
 21
204.2054144386984
 31
0.0
  0
ARC
  5
166
330
2
100
AcDbEntity
  8
0
100
AcDbCircle
 10
407.0767670159407
 20
204.1489073005507
 30
0.0
 40
0.0834997056709651
100
AcDbArc
 50
359.5144057003023
 51
42.58899546780596
  0
LINE
  5
167
330
2
100
AcDbEntity
  8
0
100
AcDbLine
 10
407.1602637227091
 20
204.1481996307151
 30
0.0
 11
407.1602637227091
 21
204.0337702279217
 31
0.0
  0
ARC
  5
168
330
2
100
AcDbEntity
  8
0
100
AcDbCircle
 10
407.1936619655411
 20
204.0334870431479
 30
0.0
 40
0.0333994433305353
100
AcDbArc
 50
179.5141989523983
 51
222.5892499184046
  0
LINE
  5
169
330
2
100
AcDbEntity
  8
0
100
AcDbLine
 10
407.1690724913819
 20
204.0108843757626
 30
0.0
 11
407.2967998616332
 21
203.9002692283982
 31
0.0
  0
LWPOLYLINE
  5
16A
330
2
100
AcDbEntity
  8
0
100
AcDbPolyline
 90
        9
 70
   128
 43
0.0
 10
407.3056086404363
 20
203.9078978368582
 10
407.3054393853857
 20
203.9050678243416
 10
407.3049381115152
 20
203.9026398765941
 10
407.3041240979046
 20
203.9007069942865
 10
407.3030286111547
 20
203.8993436970852
 10
407.3016937575151
 20
203.8986023288958
 10
407.3001708313259
 20
203.8985112197356
 10
407.2985183668651
 20
203.8990740997717
 10
407.2967998616332
 20
203.9002692283982
  0
LINE
  5
16B
330
2
100
AcDbEntity
  8
0
100
AcDbLine
 10
407.3056086404363
 20
204.0452132338971
 30
0.0
 11
407.3056086404363
 21
203.9078978368582
 31
0.0
  0
LWPOLYLINE
  5
16C
330
2
100
AcDbEntity
  8
0
100
AcDbPolyline
 90
        9
 70
   128
 43
0.0
 10
407.3144174295455
 20
204.0528418335484
 10
407.3126989140948
 20
204.0540369709836
 10
407.3110464495462
 20
204.0545997089341
 10
407.3095235233568
 20
204.0545087419475
 10
407.3081886800236
 20
204.0537673648614
 10
407.3070931932742
 20
204.0524040675718
 10
407.3062791693568
 20
204.0504711941612
 10
407.3057779057048
 20
204.0480430954312
 10
407.3056086404363
 20
204.0452132338971
  0
LINE
  5
16D
330
2
100
AcDbEntity
  8
0
100
AcDbLine
 10
407.3452481709478
 20
204.0261416282703
 30
0.0
 11
407.3144174295455
 21
204.0528418335484
 31
0.0
  0
ARC
  5
16E
330
2
100
AcDbEntity
  8
0
100
AcDbCircle
 10
407.3206581933673
 20
204.0035387521166
 30
0.0
 40
0.0333999551993675
100
AcDbArc
 50
359.5145493702943
 51
42.58892931450771
  0
LINE
  5
16F
330
2
100
AcDbEntity
  8
0
100
AcDbLine
 10
407.3540569497509
 20
203.8659403702636
 30
0.0
 11
407.3540569497509
 21
204.0032557673023
 31
0.0
  0
ARC
  5
170
330
2
100
AcDbEntity
  8
0
100
AcDbCircle
 10
407.387455289744
 20
203.8656572262746
 30
0.0
 40
0.0333995401833218
100
AcDbArc
 50
179.5142703269931
 51
222.5892232649097
  0
LINE
  5
171
330
2
100
AcDbEntity
  8
0
100
AcDbLine
 10
407.3628657337512
 20
203.8430545048032
 30
0.0
 11
407.4509535734905
 21
203.7667681977798
 31
0.0
  0
LWPOLYLINE
  5
172
330
2
100
AcDbEntity
  8
0
100
AcDbPolyline
 90
        9
 70
   128
 43
0.0
 10
407.4509535734905
 20
203.7667681977798
 10
407.4526720787225
 20
203.7655730691533
 10
407.4543245483805
 20
203.7650101847128
 10
407.4558474694608
 20
203.7651012982774
 10
407.4571823231002
 20
203.7658426664666
 10
407.4582778097619
 20
203.7672059636679
 10
407.4590918286576
 20
203.769138841571
 10
407.4595930973313
 20
203.7715667937232
 10
407.4597623574907
 20
203.7743968018353
  0
LINE
  5
173
330
2
100
AcDbEntity
  8
0
100
AcDbLine
 10
407.4597623574907
 20
203.7743968018353
 30
0.0
 11
407.4597623574907
 21
203.911712198874
 31
0.0
  0
LWPOLYLINE
  5
174
330
2
100
AcDbEntity
  8
0
100
AcDbPolyline
 90
        9
 70
   128
 43
0.0
 10
407.4597623574907
 20
203.911712198874
 10
407.4599316125413
 20
203.9145420692173
 10
407.4604328813022
 20
203.9169701635426
 10
407.4612469052193
 20
203.9189030369534
 10
407.4623423867723
 20
203.9202663386472
 10
407.4636772404113
 20
203.9210077068367
 10
407.4652001614918
 20
203.9210986783155
 10
407.4668526311496
 20
203.9205359359607
 10
407.4685711363821
 20
203.9193408073343
  0
LINE
  5
175
330
2
100
AcDbEntity
  8
0
100
AcDbLine
 10
407.4685711363821
 20
203.9193408073343
 30
0.0
 11
407.4994018776965
 21
203.8926406021442
 31
0.0
  0
ARC
  5
176
330
2
100
AcDbEntity
  8
0
100
AcDbCircle
 10
407.4748118579212
 20
203.8700376945433
 30
0.0
 40
0.0334000075106713
100
AcDbArc
 50
359.5145886536948
 51
42.58891984500754
  0
LINE
  5
177
330
2
100
AcDbEntity
  8
0
100
AcDbLine
 10
407.508210666806
 20
203.8697547321915
 30
0.0
 11
407.508210666806
 21
203.7324393351525
 31
0.0
  0
ARC
  5
178
330
2
100
AcDbEntity
  8
0
100
AcDbCircle
 10
407.5416089989587
 20
203.7321561871115
 30
0.0
 40
0.0333995324127775
100
AcDbArc
 50
179.514263132204
 51
222.5892155526963
  0
LINE
  5
179
330
2
100
AcDbEntity
  8
0
100
AcDbLine
 10
407.644746815948
 20
203.5989383267324
 30
0.0
 11
407.5170194456966
 21
203.7095534741848
 31
0.0
  0
LWPOLYLINE
  5
17A
330
2
100
AcDbEntity
  8
0
100
AcDbPolyline
 90
        9
 70
   128
 43
0.0
 10
407.644746815948
 20
203.5989383267324
 10
407.646465310874
 20
203.5977432070029
 10
407.6481177856408
 20
203.5971803181578
 10
407.649640701612
 20
203.5972714361269
 10
407.6509755654695
 20
203.5980127954192
 10
407.652071041913
 20
203.5993761016057
 10
407.6528850659183
 20
203.6013089750166
 10
407.6533863397007
 20
203.6037369227638
 10
407.653555584533
 20
203.6065669441775
  0
LINE
  5
17B
330
2
100
AcDbEntity
  8
0
100
AcDbLine
 10
407.653555584533
 20
203.7209963469711
 30
0.0
 11
407.653555584533
 21
203.6065669441775
 31
0.0
  0
LWPOLYLINE
  5
17C
330
2
100
AcDbEntity
  8
0
100
AcDbPolyline
 90
        9
 70
   128
 43
0.0
 10
407.653555584533
 20
203.7209963469711
 10
407.65397873753
 20
203.7280712227882
 10
407.6552319119
 20
203.734141385225
 10
407.6572669716925
 20
203.7389734267101
 10
407.6600056731518
 20
203.7423817541899
 10
407.6633428020526
 20
203.7442352501546
 10
407.667150112461
 20
203.744462814243
 10
407.6712812890723
 20
203.7430557430248
 10
407.6755775470441
 20
203.740067996994
  0
LINE
  5
17D
330
2
100
AcDbEntity
  8
0
100
AcDbLine
 10
408.1380386776832
 20
203.339564909543
 30
0.0
 11
407.6755775470441
 21
203.740067996994
 31
0.0
  0
ARC
  5
17E
330
2
100
AcDbEntity
  8
0
100
AcDbCircle
 10
408.0765637694066
 20
203.2830576479841
 30
0.0
 40
0.0834999099151988
100
AcDbArc
 50
359.5144671999948
 51
42.58898167081136
  0
LINE
  5
17F
330
2
100
AcDbEntity
  8
0
100
AcDbLine
 10
408.1600606812433
 20
203.0306052662283
 30
0.0
 11
408.1600606812433
 21
203.2823500660606
 31
0.0
  0
LWPOLYLINE
  5
180
330
2
100
AcDbEntity
  8
0
100
AcDbPolyline
 90
        9
 70
   128
 43
0.0
 10
408.1600606812433
 20
203.0306052662283
 10
408.1596375282461
 20
203.023530390411
 10
408.1583843128274
 20
203.0174603344726
 10
408.1563492734712
 20
203.0126282752819
 10
408.1536105926241
 20
203.0092200010952
 10
408.150273443111
 20
203.0073664518375
 10
408.1464661327903
 20
203.0071388877491
 10
408.1423349356549
 20
203.0085460477596
 10
408.1380386776832
 20
203.0115337937905
  0
LINE
  5
181
330
2
100
AcDbEntity
  8
0
100
AcDbLine
 10
408.1072079876362
 20
203.0382339546723
 30
0.0
 11
408.1380386776832
 21
203.0115337937905
 31
0.0
  0
LWPOLYLINE
  5
182
330
2
100
AcDbEntity
  8
0
100
AcDbPolyline
 90
        9
 70
   128
 43
0.0
 10
408.1072079876362
 20
203.0382339546723
 10
408.1029116475665
 20
203.0412217717899
 10
408.0987805325285
 20
203.0426288607134
 10
408.0949732221202
 20
203.042401296625
 10
408.0916360726946
 20
203.0405477473673
 10
408.088897350799
 20
203.0371394376814
 10
408.0868623114429
 20
203.0323073784905
 10
408.0856091370733
 20
203.0262372870525
 10
408.0851859840757
 20
203.0191624112356
  0
LINE
  5
183
330
2
100
AcDbEntity
  8
0
100
AcDbLine
 10
408.0851859840757
 20
202.3020711341114
 30
0.0
 11
408.0851859840757
 21
203.0191624112356
 31
0.0
  0
ARC
  5
184
330
2
100
AcDbEntity
  8
0
100
AcDbCircle
 10
408.1686821804637
 20
202.3013633820899
 30
0.0
 40
0.0834991959576019
100
AcDbArc
 50
179.5143463141058
 51
222.5891741104003
  0
LINE
  5
185
330
2
100
AcDbEntity
  8
0
100
AcDbLine
 10
408.9396380145768
 20
201.5239508469558
 30
0.0
 11
408.1072079876362
 21
202.2448563972152
 31
0.0
  0
ARC
  5
186
330
2
100
AcDbEntity
  8
0
100
AcDbCircle
 10
408.8781631530751
 20
201.4674436043363
 30
0.0
 40
0.0834998627045516
100
AcDbArc
 50
359.5145027222975
 51
42.58899385090847
  0
LINE
  5
187
330
2
100
AcDbEntity
  8
0
100
AcDbLine
 10
408.9616600181368
 20
197.3930474308397
 30
0.0
 11
408.9616600181368
 21
201.466736074472
 31
0.0
  0
ARC
  5
188
330
2
100
AcDbEntity
  8
0
100
AcDbCircle
 10
408.9950582420301
 20
197.3927642388425
 30
0.0
 40
0.0333994245353576
100
AcDbArc
 50
179.5141862273968
 51
222.5892626435046
  0
LINE
  5
189
330
2
100
AcDbEntity
  8
0
100
AcDbLine
 10
408.9968950924771
 20
197.3472757265213
 30
0.0
 11
408.9704687867223
 21
197.3701615786806
 31
0.0
  0
LWPOLYLINE
  5
18A
330
2
100
AcDbEntity
  8
0
100
AcDbPolyline
 90
        9
 70
   128
 43
0.0
 10
409.0057038610621
 20
197.3549043438784
 10
409.0055345343079
 20
197.3520743935514
 10
409.0050332809616
 20
197.3496464280104
 10
409.0042192980058
 20
197.3477135191003
 10
409.0031237599892
 20
197.3463504083806
 10
409.0017889986657
 20
197.3456088181219
 10
409.0002660417335
 20
197.3455178778261
 10
408.9986136284518
 20
197.3460807133781
 10
408.9968950924771
 20
197.3472757265213
  0
LINE
  5
18B
330
2
100
AcDbEntity
  8
0
100
AcDbLine
 10
409.0057038610621
 20
197.3549043438784
 30
0.0
 11
409.0057038610621
 21
197.415933282999
 31
0.0
  0
LWPOLYLINE
  5
18C
330
2
100
AcDbEntity
  8
0
100
AcDbPolyline
 90
        9
 70
   128
 43
0.0
 10
409.0145126296468
 20
197.4235621845273
 10
409.0127940936723
 20
197.4247571976706
 10
409.0111416804782
 20
197.4253200333107
 10
409.0096187235462
 20
197.4252290929266
 10
409.0082839621348
 20
197.4244875026679
 10
409.007188424206
 20
197.4231241077771
 10
409.00637444125
 20
197.4211914830382
 10
409.0058731879039
 20
197.4187632333255
 10
409.0057038610621
 20
197.415933282999
  0
LINE
  5
18D
330
2
100
AcDbEntity
  8
0
100
AcDbLine
 10
409.0145126296468
 20
197.4235621845273
 30
0.0
 11
409.0541521703769
 21
197.3892333352899
 31
0.0
  0
LINE
  5
18E
330
2
100
AcDbEntity
  8
0
100
AcDbLine
 10
359.5210177263524
 20
187.418225114515
 30
0.0
 11
359.5210177263524
 21
187.2809100016477
 31
0.0
  0
LINE
  5
18F
330
2
100
AcDbEntity
  8
0
100
AcDbLine
 10
359.5430397298251
 20
187.2236951581651
 30
0.0
 11
360.1156106730205
 21
186.7278341758576
 31
0.0
  0
LWPOLYLINE
  5
190
330
2
100
AcDbEntity
  8
0
100
AcDbPolyline
 90
        7
 70
   128
 43
0.0
 10
359.5210177263524
 20
187.418225114515
 10
359.5211870531948
 20
187.4210550648417
 10
359.5216883064527
 20
187.4234833145542
 10
359.5225022894088
 20
187.4254159392928
 10
359.5235978274254
 20
187.4267793342719
 10
359.5249325887489
 20
187.4275209244424
 10
359.5249403003104
 20
187.427523055904
  0
ARC
  5
191
330
2
100
AcDbEntity
  8
0
100
AcDbCircle
 10
360.1255719154592
 20
186.7370287258231
 30
0.0
 40
0.0135560355177553
100
AcDbArc
 50
222.7080139064059
 51
279.5722281188087
  0
LINE
  5
192
330
2
100
AcDbEntity
  8
0
100
AcDbLine
 10
360.0803754345729
 20
187.587863273264
 30
0.0
 11
360.0803754345729
 21
190.9464668339738
 31
0.0
  0
LWPOLYLINE
  5
193
330
2
100
AcDbEntity
  8
0
100
AcDbPolyline
 90
        7
 70
   128
 43
0.0
 10
360.0803754345729
 20
190.9464668339738
 10
360.0807985875704
 20
190.9535417098791
 10
360.0820518029891
 20
190.9596118013169
 10
360.0840868423452
 20
190.9644438605078
 10
360.0868256052017
 20
190.9678520991949
 10
360.0901627547155
 20
190.9697056128651
 10
360.0901819516975
 20
190.9697111545588
  0
ARC
  5
194
330
2
100
AcDbEntity
  8
0
100
AcDbCircle
 10
405.9421805399423
 20
203.5937514973952
 30
0.0
 40
0.174531078242123
100
AcDbArc
 50
56.98719425799986
 51
100.8206551074063
  0
LWPOLYLINE
  5
195
330
2
100
AcDbEntity
  8
0
100
AcDbPolyline
 90
        8
 70
   128
 43
0.0
 10
405.9094166583991
 20
203.6599746558938
 10
405.9134139184211
 20
203.6593980462233
 10
405.9562838970348
 20
203.6579929524007
 10
405.9969668290167
 20
203.6648979393756
 10
406.0292680832011
 20
203.679061672135
 10
406.0482693787028
 20
203.6983274644001
 10
406.0510790140368
 20
203.7197627679163
 10
406.0372696905278
 20
203.740104326884
  0
LINE
  5
196
330
2
100
AcDbEntity
  8
0
100
AcDbLine
 10
396.1262478848471
 20
201.3724274683477
 30
0.0
 11
396.1262478848471
 21
201.5478153314493
 31
0.0
  0
LWPOLYLINE
  5
197
330
2
100
AcDbEntity
  8
0
100
AcDbPolyline
 90
        7
 70
   128
 43
0.0
 10
396.1360543197857
 20
201.5710597585328
 10
396.1360351228918
 20
201.5710542168388
 10
396.1326979733781
 20
201.5692007386681
 10
396.1299592925311
 20
201.5657923933945
 10
396.127924253175
 20
201.5609603342036
 10
396.1266710377564
 20
201.5548902072662
 10
396.1262478848471
 20
201.5478153314493
  0
LINE
  5
198
330
2
100
AcDbEntity
  8
0
100
AcDbLine
 10
408.9044029402375
 20
197.3663473410449
 30
0.0
 11
363.1326190856175
 21
184.153171476138
 31
0.0
  0
ARC
  5
199
330
2
100
AcDbEntity
  8
0
100
AcDbCircle
 10
363.2161145414507
 20
184.1524632978594
 30
0.0
 40
0.0834984590574179
100
AcDbArc
 50
179.5140495356998
 51
222.5892085245989
  0
LINE
  5
19A
330
2
100
AcDbEntity
  8
0
100
AcDbLine
 10
363.1326190856175
 20
184.153171476138
 30
0.0
 11
363.1326190856175
 21
184.4852146248593
 31
0.0
  0
LINE
  5
19B
330
2
100
AcDbEntity
  8
0
100
AcDbLine
 10
363.7272118682659
 20
183.6000957925216
 30
0.0
 11
363.1546409250701
 21
184.0959567747411
 31
0.0
  0
ARC
  5
19C
330
2
100
AcDbEntity
  8
0
100
AcDbCircle
 10
363.7371734585632
 20
183.6092908169284
 30
0.0
 40
0.0135566129475248
100
AcDbArc
 50
222.7084903067034
 51
279.5710288846068
  0
LINE
  5
19D
330
2
100
AcDbEntity
  8
0
100
AcDbLine
 10
407.3796204323373
 20
201.8288470200841
 30
0.0
 11
407.875481840902
 21
201.9719898789858
 31
0.0
  0
LWPOLYLINE
  5
19E
330
2
100
AcDbEntity
  8
0
100
AcDbPolyline
 90
        9
 70
   128
 43
0.0
 10
407.4456863608324
 20
201.7716322476886
 10
407.4212779986105
 20
201.7674896208921
 10
407.3955563676166
 20
201.7683328936703
 10
407.3724354537723
 20
201.7740329807873
 10
407.3554405834387
 20
201.7837236699834
 10
407.3471531705486
 20
201.7959280803431
 10
407.3488407869008
 20
201.8087897733269
 10
407.3602410930901
 20
201.8203491316171
 10
407.3796204323373
 20
201.8288470200841
  0
LINE
  5
19F
330
2
100
AcDbEntity
  8
0
100
AcDbLine
 10
407.9415477693968
 20
201.9147751065022
 30
0.0
 11
407.8646713358001
 21
201.8925827917183
 31
0.0
  0
LINE
  5
1A0
330
2
100
AcDbEntity
  8
0
100
AcDbLine
 10
407.9415477669754
 20
201.9147751054404
 30
0.0
 11
407.4456863608324
 21
201.7716322476886
 31
0.0
  0
LWPOLYLINE
  5
1A1
330
2
100
AcDbEntity
  8
0
100
AcDbPolyline
 90
        9
 70
   128
 43
0.0
 10
407.875481840902
 20
201.9719898789858
 10
407.8998925586806
 20
201.9761330910379
 10
407.9256141075766
 20
201.9752898892587
 10
407.9487327479613
 20
201.9695891458871
 10
407.9657299738521
 20
201.9598990419465
 10
407.9740150311852
 20
201.9476940463317
 10
407.9723296882924
 20
201.9348330096022
 10
407.9609294641127
 20
201.9232735803127
 10
407.9415477693968
 20
201.9147751065022
  0
ARC
  5
1A2
330
2
100
AcDbEntity
  8
0
100
AcDbCircle
 10
408.3455167877822
 20
201.5387441858464
 30
0.0
 40
0.1538464140349416
100
AcDbArc
 50
55.22728620059326
 51
90.79006815210735
  0
LWPOLYLINE
  5
1A3
330
2
100
AcDbEntity
  8
0
100
AcDbPolyline
 90
        8
 70
   128
 43
0.0
 10
408.2801628079971
 20
201.5889814945224
 10
408.3094029964095
 20
201.5844106374457
 10
408.352273057121
 20
201.5830054726245
 10
408.3929559070928
 20
201.589910530598
 10
408.425257243287
 20
201.6040741923587
 10
408.4442584566914
 20
201.6233400556227
 10
408.4470680920253
 20
201.6447753591387
 10
408.433258850614
 20
201.6651168471076
  0
LINE
  5
1A4
330
2
100
AcDbEntity
  8
0
100
AcDbLine
 10
407.1784733562717
 20
203.1464771945368
 30
0.0
 11
407.0397961232329
 21
203.2665752012385
 31
0.0
  0
ARC
  5
1A5
330
2
100
AcDbEntity
  8
0
100
AcDbCircle
 10
407.2171079819004
 20
203.206280500478
 30
0.0
 40
0.0711973995235982
100
AcDbArc
 50
237.1363975728006
 51
287.6017287145962
  0
LINE
  5
1A6
330
2
100
AcDbEntity
  8
0
100
AcDbLine
 10
407.5056411508076
 20
203.2154936296656
 30
0.0
 11
407.2386379793993
 21
203.1384164532292
 31
0.0
  0
LWPOLYLINE
  5
1A7
330
2
100
AcDbEntity
  8
0
100
AcDbPolyline
 90
        9
 70
   128
 43
0.0
 10
407.5217618489126
 20
203.2455760463181
 10
407.5253260369827
 20
203.2416440474023
 10
407.5272859919413
 20
203.2374395894637
 10
407.5275693633733
 20
203.2331250885011
 10
407.5261616995002
 20
203.228865322589
 10
407.5231211615487
 20
203.2248251912745
 10
407.5185607512371
 20
203.2211588532029
 10
407.5126591927936
 20
203.2180081788545
 10
407.5056411508076
 20
203.2154936296656
  0
LINE
  5
1A8
330
2
100
AcDbEntity
  8
0
100
AcDbLine
 10
407.3830846158735
 20
203.3656740531078
 30
0.0
 11
407.5217618489126
 21
203.2455760463181
 31
0.0
  0
LINE
  5
1A9
330
2
100
AcDbEntity
  8
0
100
AcDbLine
 10
395.6834117828489
 20
201.2647630740874
 30
0.0
 11
395.7008807078237
 21
201.2496345412505
 31
0.0
  0
LINE
  5
1AA
330
2
100
AcDbEntity
  8
0
100
AcDbLine
 10
372.0197760398928
 20
194.5888763269863
 30
0.0
 11
372.0197760398928
 21
194.4134884638849
 31
0.0
  0
LWPOLYLINE
  5
1AB
330
2
100
AcDbEntity
  8
0
100
AcDbPolyline
 90
        7
 70
   128
 43
0.0
 10
372.0197760398928
 20
194.5888763269863
 10
372.0201991928902
 20
194.5959512028034
 10
372.021452408309
 20
194.6020213297406
 10
372.0234874476651
 20
194.6068533890195
 10
372.0262261285117
 20
194.6102617342051
 10
372.0295632780258
 20
194.6121152124639
 10
372.0295824749197
 20
194.6121207541578
  0
LINE
  5
1AC
330
2
100
AcDbEntity
  8
0
100
AcDbLine
 10
371.409485512706
 20
194.2373127638827
 30
0.0
 11
371.409485512706
 21
194.3324946394239
 31
0.0
  0
LINE
  5
1AD
330
2
100
AcDbEntity
  8
0
100
AcDbLine
 10
371.5944088629576
 20
194.2906955368757
 30
0.0
 11
371.5769399379824
 21
194.3058240697125
 31
0.0
  0
LINE
  5
1AE
330
2
100
AcDbEntity
  8
0
100
AcDbLine
 10
360.881974771467
 20
191.1982821837059
 30
0.0
 11
360.881974771467
 21
191.3736700467193
 31
0.0
  0
LWPOLYLINE
  5
1AF
330
2
100
AcDbEntity
  8
0
100
AcDbPolyline
 90
        7
 70
   128
 43
0.0
 10
360.881974771467
 20
191.3736700467193
 10
360.8823979244639
 20
191.3807449225364
 10
360.8836511398831
 20
191.3868150495616
 10
360.8856861792392
 20
191.3916471087525
 10
360.8884248600857
 20
191.3950554539378
 10
360.8917620095994
 20
191.3969089321965
 10
360.8917812064933
 20
191.3969144738907
  0
ARC
  5
1B0
330
2
100
AcDbEntity
  8
0
100
AcDbCircle
 10
367.2817991433608
 20
201.1024414366129
 30
0.0
 40
0.2757145172918757
100
AcDbArc
 50
88.82300828569494
 51
118.4403160634958
  0
LINE
  5
1B1
330
2
100
AcDbEntity
  8
0
100
AcDbLine
 10
367.5976230493225
 20
200.0991386997309
 30
0.0
 11
367.5976385718964
 21
200.0990115067102
 31
0.0
  0
ARC
  5
1B2
330
2
100
AcDbEntity
  8
0
100
AcDbCircle
 10
391.3882709882269
 20
208.0613804410757
 30
0.0
 40
0.2757145172937654
100
AcDbArc
 50
88.82300828579916
 51
118.4403160634004
  0
LINE
  5
1B3
330
2
100
AcDbEntity
  8
0
100
AcDbLine
 10
391.7040948941886
 20
207.0580777041937
 30
0.0
 11
391.7041104167624
 21
207.0579505110848
 31
0.0
  0
ELLIPSE
  5
1B4
330
2
100
AcDbEntity
  8
0
100
AcDbEllipse
 10
363.0749377061428
 20
184.5154786819762
 30
0.0
 11
-0.0220328269705666
 21
0.0762526221984005
 31
0.0
210
0.0
220
0.0
230
1.0
 40
0.4325260765000003
 41
3.141592653592346
 42
4.123435489189184
  0
LINE
  5
1B5
330
2
100
AcDbEntity
  8
0
100
AcDbLine
 10
360.3821255975154
 20
186.6733122328285
 30
0.0
 11
360.3816004169589
 21
186.6737554331196
 31
0.0
  0
ELLIPSE
  5
1B6
330
2
100
AcDbEntity
  8
0
100
AcDbEllipse
 10
405.9500356873319
 20
199.9020360798083
 30
0.0
 11
-0.0219700357874134
 21
0.0761779201391411
 31
0.0
210
0.0
220
0.0
230
1.0
 40
0.4334997358
 41
0.718201529036298
 42
2.553323824207714
  0
LINE
  5
1B9
330
2
100
AcDbEntity
  8
0
100
AcDbLine
 10
405.9499873779547
 20
199.8333783940072
 30
0.0
 11
408.5568796782816
 21
197.5762290799539
 31
0.0
  0
ELLIPSE
  5
1BA
330
2
100
AcDbEntity
  8
0
100
AcDbEllipse
 10
405.9488338874762
 20
202.652598877356
 30
0.0
 11
-0.0220279931992305
 21
0.0762358931721866
 31
0.0
210
0.0
220
0.0
230
0.9999999999999998
 40
0.4326209890112973
 41
6.259951843209798
 42
7.126885968123099
  0
LINE
  5
1BB
330
2
100
AcDbEntity
  8
0
100
AcDbLine
 10
408.6599098551944
 20
200.4990217255438
 30
0.0
 11
408.6604350357513
 21
200.4985782411693
 31
0.0
  0
ELLIPSE
  5
1BC
330
2
100
AcDbEntity
  8
0
100
AcDbEllipse
 10
408.5568317890656
 20
197.6449705779725
 30
0.0
 11
-0.0220328269705603
 21
0.0762526221983504
 31
0.0
210
0.0
220
0.0
230
0.9999999999999998
 40
0.4325260765000002
 41
2.553857137565429
 42
3.164826117559377
  0
LINE
  5
1BD
330
2
100
AcDbEntity
  8
0
100
AcDbLine
 10
382.2829377074863
 20
197.3762079449814
 30
0.0
 11
382.2829377074863
 21
199.4689251005611
 31
0.0
  0
LWPOLYLINE
  5
1BE
330
2
100
AcDbEntity
  8
0
100
AcDbPolyline
 90
        7
 70
   128
 43
0.0
 10
386.2806137372286
 20
200.6305833365041
 10
386.298514082861
 20
200.6336214852491
 10
386.3173772501182
 20
200.6330033640979
 10
386.3343313533137
 20
200.6288228809376
 10
386.3467955006986
 20
200.6217167215184
 10
386.3528716561032
 20
200.6127665077413
 10
386.3532863679952
 20
200.6096046039554
  0
ARC
  5
1BF
330
2
100
AcDbEntity
  8
0
100
AcDbCircle
 10
386.2021070498149
 20
200.4949827339099
 30
0.0
 40
0.1085272522204539
100
AcDbArc
 50
107.2088169992871
 51
177.168917995001
  0
LINE
  5
1C0
330
2
100
AcDbEntity
  8
0
100
AcDbLine
 10
386.1699987142442
 20
200.5986515298373
 30
0.0
 11
386.2806137372286
 21
200.6305833365041
 31
0.0
  0
LINE
  5
1C1
330
2
100
AcDbEntity
  8
0
100
AcDbLine
 10
386.0937122562382
 20
198.4762838244269
 30
0.0
 11
386.0937122562382
 21
200.5003430683589
 31
0.0
  0
LWPOLYLINE
  5
1C2
330
2
100
AcDbEntity
  8
0
100
AcDbPolyline
 90
        9
 70
   128
 43
0.0
 10
386.2730621532123
 20
200.628403382
 10
386.2733036735849
 20
200.6305782775316
 10
386.2750580602519
 20
200.6390765831827
 10
386.2779071645741
 20
200.6458413381108
 10
386.2817413834378
 20
200.6506127941041
 10
386.2864133763724
 20
200.6532079336205
 10
386.291743561615
 20
200.6535265090915
 10
386.2975271719442
 20
200.6515565845277
 10
386.3035419658909
 20
200.6473735410943
  0
LWPOLYLINE
  5
1C3
330
2
100
AcDbEntity
  8
0
100
AcDbPolyline
 90
        7
 70
   128
 43
0.0
 10
382.2966666344605
 20
199.5014672559489
 10
382.2966398080152
 20
199.501459511795
 10
382.2919678151684
 20
199.4988643722786
 10
382.2881335963048
 20
199.4940929162856
 10
382.2852844919826
 20
199.4873281612692
 10
382.2835301053156
 20
199.4788298557061
 10
382.2829377074863
 20
199.4689251005611
  0
LWPOLYLINE
  5
1C4
330
2
100
AcDbEntity
  8
0
100
AcDbPolyline
 90
        9
 70
   128
 43
0.0
 10
386.3532861457498
 20
200.6083909596184
 10
386.36714034129
 20
200.6155263428816
 10
386.3807524080353
 20
200.6285509809199
 10
386.3898475808282
 20
200.6447885979212
 10
386.393041576774
 20
200.6617669982966
 10
386.3898475808282
 20
200.6769013443138
 10
386.3807524080353
 20
200.6878878608909
 10
386.36714034129
 20
200.6930535684382
 10
386.3510839680939
 20
200.6916124887093
  0
LINE
  5
1C5
330
2
100
AcDbEntity
  8
0
100
AcDbLine
 10
386.3167551188563
 20
200.6330844659517
 30
0.0
 11
386.3167551188563
 21
200.6359306150148
 31
0.0
  0
LINE
  5
1C6
330
2
100
AcDbEntity
  8
0
100
AcDbLine
 10
386.3035419658909
 20
200.6473735410943
 30
0.0
 11
386.3167551188563
 21
200.6359306150148
 31
0.0
  0
LINE
  5
1C7
330
2
100
AcDbEntity
  8
0
100
AcDbLine
 10
386.3510839680939
 20
200.6916124887093
 30
0.0
 11
386.2404689450218
 21
200.6596806820423
 31
0.0
  0
ARC
  5
1C8
330
2
100
AcDbEntity
  8
0
100
AcDbCircle
 10
386.2497764849018
 20
200.6020588871177
 30
0.0
 40
0.0583686692236462
100
AcDbArc
 50
99.17562559728864
 51
154.201108335799
  0
ARC
  5
1C9
330
2
100
AcDbEntity
  8
0
100
AcDbCircle
 10
382.2290161824199
 20
198.0214213283357
 30
0.0
 40
0.0217055502977307
100
AcDbArc
 50
287.2091507668949
 51
357.1685842273956
  0
LINE
  5
1CA
330
2
100
AcDbEntity
  8
0
100
AcDbLine
 10
382.0667790718299
 20
197.5096099274351
 30
0.0
 11
381.804778873357
 21
197.7365087550729
 31
0.0
  0
LINE
  5
1CB
330
2
100
AcDbEntity
  8
0
100
AcDbLine
 10
381.869263655065
 20
197.8949820828893
 30
0.0
 11
382.2354379998646
 21
198.0006875111532
 31
0.0
  0
LINE
  5
1CC
330
2
100
AcDbEntity
  8
0
100
AcDbLine
 10
382.2506952345788
 20
199.4087600511764
 30
0.0
 11
382.2506952345788
 21
198.0203491302479
 31
0.0
  0
LWPOLYLINE
  5
1CD
330
2
100
AcDbEntity
  8
0
100
AcDbPolyline
 90
        7
 70
   128
 43
0.0
 10
381.869263655065
 20
197.8949820828893
 10
381.841190918778
 20
197.8849237220263
 10
381.8175819850239
 20
197.8723202454953
 10
381.7993444045378
 20
197.8576559706992
 10
381.7871789023993
 20
197.841494572755
 10
381.7815531384244
 20
197.8244570161128
 10
381.7811759257002
 20
197.8186958018516
  0
ARC
  5
1CE
330
2
100
AcDbEntity
  8
0
100
AcDbCircle
 10
382.3256015223342
 20
199.4054390585574
 30
0.0
 40
0.0749798702385354
100
AcDbArc
 50
124.6808986866938
 51
177.4614369345929
  0
LINE
  5
1CF
330
2
100
AcDbEntity
  8
0
100
AcDbLine
 10
387.665295031442
 20
200.6539605135413
 30
0.0
 11
387.665295031442
 21
200.9362200671492
 31
0.0
  0
LINE
  5
1D0
330
2
100
AcDbEntity
  8
0
100
AcDbLine
 10
388.1992991006228
 20
200.8081142100716
 30
0.0
 11
387.665295031442
 21
200.6539605135413
 31
0.0
  0
LINE
  5
1D1
330
2
100
AcDbEntity
  8
0
100
AcDbLine
 10
388.1992991006228
 20
200.8081142100716
 30
0.0
 11
388.1992991006228
 21
199.6333052863613
 31
0.0
  0
LINE
  5
1D2
330
2
100
AcDbEntity
  8
0
100
AcDbLine
 10
386.3532862333091
 20
199.1004072734135
 30
0.0
 11
388.1992991006228
 21
199.6333052863613
 31
0.0
  0
LINE
  5
1D3
330
2
100
AcDbEntity
  8
0
100
AcDbLine
 10
386.4370855017969
 20
200.4672368288623
 30
0.0
 11
386.3532862333091
 21
200.4430460637666
 31
0.0
  0
LINE
  5
1D4
330
2
100
AcDbEntity
  8
0
100
AcDbLine
 10
386.4370855017969
 20
200.2383780232749
 30
0.0
 11
386.4370855017969
 21
200.4672368288623
 31
0.0
  0
LINE
  5
1D5
330
2
100
AcDbEntity
  8
0
100
AcDbLine
 10
387.1236622028186
 20
200.4365756448275
 30
0.0
 11
386.4370855017969
 21
200.2383780232749
 31
0.0
  0
LINE
  5
1D6
330
2
100
AcDbEntity
  8
0
100
AcDbLine
 10
387.1236622028186
 20
200.77986413738
 30
0.0
 11
387.1236622028186
 21
200.4365756448275
 31
0.0
  0
LINE
  5
1D7
330
2
100
AcDbEntity
  8
0
100
AcDbLine
 10
387.1236622028186
 20
200.77986413738
 30
0.0
 11
387.665295031442
 21
200.9362200671492
 31
0.0
  0
LINE
  5
1D8
330
2
100
AcDbEntity
  8
0
100
AcDbLine
 10
388.1992991006228
 20
199.6333052863613
 30
0.0
 11
388.5053432242066
 21
199.3682633006751
 31
0.0
  0
LINE
  5
1D9
330
2
100
AcDbEntity
  8
0
100
AcDbLine
 10
388.1992991006228
 20
200.8081142100716
 30
0.0
 11
389.5227577403475
 21
199.6619654073108
 31
0.0
  0
LINE
  5
1DA
330
2
100
AcDbEntity
  8
0
100
AcDbLine
 10
387.665295031442
 20
200.9362200671492
 30
0.0
 11
387.9097388112569
 21
200.7245255440071
 31
0.0
  0
LINE
  5
1DB
330
2
100
AcDbEntity
  8
0
100
AcDbLine
 10
386.4370855017969
 20
200.4672368288623
 30
0.0
 11
386.6352831233498
 21
200.2955926535849
 31
0.0
  0
LINE
  5
1DD
330
2
100
AcDbEntity
  8
0
100
AcDbLine
 10
407.4772732699733
 20
201.5232253176644
 30
0.0
 11
407.8405208981088
 21
201.6280858755893
 31
0.0
  0
LINE
  5
1DE
330
2
100
AcDbEntity
  8
0
100
AcDbLine
 10
407.9042394679502
 20
201.4699489903642
 30
0.0
 11
407.6301543160012
 21
201.3908274221981
 31
0.0
  0
LINE
  5
1DF
330
2
100
AcDbEntity
  8
0
100
AcDbLine
 10
407.962787273914
 20
201.4127674030344
 30
0.0
 11
407.9682596101088
 21
201.4143471304624
 31
0.0
  0
LINE
  5
1E0
330
2
100
AcDbEntity
  8
0
100
AcDbLine
 10
407.9094908353686
 20
201.6816894957969
 30
0.0
 11
407.9136331688328
 21
201.6828852844656
 31
0.0
  0
LINE
  5
1E1
330
2
100
AcDbEntity
  8
0
100
AcDbLine
 10
407.9664352448792
 20
201.6371573452668
 30
0.0
 11
407.8756426626871
 21
201.6109477843884
 31
0.0
  0
LINE
  5
1E2
330
2
100
AcDbEntity
  8
0
100
AcDbLine
 10
407.9708396291721
 20
201.6867434470125
 30
0.0
 11
407.9642328120334
 21
201.6848362231938
 31
0.0
  0
LINE
  5
1E5
330
2
100
AcDbEntity
  8
0
100
AcDbLine
 10
406.2354253619226
 20
202.5986983693635
 30
0.0
 11
406.2354253619226
 21
202.6038337999771
 31
0.0
  0
LINE
  5
1E6
330
2
100
AcDbEntity
  8
0
100
AcDbLine
 10
406.4290835925066
 20
203.0609649545825
 30
0.0
 11
406.5280488569182
 21
203.0895337656625
 31
0.0
  0
LINE
  5
1E7
330
2
100
AcDbEntity
  8
0
100
AcDbLine
 10
406.3816329768529
 20
203.1747271859231
 30
0.0
 11
406.5744796266358
 21
203.2303972184693
 31
0.0
  0
LINE
  5
1E8
330
2
100
AcDbEntity
  8
0
100
AcDbLine
 10
408.7547374463937
 20
200.4000235449455
 30
0.0
 11
408.693252668756
 21
200.3822744185552
 31
0.0
  0
LINE
  5
1E9
330
2
100
AcDbEntity
  8
0
100
AcDbLine
 10
408.3275114311436
 20
200.7868986865858
 30
0.0
 11
408.3275114311436
 21
200.7920341171114
 31
0.0
  0
LINE
  5
1EA
330
2
100
AcDbEntity
  8
0
100
AcDbLine
 10
408.3080397733779
 20
201.4812084691216
 30
0.0
 11
408.0380651257623
 21
201.4032735013582
 31
0.0
  0
LINE
  5
1EB
330
2
100
AcDbEntity
  8
0
100
AcDbLine
 10
408.2393396806058
 20
201.7631572987034
 30
0.0
 11
407.9972678090838
 21
201.6932771686009
 31
0.0
  0
LINE
  5
1EC
330
2
100
AcDbEntity
  8
0
100
AcDbLine
 10
407.4125397941957
 20
201.7514259390482
 30
0.0
 11
407.4125397941957
 21
201.7518921682304
 31
0.0
  0
LINE
  5
1ED
330
2
100
AcDbEntity
  8
0
100
AcDbLine
 10
405.7376447339143
 20
200.169868778436
 30
0.0
 11
405.7508583682797
 21
200.1736832260731
 31
0.0
  0
LINE
  5
1EE
330
2
100
AcDbEntity
  8
0
100
AcDbLine
 10
405.7508583682797
 20
200.2347121651057
 30
0.0
 11
405.6847924699995
 21
200.2156405830865
 31
0.0
  0
LINE
  5
1EF
330
2
100
AcDbEntity
  8
0
100
AcDbLine
 10
405.8389456548268
 20
200.082139607523
 30
0.0
 11
405.852159289193
 21
200.0859540551601
 31
0.0
  0
LINE
  5
1F0
330
2
100
AcDbEntity
  8
0
100
AcDbLine
 10
405.931438370565
 20
204.0299559546986
 30
0.0
 11
405.9111086530691
 21
204.0240872708114
 31
0.0
  0
LINE
  5
1F1
330
2
100
AcDbEntity
  8
0
100
AcDbLine
 10
406.6955992372964
 20
203.4673440808147
 30
0.0
 11
406.7286333231658
 21
203.4768801999953
 31
0.0
  0
LINE
  5
1F2
330
2
100
AcDbEntity
  8
0
100
AcDbLine
 10
406.7286333231658
 20
204.1939714771195
 30
0.0
 11
406.0745811578511
 21
204.0051628802182
 31
0.0
  0
LINE
  5
1F3
330
2
100
AcDbEntity
  8
0
100
AcDbLine
 10
406.6757806295586
 20
204.2778864103968
 30
0.0
 11
405.988694378374
 21
204.0795416943149
 31
0.0
  0
LINE
  5
1F4
330
2
100
AcDbEntity
  8
0
100
AcDbLine
 10
406.7330377074581
 20
204.4571592740301
 30
0.0
 11
406.7127079899623
 21
204.4512905900549
 31
0.0
  0
LINE
  5
1F5
330
2
100
AcDbEntity
  8
0
100
AcDbLine
 10
408.9924902266966
 20
197.3510898962413
 30
0.0
 11
409.0057038610621
 21
197.3549043438784
 31
0.0
  0
LINE
  5
1F6
330
2
100
AcDbEntity
  8
0
100
AcDbLine
 10
409.0057038610621
 20
197.415933282999
 30
0.0
 11
408.9616591710846
 21
197.403218676176
 31
0.0
  0
LINE
  5
1F7
330
2
100
AcDbEntity
  8
0
100
AcDbLine
 10
407.1250285867959
 20
203.9498553479375
 30
0.0
 11
406.7858892481726
 21
203.851954253676
 31
0.0
  0
LINE
  5
1F8
330
2
100
AcDbEntity
  8
0
100
AcDbLine
 10
407.1030066243724
 20
204.0986135644691
 30
0.0
 11
406.7858884939646
 21
204.0070694454921
 31
0.0
  0
LINE
  5
1F9
330
2
100
AcDbEntity
  8
0
100
AcDbLine
 10
409.4637606484575
 20
196.9582155296505
 30
0.0
 11
409.450547014092
 21
196.9544010820134
 31
0.0
  0
LINE
  5
1FA
330
2
100
AcDbEntity
  8
0
100
AcDbLine
 10
409.3976947501773
 20
197.0001728866639
 30
0.0
 11
409.4637606484575
 21
197.0192444686829
 31
0.0
  0
LINE
  5
1FB
330
2
100
AcDbEntity
  8
0
100
AcDbLine
 10
408.0279289061758
 20
202.2524850500715
 30
0.0
 11
406.9833811072558
 21
201.9509500736435
 31
0.0
  0
LINE
  5
1FC
330
2
100
AcDbEntity
  8
0
100
AcDbLine
 10
408.8823809366767
 20
201.4743647274167
 30
0.0
 11
408.4793787300307
 21
201.3580280111312
 31
0.0
  0
LINE
  5
1FD
330
2
100
AcDbEntity
  8
0
100
AcDbLine
 10
408.0807815997836
 20
203.2899788255031
 30
0.0
 11
406.5040076156915
 21
202.8348033834582
 31
0.0
  0
LINE
  5
1FE
330
2
100
AcDbEntity
  8
0
100
AcDbLine
 10
386.6924243664507
 20
200.3120880991001
 30
0.0
 11
386.3532862012453
 21
200.6057903655271
 31
0.0
  0
LINE
  5
1FF
330
2
100
AcDbEntity
  8
0
100
AcDbLine
 10
382.2829375709498
 20
199.4180676119333
 30
0.0
 11
382.2506952345788
 21
199.4087600511764
 31
0.0
  0
LINE
  5
200
330
2
100
AcDbEntity
  8
0
100
AcDbLine
 10
405.9094153970693
 20
203.3364972543682
 30
0.0
 11
405.9094164031206
 21
203.3250766670112
 31
0.0
  0
LINE
  5
201
330
2
100
AcDbEntity
  8
0
100
AcDbLine
 10
381.7811759257002
 20
197.7805527149783
 30
0.0
 11
381.804778873357
 21
197.7365087550729
 31
0.0
  0
LINE
  5
202
330
2
100
AcDbEntity
  8
0
100
AcDbLine
 10
408.4042973965948
 20
201.4102385053061
 30
0.0
 11
408.4287285335736
 21
201.4018927735122
 31
0.0
  0
ELLIPSE
  5
203
330
2
100
AcDbEntity
  8
0
100
AcDbEllipse
 10
408.6049042336644
 20
200.9441749225182
 30
0.0
 11
-0.0371989455957191
 21
0.1286422177427084
 31
0.0
210
0.0
220
0.0
230
1.0
 40
0.4479192206521215
 41
0.0
 42
6.283185307179584
  0
ARC
  5
204
330
2
100
AcDbEntity
  8
0
100
AcDbCircle
 10
405.9950950836308
 20
203.4567364221555
 30
0.0
 40
0.039932489094781
100
AcDbArc
 50
52.27943281732875
 51
89.99999999981762
  0
ENDSEC
  0
SECTION
  2
OBJECTS
  0
DICTIONARY
  5
9
330
0
100
AcDbDictionary
281
     1
  3
ACAD_CIP_PREVIOUS_PRODUCT_INFO
350
23C
  3
ACAD_COLOR
350
3E
  3
ACAD_DETAILVIEWSTYLE
350
238
  3
ACAD_GROUP
350
35
  3
ACAD_LAYOUT
350
16
  3
ACAD_MATERIAL
350
B
  3
ACAD_MLEADERSTYLE
350
41
  3
ACAD_MLINESTYLE
350
36
  3
ACAD_PLOTSETTINGS
350
37
  3
ACAD_PLOTSTYLENAME
350
8
  3
ACAD_SCALELIST
350
3F
  3
ACAD_SECTIONVIEWSTYLE
350
236
  3
ACAD_TABLESTYLE
350
40
  3
ACAD_VISUALSTYLE
350
2B
  3
ACDB_RECOMPOSE_DATA
350
24B
  3
AcDbVariableDictionary
350
42
  0
DICTIONARY
  5
1E
330
1D
100
AcDbDictionary
280
     1
281
     1
  3
ACAD_LAYERSTATES
360
1F
  0
DICTIONARY
  5
6
330
5
100
AcDbDictionary
280
     1
281
     1
  0
DICTIONARY
  5
3
330
2
100
AcDbDictionary
280
     1
281
     1
  0
XRECORD
  5
23C
102
{ACAD_REACTORS
330
9
102
}
330
9
100
AcDbXrecord
280
     1
300
ACD
300
2021
300

  0
DICTIONARY
  5
3E
102
{ACAD_REACTORS
330
9
102
}
330
9
100
AcDbDictionary
281
     1
  0
DICTIONARY
  5
238
102
{ACAD_REACTORS
330
9
102
}
330
9
100
AcDbDictionary
281
     1
  3
Metric50
350
239
  0
DICTIONARY
  5
35
102
{ACAD_REACTORS
330
9
102
}
330
9
100
AcDbDictionary
281
     1
  0
DICTIONARY
  5
16
102
{ACAD_REACTORS
330
9
102
}
330
9
100
AcDbDictionary
281
     1
  3
Model
350
15
  3
布局1
350
1C
  0
DICTIONARY
  5
B
102
{ACAD_REACTORS
330
9
102
}
330
9
100
AcDbDictionary
281
     1
  3
ByBlock
350
3B
  3
ByLayer
350
38
  3
Global
350
A
  0
DICTIONARY
  5
41
102
{ACAD_REACTORS
330
9
102
}
330
9
100
AcDbDictionary
281
     1
  3
Standard
350
235
  0
DICTIONARY
  5
36
102
{ACAD_REACTORS
330
9
102
}
330
9
100
AcDbDictionary
281
     1
  3
Standard
350
4E
  0
DICTIONARY
  5
37
102
{ACAD_REACTORS
330
9
102
}
330
9
100
AcDbDictionary
281
     1
  0
ACDBDICTIONARYWDFLT
  5
8
102
{ACAD_REACTORS
330
9
102
}
330
9
100
AcDbDictionary
281
     1
  3
Normal
350
7
100
AcDbDictionaryWithDefault
340
7
  0
DICTIONARY
  5
3F
102
{ACAD_REACTORS
330
9
102
}
330
9
100
AcDbDictionary
281
     1
  3
A0
350
53
  3
A1
350
54
  3
A2
350
55
  3
A3
350
56
  3
A4
350
57
  3
A5
350
58
  3
A6
350
59
  3
A7
350
5A
  3
A8
350
5B
  3
A9
350
5C
  3
B0
350
5D
  3
B1
350
5E
  3
B2
350
5F
  3
B3
350
60
  3
B4
350
61
  3
B5
350
62
  3
B6
350
63
  0
DICTIONARY
  5
236
102
{ACAD_REACTORS
330
9
102
}
330
9
100
AcDbDictionary
281
     1
  3
Metric50
350
237
  0
DICTIONARY
  5
40
102
{ACAD_REACTORS
330
9
102
}
330
9
100
AcDbDictionary
281
     1
  3
Standard
350
4F
  0
DICTIONARY
  5
2B
102
{ACAD_REACTORS
330
9
102
}
330
9
100
AcDbDictionary
281
     1
  3
2dWireframe
350
2A
  3
Basic
350
224
  3
Brighten
350
228
  3
ColorChange
350
22C
  3
Conceptual
350
226
  3
Dim
350
227
  3
EdgeColorOff
350
234
  3
Facepattern
350
22B
  3
Flat
350
220
  3
FlatWithEdges
350
221
  3
Gouraud
350
222
  3
GouraudWithEdges
350
223
  3
Hidden
350
225
  3
JitterOff
350
232
  3
Linepattern
350
22A
  3
OverhangOff
350
233
  3
Realistic
350
51
  3
Shaded
350
231
  3
Shaded with edges
350
230
  3
Shades of Gray
350
22D
  3
Sketchy
350
22E
  3
Thicken
350
229
  3
Wireframe
350
52
  3
X-Ray
350
22F
  0
XRECORD
  5
24B
102
{ACAD_REACTORS
330
9
102
}
330
9
100
AcDbXrecord
280
     1
 90
        1
330
4F
  0
DICTIONARY
  5
42
102
{ACAD_REACTORS
330
9
102
}
330
9
100
AcDbDictionary
281
     1
  3
CANNOSCALE
350
43
  3
CENTEREXE
350
44
  3
CENTERLTYPEFILE
350
45
  3
CMLEADERSTYLE
350
46
  3
CTABLESTYLE
350
47
  3
CVIEWDETAILSTYLE
350
48
  3
CVIEWSECTIONSTYLE
350
49
  3
DIMASSOC
350
4A
  3
HIDETEXT
350
4B
  3
LAYEREVAL
350
4C
  3
LAYERNOTIFY
350
4D
  3
LIGHTINGUNITS
350
206
  3
MSLTSCALE
350
205
  0
DICTIONARY
  5
1F
102
{ACAD_REACTORS
330
1E
102
}
330
1E
100
AcDbDictionary
281
     1
  0
ACDBDETAILVIEWSTYLE
  5
239
102
{ACAD_REACTORS
330
238
102
}
330
238
100
AcDbModelDocViewStyle
 70
     0
  3
Metric50
290
     0
300
Metric50
 90
        0
100
AcDbDetailViewStyle
 70
     0
 71
     0
 90
        3
 71
     1
340
21
 62
   256
 40
5.0
340
0
 62
   256
 40
5.0
300

 40
0.0
280
     1
 71
     2
340
13
 90
       25
 62
   256
 71
     3
340
21
 62
   256
 40
5.0
 90
        0
 40
15.0
 90
        1
300
%<\AcVar ViewDetailId>% (%<\AcVar ViewScale \f "%sn">%)
 71
     4
340
13
 90
       25
 62
   256
340
13
 90
       25
 62
   256
280
     0
  0
LAYOUT
  5
15
102
{ACAD_XDICTIONARY
360
17
102
}
102
{ACAD_REACTORS
330
16
102
}
330
16
100
AcDbPlotSettings
  1

  2
none_device
  4
ISO_A4_(210.00_x_297.00_MM)
  6

 40
7.5
 41
20.0
 42
7.5
 43
20.0
 44
210.0
 45
297.0
 46
11.54999923706054
 47
-13.65000009536743
 48
0.0
 49
0.0
140
0.0
141
0.0
142
1.0
143
8.704084754739808
 70
 11952
 72
     1
 73
     0
 74
     0
  7

 75
     0
147
0.1148885871608098
 76
     0
 77
     2
 78
   300
148
0.0
149
0.0
100
AcDbLayout
  1
Model
 70
     1
 71
     0
 10
0.0
 20
0.0
 11
12.0
 21
9.0
 12
0.0
 22
0.0
 32
0.0
 14
0.0
 24
0.0
 34
0.0
 15
0.0
 25
0.0
 35
0.0
146
0.0
 13
0.0
 23
0.0
 33
0.0
 16
1.0
 26
0.0
 36
0.0
 17
0.0
 27
1.0
 37
0.0
 76
     0
330
2
331
29
1001
ACAD_PSEXT
1000
None
1000
None
1000
Not applicable
1000
The layout will not be plotted unless a new plotter configuration name is selected.
1070
     0
  0
LAYOUT
  5
1C
102
{ACAD_REACTORS
330
16
102
}
330
16
100
AcDbPlotSettings
  1

  2
C:\Documents and Settings\basas\Application Data\Autodesk\AutoCAD 2005\R16.1\enu\plotters\Default Windows System Printer.pc3
  4

  6

 40
0.0
 41
0.0
 42
0.0
 43
0.0
 44
0.0
 45
0.0
 46
0.0
 47
0.0
 48
0.0
 49
0.0
140
0.0
141
0.0
142
1.0
143
1.0
 70
   688
 72
     0
 73
     0
 74
     5
  7

 75
    16
147
1.0
 76
     0
 77
     2
 78
   300
148
0.0
149
0.0
100
AcDbLayout
  1
布局1
 70
     1
 71
     1
 10
0.0
 20
0.0
 11
12.0
 21
9.0
 12
0.0
 22
0.0
 32
0.0
 14
0.0
 24
0.0
 34
0.0
 15
0.0
 25
0.0
 35
0.0
146
0.0
 13
0.0
 23
0.0
 33
0.0
 16
1.0
 26
0.0
 36
0.0
 17
0.0
 27
1.0
 37
0.0
 76
     0
330
19
  0
MATERIAL
  5
3B
102
{ACAD_XDICTIONARY
360
3C
102
}
102
{ACAD_REACTORS
330
B
102
}
330
B
100
AcDbMaterial
  1
ByBlock
  0
MATERIAL
  5
38
102
{ACAD_XDICTIONARY
360
39
102
}
102
{ACAD_REACTORS
330
B
102
}
330
B
100
AcDbMaterial
  1
ByLayer
  0
MATERIAL
  5
A
102
{ACAD_XDICTIONARY
360
C
102
}
102
{ACAD_REACTORS
330
B
102
}
330
B
100
AcDbMaterial
  1
Global
 43
0.0007999999797903
 43
0.0
 43
0.0
 43
0.0
 43
0.0
 43
0.0007999999797903
 43
0.0
 43
0.0
 43
0.0
 43
0.0
 43
1.0
 43
0.0
 43
0.0
 43
0.0
 43
0.0
 43
1.0
 49
0.0007999999797903
 49
0.0
 49
0.0
 49
0.0
 49
0.0
 49
0.0007999999797903
 49
0.0
 49
0.0
 49
0.0
 49
0.0
 49
1.0
 49
0.0
 49
0.0
 49
0.0
 49
0.0
 49
1.0
142
0.0007999999797903
142
0.0
142
0.0
142
0.0
142
0.0
142
0.0007999999797903
142
0.0
142
0.0
142
0.0
142
0.0
142
1.0
142
0.0
142
0.0
142
0.0
142
0.0
142
1.0
144
0.0007999999797903
144
0.0
144
0.0
144
0.0
144
0.0
144
0.0007999999797903
144
0.0
144
0.0
144
0.0
144
0.0
144
1.0
144
0.0
144
0.0
144
0.0
144
0.0
144
1.0
1001
ACAD
1070
    -1
1070
     3
1070
     0
1000

1071
        0
1070
     0
  0
MLEADERSTYLE
  5
235
102
{ACAD_REACTORS
330
41
102
}
330
41
100
AcDbMLeaderStyle
179
     2
170
     2
171
     1
172
     0
 90
        2
 40
0.0
 41
0.0
173
     1
 91
-1056964608
340
24
 92
       -2
290
     1
 42
2.0
291
     1
 43
0.36
  3
Standard
 44
4.0
300

342
21
174
     1
178
     6
175
     1
176
     0
 93
-1056964608
 45
4.0
292
     0
297
     0
 46
4.0
 94
-1056964608
 47
1.0
 49
1.0
140
1.0
293
     1
141
0.0
294
     1
177
     0
142
1.0
295
     0
296
     0
143
0.125
271
     0
272
     9
273
     9
298
     0
  0
MLINESTYLE
  5
4E
102
{ACAD_REACTORS
330
36
102
}
330
36
100
AcDbMlineStyle
  2
STANDARD
 70
     0
  3

 62
   256
 51
90.0
 52
90.0
 71
     2
 49
0.5
 62
   256
  6
BYLAYER
 49
-0.5
 62
   256
  6
BYLAYER
  0
ACDBPLACEHOLDER
  5
7
102
{ACAD_REACTORS
330
8
102
}
330
8
  0
SCALE
  5
53
102
{ACAD_REACTORS
330
3F
102
}
330
3F
100
AcDbScale
 70
     0
300
1:1
140
1.0
141
1.0
290
     1
  0
SCALE
  5
54
102
{ACAD_REACTORS
330
3F
102
}
330
3F
100
AcDbScale
 70
     0
300
1:2
140
1.0
141
2.0
290
     0
  0
SCALE
  5
55
102
{ACAD_REACTORS
330
3F
102
}
330
3F
100
AcDbScale
 70
     0
300
1:4
140
1.0
141
4.0
290
     0
  0
SCALE
  5
56
102
{ACAD_REACTORS
330
3F
102
}
330
3F
100
AcDbScale
 70
     0
300
1:5
140
1.0
141
5.0
290
     0
  0
SCALE
  5
57
102
{ACAD_REACTORS
330
3F
102
}
330
3F
100
AcDbScale
 70
     0
300
1:8
140
1.0
141
8.0
290
     0
  0
SCALE
  5
58
102
{ACAD_REACTORS
330
3F
102
}
330
3F
100
AcDbScale
 70
     0
300
1:10
140
1.0
141
10.0
290
     0
  0
SCALE
  5
59
102
{ACAD_REACTORS
330
3F
102
}
330
3F
100
AcDbScale
 70
     0
300
1:16
140
1.0
141
16.0
290
     0
  0
SCALE
  5
5A
102
{ACAD_REACTORS
330
3F
102
}
330
3F
100
AcDbScale
 70
     0
300
1:20
140
1.0
141
20.0
290
     0
  0
SCALE
  5
5B
102
{ACAD_REACTORS
330
3F
102
}
330
3F
100
AcDbScale
 70
     0
300
1:30
140
1.0
141
30.0
290
     0
  0
SCALE
  5
5C
102
{ACAD_REACTORS
330
3F
102
}
330
3F
100
AcDbScale
 70
     0
300
1:40
140
1.0
141
40.0
290
     0
  0
SCALE
  5
5D
102
{ACAD_REACTORS
330
3F
102
}
330
3F
100
AcDbScale
 70
     0
300
1:50
140
1.0
141
50.0
290
     0
  0
SCALE
  5
5E
102
{ACAD_REACTORS
330
3F
102
}
330
3F
100
AcDbScale
 70
     0
300
1:100
140
1.0
141
100.0
290
     0
  0
SCALE
  5
5F
102
{ACAD_REACTORS
330
3F
102
}
330
3F
100
AcDbScale
 70
     0
300
2:1
140
2.0
141
1.0
290
     0
  0
SCALE
  5
60
102
{ACAD_REACTORS
330
3F
102
}
330
3F
100
AcDbScale
 70
     0
300
4:1
140
4.0
141
1.0
290
     0
  0
SCALE
  5
61
102
{ACAD_REACTORS
330
3F
102
}
330
3F
100
AcDbScale
 70
     0
300
8:1
140
8.0
141
1.0
290
     0
  0
SCALE
  5
62
102
{ACAD_REACTORS
330
3F
102
}
330
3F
100
AcDbScale
 70
     0
300
10:1
140
10.0
141
1.0
290
     0
  0
SCALE
  5
63
102
{ACAD_REACTORS
330
3F
102
}
330
3F
100
AcDbScale
 70
     0
300
100:1
140
100.0
141
1.0
290
     0
  0
ACDBSECTIONVIEWSTYLE
  5
237
102
{ACAD_REACTORS
330
236
102
}
330
236
100
AcDbModelDocViewStyle
 70
     0
  3
Metric50
290
     0
300
Metric50
 90
        0
100
AcDbSectionViewStyle
 70
     0
 71
     0
 90
      102
 71
     1
340
21
 62
   256
 40
5.0
340
0
340
0
 62
   256
 40
5.0
300
I, O, Q, S, X, Z
 40
10.0
 90
        0
 40
2.5
 90
        0
 71
     2
340
13
 90
       25
 62
   256
340
13
 90
       50
 62
   256
 40
5.0
 40
2.5
 40
5.0
 71
     3
340
21
 62
   256
 40
5.0
 90
        0
 40
15.0
 90
        1
300
%<\AcVar ViewSectionStartId>%-%<\AcVar ViewSectionEndId>% (%<\AcVar ViewScale \f "%sn">%)
 71
     4
 62
   256
 62
   257
300
ANSI31
 40
1.0
 90
        0
290
     0
290
     0
 90
        6
 40
0.0
 40
1.570796326794896
 40
0.2617993877991494
 40
1.308996938995747
 40
-0.2617993877991494
 40
1.832595714594045
  0
TABLESTYLE
  5
4F
102
{ACAD_XDICTIONARY
360
50
102
}
102
{ACAD_REACTORS
330
40
102
}
330
40
100
AcDbTableStyle
280
     0
  3
Standard
 70
     0
 71
     0
 40
1.5
 41
1.5
280
     0
281
     0
  7
Standard
140
4.5
170
     2
 62
     0
 63
     7
283
     0
 90
      512
 91
        0
  1

274
    -2
284
     1
 64
     0
275
    -2
285
     1
 65
     0
276
    -2
286
     1
 66
     0
277
    -2
287
     1
 67
     0
278
    -2
288
     1
 68
     0
279
    -2
289
     1
 69
     0
  7
Standard
140
6.0
170
     5
 62
     0
 63
     7
283
     0
 90
      512
 91
        0
  1

274
    -2
284
     1
 64
     0
275
    -2
285
     1
 65
     0
276
    -2
286
     1
 66
     0
277
    -2
287
     1
 67
     0
278
    -2
288
     1
 68
     0
279
    -2
289
     1
 69
     0
  7
Standard
140
4.5
170
     5
 62
     0
 63
     7
283
     0
 90
      512
 91
        0
  1

274
    -2
284
     1
 64
     0
275
    -2
285
     1
 65
     0
276
    -2
286
     1
 66
     0
277
    -2
287
     1
 67
     0
278
    -2
288
     1
 68
     0
279
    -2
289
     1
 69
     0
  0
VISUALSTYLE
  5
2A
102
{ACAD_REACTORS
330
2B
102
}
330
2B
100
AcDbVisualStyle
  2

 70
     4
177
     3
291
     0
 70
    58
 90
        0
176
     1
 90
        2
176
     1
 90
        1
176
     1
 90
        0
176
     1
 40
0.6
176
     1
 40
30.0
176
     1
 62
     7
420
 16777215
176
     1
 90
        1
176
     1
 90
        4
176
     1
 62
     7
176
     1
 62
   257
176
     1
 90
        1
176
     1
 90
        1
176
     1
 40
1.0
176
     1
 90
        0
176
     1
 62
   257
176
     1
 40
1.0
176
     1
 90
        1
176
     1
 90
        6
176
     1
 90
        2
176
     1
 62
     7
176
     1
 90
        5
176
     1
 90
        0
176
     1
 90
        0
176
     1
290
     0
176
     1
 90
        1
176
     1
 40
0.0
176
     1
 90
        0
176
     1
290
     1
176
     1
290
     1
176
     1
290
     0
176
     1
290
     0
176
     1
290
     0
176
     1
290
     0
176
     1
290
     0
176
     1
290
     0
176
     1
290
     0
176
     1
 90
       50
176
     1
 40
0.0
176
     1
 40
1.0
176
     1
 90
        0
176
     1
 62
    18
176
     1
 90
       50
176
     1
 90
        3
176
     1
 62
     5
420
      255
176
     1
290
     0
176
     1
 90
       50
176
     1
 90
       50
176
     1
 90
       50
176
     1
290
     0
176
     1
 90
       50
176
     1
 62
   256
176
     0
 40
1.0
176
     0
 90
        2
176
     1
  1
strokes_ogs.tif
176
     1
290
     0
176
     1
 40
1.0
176
     1
 40
1.0
176
     1
1001
ACAD
1000
AcDbSavedByObjectVersion
1070
     0
  0
VISUALSTYLE
  5
224
102
{ACAD_REACTORS
330
2B
102
}
330
2B
100
AcDbVisualStyle
  2
Basic
 70
     7
177
     3
291
     1
 70
    58
 90
        1
176
     1
 90
        0
176
     1
 90
        1
176
     1
 90
        0
176
     1
 40
0.6
176
     1
 40
30.0
176
     1
 62
     7
420
 16777215
176
     1
 90
        0
176
     1
 90
        4
176
     1
 62
     7
176
     1
 62
   257
176
     1
 90
        1
176
     1
 90
        1
176
     1
 40
1.0
176
     1
 90
        8
176
     1
 62
     7
176
     1
 40
1.0
176
     1
 90
        1
176
     1
 90
        6
176
     1
 90
        2
176
     1
 62
     7
176
     1
 90
        5
176
     1
 90
        0
176
     1
 90
        0
176
     1
290
     0
176
     1
 90
        1
176
     1
 40
0.0
176
     1
 90
        0
176
     1
290
     0
176
     1
290
     1
176
     1
290
     1
176
     1
290
     0
176
     1
290
     0
176
     1
290
     0
176
     1
290
     0
176
     1
290
     0
176
     1
290
     0
176
     1
 90
       50
176
     1
 40
0.0
176
     1
 40
1.0
176
     1
 90
        0
176
     1
 62
    18
176
     1
 90
       50
176
     1
 90
        3
176
     1
 62
     5
420
      255
176
     1
290
     0
176
     1
 90
       50
176
     1
 90
       50
176
     1
 90
       50
176
     1
290
     0
176
     1
 90
       50
176
     1
 62
   256
176
     0
 40
1.0
176
     0
 90
        2
176
     1
  1
strokes_ogs.tif
176
     1
290
     0
176
     1
 40
1.0
176
     1
 40
1.0
176
     1
  0
VISUALSTYLE
  5
228
102
{ACAD_REACTORS
330
2B
102
}
330
2B
100
AcDbVisualStyle
  2
Brighten
 70
    12
177
     3
291
     1
 70
    58
 90
        2
176
     1
 90
        2
176
     1
 90
        0
176
     1
 90
        0
176
     1
 40
0.6
176
     1
 40
30.0
176
     1
 62
     7
420
 16777215
176
     1
 90
        1
176
     1
 90
        4
176
     1
 62
     7
176
     1
 62
   257
176
     1
 90
        1
176
     1
 90
        1
176
     1
 40
1.0
176
     1
 90
        8
176
     1
 62
     7
176
     1
 40
1.0
176
     1
 90
        1
176
     1
 90
        6
176
     1
 90
        2
176
     1
 62
     7
176
     1
 90
        5
176
     1
 90
        0
176
     1
 90
        0
176
     1
290
     0
176
     1
 90
        1
176
     1
 40
50.0
176
     1
 90
        0
176
     1
290
     0
176
     1
290
     1
176
     1
290
     1
176
     1
290
     0
176
     1
290
     0
176
     1
290
     0
176
     1
290
     0
176
     1
290
     0
176
     1
290
     0
176
     1
 90
       50
176
     1
 40
0.0
176
     1
 40
1.0
176
     1
 90
        0
176
     1
 62
    18
176
     1
 90
       50
176
     1
 90
        3
176
     1
 62
     5
420
      255
176
     1
290
     0
176
     1
 90
       50
176
     1
 90
       50
176
     1
 90
       50
176
     1
290
     0
176
     1
 90
       50
176
     1
 62
   256
176
     0
 40
1.0
176
     0
 90
        2
176
     1
  1
strokes_ogs.tif
176
     1
290
     0
176
     1
 40
1.0
176
     1
 40
1.0
176
     1
  0
VISUALSTYLE
  5
22C
102
{ACAD_REACTORS
330
2B
102
}
330
2B
100
AcDbVisualStyle
  2
ColorChange
 70
    16
177
     3
291
     1
 70
    58
 90
        2
176
     1
 90
        2
176
     1
 90
        3
176
     1
 90
        0
176
     1
 40
0.6
176
     1
 40
30.0
176
     1
 62
     8
420
  8421504
176
     1
 90
        1
176
     1
 90
        4
176
     1
 62
     7
176
     1
 62
   257
176
     1
 90
        1
176
     1
 90
        1
176
     1
 40
1.0
176
     1
 90
        8
176
     1
 62
     8
420
  8421504
176
     1
 40
1.0
176
     1
 90
        1
176
     1
 90
        6
176
     1
 90
        2
176
     1
 62
     7
176
     1
 90
        5
176
     1
 90
        0
176
     1
 90
        0
176
     1
290
     0
176
     1
 90
        1
176
     1
 40
0.0
176
     1
 90
        0
176
     1
290
     0
176
     1
290
     1
176
     1
290
     1
176
     1
290
     0
176
     1
290
     0
176
     1
290
     0
176
     1
290
     0
176
     1
290
     0
176
     1
290
     0
176
     1
 90
       50
176
     1
 40
0.0
176
     1
 40
1.0
176
     1
 90
        0
176
     1
 62
    18
176
     1
 90
       50
176
     1
 90
        3
176
     1
 62
     5
420
      255
176
     1
290
     0
176
     1
 90
       50
176
     1
 90
       50
176
     1
 90
       50
176
     1
290
     0
176
     1
 90
       50
176
     1
 62
   256
176
     0
 40
1.0
176
     0
 90
        2
176
     1
  1
strokes_ogs.tif
176
     1
290
     0
176
     1
 40
1.0
176
     1
 40
1.0
176
     1
  0
VISUALSTYLE
  5
226
102
{ACAD_REACTORS
330
2B
102
}
330
2B
100
AcDbVisualStyle
  2
Conceptual
 70
     9
177
     3
291
     0
 70
    58
 90
        3
176
     1
 90
        2
176
     1
 90
        0
176
     1
 90
        0
176
     1
 40
0.6
176
     1
 40
30.0
176
     1
 62
     7
420
 16777215
176
     1
 90
        2
176
     1
 90
        2
176
     1
 62
     7
176
     1
 62
   257
176
     1
 90
        1
176
     1
 90
        1
176
     1
 40
179.0
176
     1
 90
        8
176
     1
 62
     7
176
     1
 40
1.0
176
     1
 90
        1
176
     1
 90
        6
176
     1
 90
        2
176
     1
 62
     7
176
     1
 90
        3
176
     1
 90
        0
176
     1
 90
        0
176
     1
290
     0
176
     1
 90
        1
176
     1
 40
0.0
176
     1
 90
        0
176
     1
290
     0
176
     1
290
     1
176
     1
290
     1
176
     1
290
     0
176
     1
290
     0
176
     1
290
     0
176
     1
290
     0
176
     1
290
     0
176
     1
290
     0
176
     1
 90
       50
176
     1
 40
0.0
176
     1
 40
1.0
176
     1
 90
        0
176
     1
 62
    18
176
     1
 90
       50
176
     1
 90
        3
176
     1
 62
     5
420
      255
176
     1
290
     0
176
     1
 90
       50
176
     1
 90
       50
176
     1
 90
       50
176
     1
290
     0
176
     1
 90
       50
176
     1
 62
   256
176
     0
 40
1.0
176
     0
 90
        2
176
     1
  1
strokes_ogs.tif
176
     1
290
     0
176
     1
 40
1.0
176
     1
 40
1.0
176
     1
  0
VISUALSTYLE
  5
227
102
{ACAD_REACTORS
330
2B
102
}
330
2B
100
AcDbVisualStyle
  2
Dim
 70
    11
177
     3
291
     1
 70
    58
 90
        2
176
     1
 90
        2
176
     1
 90
        0
176
     1
 90
        0
176
     1
 40
0.6
176
     1
 40
30.0
176
     1
 62
     7
420
 16777215
176
     1
 90
        1
176
     1
 90
        4
176
     1
 62
     7
176
     1
 62
   257
176
     1
 90
        1
176
     1
 90
        1
176
     1
 40
1.0
176
     1
 90
        8
176
     1
 62
     7
176
     1
 40
1.0
176
     1
 90
        1
176
     1
 90
        6
176
     1
 90
        2
176
     1
 62
     7
176
     1
 90
        5
176
     1
 90
        0
176
     1
 90
        0
176
     1
290
     0
176
     1
 90
        1
176
     1
 40
-50.0
176
     1
 90
        0
176
     1
290
     0
176
     1
290
     1
176
     1
290
     1
176
     1
290
     0
176
     1
290
     0
176
     1
290
     0
176
     1
290
     0
176
     1
290
     0
176
     1
290
     0
176
     1
 90
       50
176
     1
 40
0.0
176
     1
 40
1.0
176
     1
 90
        0
176
     1
 62
    18
176
     1
 90
       50
176
     1
 90
        3
176
     1
 62
     5
420
      255
176
     1
290
     0
176
     1
 90
       50
176
     1
 90
       50
176
     1
 90
       50
176
     1
290
     0
176
     1
 90
       50
176
     1
 62
   256
176
     0
 40
1.0
176
     0
 90
        2
176
     1
  1
strokes_ogs.tif
176
     1
290
     0
176
     1
 40
1.0
176
     1
 40
1.0
176
     1
  0
VISUALSTYLE
  5
234
102
{ACAD_REACTORS
330
2B
102
}
330
2B
100
AcDbVisualStyle
  2
EdgeColorOff
 70
    22
177
     3
291
     1
 70
    58
 90
        2
176
     0
 90
        2
176
     0
 90
        0
176
     0
 90
        0
176
     0
 40
0.6
176
     0
 40
30.0
176
     0
 62
     7
420
 16777215
176
     0
 90
        1
176
     0
 90
        4
176
     0
 62
     7
176
     0
 62
   257
176
     0
 90
        1
176
     0
 90
        1
176
     0
 40
1.0
176
     0
 90
        8
176
     2
 62
     7
176
     0
 40
1.0
176
     0
 90
        1
176
     0
 90
        6
176
     0
 90
        2
176
     0
 62
     7
176
     0
 90
        5
176
     0
 90
        0
176
     0
 90
        0
176
     0
290
     0
176
     0
 90
        1
176
     0
 40
0.0
176
     0
 90
        0
176
     0
290
     0
176
     1
290
     1
176
     1
290
     1
176
     1
290
     0
176
     1
290
     0
176
     1
290
     0
176
     1
290
     0
176
     1
290
     0
176
     1
290
     0
176
     1
 90
       50
176
     0
 40
0.0
176
     0
 40
1.0
176
     0
 90
        0
176
     0
 62
    18
176
     0
 90
       50
176
     0
 90
        3
176
     0
 62
     5
420
      255
176
     0
290
     0
176
     1
 90
       50
176
     0
 90
       50
176
     0
 90
       50
176
     0
290
     0
176
     1
 90
       50
176
     0
 62
   256
176
     0
 40
1.0
176
     0
 90
        2
176
     0
  1
strokes_ogs.tif
176
     0
290
     0
176
     1
 40
1.0
176
     0
 40
1.0
176
     0
  0
VISUALSTYLE
  5
22B
102
{ACAD_REACTORS
330
2B
102
}
330
2B
100
AcDbVisualStyle
  2
Facepattern
 70
    15
177
     3
291
     1
 70
    58
 90
        2
176
     1
 90
        2
176
     1
 90
        0
176
     1
 90
        0
176
     1
 40
0.6
176
     1
 40
30.0
176
     1
 62
     7
420
 16777215
176
     1
 90
        1
176
     1
 90
        4
176
     1
 62
     7
176
     1
 62
   257
176
     1
 90
        1
176
     1
 90
        1
176
     1
 40
1.0
176
     1
 90
        8
176
     1
 62
     7
176
     1
 40
1.0
176
     1
 90
        1
176
     1
 90
        6
176
     1
 90
        2
176
     1
 62
     7
176
     1
 90
        5
176
     1
 90
        0
176
     1
 90
        0
176
     1
290
     0
176
     1
 90
        1
176
     1
 40
0.0
176
     1
 90
        0
176
     1
290
     0
176
     1
290
     1
176
     1
290
     1
176
     1
290
     0
176
     1
290
     0
176
     1
290
     0
176
     1
290
     0
176
     1
290
     0
176
     1
290
     0
176
     1
 90
       50
176
     1
 40
0.0
176
     1
 40
1.0
176
     1
 90
        0
176
     1
 62
    18
176
     1
 90
       50
176
     1
 90
        3
176
     1
 62
     5
420
      255
176
     1
290
     0
176
     1
 90
       50
176
     1
 90
       50
176
     1
 90
       50
176
     1
290
     0
176
     1
 90
       50
176
     1
 62
   256
176
     0
 40
1.0
176
     0
 90
        2
176
     1
  1
strokes_ogs.tif
176
     1
290
     0
176
     1
 40
1.0
176
     1
 40
1.0
176
     1
  0
VISUALSTYLE
  5
220
102
{ACAD_REACTORS
330
2B
102
}
330
2B
100
AcDbVisualStyle
  2
Flat
 70
     0
177
     3
291
     1
 70
    58
 90
        2
176
     1
 90
        1
176
     1
 90
        1
176
     1
 90
        2
176
     1
 40
0.6
176
     1
 40
30.0
176
     1
 62
     7
420
 16777215
176
     1
 90
        0
176
     1
 90
        0
176
     1
 62
     7
176
     1
 62
   257
176
     1
 90
        1
176
     1
 90
        1
176
     1
 40
1.0
176
     1
 90
        8
176
     1
 62
     7
176
     1
 40
1.0
176
     1
 90
        1
176
     1
 90
        6
176
     1
 90
        2
176
     1
 62
     7
176
     1
 90
        5
176
     1
 90
        0
176
     1
 90
        0
176
     1
290
     0
176
     1
 90
       13
176
     1
 40
0.0
176
     1
 90
        0
176
     1
290
     0
176
     1
290
     1
176
     1
290
     1
176
     1
290
     0
176
     1
290
     0
176
     1
290
     0
176
     1
290
     0
176
     1
290
     0
176
     1
290
     0
176
     1
 90
       50
176
     1
 40
0.0
176
     1
 40
1.0
176
     1
 90
        0
176
     1
 62
    18
176
     1
 90
       50
176
     1
 90
        3
176
     1
 62
     5
420
      255
176
     1
290
     0
176
     1
 90
       50
176
     1
 90
       50
176
     1
 90
       50
176
     1
290
     0
176
     1
 90
       50
176
     1
 62
   256
176
     0
 40
1.0
176
     0
 90
        2
176
     1
  1
strokes_ogs.tif
176
     1
290
     0
176
     1
 40
1.0
176
     1
 40
1.0
176
     1
  0
VISUALSTYLE
  5
221
102
{ACAD_REACTORS
330
2B
102
}
330
2B
100
AcDbVisualStyle
  2
FlatWithEdges
 70
     1
177
     3
291
     1
 70
    58
 90
        2
176
     1
 90
        1
176
     1
 90
        1
176
     1
 90
        2
176
     1
 40
0.6
176
     1
 40
30.0
176
     1
 62
     7
420
 16777215
176
     1
 90
        1
176
     1
 90
        0
176
     1
 62
     7
176
     1
 62
   257
176
     1
 90
        1
176
     1
 90
        1
176
     1
 40
1.0
176
     1
 90
        0
176
     1
 62
   257
176
     1
 40
1.0
176
     1
 90
        1
176
     1
 90
        6
176
     1
 90
        2
176
     1
 62
     7
176
     1
 90
        5
176
     1
 90
        0
176
     1
 90
        0
176
     1
290
     0
176
     1
 90
       13
176
     1
 40
0.0
176
     1
 90
        0
176
     1
290
     0
176
     1
290
     1
176
     1
290
     1
176
     1
290
     0
176
     1
290
     0
176
     1
290
     0
176
     1
290
     0
176
     1
290
     0
176
     1
290
     0
176
     1
 90
       50
176
     1
 40
0.0
176
     1
 40
1.0
176
     1
 90
        0
176
     1
 62
    18
176
     1
 90
       50
176
     1
 90
        3
176
     1
 62
     5
420
      255
176
     1
290
     0
176
     1
 90
       50
176
     1
 90
       50
176
     1
 90
       50
176
     1
290
     0
176
     1
 90
       50
176
     1
 62
   256
176
     0
 40
1.0
176
     0
 90
        2
176
     1
  1
strokes_ogs.tif
176
     1
290
     0
176
     1
 40
1.0
176
     1
 40
1.0
176
     1
  0
VISUALSTYLE
  5
222
102
{ACAD_REACTORS
330
2B
102
}
330
2B
100
AcDbVisualStyle
  2
Gouraud
 70
     2
177
     3
291
     1
 70
    58
 90
        2
176
     1
 90
        2
176
     1
 90
        1
176
     1
 90
        2
176
     1
 40
0.6
176
     1
 40
30.0
176
     1
 62
     7
420
 16777215
176
     1
 90
        0
176
     1
 90
        0
176
     1
 62
     7
176
     1
 62
   257
176
     1
 90
        1
176
     1
 90
        1
176
     1
 40
1.0
176
     1
 90
        0
176
     1
 62
     7
176
     1
 40
1.0
176
     1
 90
        1
176
     1
 90
        6
176
     1
 90
        2
176
     1
 62
     7
176
     1
 90
        5
176
     1
 90
        0
176
     1
 90
        0
176
     1
290
     0
176
     1
 90
       13
176
     1
 40
0.0
176
     1
 90
        0
176
     1
290
     0
176
     1
290
     1
176
     1
290
     1
176
     1
290
     0
176
     1
290
     0
176
     1
290
     0
176
     1
290
     0
176
     1
290
     0
176
     1
290
     0
176
     1
 90
       50
176
     1
 40
0.0
176
     1
 40
1.0
176
     1
 90
        0
176
     1
 62
    18
176
     1
 90
       50
176
     1
 90
        3
176
     1
 62
     5
420
      255
176
     1
290
     0
176
     1
 90
       50
176
     1
 90
       50
176
     1
 90
       50
176
     1
290
     0
176
     1
 90
       50
176
     1
 62
   256
176
     0
 40
1.0
176
     0
 90
        2
176
     1
  1
strokes_ogs.tif
176
     1
290
     0
176
     1
 40
1.0
176
     1
 40
1.0
176
     1
  0
VISUALSTYLE
  5
223
102
{ACAD_REACTORS
330
2B
102
}
330
2B
100
AcDbVisualStyle
  2
GouraudWithEdges
 70
     3
177
     3
291
     1
 70
    58
 90
        2
176
     1
 90
        2
176
     1
 90
        1
176
     1
 90
        2
176
     1
 40
0.6
176
     1
 40
30.0
176
     1
 62
     7
420
 16777215
176
     1
 90
        1
176
     1
 90
        0
176
     1
 62
     7
176
     1
 62
   257
176
     1
 90
        1
176
     1
 90
        1
176
     1
 40
1.0
176
     1
 90
        0
176
     1
 62
   257
176
     1
 40
1.0
176
     1
 90
        1
176
     1
 90
        6
176
     1
 90
        2
176
     1
 62
     7
176
     1
 90
        5
176
     1
 90
        0
176
     1
 90
        0
176
     1
290
     0
176
     1
 90
       13
176
     1
 40
0.0
176
     1
 90
        0
176
     1
290
     0
176
     1
290
     1
176
     1
290
     1
176
     1
290
     0
176
     1
290
     0
176
     1
290
     0
176
     1
290
     0
176
     1
290
     0
176
     1
290
     0
176
     1
 90
       50
176
     1
 40
0.0
176
     1
 40
1.0
176
     1
 90
        0
176
     1
 62
    18
176
     1
 90
       50
176
     1
 90
        3
176
     1
 62
     5
420
      255
176
     1
290
     0
176
     1
 90
       50
176
     1
 90
       50
176
     1
 90
       50
176
     1
290
     0
176
     1
 90
       50
176
     1
 62
   256
176
     0
 40
1.0
176
     0
 90
        2
176
     1
  1
strokes_ogs.tif
176
     1
290
     0
176
     1
 40
1.0
176
     1
 40
1.0
176
     1
  0
VISUALSTYLE
  5
225
102
{ACAD_REACTORS
330
2B
102
}
330
2B
100
AcDbVisualStyle
  2
Hidden
 70
     6
177
     3
291
     0
 70
    58
 90
        1
176
     1
 90
        2
176
     1
 90
        2
176
     1
 90
        0
176
     1
 40
0.6
176
     1
 40
30.0
176
     1
 62
     7
420
 16777215
176
     1
 90
        2
176
     1
 90
        2
176
     1
 62
     7
176
     1
 62
   257
176
     1
 90
        2
176
     1
 90
        1
176
     1
 40
40.0
176
     1
 90
        0
176
     1
 62
   257
176
     1
 40
1.0
176
     1
 90
        1
176
     1
 90
        6
176
     1
 90
        2
176
     1
 62
     7
176
     1
 90
        3
176
     1
 90
        0
176
     1
 90
        0
176
     1
290
     0
176
     1
 90
        1
176
     1
 40
0.0
176
     1
 90
        0
176
     1
290
     0
176
     1
290
     1
176
     1
290
     1
176
     1
290
     0
176
     1
290
     0
176
     1
290
     0
176
     1
290
     0
176
     1
290
     0
176
     1
290
     0
176
     1
 90
       50
176
     1
 40
0.0
176
     1
 40
1.0
176
     1
 90
        0
176
     1
 62
    18
176
     1
 90
       50
176
     1
 90
        3
176
     1
 62
     5
420
      255
176
     1
290
     0
176
     1
 90
       50
176
     1
 90
       50
176
     1
 90
       50
176
     1
290
     0
176
     1
 90
       50
176
     1
 62
   256
176
     0
 40
1.0
176
     0
 90
        2
176
     1
  1
strokes_ogs.tif
176
     1
290
     0
176
     1
 40
1.0
176
     1
 40
1.0
176
     1
  0
VISUALSTYLE
  5
232
102
{ACAD_REACTORS
330
2B
102
}
330
2B
100
AcDbVisualStyle
  2
JitterOff
 70
    20
177
     3
291
     1
 70
    58
 90
        2
176
     0
 90
        2
176
     0
 90
        0
176
     0
 90
        0
176
     0
 40
0.6
176
     0
 40
30.0
176
     0
 62
     7
420
 16777215
176
     0
 90
        1
176
     0
 90
        4
176
     0
 62
     7
176
     0
 62
   257
176
     0
 90
        1
176
     0
 90
        1
176
     0
 40
1.0
176
     0
 90
       10
176
     2
 62
     7
176
     0
 40
1.0
176
     0
 90
        1
176
     0
 90
        6
176
     0
 90
        2
176
     0
 62
     7
176
     0
 90
        5
176
     0
 90
        0
176
     0
 90
        0
176
     0
290
     0
176
     0
 90
        1
176
     0
 40
0.0
176
     0
 90
        0
176
     0
290
     0
176
     1
290
     1
176
     1
290
     1
176
     1
290
     0
176
     1
290
     0
176
     1
290
     0
176
     1
290
     0
176
     1
290
     0
176
     1
290
     0
176
     1
 90
       50
176
     0
 40
0.0
176
     0
 40
1.0
176
     0
 90
        0
176
     0
 62
    18
176
     0
 90
       50
176
     0
 90
        3
176
     0
 62
     5
420
      255
176
     0
290
     0
176
     1
 90
       50
176
     0
 90
       50
176
     0
 90
       50
176
     0
290
     0
176
     1
 90
       50
176
     0
 62
   256
176
     0
 40
1.0
176
     0
 90
        2
176
     0
  1
strokes_ogs.tif
176
     0
290
     0
176
     1
 40
1.0
176
     0
 40
1.0
176
     0
  0
VISUALSTYLE
  5
22A
102
{ACAD_REACTORS
330
2B
102
}
330
2B
100
AcDbVisualStyle
  2
Linepattern
 70
    14
177
     3
291
     1
 70
    58
 90
        2
176
     1
 90
        2
176
     1
 90
        0
176
     1
 90
        0
176
     1
 40
0.6
176
     1
 40
30.0
176
     1
 62
     7
420
 16777215
176
     1
 90
        1
176
     1
 90
        4
176
     1
 62
     7
176
     1
 62
   257
176
     1
 90
        7
176
     1
 90
        7
176
     1
 40
1.0
176
     1
 90
        8
176
     1
 62
     7
176
     1
 40
1.0
176
     1
 90
        1
176
     1
 90
        6
176
     1
 90
        2
176
     1
 62
     7
176
     1
 90
        5
176
     1
 90
        0
176
     1
 90
        0
176
     1
290
     0
176
     1
 90
        1
176
     1
 40
0.0
176
     1
 90
        0
176
     1
290
     0
176
     1
290
     1
176
     1
290
     1
176
     1
290
     0
176
     1
290
     0
176
     1
290
     0
176
     1
290
     0
176
     1
290
     0
176
     1
290
     0
176
     1
 90
       50
176
     1
 40
0.0
176
     1
 40
1.0
176
     1
 90
        0
176
     1
 62
    18
176
     1
 90
       50
176
     1
 90
        3
176
     1
 62
     5
420
      255
176
     1
290
     0
176
     1
 90
       50
176
     1
 90
       50
176
     1
 90
       50
176
     1
290
     0
176
     1
 90
       50
176
     1
 62
   256
176
     0
 40
1.0
176
     0
 90
        2
176
     1
  1
strokes_ogs.tif
176
     1
290
     0
176
     1
 40
1.0
176
     1
 40
1.0
176
     1
  0
VISUALSTYLE
  5
233
102
{ACAD_REACTORS
330
2B
102
}
330
2B
100
AcDbVisualStyle
  2
OverhangOff
 70
    21
177
     3
291
     1
 70
    58
 90
        2
176
     0
 90
        2
176
     0
 90
        0
176
     0
 90
        0
176
     0
 40
0.6
176
     0
 40
30.0
176
     0
 62
     7
420
 16777215
176
     0
 90
        1
176
     0
 90
        4
176
     0
 62
     7
176
     0
 62
   257
176
     0
 90
        1
176
     0
 90
        1
176
     0
 40
1.0
176
     0
 90
        9
176
     2
 62
     7
176
     0
 40
1.0
176
     0
 90
        1
176
     0
 90
        6
176
     0
 90
        2
176
     0
 62
     7
176
     0
 90
        5
176
     0
 90
        0
176
     0
 90
        0
176
     0
290
     0
176
     0
 90
        1
176
     0
 40
0.0
176
     0
 90
        0
176
     0
290
     0
176
     1
290
     1
176
     1
290
     1
176
     1
290
     0
176
     1
290
     0
176
     1
290
     0
176
     1
290
     0
176
     1
290
     0
176
     1
290
     0
176
     1
 90
       50
176
     0
 40
0.0
176
     0
 40
1.0
176
     0
 90
        0
176
     0
 62
    18
176
     0
 90
       50
176
     0
 90
        3
176
     0
 62
     5
420
      255
176
     0
290
     0
176
     1
 90
       50
176
     0
 90
       50
176
     0
 90
       50
176
     0
290
     0
176
     1
 90
       50
176
     0
 62
   256
176
     0
 40
1.0
176
     0
 90
        2
176
     0
  1
strokes_ogs.tif
176
     0
290
     0
176
     1
 40
1.0
176
     0
 40
1.0
176
     0
  0
VISUALSTYLE
  5
51
102
{ACAD_REACTORS
330
2B
102
}
330
2B
100
AcDbVisualStyle
  2

 70
     8
177
     3
291
     0
 70
    58
 90
        2
176
     1
 90
        3
176
     1
 90
        0
176
     1
 90
        2
176
     1
 40
0.6
176
     1
 40
30.0
176
     1
 62
     7
420
 16777215
176
     1
 90
        0
176
     1
 90
        0
176
     1
 62
     7
176
     1
 62
   257
176
     1
 90
        1
176
     1
 90
        1
176
     1
 40
1.0
176
     1
 90
        8
176
     1
 62
   257
176
     1
 40
1.0
176
     1
 90
        1
176
     1
 90
        6
176
     1
 90
        2
176
     1
 62
     7
176
     1
 90
        3
176
     1
 90
        0
176
     1
 90
        0
176
     1
290
     0
176
     1
 90
       13
176
     1
 40
0.0
176
     1
 90
        0
176
     1
290
     0
176
     1
290
     1
176
     1
290
     1
176
     1
290
     0
176
     1
290
     0
176
     1
290
     0
176
     1
290
     0
176
     1
290
     0
176
     1
290
     0
176
     1
 90
       50
176
     1
 40
0.0
176
     1
 40
1.0
176
     1
 90
        0
176
     1
 62
    18
176
     1
 90
       50
176
     1
 90
        3
176
     1
 62
     5
420
      255
176
     1
290
     0
176
     1
 90
       50
176
     1
 90
       50
176
     1
 90
       50
176
     1
290
     0
176
     1
 90
       50
176
     1
 62
   256
176
     0
 40
1.0
176
     0
 90
        2
176
     1
  1
strokes_ogs.tif
176
     1
290
     0
176
     1
 40
1.0
176
     1
 40
1.0
176
     1
1001
ACAD
1000
AcDbSavedByObjectVersion
1070
     0
  0
VISUALSTYLE
  5
231
102
{ACAD_REACTORS
330
2B
102
}
330
2B
100
AcDbVisualStyle
  2
Shaded
 70
    27
177
     3
291
     0
 70
    58
 90
        2
176
     1
 90
        2
176
     1
 90
        1
176
     1
 90
        2
176
     1
 40
0.6
176
     1
 40
30.0
176
     1
 62
     7
420
 16777215
176
     1
 90
        0
176
     1
 90
        4
176
     1
 62
     7
176
     1
 62
   257
176
     1
 90
        1
176
     1
 90
        1
176
     1
 40
1.0
176
     1
 90
        8
176
     1
 62
   257
176
     1
 40
1.0
176
     1
 90
        1
176
     1
 90
        6
176
     1
 90
        2
176
     1
 62
     8
420
  7895160
176
     1
 90
        3
176
     1
 90
        0
176
     1
 90
        0
176
     1
290
     0
176
     1
 90
        5
176
     1
 40
0.0
176
     1
 90
        0
176
     1
290
     0
176
     1
290
     1
176
     1
290
     1
176
     1
290
     0
176
     1
290
     0
176
     1
290
     0
176
     1
290
     0
176
     1
290
     0
176
     1
290
     0
176
     1
 90
       50
176
     1
 40
0.0
176
     1
 40
1.0
176
     1
 90
        0
176
     1
 62
    18
176
     1
 90
       50
176
     1
 90
        3
176
     1
 62
     5
420
      255
176
     1
290
     0
176
     1
 90
       50
176
     1
 90
       50
176
     1
 90
       50
176
     1
290
     0
176
     1
 90
       50
176
     1
 62
   256
176
     0
 40
1.0
176
     0
 90
        2
176
     1
  1
strokes_ogs.tif
176
     1
290
     0
176
     1
 40
1.0
176
     1
 40
1.0
176
     1
  0
VISUALSTYLE
  5
230
102
{ACAD_REACTORS
330
2B
102
}
330
2B
100
AcDbVisualStyle
  2
Shaded with edges
 70
    26
177
     3
291
     0
 70
    58
 90
        2
176
     1
 90
        2
176
     1
 90
        1
176
     1
 90
        2
176
     1
 40
0.6
176
     1
 40
30.0
176
     1
 62
     7
420
 16777215
176
     1
 90
        1
176
     1
 90
        2
176
     1
 62
     7
176
     1
 62
   257
176
     1
 90
        2
176
     1
 90
        1
176
     1
 40
1.0
176
     1
 90
        8
176
     1
 62
   257
176
     1
 40
1.0
176
     1
 90
        1
176
     1
 90
        6
176
     1
 90
        2
176
     1
 62
     7
176
     1
 90
        3
176
     1
 90
        0
176
     1
 90
        0
176
     1
290
     0
176
     1
 90
        5
176
     1
 40
0.0
176
     1
 90
        0
176
     1
290
     0
176
     1
290
     1
176
     1
290
     1
176
     1
290
     0
176
     1
290
     0
176
     1
290
     0
176
     1
290
     0
176
     1
290
     0
176
     1
290
     0
176
     1
 90
       50
176
     1
 40
0.0
176
     1
 40
1.0
176
     1
 90
        0
176
     1
 62
    18
176
     1
 90
       50
176
     1
 90
        3
176
     1
 62
     5
420
      255
176
     1
290
     0
176
     1
 90
       50
176
     1
 90
       50
176
     1
 90
       50
176
     1
290
     0
176
     1
 90
       50
176
     1
 62
   256
176
     0
 40
1.0
176
     0
 90
        2
176
     1
  1
strokes_ogs.tif
176
     1
290
     0
176
     1
 40
1.0
176
     1
 40
1.0
176
     1
  0
VISUALSTYLE
  5
22D
102
{ACAD_REACTORS
330
2B
102
}
330
2B
100
AcDbVisualStyle
  2
Shades of Gray
 70
    23
177
     3
291
     0
 70
    58
 90
        2
176
     1
 90
        2
176
     1
 90
        3
176
     1
 90
        0
176
     1
 40
0.6
176
     1
 40
30.0
176
     1
 62
     7
420
 16777215
176
     1
 90
        2
176
     1
 90
        2
176
     1
 62
     7
176
     1
 62
     7
176
     1
 90
        1
176
     1
 90
        1
176
     1
 40
40.0
176
     1
 90
        8
176
     1
 62
     7
176
     1
 40
1.0
176
     1
 90
        1
176
     1
 90
        6
176
     1
 90
        2
176
     1
 62
     7
176
     1
 90
        3
176
     1
 90
        0
176
     1
 90
        0
176
     1
290
     0
176
     1
 90
        1
176
     1
 40
0.0
176
     1
 90
        0
176
     1
290
     0
176
     1
290
     1
176
     1
290
     1
176
     1
290
     0
176
     1
290
     0
176
     1
290
     0
176
     1
290
     0
176
     1
290
     0
176
     1
290
     0
176
     1
 90
       50
176
     1
 40
0.0
176
     1
 40
1.0
176
     1
 90
        0
176
     1
 62
    18
176
     1
 90
       50
176
     1
 90
        3
176
     1
 62
     5
420
      255
176
     1
290
     0
176
     1
 90
       50
176
     1
 90
       50
176
     1
 90
       50
176
     1
290
     0
176
     1
 90
       50
176
     1
 62
   256
176
     0
 40
1.0
176
     0
 90
        2
176
     1
  1
strokes_ogs.tif
176
     1
290
     0
176
     1
 40
1.0
176
     1
 40
1.0
176
     1
  0
VISUALSTYLE
  5
22E
102
{ACAD_REACTORS
330
2B
102
}
330
2B
100
AcDbVisualStyle
  2
Sketchy
 70
    24
177
     3
291
     0
 70
    58
 90
        1
176
     1
 90
        2
176
     1
 90
        2
176
     1
 90
        0
176
     1
 40
0.6
176
     1
 40
30.0
176
     1
 62
     7
420
 16777215
176
     1
 90
        2
176
     1
 90
        2
176
     1
 62
     7
176
     1
 62
     7
176
     1
 90
        1
176
     1
 90
        1
176
     1
 40
40.0
176
     1
 90
       11
176
     1
 62
     7
176
     1
 40
1.0
176
     1
 90
        1
176
     1
 90
        6
176
     1
 90
        2
176
     1
 62
     7
176
     1
 90
        6
176
     1
 90
        0
176
     1
 90
        0
176
     1
290
     0
176
     1
 90
        1
176
     1
 40
0.0
176
     1
 90
        0
176
     1
290
     0
176
     1
290
     1
176
     1
290
     1
176
     1
290
     0
176
     1
290
     0
176
     1
290
     0
176
     1
290
     0
176
     1
290
     0
176
     1
290
     0
176
     1
 90
       50
176
     1
 40
0.0
176
     1
 40
1.0
176
     1
 90
        0
176
     1
 62
    18
176
     1
 90
       50
176
     1
 90
        3
176
     1
 62
     5
420
      255
176
     1
290
     0
176
     1
 90
       50
176
     1
 90
       50
176
     1
 90
       50
176
     1
290
     0
176
     1
 90
       50
176
     1
 62
   256
176
     0
 40
1.0
176
     0
 90
        2
176
     1
  1
strokes_ogs.tif
176
     1
290
     0
176
     1
 40
1.0
176
     1
 40
1.0
176
     1
  0
VISUALSTYLE
  5
229
102
{ACAD_REACTORS
330
2B
102
}
330
2B
100
AcDbVisualStyle
  2
Thicken
 70
    13
177
     3
291
     1
 70
    58
 90
        2
176
     1
 90
        2
176
     1
 90
        0
176
     1
 90
        0
176
     1
 40
0.6
176
     1
 40
30.0
176
     1
 62
     7
420
 16777215
176
     1
 90
        1
176
     1
 90
        4
176
     1
 62
     7
176
     1
 62
   257
176
     1
 90
        1
176
     1
 90
        1
176
     1
 40
1.0
176
     1
 90
       12
176
     1
 62
     7
176
     1
 40
1.0
176
     1
 90
        1
176
     1
 90
        6
176
     1
 90
        2
176
     1
 62
     7
176
     1
 90
        5
176
     1
 90
        0
176
     1
 90
        0
176
     1
290
     0
176
     1
 90
        1
176
     1
 40
0.0
176
     1
 90
        0
176
     1
290
     0
176
     1
290
     1
176
     1
290
     1
176
     1
290
     0
176
     1
290
     0
176
     1
290
     0
176
     1
290
     0
176
     1
290
     0
176
     1
290
     0
176
     1
 90
       50
176
     1
 40
0.0
176
     1
 40
1.0
176
     1
 90
        0
176
     1
 62
    18
176
     1
 90
       50
176
     1
 90
        3
176
     1
 62
     5
420
      255
176
     1
290
     0
176
     1
 90
       50
176
     1
 90
       50
176
     1
 90
       50
176
     1
290
     0
176
     1
 90
       50
176
     1
 62
   256
176
     0
 40
1.0
176
     0
 90
        2
176
     1
  1
strokes_ogs.tif
176
     1
290
     0
176
     1
 40
1.0
176
     1
 40
1.0
176
     1
  0
VISUALSTYLE
  5
52
102
{ACAD_REACTORS
330
2B
102
}
330
2B
100
AcDbVisualStyle
  2

 70
     5
177
     3
291
     0
 70
    58
 90
        0
176
     1
 90
        2
176
     1
 90
        0
176
     1
 90
        0
176
     1
 40
0.6
176
     1
 40
30.0
176
     1
 62
     7
420
 16777215
176
     1
 90
        1
176
     1
 90
        4
176
     1
 62
     7
176
     1
 62
   257
176
     1
 90
        1
176
     1
 90
        1
176
     1
 40
1.0
176
     1
 90
        0
176
     1
 62
   257
176
     1
 40
1.0
176
     1
 90
        1
176
     1
 90
        6
176
     1
 90
        2
176
     1
 62
     7
176
     1
 90
        3
176
     1
 90
        0
176
     1
 90
        0
176
     1
290
     0
176
     1
 90
        1
176
     1
 40
0.0
176
     1
 90
        0
176
     1
290
     0
176
     1
290
     1
176
     1
290
     1
176
     1
290
     0
176
     1
290
     0
176
     1
290
     0
176
     1
290
     0
176
     1
290
     0
176
     1
290
     0
176
     1
 90
       50
176
     1
 40
0.0
176
     1
 40
1.0
176
     1
 90
        0
176
     1
 62
    18
176
     1
 90
       50
176
     1
 90
        3
176
     1
 62
     5
420
      255
176
     1
290
     0
176
     1
 90
       50
176
     1
 90
       50
176
     1
 90
       50
176
     1
290
     0
176
     1
 90
       50
176
     1
 62
   256
176
     0
 40
1.0
176
     0
 90
        2
176
     1
  1
strokes_ogs.tif
176
     1
290
     0
176
     1
 40
1.0
176
     1
 40
1.0
176
     1
1001
ACAD
1000
AcDbSavedByObjectVersion
1070
     0
  0
VISUALSTYLE
  5
22F
102
{ACAD_REACTORS
330
2B
102
}
330
2B
100
AcDbVisualStyle
  2
X-Ray
 70
    25
177
     3
291
     0
 70
    58
 90
        2
176
     1
 90
        2
176
     1
 90
        1
176
     1
 90
        1
176
     1
 40
0.5
176
     1
 40
30.0
176
     1
 62
     7
420
 16777215
176
     1
 90
        1
176
     1
 90
        0
176
     1
 62
     7
176
     1
 62
   257
176
     1
 90
        1
176
     1
 90
        1
176
     1
 40
1.0
176
     1
 90
        8
176
     1
 62
     7
176
     1
 40
1.0
176
     1
 90
        1
176
     1
 90
        6
176
     1
 90
        2
176
     1
 62
     7
176
     1
 90
        3
176
     1
 90
        0
176
     1
 90
        0
176
     1
290
     0
176
     1
 90
       13
176
     1
 40
0.0
176
     1
 90
        0
176
     1
290
     0
176
     1
290
     1
176
     1
290
     1
176
     1
290
     0
176
     1
290
     0
176
     1
290
     0
176
     1
290
     0
176
     1
290
     0
176
     1
290
     0
176
     1
 90
       50
176
     1
 40
0.0
176
     1
 40
1.0
176
     1
 90
        0
176
     1
 62
    18
176
     1
 90
       50
176
     1
 90
        3
176
     1
 62
     5
420
      255
176
     1
290
     0
176
     1
 90
       50
176
     1
 90
       50
176
     1
 90
       50
176
     1
290
     0
176
     1
 90
       50
176
     1
 62
   256
176
     0
 40
1.0
176
     0
 90
        2
176
     1
  1
strokes_ogs.tif
176
     1
290
     0
176
     1
 40
1.0
176
     1
 40
1.0
176
     1
  0
DICTIONARYVAR
  5
43
102
{ACAD_REACTORS
330
42
102
}
330
42
100
DictionaryVariables
280
     0
  1
1:1
  0
DICTIONARYVAR
  5
44
102
{ACAD_REACTORS
330
42
102
}
330
42
100
DictionaryVariables
280
     0
  1
3.500000
  0
DICTIONARYVAR
  5
45
102
{ACAD_REACTORS
330
42
102
}
330
42
100
DictionaryVariables
280
     0
  1
acadiso.lin
  0
DICTIONARYVAR
  5
46
102
{ACAD_REACTORS
330
42
102
}
330
42
100
DictionaryVariables
280
     0
  1
STANDARD
  0
DICTIONARYVAR
  5
47
102
{ACAD_REACTORS
330
42
102
}
330
42
100
DictionaryVariables
280
     0
  1
STANDARD
  0
DICTIONARYVAR
  5
48
102
{ACAD_REACTORS
330
42
102
}
330
42
100
DictionaryVariables
280
     0
  1
Metric50
  0
DICTIONARYVAR
  5
49
102
{ACAD_REACTORS
330
42
102
}
330
42
100
DictionaryVariables
280
     0
  1
Metric50
  0
DICTIONARYVAR
  5
4A
102
{ACAD_REACTORS
330
42
102
}
330
42
100
DictionaryVariables
280
     0
  1
2
  0
DICTIONARYVAR
  5
4B
102
{ACAD_REACTORS
330
42
102
}
330
42
100
DictionaryVariables
280
     0
  1
1
  0
DICTIONARYVAR
  5
4C
102
{ACAD_REACTORS
330
42
102
}
330
42
100
DictionaryVariables
280
     0
  1
0
  0
DICTIONARYVAR
  5
4D
102
{ACAD_REACTORS
330
42
102
}
330
42
100
DictionaryVariables
280
     0
  1
0
  0
DICTIONARYVAR
  5
206
102
{ACAD_REACTORS
330
42
102
}
330
42
100
DictionaryVariables
280
     0
  1
2
  0
DICTIONARYVAR
  5
205
102
{ACAD_REACTORS
330
42
102
}
330
42
100
DictionaryVariables
280
     0
  1
1
  0
DICTIONARY
  5
17
330
15
100
AcDbDictionary
280
     1
281
     1
  0
DICTIONARY
  5
3C
330
3B
100
AcDbDictionary
280
     1
281
     1
  3
ACAD_XREC_ROUNDTRIP
360
218
  3
FBXASSET
360
3D
  0
DICTIONARY
  5
39
330
38
100
AcDbDictionary
280
     1
281
     1
  3
ACAD_XREC_ROUNDTRIP
360
217
  3
FBXASSET
360
3A
  0
DICTIONARY
  5
C
330
A
100
AcDbDictionary
280
     1
281
     1
  3
ACAD_XREC_ROUNDTRIP
360
214
  3
BUMPTILE
360
D
  3
DIFFUSETILE
360
E
  3
FBXASSET
360
F
  3
OPACITYTILE
360
10
  3
REFLECTIONTILE
360
11
  0
DICTIONARY
  5
50
330
4F
100
AcDbDictionary
280
     1
281
     1
  3
ACAD_ROUNDTRIP_2008_TABLESTYLE_CELLSTYLEMAP
360
24A
  0
XRECORD
  5
218
102
{ACAD_REACTORS
330
3C
102
}
330
3C
100
AcDbXrecord
280
     1
102
MATERIAL
148
0.0
149
0.0
149
0.0
 93
        0
 94
       63
282
     0
 72
     1
 77
     1
171
     1
175
     1
179
     1
273
     0
  0
XRECORD
  5
3D
102
{ACAD_REACTORS
330
3C
102
}
330
3C
100
AcDbXrecord
280
     1
 70
     1
 90
429727718
  1
D62C5603-E3A1-4AEA-B7FB-FE5D8D0755AF
310
504B03040A0000080000CC70623B3DEE336E79000000790000001B0000006175746F6465736B2D64657369676E2D7061636B6167652E786D6C3C3F786D6C2076657273696F6E3D22312E302220656E636F64696E673D227574662D3822203F3E3C666F726D6174733E3C666F726D61743E687474703A2F2F736368656D612E
310
6175746F6465736B2E636F6D2F64657369676E2D7061636B6167652F323030393C2F666F726D61743E3C2F666F726D6174733E504B0304140006080800CC70623BD486FD9CA0000000F4000000130000005B436F6E74656E745F54797065735D2E786D6C7D8EC10E82300C865F65E91D8A1E8C310C0EEA1BF002731658846E
310
D98AC1B77784ABF1D8FE5FBFBF75BBCE937A534CCEB38643598122B6FEE978D0B0485F9C41B54DDD7D022595594E1A469170414C76A4D9A4D207E29CF43ECE46F218070CC6BECC4078ACAA135ACF422C856C0E68EA1BF5669944DDD7BCDE7B1F8E415D77AECB980613C2E4AC91FC167A2B244592486606FC29C8FD7F045B9A
310
EF7053A7E60B504B0304140006080800CC70623B853B8169EB0000007C01000008000000636F72652E786D6C8D90416EC3201045AF62CDB6C206821CC7C244919D9CA01740401C94182C03558F5F9C3852BBEB6A467FFE9B197D7EFC9E1EC5975982F5AE035262288C535E5B377690E21535501C055FBC8FBF6C503839990E
310
5619041F179FE64D52DE45E362569DD7661365082642A11EB9E920A89B99642953CC8E702F67A9EE7234257977194EC9EAE275C4EABCCF5EAD5940D4AC6F0E35A568B8F43562CD7046CD199FD07E60174276A7BE677B5EADB0E0D14EEFFB6A31321A0D82627C4084204C3F096B71DD52F6819B16635EADF63F509AF53FA164
310
5DDCD1EDDD17164090FCC8732078B56691CB33A85CD7DCC40F504B0304140006080800CC70623B55019EA25F0000007C00000007000000636E782E786D6C4DCB3B0E80201045D1AD90E915ED2CF8AC45050C11660C8261F98AB1B07AC9C97D42D718D865D3E909258CFD00CCE24AC6E326A164D74DC0B4128928FF32603847
310
2BA13128B1252AC747C6BAB984FC68F0B87FE8960A5C09FE86CFB69FBA01504B0304140006080800CC70623BDBABAAF470010000D40300000C0000006662782F636F72652E786D6CC553D16E823014FD95A6AF4B694182CC941A83FA05FB810A9511A125A5257EFE2E82712ECEB8A7F100CD39F7F69E734AF9FADC366850B6
310
AF8DCE7018308C942E4C59EB2AC3DE1D498AD15A706B8CFB56869196ADCAF00863C12B6B7C374385D14E6907A836A59A41D9F7CA615434B0C8705F7CAA5606D23BA8E84F41278B93AC54100640439DE0BDB320004D43C63716C7C399D30917DCFBBA9CD9BA8469F5B156168B24CED3F7248AC8769F27244EB73B92EED8862C
310
B7F13E0C179B3C8F979C8ECD82BBBABDAA2BAC924E9558448CBD9330242CFA08E3154B5651FCC6D215639C8EE5774DBE2B5F6CF2B5768B68963BB5F5588420E442FC700B1139D4CB01F450C1E918227C2E09DF070D8140C84E1E9AAB8F1340832A9CB13130A5F1376A908D57309505ECF2A0DF179C4E9D30F5B239B87E3823
310
7A79C6F31DE1A8A5AEC08474B03C7837EAE4938639B44E5932B833D2C6B6B279CDC613877FA26EE21F4A2A4C63EC7F29A2F301D1F9F7A0E37D145F504B0304140006080800CC70623B9C113CC27E0000009D0000000B0000006662782F636E782E786D6C4DCCDF0A83201C86E15B91DFB94BFB330DD428C8FB886521330DA7
310
6397BF1A1DECE883878F57749FCDA1B7892F1BBC047A23808C7F84D9FA55424E0BE6803A256208E9EF06C84F9B91703228B1C690F78B66B34CD9A5439DF5CF0BFBF65E35BCA1B8D6A5C6F540381E886698B5741C695F9503EBA150A2F8958E3DC3EA0B504B0304140006080800CC70623B7DF2F77C2A010000120200003100
310
00006662782F41393633353835312D344632462D344230382D423046372D3739314545314133324237412F636F72652E786D6C8D51DB8EC22014FC15C2939B0D2DB4B45643319AE817EC0F6041255A68B86CFCFC856D4D76DF7CE190393373060EDB3DC707F856CE6B6B7A480A0C81328395DA5C7B18C3057510EC3873D686
310
3F34088C18550F330C39BB3A1BA7051AAC09CA84841A2BD5020AEF55806078A44B0FFD7053A328440C89E1EFC52486BBB8AA8214A99D789CF9E05200300FC927E4FB4D5B375D43103D5527440FB843077C5AA3F5861C8F645F5787F59E95B390B318B55CE45AA638FAA2957BD7248B390B7A7CC51F9C124149C82B8C378810
310
84AB2F42B7B8DD56F413775B8C5999E9FF4471926F8AA236A1AE96B8B3CC434E5839373893369E1FAF30EA395917409EB7F26AF8801C171837A4A6AC9C89E9F9C9B1A58BA30FD6A5EF5DDDCF894B9AD9B6A59C957943A9FCAE2FD5BC4DFE03504B0304140006080800CC70623BAD7543B64E01000033030000300000006662
310
782F41393633353835312D344632462D344230382D423046372D3739314545314133324237412F636E782E786D6CD593CD6EC32010845F0571AD6CE3D48AD20813A9873E410FBD12D82434182C7EAAE6EDBB2424CD25871E7B41D6EC30B3FA84F9E67BB2E40B4234DE8DB46F1925E094D7C6ED479AD3AE5951B2113C789FEE
310
6C943839C1488B4C05DF079FE72A69D8C96C13AAD6B8631503449F83828872B949AC57D26200B826A308D316B4064D6E46FCDA41C05550DC9E483A00797BFD207EFB092A45DE9514C1BBD22178396BD39D891265658C238DEA00936C654E5E433CB65A26D9F6EDB5EBC14EBF49A45CB856E66048291F6939A9A81BB5C89177
310
38143CA680F4AA299D66A042CEB3354A2684DC9D8D178FE0D9B8B41CAAD720F880EE7EF93C0C18769E099ECC04D5A102C8049A8A05632F4DDF376CF1DE0F6BB65C2F8627B65A33C6BB62177CEBBDAD973006829F89F22E814B54F4BC2BE347F8AA8F681390B50FA73F804400B5F542E796F19FF974E7F78DB802FE05E20750
310
4B0304140006080800CC70623BE75B7789680500003C100000340000006662782F41393633353835312D344632462D344230382D423046372D3739314545314133324237412F6F626A656374732E786D6CAD575B8F9B3818FD2B887D06C22499CB8AA1CA655245D5B455A356FB305264C061D8018C6C3393D95FBFC7600890
310
A4CD5EF210B0B1BFEBF98E3F7B1FF6596ABC522E1296DF9BAE3D320D9A872C4AF2F8DE2CE5CEBA358D0FBEC719939D65A691938CDE9B6ADAF4BD98B3B2D05311DD91329583D9D5FC0F438434A7A611A644887B5384CF34233629258BA878B12322891DEFF6B66BD70BFB62634E8AE781D082709A4B588AF91C528CDA28B73F
310
1C998EEF39EABBEFA97FBD6A7C7E9553F9D3D79FE442923C3C523610337627CB87ABE99D359D4CC6D6E4FACAB5E6ABF9D2726FC6A3C5F56271377BB88362213924694B38DD99FE47C48627A1E7D49F5A8BB5E1A74C0A599ED3B0F21F1E56366B89112D681E218F0915D0D6F17AD41FBA2A369DCF6335D62ABBD39779D5DDD1
310
11D4D8DE3CBB96B2E04FB8202E41051754A1AA8E8F76B4C6DFE810B580B1547F4B84911149794252234D024EF8BBE963A95AE27B3D310A9D5C215C7960FAEE415ED75694C6AFB17BCACA5D99A60A9AA65F217B0BFC53292ACB92BF283FAD0D3621576592CB5BED907C2FA8E9DF794E35E97BEA31BED21FEB401ABB94C44839
310
DCACBF0E1C5DA8DA5B2F4DFFD32AD86F543D9E565E7056502E157C00AD2671CD534549AB752FCA9CDA00677A313F04E51B22FF19E57B300579E3C97EB29F682D92935CEC18CF901B7B54FD8C51F362B56FC72FE0B3C1EAE335EDCCBF5AEC39ADB17DC238973F804BA5E6F6BFE7AF1FB32E523BE9F3BD571418E3631DCA4D48
310
5250CF639223210A9446CA30052EDF057BD35F8329C1ECD84552BF0DC8D18BE7BCE23BFE6BD960AB4A7DE79923A103BEBD80F911CBAA2C60DB19B01CF164A5583B772EE6D3FFA56666CBCDA74DC97724A48F9A58967497E489C4D979006FD7A05E227A1EBDD0F737C623387A9C844D3709995625106D157315F8B8392CD4E0
310
A0B9A720C4BE9829CEF37EA1E13111214D53925356365ADA634861B52519DD27A00AEB808EAF0628E6F435519D446F45CF2C9CF5214F0A15B2F6D06B79DA3EE3CBF7F56780D2F4E7EF73A0F5E5B02A38D07DC852C6B7C1FBB6664213E0C39E3EBA7FF4E1AD23EA2829407C85E586727488B751B2DB9502BC7B228A3FD68B6E
310
A65A22397E690AA8D158D7E404EC8CDA235CC3B7D1898680131CEC2CDF2638C65196279577750F15884AEE19F94199155B92B13297978469D4F8D358DF0AEF7631E28DC8F0D9F437D5D39A83B2231A1D52D543813A824EF8D44BCFF2FA6A31BD1E8DAD87F1CCB526B3879935BF59CDADD5C37479BB1CDD4CA7B3556B516589
310
EF352754B706114D9C885EC9131DE6EFEB43D99AFE2391C2F958179413D7CFEF6B1B6DB1E7600F00DE6E5C67454A339A4BA2E0FBA85ED26F045D454F463DBFCE484C2F90F2E5E3666003662ED8F755951A7D1BECD5B30B550B2785C8E7320B7292A4838DDA71BBC863ED7613CAF659337A3354231D4FF4A182A54904C2898C
310
98B28C4AD0CE056CCF332A80986E571EE9DBC305BB5FEB7E509220A58D25CF042D712A806AC0AD0C657FDEF80D2D9CEAA2EE4D1C76F60BFE74219A06527D6F82DF6412526107381E55E353090704D085B52408A8913C4ED159D79BDA71BB4BC506F4831350EB6F975CD22D69BF7AC49B91A2C0A9DDA3D5CA36AD20FC478E37
310
E61844E2352865EBCB61A275A65283CAAA9DD27703B4102F5AF51EF5F573B75CBB5AD38BC845F7A49F82A0966A49C2E3EA5EA0ECD326CD965F1DB402C6FA8B51A4658C5C5E2EC9E214602E55810345408596591009A82E7E7FFACA19EEA299B14A0081A705CB3296EBC14CDF658DCD336EA6D1136881AAEB87B81AB9EE53D5
310
F5EB8BC8362082DA24122F98680A4E7930C01A0079749CEA14382A0783E5EBA5A10F8C098456A03D6A4AEB6BB881E2513747552A5DB22C7EDAF83BD5528081A365F7FF06504B0304140006080000CC70623B000000000000000000000000350000006662782F41393633353835312D344632462D344230382D423046372D37
310
39314545314133324237412F76657274696365732E62696E504B0304140006080800CC70623BF270F1330600000004000000360000006662782F41393633353835312D344632462D344230382D423046372D3739314545314133324237412F747269616E676C65732E62696E636660600000504B0304140006080000CC7062
310
3B000000000000000000000000370000006662782F41393633353835312D344632462D344230382D423046372D3739314545314133324237412F617474726962757465732E62696E504B0304140006080800CC70623B08DA0BD19000000041010000360000006662782F41393633353835312D344632462D344230382D4230
310
46372D3739314545314133324237412F6469726563746F72792E786D6C858F410AC3201045AF22B36F53E9A60B35CBEEBAE80D244E44489C6234F4F835464A48035D0DF398FF9F8AF63D0E6CC63039F212F8F9020C7D47C6792B21C5FE7403D62A1188E2E60C98D7234A5830286103A55745067B9D86B8A3CF9C7F90C11DE6
310
07FB144396D7B6A82D282E9A152AD114D5EF2CB866EEE831B8EEA07A7BB5A8D7D61A2BAAEB7FD5F70921FF497D00504B0304140006080800CC70623BEDD1DC58FD000000A00100003B0000006662782F41393633353835312D344632462D344230382D423046372D3739314545314133324237412F7265736F75726365732F
310
636F72652E786D6C8D504B6E833010BD0A9A6D65B00922041947112427E8052C33A156828DFCA97AFC9A40A576D7CDCCE87D344F8F9FBFE667F689CE6B6B3A6039850C8DB2A336530731DC4903D95970676DF82583CCC8193B5861107C72362E3BA4AC096842428D1D7107A5F7182053CF7474E0D507CE32973124857FE48B
310
540F3961CEF244279DE03EB81420DB9EAC1384436FA353E879B1B182C7A8C75DA3C7F453DF353A1075D537A7BA6464B8F535A99AE14A9A2BBD90E350DD183B5CFABE3AF262350B1EF4FC9351399401471025A527C218A1E53BAB5A5AB765F5469B96525EACF23FA6B88CFF34456DC2A1DCE36E360F82A5202F42F062ED2BAD
310
579969AFDD8A6F504B010214000A0000080000CC70623B3DEE336E79000000790000001B00000000000000000000000000000000006175746F6465736B2D64657369676E2D7061636B6167652E786D6C504B01021400140006080800CC70623BD486FD9CA0000000F40000001300000000000000000000000000B20000005B
310
436F6E74656E745F54797065735D2E786D6C504B01021400140006080800CC70623B853B8169EB0000007C010000080000000000000000000000000083010000636F72652E786D6C504B01021400140006080800CC70623B55019EA25F0000007C000000070000000000000000000000000094020000636E782E786D6C504B
310
01021400140006080800CC70623BDBABAAF470010000D40300000C00000000000000000000000000180300006662782F636F72652E786D6C504B01021400140006080800CC70623B9C113CC27E0000009D0000000B00000000000000000000000000B20400006662782F636E782E786D6C504B01021400140006080800CC70
310
623B7DF2F77C2A010000120200003100000000000000000000000000590500006662782F41393633353835312D344632462D344230382D423046372D3739314545314133324237412F636F72652E786D6C504B01021400140006080800CC70623BAD7543B64E010000330300003000000000000000000000000000D2060000
310
6662782F41393633353835312D344632462D344230382D423046372D3739314545314133324237412F636E782E786D6C504B01021400140006080800CC70623BE75B7789680500003C10000034000000000000000000000000006E0800006662782F41393633353835312D344632462D344230382D423046372D3739314545
310
314133324237412F6F626A656374732E786D6C504B01021400140006080000CC70623B0000000000000000000000003500000000000000000000000000280E00006662782F41393633353835312D344632462D344230382D423046372D3739314545314133324237412F76657274696365732E62696E504B01021400140006
310
080800CC70623BF270F133060000000400000036000000000000000000000000007B0E00006662782F41393633353835312D344632462D344230382D423046372D3739314545314133324237412F747269616E676C65732E62696E504B01021400140006080000CC70623B0000000000000000000000003700000000000000
310
000000000000D50E00006662782F41393633353835312D344632462D344230382D423046372D3739314545314133324237412F617474726962757465732E62696E504B01021400140006080800CC70623B08DA0BD1900000004101000036000000000000000000000000002A0F00006662782F41393633353835312D344632
310
462D344230382D423046372D3739314545314133324237412F6469726563746F72792E786D6C504B01021400140006080800CC70623BEDD1DC58FD000000A00100003B000000000000000000000000000E1000006662782F41393633353835312D344632462D344230382D423046372D3739314545314133324237412F7265
310
736F75726365732F636F72652E786D6C504B0506000000000E000E0080040000641100000000
  0
XRECORD
  5
217
102
{ACAD_REACTORS
330
39
102
}
330
39
100
AcDbXrecord
280
     1
102
MATERIAL
148
0.0
149
0.0
149
0.0
 93
        0
 94
       63
282
     0
 72
     1
 77
     1
171
     1
175
     1
179
     1
273
     0
  0
XRECORD
  5
3A
102
{ACAD_REACTORS
330
39
102
}
330
39
100
AcDbXrecord
280
     1
 70
     1
 90
429727718
  1
30362254-06B7-45E0-A893-8CFA70E3D6BC
310
504B03040A0000080000CC70623B3DEE336E79000000790000001B0000006175746F6465736B2D64657369676E2D7061636B6167652E786D6C3C3F786D6C2076657273696F6E3D22312E302220656E636F64696E673D227574662D3822203F3E3C666F726D6174733E3C666F726D61743E687474703A2F2F736368656D612E
310
6175746F6465736B2E636F6D2F64657369676E2D7061636B6167652F323030393C2F666F726D61743E3C2F666F726D6174733E504B0304140006080800CC70623BD486FD9CA0000000F4000000130000005B436F6E74656E745F54797065735D2E786D6C7D8EC10E82300C865F65E91D8A1E8C310C0EEA1BF002731658846E
310
D98AC1B77784ABF1D8FE5FBFBF75BBCE937A534CCEB38643598122B6FEE978D0B0485F9C41B54DDD7D022595594E1A469170414C76A4D9A4D207E29CF43ECE46F218070CC6BECC4078ACAA135ACF422C856C0E68EA1BF5669944DDD7BCDE7B1F8E415D77AECB980613C2E4AC91FC167A2B244592486606FC29C8FD7F045B9A
310
EF7053A7E60B504B0304140006080800CC70623B1EC5D7A3EB0000007C01000008000000636F72652E786D6C8D90416EC3201045AF82665B6103C6756C6122AB4D4ED00B204C5C94182C03558F5F9C3852BBEB6A467FFE9B197D71FC9E6FE8CBACC17AD7032D0820E3B41FAD9B7A48F1820F808E52ACDEC75F36404ECDA687
310
4D0629A6D5A76597B477D1B89855E747B38B2A041301E95B6E7A08FAD3CCAA50296647B8168BD2573599823EBB0CA76447F43862C7BCCF5EAC59410E4DDD9C7973C2755553CCCFA4C603E3040F1565ED3B1FDE4E432BCA0D9622DAF9795FAF464533826484B498524CD807E51D79ED187F21878E10516EF63F505AC67F42C9
310
BA58B1FDDD071640D2FCC87D2045B96591CB3DA85CB7DCE40F504B0304140006080800CC70623B55019EA25F0000007C00000007000000636E782E786D6C4DCB3B0E80201045D1AD90E915ED2CF8AC45050C11660C8261F98AB1B07AC9C97D42D718D865D3E909258CFD00CCE24AC6E326A164D74DC0B4128928FF32603847
310
2BA13128B1252AC747C6BAB984FC68F0B87FE8960A5C09FE86CFB69FBA01504B0304140006080800CC70623B8C9102E971010000D40300000C0000006662782F636F72652E786D6CC5535B6E833010BC8AE5DF0A6C08340F1947A84D4ED00B38C6A128602363A31CBFCB234A53A551FA553EC09AD9F5CE8C31DB9E9B1AF5CA
310
7695D1198E428A91D2D214952E33ECDD315861B4E5CC1AE3BE9561A445A3323CC098B3D21ADFCE9034DA29ED00D5A6503328BA4E398C640D8B0C77F253352214DE4145770A5B214FA2546114020D759C75CE8200340D19DE981F0F6746269C33EFAB6266AB02A655C74A59CCF365BADC27CB5D902ED22848F6340DF238A141
310
BE88E2F57B92BFEDF23523433367AE6A2EEAA455C2A902F398D2751045018D3FA264435F3771F242571B4A1919CA6F9A7C5B3CD9E42BED16F12C776AEB308F40C848FC700B1139D4891EF410CEC810227CC6846F8386402064270EF5C5C709A05E49676C024C61FC95EA45ED154CA5211D1FF4FB8291A913A68E9B83EBBB33
310
E2A7673CDE118E5AE8124C0807CB8377834E366998436B950D7A7746DAD846D4CFD978E0F04FD455FC5D49D2D4C6FE9722321F10997F0F32DC47FE05504B0304140006080800CC70623BFFEA85907E0000009D0000000B0000006662782F636E782E786D6C4DCCD10A83201886E15B91FFDC95D95A811AB6F23E625948A6C3
310
E9D8E5AF46073BFAE0E1E365ED67B3E8ADC3CB78C7815C7240DA3DFC64DCC221C519D7805AC182F7F1EF06C88D9BE6703008B6049F9E274D7A1E938DBB5AE3D6131B2589BA0D3D965551E0B2EA732C9B9A624AAEB41E3A557677029960D9AFB4EF11165F504B0304140006080800CC70623B4FEEA4082C0100001202000031
310
0000006662782F39464131463745442D413632322D343644302D413938332D3331353338454246344243312F636F72652E786D6C8D515B6EC32010BC0AE2AB55850DD871ED0813254D72825EC00192A2C460F1A872FC42ED48ED5F7E00CDCECCCEB26C731F6FE05B39AFADE921293004CA082BB5B9F43086336A21D870E6AC
310
0D7F68109861543DCC30E4ECE26C9C164858139409093556AA051CBC570102714B8F1E7AF1A5C6A11862480C7F2DA6415C878B2A4891CA89C7990F2E050073937C42DE1DB7E4F87ED8A36D4329AA9B3D46DBAEAD504556557BD81DEBDD0761E52CE42C462D17B996298E3E6BE59E35C962CE821E1FF18553435012728A7187
310
0841987E927A8D9B35ADDF70BBC6989599FE4F1427F9A4286A132ABAC49D651EF234CD5CE04CDA78BA3DC2A8FB645D00B9DF8B57E215725C60BCA2A463E54C4CE327C7A65E1C7DB02E7DEFCBF594B864C5CA6CDBD49C957943E9FA5D5FBAF336F90F504B0304140006080800CC70623BAD7543B64E01000033030000300000
310
006662782F39464131463745442D413632322D343644302D413938332D3331353338454246344243312F636E782E786D6CD593CD6EC32010845F0571AD6CE3D48AD20813A9873E410FBD12D82434182C7EAAE6EDBB2424CD25871E7B41D6EC30B3FA84F9E67BB2E40B4234DE8DB46F1925E094D7C6ED479AD3AE5951B2113C
310
789FEE6C943839C1488B4C05DF079FE72A69D8C96C13AAD6B8631503449F83828872B949AC57D26200B826A308D316B4064D6E46FCDA41C05550DC9E483A00797BFD207EFB092A45DE9514C1BBD22178396BD39D891265658C238DEA00936C654E5E433CB65A26D9F6EDB5EBC14EBF49A45CB856E66048291F6939A9A81BB5
310
C8917738143CA680F4AA299D66A042CEB3354A2684DC9D8D178FE0D9B8B41CAAD720F880EE7EF93C0C18769E099ECC04D5A102C8049A8A05632F4DDF376CF1DE0F6BB65C2F8627B65A33C6BB62177CEBBDAD973006829F89F22E814B54F4BC2BE347F8AA8F681390B50FA73F804400B5F542E796F19FF974E7F78DB802FE05
310
E207504B0304140006080800CC70623B16AB87BA640500003C100000340000006662782F39464131463745442D413632322D343644302D413938332D3331353338454246344243312F6F626A656374732E786D6CAD575B6FA33818FD2B887DE6924B3BED8A326A92B68A663B534DD4D13E548A0C38942D60649B369D5FBFC7
310
600890A493BDE42160637FD7F31D7FF63E6FB3D478A55C242CBF3247B66B1A340F5994E4F19559CA8D75611A9F7D8F33263BCB4C232719BD32D5B4E97B316765A1A722BA21652A07B3B7B33F0D11D29C9A46981221AE4C113ED38CD8A4942CA2E2C58E882476BCD9DA23BB5ED8171B73523C0F841684D35CC252CCE79062D4
310
468DFA43D7747CCF51DF7D4FFDEB5593E3AB9CCA9FBEFE241792E4E19EB28198C968BAB8199F5D5A67D3E9C49A9E8F47D6EC76B6B0469F26EEFC7C3EBFBCBEB98462213924694B38DD98FE1D62C393D073EA4FADC5DAF04326852CCF6958F90F0F2B9BB5C48816348F90C7840A68EB78EDF68723159BCEE7891A6B95DDE9D3
310
BCEAEEE8086A6C6F9E5D4B59F0175C10A7A0820BAA5055C7473B5AE3CFDD452D602CD5DF12616444529E90D448938013FE6EFA58AA96F85E4F8C42275708571E98FE6827AF6B2B4AE3D7D83D64E5A64C53054DD3AF90BD06FEA9149565C94FCA0F6B834DC85599E4F2423B24DF0B6AFA979E534DFA9E7A4CC6FA631D486393
310
921829879BF5D781A373557BCB85E97FB90DB62B558F8795179C15944B051F40AB495CF35451D26A4727654E6D8033BD98EF82F21D91FF8AF2DD9982BCF1643BDD4EB516C9492E368C67C88DED563FC36D5EACF66DFF057C3658BDBFA69DF9578B3DA735B64F18C7F20770A9D45CFCF7FCF563D6456A277DBEF78A02637CA2
310
43B90A490AEAB94F72244481D24819A6C0E59B606BFA4B3025981DBB48EAB701D97BF19C577CC77F2D1B6C55A9EF3C732474C0B727303F625995056C3B02963D9EAC146BE78EC5FCEC7FA999EBC5EACBAAE41B12D27B4D2C0BBA49F244E2ECDC81B76B502F113D8F5EE8FB1BE3111CDD4FC2AA9B844CAB1288B68AB90A7CDC
310
1C166AB0D3DC5310625FCC14E779BFD0709F8890A629C9292B1B2DED31A4B0DA928CEE135085754027E3018A397D4D5427D15BD1330B677DC8934285AC3DF45A9EB68FF8F2B8FC0A509AFEECFD0FF2DE25CC6047F7214B195F07EFEB9A094D800F7BFAE8FED187B78EA8A3A400F115961BCAD1215E47C966530AF0EE8128FE
310
58CEBB996A8964FFA529A046635D9353B0336A8F700DDF46271A024E70B0B37C9DE01847591E54DED53D54202AB947E4076556AC49C6CA5C9E1226B7F1A7B1BE15DEED62C41B91E1B3E9AFAAA735036547343A925075041DF0A9979E893B391F8FCFA6967B3EFB644DCF6E5CEBFAE272625DCC6FAF3FB93793C5F90CE1EF57
310
407342756B10D1C489E8953CD1617E5CEECAD6F4EF8914CE5D5D504E5C3F1F9736DA62CFC11E00BCDDB8CC8A9466349744C1F75EBDA4DF09BA8A9E8C7A7E9991989E20E5DBDD6A6003664ED8F7A04A8DBE0DF6EAD9B9AA858342E47399053949D2C146EDB85DE4B176BB0965FBAC19BD19AA918E27FA50C1D22402E144464C
310
59462568E704B6E71915404CB72B8FF4EDE184DDAF753F284990D2C6926782963815403548A70C657FDEF80D2D9CEAA2AE4C1C76F60BFE74219A06527D6582DF6412526107381E55E353090704D085B52408D0933C4ED159D79BDA71BB4BC506F4831350EB6F979CD22D69BF7AC49B91A2C0A9DDA3D5CA36AD20FC478E37E6
310
1844E2352865EBCB6EA275A652E3836BE04EFB400BF1A2556F515F1FBB35B2AB35BD889C744FFA1004B5544B121E57F70215746DD2F5E2C1412B602CBF19455AC6C8E5E9922C4E01E65215385004546899059180EAFCF7A707CE7017CD8CDB0410789AB32C63B91E5CEBBBACB17AC6CD347A022D5075FD106377347AAABA7E
310
7D11590744509B44E205134DC1290F06580320F78E537D3D73540E06CB970B431F185308AD40BBD794D6D77003C5A36E8EAA54BA64597CD8F83BD552A080A365F7FF06504B0304140006080000CC70623B000000000000000000000000350000006662782F39464131463745442D413632322D343644302D413938332D3331
310
353338454246344243312F76657274696365732E62696E504B0304140006080800CC70623BF270F1330600000004000000360000006662782F39464131463745442D413632322D343644302D413938332D3331353338454246344243312F747269616E676C65732E62696E636660600000504B0304140006080000CC70623B
310
000000000000000000000000370000006662782F39464131463745442D413632322D343644302D413938332D3331353338454246344243312F617474726962757465732E62696E504B0304140006080800CC70623B08DA0BD19000000041010000360000006662782F39464131463745442D413632322D343644302D413938
310
332D3331353338454246344243312F6469726563746F72792E786D6C858F410AC3201045AF22B36F53E9A60B35CBEEBAE80D244E44489C6234F4F835464A48035D0DF398FF9F8AF63D0E6CC63039F212F8F9020C7D47C6792B21C5FE7403D62A1188E2E60C98D7234A5830286103A55745067B9D86B8A3CF9C7F90C11DE607
310
FB144396D7B6A82D282E9A152AD114D5EF2CB866EEE831B8EEA07A7BB5A8D7D61A2BAAEB7FD5F70921FF497D00504B0304140006080800CC70623B0D6EF93BFE000000A00100003B0000006662782F39464131463745442D413632322D343644302D413938332D3331353338454246344243312F7265736F75726365732F63
310
6F72652E786D6C8D50596E833010BD0A9ADFCA60B334011947A8694ED00B586642AC041B79A97AFC9A40A5F6AF3F33A3B7689E1E3F7DCD8FEC139DD7D6F4C0720A191A65476DA61E62B892236427C19DB5E1970C322367EC618541F0C9D9B8EC90B226A009093576C41D94DE63804C3DD2D18357379C652E63480A7FCF17A9
310
EE72C29CE5894E3AC17D702940B63D59270887DE46A7D0F36263058F518FBB468FE9A7BE6A7420864373B8D4873369AA8691FA421B3294352543C5CAF65C0F6FEF43CB8BD52C78D0F34F46E550061C419494B6843142CB0F5677F4B52BEB177AEC28E5C52AFF638ACBF84F53D42654E51E77B379102C05791282176B5F693D
310
CB4C7BED567C03504B010214000A0000080000CC70623B3DEE336E79000000790000001B00000000000000000000000000000000006175746F6465736B2D64657369676E2D7061636B6167652E786D6C504B01021400140006080800CC70623BD486FD9CA0000000F40000001300000000000000000000000000B20000005B
310
436F6E74656E745F54797065735D2E786D6C504B01021400140006080800CC70623B1EC5D7A3EB0000007C010000080000000000000000000000000083010000636F72652E786D6C504B01021400140006080800CC70623B55019EA25F0000007C000000070000000000000000000000000094020000636E782E786D6C504B
310
01021400140006080800CC70623B8C9102E971010000D40300000C00000000000000000000000000180300006662782F636F72652E786D6C504B01021400140006080800CC70623BFFEA85907E0000009D0000000B00000000000000000000000000B30400006662782F636E782E786D6C504B01021400140006080800CC70
310
623B4FEEA4082C0100001202000031000000000000000000000000005A0500006662782F39464131463745442D413632322D343644302D413938332D3331353338454246344243312F636F72652E786D6C504B01021400140006080800CC70623BAD7543B64E010000330300003000000000000000000000000000D5060000
310
6662782F39464131463745442D413632322D343644302D413938332D3331353338454246344243312F636E782E786D6C504B01021400140006080800CC70623B16AB87BA640500003C1000003400000000000000000000000000710800006662782F39464131463745442D413632322D343644302D413938332D3331353338
310
454246344243312F6F626A656374732E786D6C504B01021400140006080000CC70623B0000000000000000000000003500000000000000000000000000270E00006662782F39464131463745442D413632322D343644302D413938332D3331353338454246344243312F76657274696365732E62696E504B01021400140006
310
080800CC70623BF270F133060000000400000036000000000000000000000000007A0E00006662782F39464131463745442D413632322D343644302D413938332D3331353338454246344243312F747269616E676C65732E62696E504B01021400140006080000CC70623B0000000000000000000000003700000000000000
310
000000000000D40E00006662782F39464131463745442D413632322D343644302D413938332D3331353338454246344243312F617474726962757465732E62696E504B01021400140006080800CC70623B08DA0BD190000000410100003600000000000000000000000000290F00006662782F39464131463745442D413632
310
322D343644302D413938332D3331353338454246344243312F6469726563746F72792E786D6C504B01021400140006080800CC70623B0D6EF93BFE000000A00100003B000000000000000000000000000D1000006662782F39464131463745442D413632322D343644302D413938332D3331353338454246344243312F7265
310
736F75726365732F636F72652E786D6C504B0506000000000E000E0080040000641100000000
  0
XRECORD
  5
214
102
{ACAD_REACTORS
330
C
102
}
330
C
100
AcDbXrecord
280
     1
102
MATERIAL
148
0.0
149
0.0
149
0.0
 93
        0
 94
       63
282
     0
 72
     1
 77
     1
171
     1
175
     1
179
     1
273
     0
  0
XRECORD
  5
D
102
{ACAD_REACTORS
330
C
102
}
330
C
100
AcDbXrecord
280
     1
270
     1
271
     1
  0
XRECORD
  5
E
102
{ACAD_REACTORS
330
C
102
}
330
C
100
AcDbXrecord
280
     1
270
     1
271
     1
  0
XRECORD
  5
F
102
{ACAD_REACTORS
330
C
102
}
330
C
100
AcDbXrecord
280
     1
 70
     0
 90
1673772943
  1
ECE7A1D2-D628-4531-984C-D00F80459256
310
504B03040A0000080000CC70623B3DEE336E79000000790000001B0000006175746F6465736B2D64657369676E2D7061636B6167652E786D6C3C3F786D6C2076657273696F6E3D22312E302220656E636F64696E673D227574662D3822203F3E3C666F726D6174733E3C666F726D61743E687474703A2F2F736368656D612E
310
6175746F6465736B2E636F6D2F64657369676E2D7061636B6167652F323030393C2F666F726D61743E3C2F666F726D6174733E504B0304140006080800CC70623BD486FD9CA0000000F4000000130000005B436F6E74656E745F54797065735D2E786D6C7D8EC10E82300C865F65E91D8A1E8C310C0EEA1BF002731658846E
310
D98AC1B77784ABF1D8FE5FBFBF75BBCE937A534CCEB38643598122B6FEE978D0B0485F9C41B54DDD7D022595594E1A469170414C76A4D9A4D207E29CF43ECE46F218070CC6BECC4078ACAA135ACF422C856C0E68EA1BF5669944DDD7BCDE7B1F8E415D77AECB980613C2E4AC91FC167A2B244592486606FC29C8FD7F045B9A
310
EF7053A7E60B504B0304140006080800CC70623BD9DDAED0EC0000007C01000008000000636F72652E786D6C8D90416EC3201045AF82665B61836D9CD8C2444DD39CA01740405C94182C03558F5F9C3852BBEB6A467FFE9B197D7EF89E6EE8CB2CC17A37002D0820E394D7D68D03A478C17B4007C117EFE32F1B20272733C0
310
2A83E0E3E2D3BC49CABB685CCCAAF3DA6CA20CC14440EA969B0182FA34932C648AD911AEC52CD5558EA6A0CF2EC329598D1E47ACCEFBECC59A050463A7EA5833865FEBDD0E37353BE3EE8DBDE3F6786A48D375FBF6CC78B9C282473B3DEFABC5C86834888A900E538A49F5419B9EB47DD5BC907D4F082F57FB1F28CDFA9F50
310
B22ED6D5F6EE030B20687EE43E10BC5CB3C8E51E54AE6B6EE207504B0304140006080800CC70623B55019EA25F0000007C00000007000000636E782E786D6C4DCB3B0E80201045D1AD90E915ED2CF8AC45050C11660C8261F98AB1B07AC9C97D42D718D865D3E909258CFD00CCE24AC6E326A164D74DC0B4128928FF326038
310
472BA13128B1252AC747C6BAB984FC68F0B87FE8960A5C09FE86CFB69FBA01504B0304140006080800CC70623BA24EB22D72010000D40300000C0000006662782F636F72652E786D6CC5535B6E833010BC8AE5DF0A6C5E49888CA3A6694ED00B38E05014B091B1518EDFE511A5A9D228FD2A1F60CDEC7A67C6986DCE4D8D7A
310
69BA4AAB0C073EC548AA5C17952A33ECECD15B61B4E1CC686DBF9561A44423333CC098B3D268D7CE50AE9595CA02AA74216750749DB418E5352C32DCE59FB211BE70162ABA93DF8AFC244AE9073ED050C759670D0840D390E18DF9F1706664C23973AE2A66B62A605A75ACA4C13C4976E1364A12EF355A2EBD384AF65EFA96
310
BC7B8BED2EA6719AAE16FB8491A199335B351775B991C2CA02F390D2D40B028F861F41BCA68B7518BFD0D59A524686F29B26D7164F36B94AD9289CE54E6D1DE6010819891F6E21228B3AD1831EC219194284CF98F06DD01008846CC5A1BEF83801D4CBDC6A1303536877A57A513B0953A94FC707FDBE6064EA84A9E3E6E0FA
310
EE8CF0E9198F7784A316AA0413C2C2F2E0ECA0934D1AE6D05A69BCDE9E91D2A611F573361E38FC1375157F5752AE6B6DFE4B11990F88CCBF0719EE23FF02504B0304140006080800CC70623B408A7D3B7C0000009D0000000B0000006662782F636E782E786D6C4DCCD10A83201886E15B91FFDC552A92A0064DBC8F581632
310
D3703A76F9ABD1C18E3E78F878E5F0D9027ABBFCF2292AE86E2D20171F69F6715550CB827B40839639A5F2770314A7CD293819B45C73AAFB45B35BA61ACAA1C1C7E7855C58C15BC331339661262CC762340413D68D77DA5B42298546CBE6573AF60CEB2F504B0304140006080800CC70623B449FB9BD290100001202000031
310
0000006662782F36394639363044362D344446342D343946362D394244322D3234314243333846323333332F636F72652E786D6C8D515B6EC32010BC0AE22B55850D98B871848994463E412FE002495162B07854397EA176A4F62F3F2C9A9D991D587EB84F37F0AD7D30CEF6905418026DA553C65E7A98E219ED203808EE9D
310
8B7F6810D871D23D2C3014FCE25D9A57483A1BB58D19B54EE9151C43D0110279CB971E06F9A5A7B11A53CC8C70ADE6515EC78BAE4895DB992778883E0700CB907242D17643D7E2538BD869608875438BBAE38922CAC8F1BDD90DB4691A5E2F42C153326A951B95E398B3D1FE599322163C9AE9115F7A3D46ADA0A018778810
310
84E907617BDCEE297BC5BB3DC6BC2EF47FA234AB2745C9D8D8D035EE220B50105E2F0DC1954B9FB747187D9F9D8FA0CCDB042D5FA0C015C65B42DF78BD10F3F3B363CB56C7109DCFDFBBB97E662ED92EB62D13BC2E1BCAE5777DB9966D8A1F504B0304140006080800CC70623BAD7543B64E01000033030000300000006662
310
782F36394639363044362D344446342D343946362D394244322D3234314243333846323333332F636E782E786D6CD593CD6EC32010845F0571AD6CE3D48AD20813A9873E410FBD12D82434182C7EAAE6EDBB2424CD25871E7B41D6EC30B3FA84F9E67BB2E40B4234DE8DB46F1925E094D7C6ED479AD3AE5951B2113C789FEE
310
6C943839C1488B4C05DF079FE72A69D8C96C13AAD6B8631503449F83828872B949AC57D26200B826A308D316B4064D6E46FCDA41C05550DC9E483A00797BFD207EFB092A45DE9514C1BBD22178396BD39D891265658C238DEA00936C654E5E433CB65A26D9F6EDB5EBC14EBF49A45CB856E66048291F6939A9A81BB5C89177
310
38143CA680F4AA299D66A042CEB3354A2684DC9D8D178FE0D9B8B41CAAD720F880EE7EF93C0C18769E099ECC04D5A102C8049A8A05632F4DDF376CF1DE0F6BB65C2F8627B65A33C6BB62177CEBBDAD973006829F89F22E814B54F4BC2BE347F8AA8F681390B50FA73F804400B5F542E796F19FF974E7F78DB802FE05E20750
310
4B0304140006080800CC70623B8D05915C650500003B100000340000006662782F36394639363044362D344446342D343946362D394244322D3234314243333846323333332F6F626A656374732E786D6CAD575B6FA33814FE2B887D06429276DA1565D4266D158D3A339A6846FB502932E050B66023DB74D2FDF5FB190C01
310
9276B2973C046C8ECFF53B17071F77456EBD502133CEAE6CDF9DD81665314F32965ED995DA3A17B6F5310C04E7AA47665B8C14F4CAD6DB7618A48257A5D94AE89654B91AEDDEDDFC61C998326A5B714EA4BCB265FC440BE2924AF184CA6737218AB8E976E7FA6E4338649B0A523E8D98964450A6A029F619B8588D52FE7039
310
B1BD30F0F4F730D0FF866AF6369557DB33949F31A9088B0F848DD8CCFCF9F2767A76E99CCDE733677E3EF59D9BBB9BA5E37F984D16E78BC5E5F5ED25044B25C0C96822E8D60EEFE11B91C581D77CEA34368A1F5329E68CD1B8B61F16D63A1B8E092D294B10C78C4A48EB593D192E7DED9BDEE7995E1B91FDEDD3ACEA9FE831
310
6A756F9F7D4D79F4274C90A7A04248AA51D5F8C718DAE06FB2F75AC4796EBE65D22A88A22223B995679120E2D50E41AA49C260C046A35368846B0BECD0DFF3EBEB8AD4F835768F69B9ADF25C43D30E6B646F807FAA64AD59F61715C7A54127C4AACA98BA3006A9D792DAE165E0D59B61A01FB3A9F9D838D2DAE62445C86166
310
F37564E842E7DE6A69879FEEA2DD5AE7E371E1A5E025154AC307D06A03D73EB5978C58FFA4C8E9033066E0F3BD53BEC1F39F91BE7B55103791EDE6BBB991A2046172CB4581D8B893FA674DDA17A77B3B7C413D1B511FD2743BFF8A38F03A658705E3ADF8015C3A3417FF3D7E439FF591DA0B5F18BC20C1B8981957AE6392A3
310
F43C640C01D1A0B4728E2DD4F26DB4B3C3152A252A3B4E913CEC1C72F012782FF88EFF8637AA552DBEF76408E8A8DE9E50F9E1CB3A2DA0DB1B6039A893B56063DC5B3E3FFB5F72E67AB9FEB4AEC496C4F4C1149625DD662C53E89D7BF0F6151A046260D1337DFDC94502430F83B0EE07A130A224BCAD7DAE1D9FB6CD422FF6
310
920702629C4BB9AE79C12F243C6432A6794E18E5552BA56B431AAB5D91317302B2B071E86C3A42B1A02F999E24061403B5D0EB639195DA655DD3EBEAB4FB862DDF579F014AD0E73C22F99E28DA57FB98E75C6CA2D74D53086D600F4786E0FE3144B771A8A7B900F03594DB8A633CBC49B2EDB69228BB479CF863B5E807AAAB
310
23872F6DFEB4129B949CA33823F58830E86D65621E10047D9DB34D862E8EAC3C2ABC2F7B2C40D67CDFE01F5545B92105AF983AC54D93D69E56FB8E797F88913F898A9FEC705D3F9D1B54EC8426FB500D40A03BD0119B06E1B95DDC7EB8F6975367793EBD70E66733DFB9BC982F9CE564727731999F5D4ECFCE3B8D6A4DC2A0
310
6D50FD148437D110834A64C6CDDF57FBACB5C307A2A477DFE4939736CFEF2B175371E0E10CF0DD1D5C15654E0BCA14D1E87DD02FF93782A162C0A3D95F1524A52770F972BF1EE9809D13CE7DD599467F8ECE9ADD85CE85A34CD45355448C64F9E8A031DC2D596ACC6E5DD93D9B82DE2EF5CAF81363A8E47996A0DE24564A79
310
4115AACE09C55E14540231FDA13C319787134EBF34E3A022514E5B4D9E0826E25C02D5805B15ABE1BEF51B26383D445DD9E875EE33FE4C22DA16427D65A3BCA92CA6D28DD01DF5DC53330704308475351050232CCD31583787BA75774AFB06E5070DD0C8EF484E19968C5D83BA5B90B244D31E54D55A372320FE4786B7EA58
310
44E135AA5467CB7EA333A61683CC6A8C3257034C10CF46F40EF9F5BE59BE5BD30C3C72D235E95D10345C1D45445A5F0BB47E46A5EBE5570F9380B5FA629579952296A773720405982B9DE04011506178964401AA8BDF1FBF0A8EAB6861DD6580C0E38217056766716DAEB2D6FA0917D3E4116581EADB879C4E7CFFB11EFACD
310
3D641311495D92C8676CB409A72D18610D803CE8A626049E8EC1887CB5B44CC39883690DDA8399B4B9855B481E7D71D4A9D22F96E5BB73BF5793020C02137BF837504B0304140006080000CC70623B000000000000000000000000350000006662782F36394639363044362D344446342D343946362D394244322D32343142
310
43333846323333332F76657274696365732E62696E504B0304140006080800CC70623BF270F1330600000004000000360000006662782F36394639363044362D344446342D343946362D394244322D3234314243333846323333332F747269616E676C65732E62696E636660600000504B0304140006080000CC70623B0000
310
00000000000000000000370000006662782F36394639363044362D344446342D343946362D394244322D3234314243333846323333332F617474726962757465732E62696E504B0304140006080800CC70623B08DA0BD19000000041010000360000006662782F36394639363044362D344446342D343946362D394244322D
310
3234314243333846323333332F6469726563746F72792E786D6C858F410AC3201045AF22B36F53E9A60B35CBEEBAE80D244E44489C6234F4F835464A48035D0DF398FF9F8AF63D0E6CC63039F212F8F9020C7D47C6792B21C5FE7403D62A1188E2E60C98D7234A5830286103A55745067B9D86B8A3CF9C7F90C11DE607FB14
310
4396D7B6A82D282E9A152AD114D5EF2CB866EEE831B8EEA07A7BB5A8D7D61A2BAAEB7FD5F70921FF497D00504B0304140006080800CC70623BCA768048FE000000A00100003B0000006662782F36394639363044362D344446342D343946362D394244322D3234314243333846323333332F7265736F75726365732F636F72
310
652E786D6C8D50596E833010BD0A9ADFCA60D600328E9AA639412F609909B1126CE4A5EAF16B0295DABFFECC8CDEA2797AECF8353F924FB44E193D409E5248504B332A3D0D10FC95B4901C39B3C6F85F3248B49871801506CE266BC2B243D2688FDA47549B11775038871E12F988C7004EDE7016A9083E2ADC3D5D84BC8B09
310
D33C8D74D471E6BC8D0192EDC93A815B742658898E651BCB59086ADC356A8C3FD555A1055ED7E7E254D615792D0F075295F585746FF53B694EE78A565DD736979A65AB9933AFE69F8CD2A2F038022F28ED489E135A7CE4554F9BBEA85E68DB53CAB255FEC71496F19FA6A0B42F8B3DEE6673C0F318E4497096AD7DC5F52C33
310
EEB55BFE0D504B010214000A0000080000CC70623B3DEE336E79000000790000001B00000000000000000000000000000000006175746F6465736B2D64657369676E2D7061636B6167652E786D6C504B01021400140006080800CC70623BD486FD9CA0000000F40000001300000000000000000000000000B20000005B436F
310
6E74656E745F54797065735D2E786D6C504B01021400140006080800CC70623BD9DDAED0EC0000007C010000080000000000000000000000000083010000636F72652E786D6C504B01021400140006080800CC70623B55019EA25F0000007C000000070000000000000000000000000095020000636E782E786D6C504B0102
310
1400140006080800CC70623BA24EB22D72010000D40300000C00000000000000000000000000190300006662782F636F72652E786D6C504B01021400140006080800CC70623B408A7D3B7C0000009D0000000B00000000000000000000000000B50400006662782F636E782E786D6C504B01021400140006080800CC70623B
310
449FB9BD290100001202000031000000000000000000000000005A0500006662782F36394639363044362D344446342D343946362D394244322D3234314243333846323333332F636F72652E786D6C504B01021400140006080800CC70623BAD7543B64E010000330300003000000000000000000000000000D20600006662
310
782F36394639363044362D344446342D343946362D394244322D3234314243333846323333332F636E782E786D6C504B01021400140006080800CC70623B8D05915C650500003B10000034000000000000000000000000006E0800006662782F36394639363044362D344446342D343946362D394244322D32343142433338
310
46323333332F6F626A656374732E786D6C504B01021400140006080000CC70623B0000000000000000000000003500000000000000000000000000250E00006662782F36394639363044362D344446342D343946362D394244322D3234314243333846323333332F76657274696365732E62696E504B010214001400060808
310
00CC70623BF270F13306000000040000003600000000000000000000000000780E00006662782F36394639363044362D344446342D343946362D394244322D3234314243333846323333332F747269616E676C65732E62696E504B01021400140006080000CC70623B00000000000000000000000037000000000000000000
310
00000000D20E00006662782F36394639363044362D344446342D343946362D394244322D3234314243333846323333332F617474726962757465732E62696E504B01021400140006080800CC70623B08DA0BD190000000410100003600000000000000000000000000270F00006662782F36394639363044362D344446342D
310
343946362D394244322D3234314243333846323333332F6469726563746F72792E786D6C504B01021400140006080800CC70623BCA768048FE000000A00100003B000000000000000000000000000B1000006662782F36394639363044362D344446342D343946362D394244322D3234314243333846323333332F7265736F
310
75726365732F636F72652E786D6C504B0506000000000E000E0080040000621100000000
  0
XRECORD
  5
10
102
{ACAD_REACTORS
330
C
102
}
330
C
100
AcDbXrecord
280
     1
270
     1
271
     1
  0
XRECORD
  5
11
102
{ACAD_REACTORS
330
C
102
}
330
C
100
AcDbXrecord
280
     1
270
     1
271
     1
  0
CELLSTYLEMAP
  5
24A
102
{ACAD_REACTORS
330
50
102
}
330
50
100
AcDbCellStyleMap
 90
        3
300
CELLSTYLE
  1
TABLEFORMAT_BEGIN
 90
        5
170
     1
 91
        0
 92
    32768
 62
   257
 93
        1
300
CONTENTFORMAT
  1
CONTENTFORMAT_BEGIN
 90
        0
 91
        0
 92
      512
 93
        0
300

 40
0.0
140
1.0
 94
        5
 62
     0
340
21
144
6.0
309
CONTENTFORMAT_END
171
     1
301
MARGIN
  1
CELLMARGIN_BEGIN
 40
1.5
 40
1.5
 40
1.5
 40
1.5
 40
0.18
 40
0.18
309
CELLMARGIN_END
 94
        6
 95
        1
302
GRIDFORMAT
  1
GRIDFORMAT_BEGIN
 90
        0
 91
        1
 62
     0
 92
       -2
340
24
 93
        0
 40
1.125
309
GRIDFORMAT_END
 95
        2
302
GRIDFORMAT
  1
GRIDFORMAT_BEGIN
 90
        0
 91
        1
 62
     0
 92
       -2
340
24
 93
        0
 40
1.125
309
GRIDFORMAT_END
 95
        4
302
GRIDFORMAT
  1
GRIDFORMAT_BEGIN
 90
        0
 91
        1
 62
     0
 92
       -2
340
24
 93
        0
 40
1.125
309
GRIDFORMAT_END
 95
        8
302
GRIDFORMAT
  1
GRIDFORMAT_BEGIN
 90
        0
 91
        1
 62
     0
 92
       -2
340
24
 93
        0
 40
1.125
309
GRIDFORMAT_END
 95
       16
302
GRIDFORMAT
  1
GRIDFORMAT_BEGIN
 90
        0
 91
        1
 62
     0
 92
       -2
340
24
 93
        0
 40
1.125
309
GRIDFORMAT_END
 95
       32
302
GRIDFORMAT
  1
GRIDFORMAT_BEGIN
 90
        0
 91
        1
 62
     0
 92
       -2
340
24
 93
        0
 40
1.125
309
GRIDFORMAT_END
309
TABLEFORMAT_END
  1
CELLSTYLE_BEGIN
 90
        1
 91
        1
300
_TITLE
309
CELLSTYLE_END
300
CELLSTYLE
  1
TABLEFORMAT_BEGIN
 90
        5
170
     1
 91
        0
 92
        0
 62
   257
 93
        1
300
CONTENTFORMAT
  1
CONTENTFORMAT_BEGIN
 90
        0
 91
        0
 92
      512
 93
        0
300

 40
0.0
140
1.0
 94
        5
 62
     0
340
21
144
4.5
309
CONTENTFORMAT_END
171
     1
301
MARGIN
  1
CELLMARGIN_BEGIN
 40
1.5
 40
1.5
 40
1.5
 40
1.5
 40
0.18
 40
0.18
309
CELLMARGIN_END
 94
        6
 95
        1
302
GRIDFORMAT
  1
GRIDFORMAT_BEGIN
 90
        0
 91
        1
 62
     0
 92
       -2
340
24
 93
        0
 40
1.125
309
GRIDFORMAT_END
 95
        2
302
GRIDFORMAT
  1
GRIDFORMAT_BEGIN
 90
        0
 91
        1
 62
     0
 92
       -2
340
24
 93
        0
 40
1.125
309
GRIDFORMAT_END
 95
        4
302
GRIDFORMAT
  1
GRIDFORMAT_BEGIN
 90
        0
 91
        1
 62
     0
 92
       -2
340
24
 93
        0
 40
1.125
309
GRIDFORMAT_END
 95
        8
302
GRIDFORMAT
  1
GRIDFORMAT_BEGIN
 90
        0
 91
        1
 62
     0
 92
       -2
340
24
 93
        0
 40
1.125
309
GRIDFORMAT_END
 95
       16
302
GRIDFORMAT
  1
GRIDFORMAT_BEGIN
 90
        0
 91
        1
 62
     0
 92
       -2
340
24
 93
        0
 40
1.125
309
GRIDFORMAT_END
 95
       32
302
GRIDFORMAT
  1
GRIDFORMAT_BEGIN
 90
        0
 91
        1
 62
     0
 92
       -2
340
24
 93
        0
 40
1.125
309
GRIDFORMAT_END
309
TABLEFORMAT_END
  1
CELLSTYLE_BEGIN
 90
        2
 91
        1
300
_HEADER
309
CELLSTYLE_END
300
CELLSTYLE
  1
TABLEFORMAT_BEGIN
 90
        5
170
     1
 91
        0
 92
        0
 62
   257
 93
        1
300
CONTENTFORMAT
  1
CONTENTFORMAT_BEGIN
 90
        0
 91
        0
 92
      512
 93
        0
300

 40
0.0
140
1.0
 94
        2
 62
     0
340
21
144
4.5
309
CONTENTFORMAT_END
171
     1
301
MARGIN
  1
CELLMARGIN_BEGIN
 40
1.5
 40
1.5
 40
1.5
 40
1.5
 40
0.18
 40
0.18
309
CELLMARGIN_END
 94
        6
 95
        1
302
GRIDFORMAT
  1
GRIDFORMAT_BEGIN
 90
        0
 91
        1
 62
     0
 92
       -2
340
24
 93
        0
 40
1.125
309
GRIDFORMAT_END
 95
        2
302
GRIDFORMAT
  1
GRIDFORMAT_BEGIN
 90
        0
 91
        1
 62
     0
 92
       -2
340
24
 93
        0
 40
1.125
309
GRIDFORMAT_END
 95
        4
302
GRIDFORMAT
  1
GRIDFORMAT_BEGIN
 90
        0
 91
        1
 62
     0
 92
       -2
340
24
 93
        0
 40
1.125
309
GRIDFORMAT_END
 95
        8
302
GRIDFORMAT
  1
GRIDFORMAT_BEGIN
 90
        0
 91
        1
 62
     0
 92
       -2
340
24
 93
        0
 40
1.125
309
GRIDFORMAT_END
 95
       16
302
GRIDFORMAT
  1
GRIDFORMAT_BEGIN
 90
        0
 91
        1
 62
     0
 92
       -2
340
24
 93
        0
 40
1.125
309
GRIDFORMAT_END
 95
       32
302
GRIDFORMAT
  1
GRIDFORMAT_BEGIN
 90
        0
 91
        1
 62
     0
 92
       -2
340
24
 93
        0
 40
1.125
309
GRIDFORMAT_END
309
TABLEFORMAT_END
  1
CELLSTYLE_BEGIN
 90
        3
 91
        2
300
_DATA
309
CELLSTYLE_END
  0
ENDSEC
  0
EOF
