  0
SECTION
  2
HEADER
  9
$ACADVER
  1
AC1018
  9
$ACADMAINTVER
 70
   104
  9
$DWGCODEPAGE
  3
ANSI_932
  9
$INSBASE
 10
0.0
 20
0.0
 30
0.0
  9
$EXTMIN
 10
17.16247658380598
 20
19.77250742839237
 30
-0.0015258207003583
  9
$EXTMAX
 10
67.21435603594215
 20
99.96377609689227
 30
0.0000000349246037
  9
$LIMMIN
 10
0.4990971223921861
 20
0.964952341013145
  9
$LIMMAX
 10
78.97747400448793
 20
112.7877573282061
  9
$ORTHOMODE
 70
     0
  9
$REGENMODE
 70
     1
  9
$FILLMODE
 70
     1
  9
$QTEXTMODE
 70
     0
  9
$MIRRTEXT
 70
     0
  9
$LTSCALE
 40
1.0
  9
$ATTMODE
 70
     1
  9
$TEXTSIZE
 40
2.5
  9
$TRACEWID
 40
1.0
  9
$TEXTSTYLE
  7
Standard
  9
$CLAYER
  8
0
  9
$CELTYPE
  6
ByLayer
  9
$CECOLOR
 62
   256
  9
$CELTSCALE
 40
1.0
  9
$DISPSILH
 70
     0
  9
$DIMSCALE
 40
1.0
  9
$DIMASZ
 40
2.5
  9
$DIMEXO
 40
0.625
  9
$DIMDLI
 40
3.75
  9
$DIMRND
 40
0.0
  9
$DIMDLE
 40
0.0
  9
$DIMEXE
 40
1.25
  9
$DIMTP
 40
0.0
  9
$DIMTM
 40
0.0
  9
$DIMTXT
 40
2.5
  9
$DIMCEN
 40
2.5
  9
$DIMTSZ
 40
0.0
  9
$DIMTOL
 70
     0
  9
$DIMLIM
 70
     0
  9
$DIMTIH
 70
     0
  9
$DIMTOH
 70
     0
  9
$DIMSE1
 70
     0
  9
$DIMSE2
 70
     0
  9
$DIMTAD
 70
     1
  9
$DIMZIN
 70
     8
  9
$DIMBLK
  1

  9
$DIMASO
 70
     1
  9
$DIMSHO
 70
     1
  9
$DIMPOST
  1

  9
$DIMAPOST
  1

  9
$DIMALT
 70
     0
  9
$DIMALTD
 70
     3
  9
$DIMALTF
 40
0.03937007874016
  9
$DIMLFAC
 40
1.0
  9
$DIMTOFL
 70
     1
  9
$DIMTVP
 40
0.0
  9
$DIMTIX
 70
     0
  9
$DIMSOXD
 70
     0
  9
$DIMSAH
 70
     0
  9
$DIMBLK1
  1

  9
$DIMBLK2
  1

  9
$DIMSTYLE
  2
ISO-25
  9
$DIMCLRD
 70
     0
  9
$DIMCLRE
 70
     0
  9
$DIMCLRT
 70
     0
  9
$DIMTFAC
 40
1.0
  9
$DIMGAP
 40
0.625
  9
$DIMJUST
 70
     0
  9
$DIMSD1
 70
     0
  9
$DIMSD2
 70
     0
  9
$DIMTOLJ
 70
     0
  9
$DIMTZIN
 70
     8
  9
$DIMALTZ
 70
     0
  9
$DIMALTTZ
 70
     0
  9
$DIMUPT
 70
     0
  9
$DIMDEC
 70
     2
  9
$DIMTDEC
 70
     2
  9
$DIMALTU
 70
     2
  9
$DIMALTTD
 70
     3
  9
$DIMTXSTY
  7
Standard
  9
$DIMAUNIT
 70
     0
  9
$DIMADEC
 70
     0
  9
$DIMALTRND
 40
0.0
  9
$DIMAZIN
 70
     0
  9
$DIMDSEP
 70
    44
  9
$DIMATFIT
 70
     3
  9
$DIMFRAC
 70
     0
  9
$DIMLDRBLK
  1

  9
$DIMLUNIT
 70
     2
  9
$DIMLWD
 70
    -2
  9
$DIMLWE
 70
    -2
  9
$DIMTMOVE
 70
     0
  9
$LUNITS
 70
     2
  9
$LUPREC
 70
     4
  9
$SKETCHINC
 40
1.0
  9
$FILLETRAD
 40
0.0
  9
$AUNITS
 70
     0
  9
$AUPREC
 70
     0
  9
$MENU
  1
.
  9
$ELEVATION
 40
0.0
  9
$PELEVATION
 40
0.0
  9
$THICKNESS
 40
0.0
  9
$LIMCHECK
 70
     0
  9
$CHAMFERA
 40
0.0
  9
$CHAMFERB
 40
0.0
  9
$CHAMFERC
 40
0.0
  9
$CHAMFERD
 40
0.0
  9
$SKPOLY
 70
     0
  9
$TDCREATE
 40
2459023.444247685
  9
$TDUCREATE
 40
2459023.110914352
  9
$TDUPDATE
 40
2459023.484594908
  9
$TDUUPDATE
 40
2459023.151261574
  9
$TDINDWG
 40
0.0404166667
  9
$TDUSRTIMER
 40
0.0404166667
  9
$USRTIMER
 70
     1
  9
$ANGBASE
 50
0.0
  9
$ANGDIR
 70
     0
  9
$PDMODE
 70
     0
  9
$PDSIZE
 40
0.0
  9
$PLINEWID
 40
0.0
  9
$SPLFRAME
 70
     0
  9
$SPLINETYPE
 70
     6
  9
$SPLINESEGS
 70
     8
  9
$HANDSEED
  5
237
  9
$SURFTAB1
 70
     6
  9
$SURFTAB2
 70
     6
  9
$SURFTYPE
 70
     6
  9
$SURFU
 70
     6
  9
$SURFV
 70
     6
  9
$UCSBASE
  2

  9
$UCSNAME
  2

  9
$UCSORG
 10
0.0
 20
0.0
 30
0.0
  9
$UCSXDIR
 10
1.0
 20
0.0
 30
0.0
  9
$UCSYDIR
 10
0.0
 20
1.0
 30
0.0
  9
$UCSORTHOREF
  2

  9
$UCSORTHOVIEW
 70
     0
  9
$UCSORGTOP
 10
0.0
 20
0.0
 30
0.0
  9
$UCSORGBOTTOM
 10
0.0
 20
0.0
 30
0.0
  9
$UCSORGLEFT
 10
0.0
 20
0.0
 30
0.0
  9
$UCSORGRIGHT
 10
0.0
 20
0.0
 30
0.0
  9
$UCSORGFRONT
 10
0.0
 20
0.0
 30
0.0
  9
$UCSORGBACK
 10
0.0
 20
0.0
 30
0.0
  9
$PUCSBASE
  2

  9
$PUCSNAME
  2

  9
$PUCSORG
 10
0.0
 20
0.0
 30
0.0
  9
$PUCSXDIR
 10
1.0
 20
0.0
 30
0.0
  9
$PUCSYDIR
 10
0.0
 20
1.0
 30
0.0
  9
$PUCSORTHOREF
  2

  9
$PUCSORTHOVIEW
 70
     0
  9
$PUCSORGTOP
 10
0.0
 20
0.0
 30
0.0
  9
$PUCSORGBOTTOM
 10
0.0
 20
0.0
 30
0.0
  9
$PUCSORGLEFT
 10
0.0
 20
0.0
 30
0.0
  9
$PUCSORGRIGHT
 10
0.0
 20
0.0
 30
0.0
  9
$PUCSORGFRONT
 10
0.0
 20
0.0
 30
0.0
  9
$PUCSORGBACK
 10
0.0
 20
0.0
 30
0.0
  9
$USERI1
 70
     0
  9
$USERI2
 70
     0
  9
$USERI3
 70
     0
  9
$USERI4
 70
     0
  9
$USERI5
 70
     0
  9
$USERR1
 40
0.0
  9
$USERR2
 40
0.0
  9
$USERR3
 40
0.0
  9
$USERR4
 40
0.0
  9
$USERR5
 40
0.0
  9
$WORLDVIEW
 70
     1
  9
$SHADEDGE
 70
     3
  9
$SHADEDIF
 70
    70
  9
$TILEMODE
 70
     1
  9
$MAXACTVP
 70
    64
  9
$PINSBASE
 10
0.0
 20
0.0
 30
0.0
  9
$PLIMCHECK
 70
     0
  9
$PEXTMIN
 10
0.0
 20
0.0
 30
0.0
  9
$PEXTMAX
 10
0.0
 20
0.0
 30
0.0
  9
$PLIMMIN
 10
0.0
 20
0.0
  9
$PLIMMAX
 10
12.0
 20
9.0
  9
$UNITMODE
 70
     0
  9
$VISRETAIN
 70
     1
  9
$PLINEGEN
 70
     0
  9
$PSLTSCALE
 70
     1
  9
$TREEDEPTH
 70
  3020
  9
$CMLSTYLE
  2
Standard
  9
$CMLJUST
 70
     0
  9
$CMLSCALE
 40
20.0
  9
$PROXYGRAPHICS
 70
     1
  9
$MEASUREMENT
 70
     1
  9
$CELWEIGHT
370
    -1
  9
$ENDCAPS
280
     0
  9
$JOINSTYLE
280
     0
  9
$LWDISPLAY
290
     0
  9
$INSUNITS
 70
     4
  9
$HYPERLINKBASE
  1

  9
$STYLESHEET
  1

  9
$XEDIT
290
     1
  9
$CEPSNTYPE
380
     0
  9
$PSTYLEMODE
290
     1
  9
$FINGERPRINTGUID
  2
{36380B1B-80E5-E842-A118-FC219E2014F8}
  9
$VERSIONGUID
  2
{0711094C-F2AE-CE49-92FF-7E9CCD9C2929}
  9
$EXTNAMES
290
     1
  9
$PSVPSCALE
 40
0.0
  9
$OLESTARTUP
290
     0
  9
$SORTENTS
280
   127
  9
$INDEXCTL
280
     0
  9
$HIDETEXT
280
     1
  9
$XCLIPFRAME
290
     0
  9
$HALOGAP
280
     0
  9
$OBSCOLOR
 70
   257
  9
$OBSLTYPE
280
     0
  9
$INTERSECTIONDISPLAY
280
     0
  9
$INTERSECTIONCOLOR
 70
   257
  9
$DIMASSOC
280
     2
  9
$PROJECTNAME
  1

  0
ENDSEC
  0
SECTION
  2
CLASSES
  0
CLASS
  1
ACDBDICTIONARYWDFLT
  2
AcDbDictionaryWithDefault
  3
ObjectDBX Classes
 90
        0
 91
        1
280
     0
281
     0
  0
CLASS
  1
DICTIONARYVAR
  2
AcDbDictionaryVar
  3
ObjectDBX Classes
 90
        0
 91
       12
280
     0
281
     0
  0
CLASS
  1
TABLESTYLE
  2
AcDbTableStyle
  3
ObjectDBX Classes
 90
     4095
 91
        1
280
     0
281
     0
  0
CLASS
  1
MATERIAL
  2
AcDbMaterial
  3
ObjectDBX Classes
 90
     1153
 91
        3
280
     0
281
     0
  0
CLASS
  1
VISUALSTYLE
  2
AcDbVisualStyle
  3
ObjectDBX Classes
 90
     4095
 91
        3
280
     0
281
     0
  0
CLASS
  1
SCALE
  2
AcDbScale
  3
ObjectDBX Classes
 90
     1153
 91
       17
280
     0
281
     0
  0
CLASS
  1
MLEADERSTYLE
  2
AcDbMLeaderStyle
  3
ACDB_MLEADERSTYLE_CLASS
 90
     4095
 91
        0
280
     0
281
     0
  0
CLASS
  1
CELLSTYLEMAP
  2
AcDbCellStyleMap
  3
ObjectDBX Classes
 90
     1152
 91
        1
280
     0
281
     0
  0
CLASS
  1
EXACXREFPANELOBJECT
  2
ExAcXREFPanelObject
  3
EXAC_ESW
 90
     1025
 91
        0
280
     1
281
     0
  0
CLASS
  1
NPOCOLLECTION
  2
AcDbImpNonPersistentObjectsCollection
  3
ObjectDBX Classes
 90
     1153
 91
        0
280
     0
281
     0
  0
CLASS
  1
LAYER_INDEX
  2
AcDbLayerIndex
  3
ObjectDBX Classes
 90
        0
 91
        0
280
     0
281
     0
  0
CLASS
  1
SPATIAL_INDEX
  2
AcDbSpatialIndex
  3
ObjectDBX Classes
 90
        0
 91
        0
280
     0
281
     0
  0
CLASS
  1
IDBUFFER
  2
AcDbIdBuffer
  3
ObjectDBX Classes
 90
        0
 91
        0
280
     0
281
     0
  0
CLASS
  1
ACDBSECTIONVIEWSTYLE
  2
AcDbSectionViewStyle
  3
ObjectDBX Classes
 90
     1025
 91
        0
280
     0
281
     0
  0
CLASS
  1
ACDBDETAILVIEWSTYLE
  2
AcDbDetailViewStyle
  3
ObjectDBX Classes
 90
     1025
 91
        0
280
     0
281
     0
  0
CLASS
  1
DIMASSOC
  2
AcDbDimAssoc
  3
"AcDbDimAssoc|Product Desc:     AcDim ARX App For Dimension|Company:          Autodesk, Inc.|WEB Address:      www.autodesk.com"
 90
        0
 91
        0
280
     0
281
     0
  0
ENDSEC
  0
SECTION
  2
TABLES
  0
TABLE
  2
VPORT
  5
28
330
0
100
AcDbSymbolTable
 70
     1
  0
VPORT
  5
29
330
28
100
AcDbSymbolTableRecord
100
AcDbViewportTableRecord
  2
*Active
 70
     0
 10
0.0
 20
0.0
 11
1.0
 21
1.0
 12
39.73828556344007
 22
56.87635483460963
 13
0.0
 23
0.0
 14
10.0
 24
10.0
 15
10.0
 25
10.0
 16
0.0
 26
0.0
 36
1.0
 17
0.0
 27
0.0
 37
0.0
 40
112.8317325509872
 41
2.396084337349397
 42
50.0
 43
0.0
 44
0.0
 50
0.0
 51
0.0
 71
     0
 72
  1000
 73
     1
 74
     3
 75
     0
 76
     1
 77
     0
 78
     0
281
     0
 65
     1
110
0.0
120
0.0
130
0.0
111
1.0
121
0.0
131
0.0
112
0.0
122
1.0
132
0.0
 79
     0
146
0.0
1001
ACAD_NAV_VCDISPLAY
1070
     3
  0
ENDTAB
  0
TABLE
  2
LTYPE
  5
23
330
0
100
AcDbSymbolTable
 70
     1
  0
LTYPE
  5
24
330
23
100
AcDbSymbolTableRecord
100
AcDbLinetypeTableRecord
  2
ByBlock
 70
     0
  3

 72
    65
 73
     0
 40
0.0
  0
LTYPE
  5
25
330
23
100
AcDbSymbolTableRecord
100
AcDbLinetypeTableRecord
  2
ByLayer
 70
     0
  3

 72
    65
 73
     0
 40
0.0
  0
LTYPE
  5
13
330
23
100
AcDbSymbolTableRecord
100
AcDbLinetypeTableRecord
  2
Continuous
 70
     0
  3
Solid line
 72
    65
 73
     0
 40
0.0
  0
ENDTAB
  0
TABLE
  2
LAYER
  5
1D
102
{ACAD_XDICTIONARY
360
1E
102
}
330
0
100
AcDbSymbolTable
 70
     1
  0
LAYER
  5
5
102
{ACAD_XDICTIONARY
360
6
102
}
330
1D
100
AcDbSymbolTableRecord
100
AcDbLayerTableRecord
  2
0
 70
     0
 62
     7
  6
Continuous
370
    -3
390
7
  0
ENDTAB
  0
TABLE
  2
STYLE
  5
20
330
0
100
AcDbSymbolTable
 70
     1
  0
STYLE
  5
21
330
20
100
AcDbSymbolTableRecord
100
AcDbTextStyleTableRecord
  2
Standard
 70
     0
 40
0.0
 41
1.0
 50
0.0
 71
     0
 42
2.5
  3
arial.ttf
  4

1001
ACAD
1000
Arial
1071
       34
  0
ENDTAB
  0
TABLE
  2
VIEW
  5
26
330
0
100
AcDbSymbolTable
 70
     0
  0
ENDTAB
  0
TABLE
  2
UCS
  5
27
330
0
100
AcDbSymbolTable
 70
     0
  0
ENDTAB
  0
TABLE
  2
APPID
  5
2D
330
0
100
AcDbSymbolTable
 70
     6
  0
APPID
  5
12
330
2D
100
AcDbSymbolTableRecord
100
AcDbRegAppTableRecord
  2
ACAD
 70
     0
  0
APPID
  5
18
330
2D
100
AcDbSymbolTableRecord
100
AcDbRegAppTableRecord
  2
ACAD_PSEXT
 70
     0
  0
APPID
  5
31
330
2D
100
AcDbSymbolTableRecord
100
AcDbRegAppTableRecord
  2
AcadAnnotative
 70
     0
  0
APPID
  5
32
330
2D
100
AcDbSymbolTableRecord
100
AcDbRegAppTableRecord
  2
ACAD_DSTYLE_DIMJAG
 70
     0
  0
APPID
  5
33
330
2D
100
AcDbSymbolTableRecord
100
AcDbRegAppTableRecord
  2
ACAD_DSTYLE_DIMTALN
 70
     0
  0
APPID
  5
2C
330
2D
100
AcDbSymbolTableRecord
100
AcDbRegAppTableRecord
  2
ACAD_NAV_VCDISPLAY
 70
     0
  0
ENDTAB
  0
TABLE
  2
DIMSTYLE
  5
2E
330
0
100
AcDbSymbolTable
 70
     2
100
AcDbDimStyleTable
 71
     2
340
2F
340
30
  0
DIMSTYLE
105
30
330
2E
100
AcDbSymbolTableRecord
100
AcDbDimStyleTableRecord
  2
Annotative
 70
     0
 40
0.0
 41
2.5
 42
0.625
 43
3.75
 44
1.25
 73
     0
 74
     0
 77
     1
 78
     8
140
2.5
141
2.5
143
0.03937007874016
147
0.625
171
     3
172
     1
271
     2
272
     2
274
     3
278
    44
283
     0
284
     8
340
21
1001
AcadAnnotative
1000
AnnotativeData
1002
{
1070
     1
1070
     1
1002
}
1001
ACAD_DSTYLE_DIMJAG
1070
   388
1040
1.5
1001
ACAD_DSTYLE_DIMTALN
1070
   392
1070
     0
  0
DIMSTYLE
105
2F
330
2E
100
AcDbSymbolTableRecord
100
AcDbDimStyleTableRecord
  2
ISO-25
 70
     0
 41
2.5
 42
0.625
 43
3.75
 44
1.25
 73
     0
 74
     0
 77
     1
 78
     8
140
2.5
141
2.5
143
0.03937007874016
147
0.625
171
     3
172
     1
271
     2
272
     2
274
     3
278
    44
283
     0
284
     8
340
21
  0
ENDTAB
  0
TABLE
  2
BLOCK_RECORD
  5
1
330
0
100
AcDbSymbolTable
 70
     0
  0
BLOCK_RECORD
  5
2
102
{ACAD_XDICTIONARY
360
3
102
}
330
1
100
AcDbSymbolTableRecord
100
AcDbBlockTableRecord
  2
*Model_Space
340
15
  0
BLOCK_RECORD
  5
19
330
1
100
AcDbSymbolTableRecord
100
AcDbBlockTableRecord
  2
*Paper_Space
340
1C
  0
ENDTAB
  0
ENDSEC
  0
SECTION
  2
BLOCKS
  0
BLOCK
  5
4
330
2
100
AcDbEntity
  8
0
100
AcDbBlockBegin
  2
*Model_Space
 70
     0
 10
0.0
 20
0.0
 30
0.0
  3
*Model_Space
  1

  0
ENDBLK
  5
14
330
2
100
AcDbEntity
  8
0
100
AcDbBlockEnd
  0
BLOCK
  5
1A
330
19
100
AcDbEntity
 67
     1
  8
0
100
AcDbBlockBegin
  2
*Paper_Space
 70
     0
 10
0.0
 20
0.0
 30
0.0
  3
*Paper_Space
  1

  0
ENDBLK
  5
1B
330
19
100
AcDbEntity
 67
     1
  8
0
100
AcDbBlockEnd
  0
ENDSEC
  0
SECTION
  2
ENTITIES
  0
LINE
  5
58
330
2
100
AcDbEntity
  8
0
100
AcDbLine
 10
67.18224248641137
 20
26.40689022767413
 30
0.0
 11
67.12742647055946
 21
27.01191498287846
 31
0.0
  0
LINE
  5
59
330
2
100
AcDbEntity
  8
0
100
AcDbLine
 10
17.22825063042258
 20
27.0119149407893
 30
0.0
 11
17.17343592502831
 21
26.40689018110354
 31
0.0
  0
LWPOLYLINE
  5
5A
330
2
100
AcDbEntity
  8
0
100
AcDbPolyline
 90
       78
 70
   128
 43
0.0
 10
67.05768764193677
 20
27.36869194820429
 10
67.04079755424036
 20
27.43737447206715
 10
66.93760462756802
 20
27.70215256418354
 10
66.79631561424229
 20
27.96556159248991
 10
66.61633071665741
 20
28.22757985670599
 10
66.39738484986043
 20
28.48763757845068
 10
66.13975842926347
 20
28.74485597053059
 10
65.84419363779445
 20
28.99834204443424
 10
65.51165035635178
 20
29.24739552117504
 10
65.14313219190434
 20
29.49150892964051
 10
64.73965314278872
 20
29.73031478338194
 10
64.30201332138044
 20
29.96362521228401
 10
63.83097491224061
 20
30.19127827559753
 10
63.32728379681704
 20
30.41309930643601
 10
62.79170498122122
 20
30.62891964570643
 10
62.22502719012794
 20
30.8385389657398
 10
61.628077300825
 20
31.04175204761824
 10
61.00172322447634
 20
31.23834562133624
 10
60.34687770832029
 20
31.4280950429346
 10
59.66450040676086
 20
31.61077127397883
 10
58.95559664037236
 20
31.78614841074079
 10
58.22121525274194
 20
31.95399767210539
 10
57.46244927087604
 20
32.11410198393068
 10
56.68043118400433
 20
32.2662397283192
 10
55.87633360410724
 20
32.4102063016425
 10
55.05136568851638
 20
32.54579990292812
 10
54.20677286575911
 20
32.67282794643577
 10
53.34383127675732
 20
32.79110488210349
 10
52.46384996552418
 20
32.90046889726641
 10
51.56816507884947
 20
33.00075637330026
 10
50.65813760983422
 20
33.09182381699832
 10
49.7351545097722
 20
33.17353783631825
 10
48.80062195272799
 20
33.24577629168831
 10
47.85596672127101
 20
33.30843277914204
 10
46.90262964782821
 20
33.36141701844764
 10
45.94207012670622
 20
33.40465282998001
 10
44.97575583379073
 20
33.43807016508664
 10
44.00516422443692
 20
33.4616230519509
 10
43.03178013293238
 20
33.47527902720746
 10
42.05709360517594
 20
33.47901104930591
 10
41.08259635343501
 20
33.47281975691196
 10
40.10978283606997
 20
33.45671138146704
 10
39.14014063751865
 20
33.43071133485226
 10
38.17515588254153
 20
33.39485829552313
 10
37.2163043334182
 20
33.34920773267764
 10
36.26505094271197
 20
33.29382511651178
 10
35.32285105356888
 20
33.2287912022608
 10
34.39114375731608
 20
33.15420801104335
 10
33.47135177197852
 20
33.07018191781748
 10
32.56487765594712
 20
32.97683649270327
 10
31.67310341724567
 20
32.87431244278439
 10
30.79738616859373
 20
32.76275758149623
 10
29.93905629467959
 20
32.64233298872769
 10
29.09941649834014
 20
32.51321930233816
 10
28.27973816296489
 20
32.37559230721215
 10
27.4812600080031
 20
32.22965706160188
 10
26.70518284192532
 20
32.07561386465263
 10
25.95267414370766
 20
31.91367903259798
 10
25.22485901080874
 20
31.74407337504126
 10
24.52281932628821
 20
31.56702796523275
 10
23.8475975358122
 20
31.38276698184916
 10
23.20018481386776
 20
31.1915317153987
 10
22.58153111096793
 20
30.99354770346376
 10
21.99253156150695
 20
30.78905196083538
 10
21.4340358987193
 20
30.5782576125384
 10
20.90684250030012
 20
30.3613795681795
 10
20.4117009747408
 20
30.1386059364804
 10
19.94932112093761
 20
29.91009425911246
 10
19.52037196068517
 20
29.67598614144567
 10
19.12550223526631
 20
29.43636419881554
 10
18.76536089295805
 20
29.19128574701515
 10
18.44062507677094
 20
28.94076672004452
 10
18.15206764496472
 20
28.68483918708405
 10
17.90069427638648
 20
28.42374465611276
 10
17.68755802293726
 20
28.15788994814203
 10
17.51374884280643
 20
27.88810501714963
 10
17.38015667282708
 20
27.61570923450479
 10
17.29346381932756
 20
27.36093018194253
  0
LWPOLYLINE
  5
5B
330
2
100
AcDbEntity
  8
0
100
AcDbPolyline
 90
        4
 70
   128
 43
0.0
 10
18.9668056853281
 20
38.06223293828319
 10
18.65531124881557
 20
34.30630101927103
 10
18.30844522333512
 20
29.66017031606063
 10
18.24942362120621
 20
28.77118916831952
  0
LWPOLYLINE
  5
5C
330
2
100
AcDbEntity
  8
0
100
AcDbPolyline
 90
        4
 70
   128
 43
0.0
 10
66.10819324805037
 20
28.77192640809873
 10
66.09180849939125
 20
29.02299281376296
 10
65.75097844936523
 20
33.65923247035862
 10
65.39086046989061
 20
38.06327129923845
  0
ARC
  5
5D
330
2
100
AcDbEntity
  8
0
100
AcDbCircle
 10
59.52900728158738
 20
34.65293491872639
 30
0.0
 40
40.7058407757353
100
AcDbArc
 50
145.699789231399
 51
175.1953867028003
  0
ARC
  5
5E
330
2
100
AcDbEntity
  8
0
100
AcDbCircle
 10
24.86488315309926
 20
34.67282286537132
 30
0.0
 40
40.6637570650219
100
AcDbArc
 50
4.782501232300736
 51
34.32004505210075
  0
LINE
  5
5F
330
2
100
AcDbEntity
  8
0
100
AcDbLine
 10
25.40272090805127
 20
57.50394631602746
 30
0.0
 11
25.40272090805127
 21
57.08277178231443
 31
0.0
  0
LINE
  5
60
330
2
100
AcDbEntity
  8
0
100
AcDbLine
 10
58.9529571265236
 20
57.08277170503988
 30
0.0
 11
58.9529571265236
 21
57.50394623875294
 31
0.0
  0
LINE
  5
61
330
2
100
AcDbEntity
  8
0
100
AcDbLine
 10
41.44358481872094
 20
89.79303625417784
 30
0.0
 11
41.44236817326754
 21
89.86036219473669
 31
0.0
  0
ARC
  5
62
330
2
100
AcDbEntity
  8
0
100
AcDbCircle
 10
40.09257945444505
 20
91.83915146429917
 30
0.0
 40
0.314903812797837
100
AcDbArc
 50
184.5766578390654
 51
242.7326731711247
  0
ARC
  5
63
330
2
100
AcDbEntity
  8
0
100
AcDbCircle
 10
44.35304865647644
 20
91.79705485588767
 30
0.0
 40
0.219107373269611
100
AcDbArc
 50
306.0179545765994
 51
1.335844473000792
  0
LINE
  5
64
330
2
100
AcDbEntity
  8
0
100
AcDbLine
 10
44.57699831222708
 20
91.8140243961133
 30
0.0
 11
44.57699831222708
 21
91.98951500413212
 31
0.0
  0
LINE
  5
65
330
2
100
AcDbEntity
  8
0
100
AcDbLine
 10
39.77867972234779
 20
91.98951500516161
 30
0.0
 11
39.77867972234779
 21
91.81402439714283
 31
0.0
  0
LWPOLYLINE
  5
66
330
2
100
AcDbEntity
  8
0
100
AcDbPolyline
 90
        8
 70
   128
 43
0.0
 10
44.57146140185529
 20
92.00363508906233
 10
44.56970268524656
 20
92.04565858639194
 10
44.5297646594746
 20
92.13045594393838
 10
44.45676945026082
 20
92.20980938649161
 10
44.34465626581672
 20
92.2880766729933
 10
44.1950308249565
 20
92.36170741172205
 10
44.0141746348406
 20
92.42796135382311
 10
43.91579272618925
 20
92.45747349184023
  0
ARC
  5
67
330
2
100
AcDbEntity
  8
0
100
AcDbCircle
 10
40.10571591860911
 20
91.9748745766083
 30
0.0
 40
0.3218341600675279
100
AcDbArc
 50
110.6741538209009
 51
178.6694318929006
  0
LINE
  5
68
330
2
100
AcDbEntity
  8
0
100
AcDbLine
 10
40.03881832353624
 20
91.40234269515296
 30
0.0
 11
40.24294597944515
 21
91.2123798127852
 31
0.0
  0
LINE
  5
69
330
2
100
AcDbEntity
  8
0
100
AcDbLine
 10
44.1115212001199
 20
91.21125359799465
 30
0.0
 11
44.31685965932037
 21
91.40234272070932
 31
0.0
  0
LINE
  5
6A
330
2
100
AcDbEntity
  8
0
100
AcDbLine
 10
39.93082019296543
 20
91.68849322470554
 30
0.0
 11
39.94074003761254
 21
91.57900256212723
 31
0.0
  0
LINE
  5
6B
330
2
100
AcDbEntity
  8
0
100
AcDbLine
 10
44.41493808883182
 20
91.5790025642468
 30
0.0
 11
44.42485771049703
 21
91.68849324408478
 31
0.0
  0
LINE
  5
6C
330
2
100
AcDbEntity
  8
0
100
AcDbLine
 10
40.42650877110282
 20
89.58293594815732
 30
0.0
 11
40.5543468046235
 21
89.48189429377512
 31
0.0
  0
LINE
  5
6D
330
2
100
AcDbEntity
  8
0
100
AcDbLine
 10
43.80133131412976
 20
89.48189427972518
 30
0.0
 11
43.85685030358518
 21
89.52577544003021
 31
0.0
  0
ARC
  5
6E
330
2
100
AcDbEntity
  8
0
100
AcDbCircle
 10
41.15320771362024
 20
90.32512374562744
 30
0.0
 40
1.034248662941157
100
AcDbArc
 50
234.6176595171689
 51
260.2717458630328
  0
LWPOLYLINE
  5
6F
330
2
100
AcDbEntity
  8
0
100
AcDbPolyline
 90
        3
 70
   128
 43
0.0
 10
43.48207936290915
 20
90.16182525647463
 10
43.49090700137983
 20
90.49556084364379
 10
43.5195143772358
 20
91.57709122676884
  0
LWPOLYLINE
  5
70
330
2
100
AcDbEntity
  8
0
100
AcDbPolyline
 90
        3
 70
   128
 43
0.0
 10
43.78513553911012
 20
90.06641325712434
 10
43.79579527436843
 20
90.40012989077226
 10
43.83072408628319
 20
91.49366890115906
  0
ARC
  5
71
330
2
100
AcDbEntity
  8
0
100
AcDbCircle
 10
43.59958961010865
 20
90.0654712379111
 30
0.0
 40
0.1849560979142558
100
AcDbArc
 50
339.1165342991003
 51
0.1950477700008113
  0
LWPOLYLINE
  5
72
330
2
100
AcDbEntity
  8
0
100
AcDbPolyline
 90
        3
 70
   128
 43
0.0
 10
43.75581265373241
 20
89.95251534458606
 10
43.7675641595591
 20
89.98511636667144
 10
43.77255325369131
 20
89.99928333030412
  0
LWPOLYLINE
  5
73
330
2
100
AcDbEntity
  8
0
100
AcDbPolyline
 90
        4
 70
   128
 43
0.0
 10
43.75323074115656
 20
89.94306691641787
 10
43.75324405091045
 20
89.942803512247
 10
43.75383140168167
 20
89.94597482022051
 10
43.75592080873039
 20
89.95259701003796
  0
LWPOLYLINE
  5
74
330
2
100
AcDbEntity
  8
0
100
AcDbPolyline
 90
        3
 70
   128
 43
0.0
 10
40.37467405624973
 20
91.41654022989355
 10
40.37622812405234
 20
91.37144900767232
 10
40.42378816815151
 20
89.99147002064598
  0
ARC
  5
75
330
2
100
AcDbEntity
  8
0
100
AcDbCircle
 10
40.56321216252181
 20
89.98976966358188
 30
0.0
 40
0.1387274354501213
100
AcDbArc
 50
179.3736914045001
 51
211.753254174001
  0
LWPOLYLINE
  5
76
330
2
100
AcDbEntity
  8
0
100
AcDbPolyline
 90
        3
 70
   128
 43
0.0
 10
40.44473167079248
 20
89.91595986676156
 10
40.4625431312263
 20
89.88383595112971
 10
40.47026462103589
 20
89.87030225982007
  0
ARC
  5
77
330
2
100
AcDbEntity
  8
0
100
AcDbCircle
 10
40.42521321519264
 20
89.83889134773754
 30
0.0
 40
0.0543988613486593
100
AcDbArc
 50
16.49301039280066
 51
35.75579148789945
  0
ARC
  5
78
330
2
100
AcDbEntity
  8
0
100
AcDbCircle
 10
43.83938232463943
 20
89.95726353786904
 30
0.0
 40
0.143434911373384
100
AcDbArc
 50
325.436587599465
 51
358.6094366716454
  0
LWPOLYLINE
  5
79
330
2
100
AcDbEntity
  8
0
100
AcDbPolyline
 90
        3
 70
   128
 43
0.0
 10
43.98278489562129
 20
89.95406333264996
 10
43.99458480329484
 20
90.28848036604109
 10
44.0330277720104
 20
91.37805708053168
  0
LWPOLYLINE
  5
7A
330
2
100
AcDbEntity
  8
0
100
AcDbPolyline
 90
        3
 70
   128
 43
0.0
 10
43.92849880446769
 20
89.83021493979972
 10
43.94907318366271
 20
89.8617764289729
 10
43.95750080360796
 20
89.87589033142581
  0
ARC
  5
7B
330
2
100
AcDbEntity
  8
0
100
AcDbCircle
 10
43.85461611434222
 20
89.87192004942711
 30
0.0
 40
0.0850975851957366
100
AcDbArc
 50
318.806922266439
 51
330.7825800262315
  0
LWPOLYLINE
  5
7C
330
2
100
AcDbEntity
  8
0
100
AcDbPolyline
 90
        3
 70
   128
 43
0.0
 10
44.06155954459073
 20
89.83244335092459
 10
44.07366042343321
 20
90.16637052380684
 10
44.11303278448259
 20
91.25297121389065
  0
LWPOLYLINE
  5
7D
330
2
100
AcDbEntity
  8
0
100
AcDbPolyline
 90
        3
 70
   128
 43
0.0
 10
40.24264424794551
 20
91.2207129262347
 10
40.24398919052909
 20
91.18356628659871
 10
40.29411884038422
 20
89.79914186223775
  0
LWPOLYLINE
  5
7E
330
2
100
AcDbEntity
  8
0
100
AcDbPolyline
 90
        3
 70
   128
 43
0.0
 10
40.29614240182548
 20
89.78814047463592
 10
40.31075344933539
 20
89.72851645174516
 10
40.33039550842375
 20
89.68876552285854
  0
LINE
  5
7F
330
2
100
AcDbEntity
  8
0
100
AcDbLine
 10
44.04975184635873
 20
89.7596469586503
 30
0.0
 11
44.05083514252525
 21
89.78954647253155
 31
0.0
  0
LWPOLYLINE
  5
80
330
2
100
AcDbEntity
  8
0
100
AcDbPolyline
 90
        3
 70
   128
 43
0.0
 10
43.98119217697843
 20
89.63052321918103
 10
44.02226110688278
 20
89.68379106268498
 10
44.03946844481899
 20
89.71687271442258
  0
LINE
  5
81
330
2
100
AcDbEntity
  8
0
100
AcDbLine
 10
40.25441917419843
 20
91.29406717777539
 30
0.0
 11
40.25444368149482
 21
91.29350976223204
 31
0.0
  0
LINE
  5
82
330
2
100
AcDbEntity
  8
0
100
AcDbLine
 10
44.11303515365004
 20
91.25295467834815
 30
0.0
 11
44.11305652981318
 21
91.25353978839973
 31
0.0
  0
LWPOLYLINE
  5
83
330
2
100
AcDbEntity
  8
0
100
AcDbPolyline
 90
        3
 70
   128
 43
0.0
 10
43.93345765366819
 20
89.58962464986324
 10
43.95597421681531
 20
89.60833938074452
 10
43.97017201414397
 20
89.62048034479073
  0
LINE
  5
84
330
2
100
AcDbEntity
  8
0
100
AcDbLine
 10
43.92249188327495
 20
89.58051265207155
 30
0.0
 11
43.93345765366819
 21
89.58962464986324
 31
0.0
  0
LINE
  5
85
330
2
100
AcDbEntity
  8
0
100
AcDbLine
 10
40.24262184807627
 20
91.22131213828597
 30
0.0
 11
40.24264345787985
 21
91.22071818520382
 31
0.0
  0
ARC
  5
86
330
2
100
AcDbEntity
  8
0
100
AcDbCircle
 10
40.44960247078797
 20
89.65452164946677
 30
0.0
 40
0.0702366844029779
100
AcDbArc
 50
195.6019643271819
 51
236.4842861246947
  0
ARC
  5
87
330
2
100
AcDbEntity
  8
0
100
AcDbCircle
 10
41.19797241801074
 20
96.78115662295763
 30
0.0
 40
5.056856101882504
100
AcDbArc
 50
182.5181405906999
 51
253.6999836198006
  0
ARC
  5
88
330
2
100
AcDbEntity
  8
0
100
AcDbCircle
 10
43.16466184257936
 20
96.77566689245317
 30
0.0
 40
5.049722713246342
100
AcDbArc
 50
286.241460533699
 51
357.5411240995002
  0
LINE
  5
89
330
2
100
AcDbEntity
  8
0
100
AcDbLine
 10
35.81931822953906
 20
98.29173206362739
 30
0.0
 11
35.85753055158903
 21
97.23480502088046
 31
0.0
  0
LINE
  5
8A
330
2
100
AcDbEntity
  8
0
100
AcDbLine
 10
48.49814763468863
 20
97.23480503159962
 30
0.0
 11
48.5363596146352
 21
98.29173203643595
 31
0.0
  0
ARC
  5
8B
330
2
100
AcDbEntity
  8
0
100
AcDbCircle
 10
47.79200288984413
 20
97.29056365246158
 30
0.0
 40
0.7066352828238377
100
AcDbArc
 50
307.2067539376004
 51
354.4970457172
  0
ARC
  5
8C
330
2
100
AcDbEntity
  8
0
100
AcDbCircle
 10
36.52114359606345
 20
97.26518855861975
 30
0.0
 40
0.6611901181662559
100
AcDbArc
 50
182.0161755964998
 51
234.4147500175011
  0
LINE
  5
8D
330
2
100
AcDbEntity
  8
0
100
AcDbLine
 10
36.12618683158356
 20
97.0096351550547
 30
0.0
 11
36.14247575828704
 21
96.55908992960354
 31
0.0
  0
LINE
  5
8E
330
2
100
AcDbEntity
  8
0
100
AcDbLine
 10
48.21320224485717
 20
96.55908990507676
 30
0.0
 11
48.22949146461046
 21
97.00963514415397
 31
0.0
  0
ARC
  5
8F
330
2
100
AcDbEntity
  8
0
100
AcDbCircle
 10
39.79382888735393
 20
80.52198790249818
 30
0.0
 40
0.1211199838371087
100
AcDbArc
 50
65.85389154869949
 51
98.49878070349884
  0
LINE
  5
90
330
2
100
AcDbEntity
  8
0
100
AcDbLine
 10
39.77592873323888
 20
80.6417779583905
 30
0.0
 11
38.20682810020949
 21
80.40730843492205
 31
0.0
  0
LINE
  5
91
330
2
100
AcDbEntity
  8
0
100
AcDbLine
 10
39.96428991246507
 20
80.57830549547693
 30
0.0
 11
39.84337475681279
 21
80.63251027684747
 31
0.0
  0
LINE
  5
92
330
2
100
AcDbEntity
  8
0
100
AcDbLine
 10
38.10362562576998
 20
80.28956517964115
 30
0.0
 11
38.09924045210723
 21
80.03022192106271
 31
0.0
  0
ARC
  5
93
330
2
100
AcDbEntity
  8
0
100
AcDbCircle
 10
38.22472822198558
 20
80.28751837418495
 30
0.0
 40
0.1211199838371487
100
AcDbArc
 50
98.49878070349884
 51
179.0313112011992
  0
LWPOLYLINE
  5
94
330
2
100
AcDbEntity
  8
0
100
AcDbPolyline
 90
        3
 70
   128
 43
0.0
 10
40.99999853703577
 20
80.18487528851487
 10
40.93483077811714
 20
80.20470365726927
 10
40.87072813162183
 20
80.20306296124452
  0
LINE
  5
95
330
2
100
AcDbEntity
  8
0
100
AcDbLine
 10
40.8611157160795
 20
80.20535379573175
 30
0.0
 11
37.32664054302158
 21
79.67719983783941
 31
0.0
  0
LINE
  5
96
330
2
100
AcDbEntity
  8
0
100
AcDbLine
 10
41.62445698183757
 20
79.90493822600287
 30
0.0
 11
40.99999853703577
 21
80.18487528851487
 31
0.0
  0
LINE
  5
97
330
2
100
AcDbEntity
  8
0
100
AcDbLine
 10
39.65782404623657
 20
80.26312061063421
 30
0.0
 11
38.04190767000061
 21
80.021655445922
 31
0.0
  0
ARC
  5
98
330
2
100
AcDbEntity
  8
0
100
AcDbCircle
 10
39.98008603356666
 20
80.30686221086185
 30
0.0
 40
0.0511562431838981
100
AcDbArc
 50
252.4653359227015
 51
278.6692823509985
  0
ARC
  5
99
330
2
100
AcDbEntity
  8
0
100
AcDbCircle
 10
39.83497043750092
 20
80.30897780811914
 30
0.0
 40
0.1013490004214047
100
AcDbArc
 50
332.8121946841622
 51
358.9422616830872
  0
LINE
  5
9A
330
2
100
AcDbEntity
  8
0
100
AcDbLine
 10
40.46224161949885
 20
80.14575032278415
 30
0.0
 11
40.45864811390806
 21
80.54349943448718
 31
0.0
  0
LINE
  5
9B
330
2
100
AcDbEntity
  8
0
100
AcDbLine
 10
39.96830645461068
 20
80.61722560371178
 30
0.0
 11
39.93630216809674
 21
80.30710690883847
 31
0.0
  0
LWPOLYLINE
  5
9C
330
2
100
AcDbEntity
  8
0
100
AcDbPolyline
 90
        3
 70
   128
 43
0.0
 10
40.10666319455077
 20
80.67191073294887
 10
40.09130300116718
 20
80.67565276476617
 10
40.08300443888876
 20
80.67453893952047
  0
LINE
  5
9D
330
2
100
AcDbEntity
  8
0
100
AcDbLine
 10
40.08285745342954
 20
80.67525293280178
 30
0.0
 11
40.00757141312002
 21
80.66400299657678
 31
0.0
  0
LINE
  5
9E
330
2
100
AcDbEntity
  8
0
100
AcDbLine
 10
40.16227401851021
 20
80.6469810825561
 30
0.0
 11
40.10666319455077
 21
80.67191073294887
 31
0.0
  0
ARC
  5
9F
330
2
100
AcDbEntity
  8
0
100
AcDbCircle
 10
40.0147456892014
 20
80.61738203743813
 30
0.0
 40
0.0464394980624762
100
AcDbArc
 50
98.80107618879948
 51
180.1930039807005
  0
LWPOLYLINE
  5
A0
330
2
100
AcDbEntity
  8
0
100
AcDbPolyline
 90
        7
 70
   128
 43
0.0
 10
40.45679947739943
 20
80.54365713203994
 10
40.45360826656625
 20
80.56560341215948
 10
40.43754222182896
 20
80.58689924326492
 10
40.40626010528533
 20
80.60656725891089
 10
40.33386622112152
 20
80.6280522352223
 10
40.24001536879464
 20
80.63938602408388
 10
40.2049845526575
 20
80.64081551731845
  0
ARC
  5
A1
330
2
100
AcDbEntity
  8
0
100
AcDbCircle
 10
40.19886915998031
 20
80.7534370627434
 30
0.0
 40
0.1125956867489984
100
AcDbArc
 50
251.1971152541011
 51
273.1519508390015
  0
LINE
  5
A2
330
2
100
AcDbEntity
  8
0
100
AcDbLine
 10
40.46260973468149
 20
80.14580610241255
 30
0.0
 11
40.46110073653329
 21
80.27201256672322
 31
0.0
  0
LINE
  5
A3
330
2
100
AcDbEntity
  8
0
100
AcDbLine
 10
37.87771752704166
 20
79.92666434045354
 30
0.0
 11
37.87564954030439
 21
79.75923881989587
 31
0.0
  0
ARC
  5
A4
330
2
100
AcDbEntity
  8
0
100
AcDbCircle
 10
37.82893862571684
 20
80.01360181762256
 30
0.0
 40
0.1126216618043908
100
AcDbArc
 50
337.8786723205469
 51
357.6684803025723
  0
LINE
  5
A5
330
2
100
AcDbEntity
  8
0
100
AcDbLine
 10
37.9734713420052
 20
80.31913889820716
 30
0.0
 11
37.94146705555192
 21
80.00902020339438
 31
0.0
  0
LWPOLYLINE
  5
A6
330
2
100
AcDbEntity
  8
0
100
AcDbPolyline
 90
        3
 70
   128
 43
0.0
 10
38.11182808200588
 20
80.3738240274442
 10
38.09646798630561
 20
80.37756607391703
 10
38.08816932634388
 20
80.37645223401582
  0
LINE
  5
A7
330
2
100
AcDbEntity
  8
0
100
AcDbLine
 10
38.08802234088472
 20
80.3771662272971
 30
0.0
 11
38.01273630057513
 21
80.36591629113271
 31
0.0
  0
LINE
  5
A8
330
2
100
AcDbEntity
  8
0
100
AcDbLine
 10
38.13160087957939
 20
80.36496012480254
 30
0.0
 11
38.11182808200588
 21
80.3738240274442
 31
0.0
  0
ARC
  5
A9
330
2
100
AcDbEntity
  8
0
100
AcDbCircle
 10
38.01991065496059
 20
80.31929526495414
 30
0.0
 40
0.046439576209222
100
AcDbArc
 50
98.80115910709939
 51
180.1929210625
  0
LINE
  5
AA
330
2
100
AcDbEntity
  8
0
100
AcDbLine
 10
28.55184071848921
 20
76.00581313187993
 30
0.0
 11
28.55184071848921
 21
60.29180976818087
 31
0.0
  0
LINE
  5
AB
330
2
100
AcDbEntity
  8
0
100
AcDbLine
 10
55.8038373160251
 20
60.29180991110246
 30
0.0
 11
55.8038373160251
 21
76.00581327474093
 31
0.0
  0
LINE
  5
AC
330
2
100
AcDbEntity
  8
0
100
AcDbLine
 10
28.43072064369101
 20
76.28130990944082
 30
0.0
 11
28.43072064369101
 21
75.67294688478771
 31
0.0
  0
LINE
  5
AD
330
2
100
AcDbEntity
  8
0
100
AcDbLine
 10
55.92495739088386
 20
75.67294698150196
 30
0.0
 11
55.92495739088386
 21
76.28131000615512
 31
0.0
  0
LWPOLYLINE
  5
AE
330
2
100
AcDbEntity
  8
0
100
AcDbPolyline
 90
       11
 70
   128
 43
0.0
 10
55.79403035653523
 20
76.78529506336779
 10
55.72245689263179
 20
76.91666608342586
 10
55.57962411457486
 20
77.10721502687935
 10
55.39838870935653
 20
77.29566088393248
 10
55.1793485148006
 20
77.48098257739134
 10
54.9235656700166
 20
77.66228600940637
 10
54.63226005642044
 20
77.83891694111925
 10
54.30655357790019
 20
78.0104527167158
 10
53.9474510586199
 20
78.17658510352072
 10
53.55597418409887
 20
78.33701760538501
 10
53.14116969346872
 20
78.4885226470778
  0
LWPOLYLINE
  5
AF
330
2
100
AcDbEntity
  8
0
100
AcDbPolyline
 90
       10
 70
   128
 43
0.0
 10
30.56083365913145
 20
78.23943842935843
 10
30.44658604164807
 20
78.19316961954784
 10
30.08479923094542
 20
78.02792164220481
 10
29.75621725469811
 20
77.85728406182562
 10
29.46172096101648
 20
77.68149273547578
 10
29.20214721286505
 20
77.50072563110646
 10
28.97833812551573
 20
77.31511017584295
 10
28.79127224330577
 20
77.12482008729377
 10
28.64213422541478
 20
76.93030486291497
 10
28.56395458345299
 20
76.78972482505123
  0
LINE
  5
B0
330
2
100
AcDbEntity
  8
0
100
AcDbLine
 10
43.1502731467118
 20
79.89886499646383
 30
0.0
 11
43.1502731467118
 21
81.30864919389706
 31
0.0
  0
LINE
  5
B1
330
2
100
AcDbEntity
  8
0
100
AcDbLine
 10
42.72635319395567
 20
81.30864919444212
 30
0.0
 11
42.72635319395567
 21
79.9049875733123
 31
0.0
  0
LINE
  5
B2
330
2
100
AcDbEntity
  8
0
100
AcDbLine
 10
41.62932484055861
 20
79.90498790833015
 30
0.0
 11
41.62932484055861
 21
81.08137503628499
 31
0.0
  0
LINE
  5
B3
330
2
100
AcDbEntity
  8
0
100
AcDbLine
 10
41.20540488786299
 20
81.08137503683003
 30
0.0
 11
41.20540488786299
 21
80.0927934025754
 31
0.0
  0
ARC
  5
B4
330
2
100
AcDbEntity
  8
0
100
AcDbCircle
 10
42.36367544923928
 20
81.092159456815
 30
0.0
 40
0.7344297925510915
100
AcDbArc
 50
147.4710241032
 51
180.8413656347005
  0
ARC
  5
B5
330
2
100
AcDbEntity
  8
0
100
AcDbCircle
 10
42.26725751850661
 20
81.36997822273972
 30
0.0
 40
0.4631739294713791
100
AcDbArc
 50
352.3910997178007
 51
115.6053082904998
  0
ARC
  5
B6
330
2
100
AcDbEntity
  8
0
100
AcDbCircle
 10
42.2621146475966
 20
81.36649203242203
 30
0.0
 40
0.8900400628303714
100
AcDbArc
 50
356.2737768401002
 51
109.7511255628015
  0
ARC
  5
B7
330
2
100
AcDbEntity
  8
0
100
AcDbCircle
 10
42.40499330093753
 20
81.08722105769423
 30
0.0
 40
1.199602657870209
100
AcDbArc
 50
133.8018371350002
 51
180.2792204962008
  0
LWPOLYLINE
  5
B8
330
2
100
AcDbEntity
  8
0
100
AcDbPolyline
 90
       10
 70
   128
 43
0.0
 10
42.72635319395567
 20
88.4067059478858
 10
42.72281149120029
 20
88.33403182883923
 10
42.69283234625894
 20
88.18181204467752
 10
42.63362311449847
 20
88.03566654234531
 10
42.54890844459607
 20
87.90461171527065
 10
42.44416471418352
 20
87.79599029308741
 10
42.32619996799939
 20
87.71537813920206
 10
42.20229992480382
 20
87.66608487437183
 10
42.07897971088902
 20
87.64925692516353
 10
42.0172407074945
 20
87.65751004988564
  0
LWPOLYLINE
  5
B9
330
2
100
AcDbEntity
  8
0
100
AcDbPolyline
 90
        3
 70
   128
 43
0.0
 10
41.68078842113175
 20
87.92390213222095
 10
41.64129017602567
 20
88.04992856306089
 10
41.62932484055861
 20
88.17943178972869
  0
ARC
  5
BA
330
2
100
AcDbEntity
  8
0
100
AcDbCircle
 10
42.16725572860259
 20
88.15100216841042
 30
0.0
 40
0.9622708990689682
100
AcDbArc
 50
178.3069898391993
 51
228.8862907370979
  0
LWPOLYLINE
  5
BB
330
2
100
AcDbEntity
  8
0
100
AcDbPolyline
 90
       12
 70
   128
 43
0.0
 10
41.95073905813028
 20
87.23925387995757
 10
42.04965429137843
 20
87.22575441570191
 10
42.22993723429743
 20
87.23858589834136
 10
42.40826372417951
 20
87.28774943512993
 10
42.5790362224706
 20
87.371846764287
 10
42.73647758173176
 20
87.48836978678284
 10
42.87493658878515
 20
87.63353841247884
 10
42.98930759767598
 20
87.8023824627929
 10
43.07532779378282
 20
87.98905023766598
 10
43.12970325228702
 20
88.1870822745223
 10
43.1499206236075
 20
88.37809255830153
 10
43.1502731467118
 20
88.40670594734072
  0
LINE
  5
BC
330
2
100
AcDbEntity
  8
0
100
AcDbLine
 10
42.72635319395567
 20
89.88873549901716
 30
0.0
 11
42.72635319395567
 21
88.4067059478858
 31
0.0
  0
LINE
  5
BD
330
2
100
AcDbEntity
  8
0
100
AcDbLine
 10
43.1502731467118
 20
88.40670594734072
 30
0.0
 11
43.1502731467118
 21
89.80413864912405
 31
0.0
  0
LINE
  5
BE
330
2
100
AcDbEntity
  8
0
100
AcDbLine
 10
41.20540488786299
 20
89.71183312900269
 30
0.0
 11
41.20540488786299
 21
88.17943179027372
 31
0.0
  0
LINE
  5
BF
330
2
100
AcDbEntity
  8
0
100
AcDbLine
 10
41.62932484055861
 20
88.17943178972869
 30
0.0
 11
41.62932484055861
 21
89.88873234741465
 31
0.0
  0
LWPOLYLINE
  5
C0
330
2
100
AcDbEntity
  8
0
100
AcDbPolyline
 90
       16
 70
   128
 43
0.0
 10
41.52681911918179
 20
82.37190973268015
 10
41.52975786546163
 20
82.26659088079946
 10
41.55103902415283
 20
82.06623477564637
 10
41.59212386213751
 20
81.86938776787014
 10
41.6519692099366
 20
81.68227645240351
 10
41.72974853145706
 20
81.51040397378933
 10
41.82552179514089
 20
81.35860014847567
 10
41.94101749083308
 20
81.23202471163454
 10
42.05559496726773
 20
81.15105384874446
 10
42.17361177185048
 20
81.1050104830117
 10
42.29358724669249
 20
81.0927121362641
 10
42.42023350202479
 20
81.11762349354236
 10
42.52958771476573
 20
81.17592072458753
 10
42.62171019437059
 20
81.26170788802566
 10
42.69946202874026
 20
81.37612891347439
 10
42.71645785394032
 20
81.41574855108432
  0
ARC
  5
C1
330
2
100
AcDbEntity
  8
0
100
AcDbCircle
 10
41.98345606271369
 20
81.80436189804513
 30
0.0
 40
0.4106726469416219
100
AcDbArc
 50
315.4982149315989
 51
2.627038441000474
  0
LWPOLYLINE
  5
C2
330
2
100
AcDbEntity
  8
0
100
AcDbPolyline
 90
       10
 70
   128
 43
0.0
 10
42.27642545289819
 20
81.5164903348543
 10
42.26808636623501
 20
81.51881234744212
 10
42.23637675337761
 20
81.53765392867537
 10
42.18493081253723
 20
81.58756506015395
 10
42.12709159023103
 20
81.66885487029595
 10
42.06998259431196
 20
81.77984781322377
 10
42.0195883450134
 20
81.91594586918908
 10
41.980907042813
 20
82.06952479919038
 10
41.95740732949901
 20
82.23122045452289
 10
41.95073905782749
 20
82.37190973843331
  0
LINE
  5
C3
330
2
100
AcDbEntity
  8
0
100
AcDbLine
 10
41.52681911918179
 20
87.28561189027599
 30
0.0
 11
41.52681911918179
 21
82.37190973268015
 31
0.0
  0
LINE
  5
C4
330
2
100
AcDbEntity
  8
0
100
AcDbLine
 10
41.95073905782749
 20
82.37190973843331
 30
0.0
 11
41.95073905782749
 21
87.28561189602917
 31
0.0
  0
ARC
  5
C5
330
2
100
AcDbEntity
  8
0
100
AcDbCircle
 10
41.00160902513092
 20
86.90562574686508
 30
0.0
 40
1.827300980177662
100
AcDbArc
 50
359.5715489196996
 51
18.53862988309992
  0
LWPOLYLINE
  5
C6
330
2
100
AcDbEntity
  8
0
100
AcDbPolyline
 90
       14
 70
   128
 43
0.0
 10
42.5378247832172
 20
87.89311845123886
 10
42.53015623943396
 20
87.90527286063275
 10
42.4146605436812
 20
88.03184655413343
 10
42.30008306724655
 20
88.1128174170235
 10
42.1820662626638
 20
88.15886252603617
 10
42.06209078782181
 20
88.17115912950383
 10
41.93544453255007
 20
88.14624777216504
 10
41.82609031980913
 20
88.08795054118045
 10
41.73396784020427
 20
88.00216337768175
 10
41.65621600583458
 20
87.88774409563407
 10
41.59363354630937
 20
87.74185828211718
 10
41.55033588758242
 20
87.56823018877701
 10
41.5291880930154
 20
87.37820920557691
 10
41.52681911918179
 20
87.28561189027599
  0
LWPOLYLINE
  5
C7
330
2
100
AcDbEntity
  8
0
100
AcDbPolyline
 90
        8
 70
   128
 43
0.0
 10
41.95073905782749
 20
87.28561189602917
 10
41.95299554408012
 20
87.36455361366511
 10
41.96934673190573
 20
87.50309840879188
 10
41.99847386237827
 20
87.61566145944172
 10
42.033696530208
 20
87.69420299925512
 10
42.06457518924219
 20
87.735855673462
 10
42.07951895316601
 20
87.74752096020991
 10
42.07926365924984
 20
87.74753183599719
  0
ARC
  5
C8
330
2
100
AcDbEntity
  8
0
100
AcDbCircle
 10
42.0113730096657
 20
87.56358378644005
 30
0.0
 40
0.1959311782647061
100
AcDbArc
 50
30.5139032369991
 51
69.7299103046991
  0
ARC
  5
C9
330
2
100
AcDbEntity
  8
0
100
AcDbCircle
 10
41.01439061990251
 20
86.90337378977313
 30
0.0
 40
1.390595186415268
100
AcDbArc
 50
359.5297827729004
 51
15.41686101569934
  0
LINE
  5
CA
330
2
100
AcDbEntity
  8
0
100
AcDbLine
 10
42.40493897674737
 20
86.89196152733462
 30
0.0
 11
42.40493897674737
 21
82.24882598591236
 31
0.0
  0
LINE
  5
CB
330
2
100
AcDbEntity
  8
0
100
AcDbLine
 10
42.82885891533249
 20
82.05444291251991
 30
0.0
 11
42.82885891533249
 21
86.89196153308778
 31
0.0
  0
LWPOLYLINE
  5
CC
330
2
100
AcDbEntity
  8
0
100
AcDbPolyline
 90
      153
 70
   128
 43
0.0
 10
38.91321220375896
 20
19.83712365437568
 10
37.89125217743994
 20
19.87752365653506
 10
36.87661801019447
 20
19.92881958100977
 10
35.87103853760454
 20
19.99092401841439
 10
34.87623642527903
 20
20.06373083766589
 10
33.89390712401435
 20
20.14711527755028
 10
32.92573227674709
 20
20.24093541063956
 10
31.97336228302947
 20
20.34503061663456
 10
31.03842880345654
 20
20.45922345124647
 10
30.12252531040088
 20
20.58331808780655
 10
29.22721778738857
 20
20.71710299547119
 10
28.354036913711
 20
20.86034977077743
 10
27.50447514803774
 20
21.01281351147979
 10
26.67998134638893
 20
21.17423336031843
 10
25.88196409723504
 20
21.34433381275166
 10
25.11178970763467
 20
21.52282468570691
 10
24.37077147121686
 20
21.70940032279142
 10
23.66017790234129
 20
21.9037424430949
 10
22.98121932914591
 20
22.10551867709106
 10
22.33505983409958
 20
22.3143846879936
 10
21.72279891631589
 20
22.52998304982182
 10
21.1454878951954
 20
22.75194617044975
 10
20.60410775116162
 20
22.97989408025798
 10
20.09958821096061
 20
23.2134380216456
 10
19.63278734203239
 20
23.45217838550901
 10
19.20450550438238
 20
23.69570779931692
 10
18.81547176806509
 20
23.9436097422246
 10
18.46635314101321
 20
24.19546094767044
 10
18.15774656863865
 20
24.45083125324751
 10
17.89017601689984
 20
24.70928397387452
 10
17.6641006099903
 20
24.97037785939745
 10
17.47990702448793
 20
25.23366676695984
 10
17.3379092473573
 20
25.49870070408832
 10
17.23835012313664
 20
25.76502700319294
 10
17.1814002255835
 20
26.03219082784889
 10
17.16715539239923
 20
26.29973534333316
 10
17.195642284454
 20
26.567203895876
 10
17.26680966787362
 20
26.83413924948404
 10
17.38053734136929
 20
27.10008518968969
 10
17.53663096338491
 20
27.36458790789226
 10
17.7348231961966
 20
27.62719455415571
 10
17.97477631622958
 20
27.88745767304634
 10
18.25608026451142
 20
28.14493140579471
 10
18.57825300046331
 20
28.39917693754577
 10
18.94074615868771
 20
28.64975902702883
 10
19.34293915030399
 20
28.89625051936748
 10
19.78414638266864
 20
29.13822910981377
 10
20.26361124025698
 20
29.37528237725278
 10
20.78051643006596
 20
29.60700501546018
 10
21.33397946941036
 20
29.83300085538212
 10
21.92305412821965
 20
30.05288362031828
 10
22.5467325316201
 20
30.2662783187412
 10
23.20395021197064
 20
30.47282038113468
 10
23.89358598768223
 20
30.67215618123352
 10
24.61445889337142
 20
30.86394581360779
 10
25.36533918591194
 20
31.04786096255648
 10
26.14494268807107
 20
31.22358837213455
 10
26.95193898469892
 20
31.390826755595
 10
27.78494708784417
 20
31.54929154171741
 10
28.64254673064757
 20
31.69871062888665
 10
29.52326982335651
 20
31.83883012085051
 10
30.4256143215028
 20
31.96940938647813
 10
31.34803625445116
 20
32.09022634162055
 10
32.28896165559689
 20
32.20107383785802
 10
33.24678121158751
 20
32.30176317800733
 10
34.21985954647253
 20
32.39212172769651
 10
35.20653464026669
 20
32.47199498609253
 10
36.20511927124703
 20
32.54124734078155
 10
37.21390857953233
 20
32.59975996167411
 10
38.23117880204545
 20
32.64743276962889
 10
39.25519130072191
 20
32.68418449870823
 10
40.28419710299512
 20
32.70995229617946
 10
41.31643885527997
 20
32.72469201429302
 10
42.3501514839249
 20
32.72837884840285
 10
43.38357061438276
 20
32.72100589818241
 10
44.41492962260549
 20
32.70258642396865
 10
45.44246583075532
 20
32.67315153609554
 10
46.46442585713493
 20
32.6327515339362
 10
47.4790600243804
 20
32.58145560946149
 10
48.48463949697033
 20
32.51935117205684
 10
49.47944160929588
 20
32.44654435280537
 10
50.46177091049994
 20
32.36315991292095
 10
51.42994575782778
 20
32.26933977983171
 10
52.38231575154536
 20
32.1652445738367
 10
53.31724923111832
 20
32.05105173922478
 10
54.23315272411343
 20
31.92695710260416
 10
55.12846024718633
 20
31.79317219500007
 10
56.0016411208638
 20
31.64992541969383
 10
56.85120288647655
 20
31.49746167899147
 10
57.67569668818595
 20
31.33604183015283
 10
58.47371393733983
 20
31.16594137771961
 10
59.2438883269402
 20
30.98745050476436
 10
59.98490656335802
 20
30.80087486767985
 10
60.69550013223358
 20
30.60653274737636
 10
61.37445870542896
 20
30.4047565133802
 10
62.02061820041469
 20
30.19589050247767
 10
62.63287911819839
 20
29.98029214064944
 10
63.21019013931891
 20
29.75832902002152
 10
63.75157028341329
 20
29.53038111021328
 10
64.2560898235537
 20
29.29683716882566
 10
64.72289069254244
 20
29.05809680496225
 10
65.15117253019248
 20
28.81456739115434
 10
65.54020626650978
 20
28.56666544824662
 10
65.88932489350106
 20
28.31481424280082
 10
66.19793146593622
 20
28.05944393722375
 10
66.46550201767499
 20
27.80099121659671
 10
66.69157742452402
 20
27.53989733107382
 10
66.87577101008693
 20
27.27660842351142
 10
67.01776878715698
 20
27.01157448638294
 10
67.11732791143822
 20
26.74524818727828
 10
67.17427780899136
 20
26.47808436262236
 10
67.18852264211512
 20
26.2105398471381
 10
67.16003575012083
 20
25.94307129459523
 10
67.08886836664065
 20
25.67613594092668
 10
66.97514069314502
 20
25.41019000072099
 10
66.81904707118988
 20
25.145687282579
 10
66.62085483837827
 20
24.88308063631555
 10
66.38090171828473
 20
24.62281751742493
 10
66.09959777006341
 20
24.36534378467652
 10
65.77742503405096
 20
24.11109825292553
 10
65.41493187588715
 20
23.86051616344243
 10
65.01273888427087
 20
23.61402467110378
 10
64.57153165190615
 20
23.3720460806575
 10
64.0920667942573
 20
23.13499281321848
 10
63.57516160450892
 20
22.90327017501108
 10
63.02169856516444
 20
22.67727433508914
 10
62.43262390635521
 20
22.45739157015298
 10
61.80894550289418
 20
22.24399687173006
 10
61.15172782254367
 20
22.03745480933658
 10
60.46209204689263
 20
21.83811900923774
 10
59.74121914120344
 20
21.64632937686347
 10
58.99033884866293
 20
21.46241422791479
 10
58.21073534650381
 20
21.28668681833671
 10
57.4037390498154
 20
21.11944843487626
 10
56.5707309467307
 20
20.96098364875382
 10
55.7131313039273
 20
20.81156456158464
 10
54.83240821121833
 20
20.67144506962074
 10
53.93006371301154
 20
20.54086580399313
 10
53.00764178012371
 20
20.42004884885067
 10
52.06671637897798
 20
20.30920135261324
 10
51.10889682298732
 20
20.20851201246393
 10
50.13581848810234
 20
20.11815346277472
 10
49.14914339430819
 20
20.03828020437874
 10
48.15055876332785
 20
19.96902784968972
 10
47.14176945498198
 20
19.91051522879716
 10
46.12449923252935
 20
19.86284242084238
 10
45.10048673385289
 20
19.82609069176303
 10
44.07148093157974
 20
19.8003228942918
 10
43.0392391792343
 20
19.78558317617824
 10
42.00552655064996
 20
19.78189634206841
 10
40.97210742013151
 20
19.78926929228885
 10
39.94074841196934
 20
19.80768876650261
 10
38.91321220375896
 20
19.83712365437568
  0
LWPOLYLINE
  5
CD
330
2
100
AcDbEntity
  8
0
100
AcDbPolyline
 90
      152
 70
   128
 43
0.0
 10
38.96082154369156
 20
19.93071962519993
 10
37.94711811054706
 20
19.97083017136999
 10
36.94074037690049
 20
20.02181989483599
 10
35.94342794238803
 20
20.08360029794935
 10
34.95690996652694
 20
20.15606514116415
 10
33.98289110147779
 20
20.23908834130239
 10
33.02305972559882
 20
20.33252681969051
 10
32.07907724455463
 20
20.43621782522606
 10
31.15257601198888
 20
20.54998266844629
 10
30.24516429289994
 20
20.67362449697782
 10
29.35840834496898
 20
20.80692885420275
 10
28.49384471320723
 20
20.94966470726437
 10
27.65297148018767
 20
21.10158556688205
 10
26.83724291635729
 20
21.26242814861205
 10
26.04807347596671
 20
21.4319143185189
 10
25.28682595353443
 20
21.60974986241482
 10
24.55482082964655
 20
21.79562777081509
 10
23.85332310612273
 20
21.98922573175467
 10
23.18354897688107
 20
22.19020874625304
 10
22.54665777109734
 20
22.39822900295481
 10
21.94375283931881
 20
22.61292641493391
 10
21.37587466470448
 20
22.83392890541523
 10
20.8440093601978
 20
23.06085420392359
 10
20.3490770410079
 20
23.29330945337058
 10
19.89193554105552
 20
23.53089234652324
 10
19.47337242638153
 20
23.77319096957764
 10
19.09411725067257
 20
24.01978671630571
 10
18.75482343825523
 20
24.27025213290686
 10
18.45607870138329
 20
24.52415372205657
 10
18.19840101209007
 20
24.78105188016641
 10
17.98223589473264
 20
25.04050211118788
 10
17.80795844009647
 20
25.30205505786125
 10
17.67586858431956
 20
25.5652576840286
 10
17.58619757003843
 20
25.8296550492229
 10
17.53909901948182
 20
26.09478870503967
 10
17.53465380070823
 20
26.36020011925939
 10
17.57287026948251
 20
26.62542963318606
 10
17.65368312475263
 20
26.89001790872842
 10
17.7769518133179
 20
27.15350757811441
 10
17.94246302798895
 20
27.41544118951477
 10
18.1499290469725
 20
27.67536662292302
 10
18.39899339023485
 20
27.93283362006804
 10
18.68922182803899
 20
28.18739594670827
 10
19.0201148847661
 20
28.43861326139244
 10
19.39109755861453
 20
28.6860501183994
 10
19.80152743457988
 20
28.92927933772025
 10
20.25069631218635
 20
29.16787847253339
 10
20.73782406573304
 20
29.4014353644936
 10
21.26206808711084
 20
29.62954577898567
 10
21.82252148105397
 20
29.85181421408458
 10
22.41821504702626
 20
30.06785581515981
 10
23.04811457188697
 20
30.27729758825524
 10
23.7111319567593
 20
30.47977574774308
 10
24.40611853750607
 20
30.67494011207114
 10
25.1318709180495
 20
30.86245335730024
 10
25.88713226344805
 20
31.04199067094318
 10
26.67059737972959
 20
31.21324051090279
 10
27.48090698328038
 20
31.3759075251295
 10
28.31666072996465
 20
31.52970910436503
 10
29.17641004736445
 20
31.67437970527788
 10
30.05866755331229
 20
31.8096684818411
 10
30.96190581483516
 20
31.93534125764996
 10
31.88456003501934
 20
32.05118092731353
 10
32.82503454425465
 20
32.15698626887345
 10
33.78170070613041
 20
32.25257432798998
 10
34.75290138415863
 20
32.33778000637658
 10
35.73695648204431
 20
32.41245527167343
 10
36.73216187401456
 20
32.47647115514011
 10
37.73679465191765
 20
32.52971691750205
 10
38.74911559062049
 20
32.5720998780505
 10
39.76737191142149
 20
32.60354744570327
 10
40.78980230592594
 20
32.62400463325944
 10
41.81463527979078
 20
32.63343596776429
 10
42.84009642852296
 20
32.63182549868495
 10
43.86441114463248
 20
32.61917558434865
 10
44.88580672009335
 20
32.59550828488301
 10
45.9025132491722
 20
32.56086495779664
 10
46.91277361089496
 20
32.51530505259288
 10
47.9148358308573
 20
32.45890766649545
 10
48.90696462698721
 20
32.39177057264242
 10
49.88744634058168
 20
32.31400987828539
 10
50.85458087892099
 20
32.22575989936983
 10
51.80669446193563
 20
32.12717398669461
 10
52.74213854224021
 20
32.01842220670641
 10
53.65929223831255
 20
31.89969305401513
 10
54.55657108468604
 20
31.77119233115532
 10
55.43242032826121
 20
31.63314241683977
 10
56.28532187374957
 20
31.48578195540766
 10
57.1138034522746
 20
31.32936641761044
 10
57.91642566583321
 20
31.16416643436384
 10
58.69180258114536
 20
30.99046790769401
 10
59.43858986952396
 20
30.80857172144246
 10
60.15549713434634
 20
30.618792886825
 10
60.84128143319377
 20
30.42145970882347
 10
61.49475411022987
 20
30.21691352650455
 10
62.11478806352093
 20
30.00550919192817
 10
62.70030576457338
 20
29.78761203264
 10
63.25029618576048
 20
29.5635996058521
 10
63.76380674790205
 20
29.33385970274907
 10
64.23994671592391
 20
29.09878976038988
 10
64.67789324177613
 20
28.85879695563645
 10
65.0768882545562
 20
28.61429679646758
 10
65.43624180009
 20
28.36571255913462
 10
65.75532973286922
 20
28.11347445437125
 10
66.03360066088964
 20
27.85801931672081
 10
66.27057462465585
 20
27.59978932841631
 10
66.46583829519809
 20
27.33923136914749
 10
66.61905415908499
 20
27.07679663568379
 10
66.72995852030702
 20
26.81293966891728
 10
66.79835861604655
 20
26.54811684428397
 10
66.82413596843105
 20
26.28278673748548
 10
66.80724662616758
 20
26.01740908219105
 10
66.74771963407045
 20
25.75244265316291
 10
66.64565588884094
 20
25.48834671351919
 10
66.50123445565604
 20
25.22557818306959
 10
66.31470562363301
 20
24.96459194880666
 10
66.08639114697945
 20
24.7058398224259
 10
65.81668605040761
 20
24.44976973100221
 10
65.50605751682901
 20
24.1968252815634
 10
65.15504446894564
 20
23.94744407988439
 10
64.76425432190189
 20
23.7020577849305
 10
64.33436063906775
 20
23.46109175863913
 10
63.86611179345041
 20
23.22496258411075
 10
63.36031539329887
 20
22.99407897497752
 10
62.81784982798793
 20
22.76884080371858
 10
62.23965152189599
 20
22.54963827568197
 10
61.6267225727157
 20
22.33685037354087
 10
60.9801240154873
 20
22.13084600847846
 10
60.30097513415242
 20
21.93198175948338
 10
59.59045240999054
 20
21.74060117703102
 10
58.84978513065618
 20
21.55703628448673
 10
58.08025482224735
 20
21.38160479610098
 10
57.28319544467186
 20
21.21461014644152
 10
56.45998501862315
 20
21.05634185738698
 10
55.61204984437075
 20
20.90707347127469
 10
54.74085837551179
 20
20.76706325406305
 10
53.84791743475833
 20
20.63655416886653
 10
52.93477342998251
 20
20.51577190048899
 10
52.0030069119925
 20
20.40492565990241
 10
51.05423164384672
 20
20.30420696680948
 10
50.09008959799281
 20
20.21379052013287
 10
49.112249390792
 20
20.13383288507471
 10
48.12240491495313
 20
20.0644722890292
 10
47.12226962696949
 20
20.00582884674487
 10
46.11357510512452
 20
19.95800380520201
 10
45.09806599769858
 20
19.92108040719806
 10
44.07750233938872
 20
19.89512261904281
 10
43.05364941974284
 20
19.88017523496378
 10
42.02827934615295
 20
19.87626411068619
 10
41.0031694809226
 20
19.88339592967127
 10
39.98009360265724
 20
19.90155796142149
 10
38.96082154369156
 20
19.93071962519993
  0
LWPOLYLINE
  5
CE
330
2
100
AcDbEntity
  8
0
100
AcDbPolyline
 90
        3
 70
   128
 43
0.0
 10
17.22825063042258
 20
27.0119149407893
 10
17.25040908217102
 20
27.17187736697289
 10
17.28500655474551
 20
27.3213886270554
  0
LWPOLYLINE
  5
CF
330
2
100
AcDbEntity
  8
0
100
AcDbPolyline
 90
        3
 70
   128
 43
0.0
 10
67.06868862754141
 20
27.32850979468856
 10
67.11948014457319
 20
27.08295327995012
 10
67.12742647055946
 20
27.01191498287846
  0
LWPOLYLINE
  5
D0
330
2
100
AcDbEntity
  8
0
100
AcDbPolyline
 90
       36
 70
   128
 43
0.0
 10
38.96635436281191
 20
20.40956890312744
 10
37.95439489458888
 20
20.44961048236751
 10
36.94974689886825
 20
20.50051239202843
 10
35.95415063605614
 20
20.56218677240057
 10
34.96932811111261
 20
20.63452685440149
 10
33.99698463666532
 20
20.71740719279203
 10
33.03880456286414
 20
20.81068464652196
 10
32.09644457369281
 20
20.91419764655929
 10
31.17153792532051
 20
21.02776709914271
 10
30.26568482578372
 20
21.15119602660028
 10
29.38045375628435
 20
21.28427084395397
 10
28.51737855474133
 20
21.42676173202996
 10
27.67795105157469
 20
21.57842126734915
 10
26.86362527541533
 20
21.73898720806862
 10
26.07581321505605
 20
21.90818159115324
 10
25.31587473221618
 20
22.08571151729369
 10
24.58512874448882
 20
22.27126974336485
 10
23.88483666012438
 20
22.46453463409904
 10
23.21621465693192
 20
22.66517213204188
 10
22.58041937292236
 20
22.87283469787358
 10
21.97855079090172
 20
23.08716282023009
 10
21.41164960344564
 20
23.30778526272743
 10
20.88069868244768
 20
23.53432027352612
 10
20.38661831032332
 20
23.76637585482348
 10
19.93026165799493
 20
24.00354992127834
 10
19.51241927438575
 20
24.24543202469924
 10
19.13381623362054
 20
24.4916036983882
 10
18.79510449344443
 20
24.74163814604455
 10
18.49687498887175
 20
24.99510322828044
 10
18.23964076114121
 20
25.25155968355028
 10
18.02384620637743
 20
25.51056352154198
 10
17.84986796237059
 20
25.77166655998096
 10
17.71800751202176
 20
26.03441693775463
 10
17.62848894340981
 20
26.29835918479893
 10
17.58147143792855
 20
26.56303703177903
 10
17.57586745046189
 20
26.63853548147602
  0
LWPOLYLINE
  5
D1
330
2
100
AcDbEntity
  8
0
100
AcDbPolyline
 90
       42
 70
   128
 43
0.0
 10
66.77981128176404
 20
26.63853533243791
 10
66.76488974511352
 20
26.48579039425178
 10
66.70546482627717
 20
26.2212798981478
 10
66.60357639205016
 20
25.95763789004156
 10
66.45940350785179
 20
25.69532128962172
 10
66.27319514131968
 20
25.43478370782125
 10
66.04527304684312
 20
25.17647695615392
 10
65.77603183018031
 20
24.9208472811549
 10
65.46593957676842
 20
24.66833788512957
 10
65.11552895709579
 20
24.41938543971494
 10
64.72540985182518
 20
24.17442143285493
 10
64.29625708954606
 20
23.93386925798443
 10
63.82881320976366
 20
23.69814624466632
 10
63.32388696500817
 20
23.46765965939127
 10
62.78235361860804
 20
23.24280890753909
 10
62.20514971594069
 20
23.02398367303634
 10
61.59327525181357
 20
22.811561545737
 10
60.94778879593011
 20
22.60591160766393
 10
60.26980752940741
 20
22.40738904480485
 10
59.56050664044802
 20
22.2163377539172
 10
58.82111241141684
 20
22.03308876972441
 10
58.05290661034898
 20
21.85795876405789
 10
57.25721748471
 20
21.69125139652628
 10
56.43542310158224
 20
21.53325511715685
 10
55.58894622126153
 20
21.3842434787639
 10
54.7192524154765
 20
21.24447431666367
 10
53.8278468205859
 20
21.11418980257273
 10
52.91627325570368
 20
20.99361523437707
 10
51.98610958525745
 20
20.8829594217782
 10
51.03896593452745
 20
20.78241388017905
 10
50.07648222443108
 20
20.69215300194759
 10
49.10032394540435
 20
20.6123328852473
 10
48.11218225478249
 20
20.54309134863191
 10
47.11376606893674
 20
20.48454890727259
 10
46.10680630550155
 20
20.43680617002898
 10
45.09304358436723
 20
20.39994631707953
 10
44.0742346931856
 20
20.37403336893515
 10
43.05214269798415
 20
20.35911124824407
 10
42.02853699882024
 20
20.35520702429304
 10
41.00519038989677
 20
20.3623261585639
 10
39.98387304001969
 20
20.38045753866148
 10
38.96635436281191
 20
20.40956890312744
  0
LWPOLYLINE
  5
D2
330
2
100
AcDbEntity
  8
0
100
AcDbPolyline
 90
       48
 70
   128
 43
0.0
 10
39.08419592440102
 20
20.64123681956835
 10
38.08967632861646
 20
20.68069933791285
 10
37.10252469012323
 20
20.73105058453009
 10
36.12451746936551
 20
20.79220001829583
 10
35.15742038871356
 20
20.86403715422695
 10
34.20297442112239
 20
20.94643270630919
 10
33.26289825589248
 20
21.03923841635457
 10
32.33888920071061
 20
21.14228664958172
 10
31.43260905003657
 20
21.25539205838077
 10
30.545692834629
 20
21.37835046292204
 10
29.6797402812542
 20
21.51094081081728
 10
28.83630844877273
 20
21.65292380755516
 10
28.01691909187125
 20
21.80404328618655
 10
27.22304946018273
 20
21.96402752941005
 10
26.45612739952837
 20
22.13258772868323
 10
25.71753824867097
 20
22.30942049800743
 10
25.00861186742525
 20
22.49420714902466
 10
24.33062508618855
 20
22.68661446194642
 10
23.68480123841759
 20
22.88629582880501
 10
23.07230321548733
 20
23.09289156467146
 10
22.49423341024938
 20
23.30602893248514
 10
21.95163533240894
 20
23.52532422201762
 10
21.44548653838808
 20
23.75038218212287
 10
20.97669827704986
 20
23.98079711378448
 10
20.54611552948622
 20
24.21615378675163
 10
20.15451506358864
 20
24.45602831136096
 10
19.80260294006678
 20
24.69998832257813
 10
19.49101197468181
 20
24.94759411737517
 10
19.22030413091137
 20
25.19839945091272
 10
18.99096670091512
 20
25.45195231406961
 10
18.80341430377238
 20
25.70779590627876
 10
18.65798327738459
 20
25.96546928115703
 10
18.55493838222418
 20
26.22450807807027
 10
18.4944627136144
 20
26.48444530741431
 10
18.47666529147121
 20
26.74481261964993
 10
18.50158015789817
 20
27.00514070960119
 10
18.56915964134151
 20
27.2649604677009
 10
18.67928463725395
 20
27.52380397668709
 10
18.83175609990028
 20
27.78120458875618
 10
19.02629837788094
 20
28.03669823323521
 10
19.26256164712922
 20
28.28982512818864
 10
19.54011902674202
 20
28.5401282711423
 10
19.85847099368196
 20
28.78715706505245
 10
20.21704472237091
 20
29.03046668048777
 10
20.61519252157558
 20
29.26961782180738
 10
21.0521982634567
 20
29.5041803849843
 10
21.52727305734457
 20
29.73373119296447
 10
21.58448861959136
 20
29.75987032347353
  0
LWPOLYLINE
  5
D3
330
2
100
AcDbEntity
  8
0
100
AcDbPolyline
 90
       54
 70
   128
 43
0.0
 10
62.77118922870094
 20
29.75987029682711
 10
62.9101914961262
 20
29.69583826885387
 10
63.37897975752498
 20
29.46542333713174
 10
63.80956250508865
 20
29.23006666422514
 10
64.2011629709862
 20
28.99019213955526
 10
64.55307509450809
 20
28.74623212839864
 10
64.86466605989303
 20
28.49862633360161
 10
65.13537390366349
 20
28.24782100006405
 10
65.36471133359916
 20
27.99426813690713
 10
65.55226373080245
 20
27.73842454463746
 10
65.69769475712968
 20
27.4807511698197
 10
65.80073965235069
 20
27.2217123729065
 10
65.8612153209604
 20
26.96177514350187
 10
65.87901274304311
 20
26.70140783132684
 10
65.8540978766161
 20
26.44107974137555
 10
65.78651839317277
 20
26.18125998327583
 10
65.67639339732092
 20
25.92241647428968
 10
65.52392193467452
 20
25.66501586216
 10
65.32937965669393
 20
25.40952221774156
 10
65.09311638744565
 20
25.15639532272758
 10
64.81555900783284
 20
24.90609217983444
 10
64.49720704089283
 20
24.65906338586377
 10
64.13863331220395
 20
24.415753770489
 10
63.74048551299929
 20
24.17660262916935
 10
63.30347977105765
 20
23.94204006593192
 10
62.82840497723022
 20
23.7124892580123
 10
62.3161152116873
 20
23.48836424499128
 10
61.76753503789044
 20
23.27006802351675
 10
61.18365420898373
 20
23.05799445264223
 10
60.56552255967895
 20
22.85252587260802
 10
59.91425596057498
 20
22.65403183719928
 10
59.23102660536446
 20
22.4628708984493
 10
58.51706581088555
 20
22.2793872493749
 10
57.77366104017439
 20
22.10391135810027
 10
57.00215148297878
 20
21.93675984649479
 10
56.20392685551933
 20
21.77823369311579
 10
55.38042730298827
 20
21.62861821806837
 10
54.53313536796184
 20
21.48818350171753
 10
53.66357818382289
 20
21.35718255414097
 10
52.77332325064089
 20
21.23585122398656
 10
51.86397489550073
 20
21.12440820846449
 10
50.93717090185489
 20
21.02305454979118
 10
49.99458180030529
 20
20.93197299004349
 10
49.03790647249309
 20
20.85132731390129
 10
48.06886907640702
 20
20.78126296829712
 10
47.08921604109405
 20
20.72190607365337
 10
46.10071230806386
 20
20.67336394130676
 10
45.10513883791317
 20
20.6357236219459
 10
44.10428978223422
 20
20.60905364053402
 10
43.09996944998342
 20
20.59340138574924
 10
42.09398740521053
 20
20.5887950739452
 10
41.08815690364185
 20
20.59524351587403
 10
40.08429044557829
 20
20.61273437328524
 10
39.08419592440102
 20
20.64123681956835
  0
LWPOLYLINE
  5
D4
330
2
100
AcDbEntity
  8
0
100
AcDbPolyline
 90
       57
 70
   128
 43
0.0
 10
25.89663384990544
 20
57.59256573324036
 10
25.91674034405633
 20
57.62146869066819
 10
26.08882005127172
 20
57.83364303088628
 10
26.30219963543467
 20
58.04328952618655
 10
26.55633284305617
 20
58.24986968844545
 10
26.85056560181791
 20
58.45285319066475
 10
27.18414338448531
 20
58.65171923720152
 10
27.55621030656384
 20
58.84595696818789
 10
27.96580930325539
 20
59.03506818297451
 10
28.4118914796179
 20
59.2185671190866
 10
28.89331024478551
 20
59.39598308185967
 10
29.40883027139507
 20
59.56686016495547
 10
29.95712845413003
 20
59.73076009050438
 10
30.53679676585038
 20
59.88726209670595
 10
31.14634741191468
 20
60.035964247136
 10
31.78421610520327
 20
60.1764849992506
 10
32.44876470386959
 20
60.30846359820731
 10
33.13828814697336
 20
60.43156111353151
 10
33.85101592857097
 20
60.54546173788567
 10
34.58511824485782
 20
60.64987316653854
 10
35.33871089050413
 20
60.74452732880851
 10
36.10985969182792
 20
60.8291810505295
 10
36.89658476307242
 20
60.90361722964136
 10
37.69686660388881
 20
60.96764466831785
 10
38.50865081362902
 20
61.02109931686859
 10
39.32985472981061
 20
61.06384310826213
 10
40.15836885145847
 20
61.09576740707814
 10
40.99206671958845
 20
61.1167896314709
 10
41.82880834096677
 20
61.12685592229049
 10
42.66644680283546
 20
61.12594051337994
 10
43.50282989676792
 20
61.1140457045655
 10
44.33581304562347
 20
61.09120190525979
 10
45.16325599636587
 20
61.05746794979782
 10
45.98303469605947
 20
61.01293044429731
 10
46.79304655289757
 20
60.95770374406986
 10
47.59121100855462
 20
60.89192922992907
 10
48.37547903702122
 20
60.81577618830895
 10
49.14383843833452
 20
60.72943990507746
 10
49.89431540157106
 20
60.63314189960109
 10
50.62498502714556
 20
60.52712987841631
 10
51.33397047315696
 20
60.41167531549454
 10
52.01945311493296
 20
60.28707497042066
 10
52.67967146554796
 20
60.1536485693692
 10
53.3129321495965
 20
60.01173855729289
 10
53.91760946806962
 20
59.861709358364
 10
54.4921504583241
 20
59.70394604226154
 10
55.03508095268539
 20
59.53885347614999
 10
55.54500710177393
 20
59.36685564241003
 10
56.0206193784894
 20
59.1883938432774
 10
56.46069759734412
 20
59.0039263194358
 10
56.86411237928793
 20
58.81392665892434
 10
57.22982797889108
 20
58.61888252998028
 10
57.55690484336707
 20
58.41929453360883
 10
57.84450415463282
 20
58.21567510187577
 10
58.09188718089249
 20
58.00854692001685
 10
58.29842008316322
 20
57.79844170603286
 10
58.45875341646624
 20
57.59299120733486
  0
LWPOLYLINE
  5
D5
330
2
100
AcDbEntity
  8
0
100
AcDbPolyline
 90
       36
 70
   128
 43
0.0
 10
44.36743166236934
 20
61.38734762026807
 10
43.52224397928071
 20
61.41052606748807
 10
42.67360538097969
 20
61.42259526091887
 10
41.82369459808058
 20
61.42352396135475
 10
40.97469288037232
 20
61.41331016323054
 10
40.12877936821814
 20
61.39198013329204
 10
39.28812589184536
 20
61.35958817307997
 10
38.45489068685308
 20
61.31621756723869
 10
37.63121163044839
 20
61.26198011272297
 10
36.81920380832789
 20
61.19701440646419
 10
36.02095116963148
 20
61.12148783476595
 10
35.23850410290785
 20
61.03559351399518
 10
34.47386955369278
 20
60.93955258992374
 10
33.72901076821906
 20
60.83361150211239
 10
33.00584012153902
 20
60.71804199123894
 10
32.30621466067238
 20
60.59314043305894
 10
31.63192847598542
 20
60.4592283165272
 10
30.98471403036135
 20
60.31664866688226
 10
30.3662326459526
 20
60.16576732085816
 10
29.77807093925616
 20
60.00697239411995
 10
29.22173868970466
 20
59.84067126567876
 10
28.69866571404428
 20
59.66729011097442
 10
28.21019272534868
 20
59.4872749631285
 10
27.75757476580185
 20
59.3010873714594
 10
27.34197329877418
 20
59.10920537710352
 10
26.96445545951394
 20
58.91212151368791
 10
26.62599026863337
 20
58.71034170162574
 10
26.32744646890621
 20
58.50438411606853
 10
26.06958976191504
 20
58.29477715572387
 10
25.85308371021337
 20
58.08205903837549
 10
25.6784817133087
 20
57.86677579259242
 10
25.54623497554043
 20
57.64948002121544
 10
25.45668033261306
 20
57.43072935217169
 10
25.41004854995037
 20
57.21108552050651
 10
25.40646032694712
 20
56.99111242325688
 10
25.41748932663509
 20
56.90062945197419
  0
LWPOLYLINE
  5
D6
330
2
100
AcDbEntity
  8
0
100
AcDbPolyline
 90
       31
 70
   128
 43
0.0
 10
58.93747337192241
 20
56.89627171053438
 10
58.94562948462443
 20
56.95445796684777
 10
58.94921770762771
 20
57.17443106409742
 10
58.9097546220178
 20
57.39416887796618
 10
58.8273417149559
 20
57.61310740543719
 10
58.70218879096245
 20
57.83068453544803
 10
58.53461763791646
 20
58.04634167553267
 10
58.32506020571337
 20
58.25952550236804
 10
58.07405199178199
 20
58.46968859153782
 10
57.7822397269347
 20
58.67629157722261
 10
57.45036955599454
 20
58.87880377984375
 10
57.07929592019037
 20
59.07670576375411
 10
56.66997098907459
 20
59.26948940330895
 10
56.22344468795686
 20
59.45665973957466
 10
55.74086212471001
 20
59.63773613327006
 10
55.22346543751606
 20
59.81225423968816
 10
54.6725799738648
 20
59.97976566453377
 10
54.08961921862313
 20
60.13984042580823
 10
53.47608273529809
 20
60.29206787710715
 10
52.83354451568744
 20
60.4360572587163
 10
52.16365117525234
 20
60.57143850681414
 10
51.46812605363438
 20
60.69786461930863
 10
50.74875244008297
 20
60.81501076736142
 10
50.00737734440487
 20
60.92257634219449
 10
49.24590376987246
 20
61.02028514888225
 10
48.46628644307835
 20
61.10788638639381
 10
47.67052743902095
 20
61.18515520753057
 10
46.86066833361941
 20
61.251893434261
 10
46.03878864053946
 20
61.30792932377726
 10
45.2069980521863
 20
61.35311964588475
 10
44.36743166236934
 20
61.38734762026807
  0
ARC
  5
D7
330
2
100
AcDbEntity
  8
0
100
AcDbCircle
 10
26.58501841415537
 20
57.49883846247934
 30
0.0
 40
1.182308539718776
100
AcDbArc
 50
162.1872547924008
 51
179.7524678632993
  0
ARC
  5
D8
330
2
100
AcDbEntity
  8
0
100
AcDbCircle
 10
57.77798471661878
 20
57.49992954393556
 30
0.0
 40
1.174979275485863
100
AcDbArc
 50
0.1958673749000567
 51
17.55961494200068
  0
LINE
  5
D9
330
2
100
AcDbEntity
  8
0
100
AcDbLine
 10
41.40302066167853
 20
89.83185490595543
 30
0.0
 11
41.37086338542451
 21
89.84627061854373
 31
0.0
  0
LWPOLYLINE
  5
DA
330
2
100
AcDbEntity
  8
0
100
AcDbPolyline
 90
        9
 70
   128
 43
0.0
 10
41.29218813786957
 20
89.72479894866255
 10
41.34043807643077
 20
89.73374772825252
 10
41.38101550586159
 20
89.74496083255656
 10
41.41236119271323
 20
89.75800736136548
 10
41.43327047738416
 20
89.77238595449405
 10
41.44293981447408
 20
89.78754404192494
 10
41.44099765026452
 20
89.80289909503689
 10
41.42751856686853
 20
89.81786104294618
 10
41.40302066167853
 20
89.83185490595543
  0
LINE
  5
DB
330
2
100
AcDbEntity
  8
0
100
AcDbLine
 10
41.0424419784242
 20
89.68747956849288
 30
0.0
 11
41.29218813786957
 21
89.72479894866255
 31
0.0
  0
LWPOLYLINE
  5
DC
330
2
100
AcDbEntity
  8
0
100
AcDbPolyline
 90
        3
 70
   128
 43
0.0
 10
41.0133831951107
 20
89.68093902577768
 10
41.03598128417949
 20
89.68644286833482
 10
41.0424419784242
 20
89.68747956849288
  0
ARC
  5
DD
330
2
100
AcDbEntity
  8
0
100
AcDbCircle
 10
41.74458527685174
 20
88.72428968474244
 30
0.0
 40
0.8767828108445769
100
AcDbArc
 50
72.47385027650037
 51
97.5538726924009
  0
LINE
  5
DE
330
2
100
AcDbEntity
  8
0
100
AcDbLine
 10
42.24067824045925
 20
89.45634328635884
 30
0.0
 11
42.00862056735924
 21
89.56037189525741
 31
0.0
  0
LINE
  5
DF
330
2
100
AcDbEntity
  8
0
100
AcDbLine
 10
42.24773215276945
 20
89.45375479054849
 30
0.0
 11
42.24067824045925
 21
89.45634328635884
 31
0.0
  0
LINE
  5
E0
330
2
100
AcDbEntity
  8
0
100
AcDbLine
 10
43.18471504599634
 20
89.5974099937649
 30
0.0
 11
43.18894196247141
 21
89.59445819256766
 31
0.0
  0
LINE
  5
E1
330
2
100
AcDbEntity
  8
0
100
AcDbLine
 10
43.15027311079975
 20
89.61284989094114
 30
0.0
 11
43.18471504599634
 21
89.5974099937649
 31
0.0
  0
LINE
  5
E2
330
2
100
AcDbEntity
  8
0
100
AcDbLine
 10
44.41495194041599
 20
91.57915683004654
 30
0.0
 11
44.4481077983101
 21
91.61028392185261
 31
0.0
  0
LWPOLYLINE
  5
E3
330
2
100
AcDbEntity
  8
0
100
AcDbPolyline
 90
       23
 70
   128
 43
0.0
 10
44.47182307582373
 20
91.87319425764135
 10
44.47116965622092
 20
91.87404433970137
 10
44.38745736125485
 20
91.95376322238125
 10
44.26258425434073
 20
92.02978939675316
 10
44.09887624274005
 20
92.10070660490826
 10
43.89938287196155
 20
92.16519378458176
 10
43.6678203491041
 20
92.22204967734237
 10
43.40850236899301
 20
92.27021519630431
 10
43.12625946522786
 20
92.3087930556192
 10
42.82634936316575
 20
92.33706466047575
 10
42.51435860233407
 20
92.3545033197765
 10
42.19609924748844
 20
92.36078423042107
 10
41.87749956202108
 20
92.35579042447922
 10
41.5644947757824
 20
92.33961481926767
 10
41.26291539846643
 20
92.31255879970129
 10
40.97837924411266
 20
92.27512639938614
 10
40.71618690813316
 20
92.22801481740937
 10
40.48122221195441
 20
92.17210176675118
 10
40.27786233689479
 20
92.10842874192252
 10
40.10989548686004
 20
92.03818183828323
 10
39.98045047766318
 20
91.96266963353473
 10
39.8919386892425
 20
91.8832988042684
 10
39.88818549440185
 20
91.87871490589905
  0
LINE
  5
E4
330
2
100
AcDbEntity
  8
0
100
AcDbLine
 10
44.57699831222708
 20
91.8140243961133
 30
0.0
 11
44.57675594823252
 21
91.80519894876365
 31
0.0
  0
LWPOLYLINE
  5
E5
330
2
100
AcDbEntity
  8
0
100
AcDbPolyline
 90
        3
 70
   128
 43
0.0
 10
39.77867972234779
 20
91.98951500516161
 10
39.77875995361792
 20
91.98443830379446
 10
39.77877400256712
 20
91.98401206137537
  0
LINE
  5
E6
330
2
100
AcDbEntity
  8
0
100
AcDbLine
 10
44.57699831222708
 20
91.98951500413212
 30
0.0
 11
44.57665241262966
 21
92.00005680153138
 31
0.0
  0
LWPOLYLINE
  5
E7
330
2
100
AcDbEntity
  8
0
100
AcDbPolyline
 90
       16
 70
   128
 43
0.0
 10
39.99209145819815
 20
92.27598370729465
 10
40.10989548686004
 20
92.33066386048692
 10
40.27786233689479
 20
92.40091076418671
 10
40.48122221195441
 20
92.46458378895482
 10
40.71618690813316
 20
92.52049683961301
 10
40.97837924411266
 20
92.56760842158978
 10
41.26291539846643
 20
92.60504082190493
 10
41.5644947757824
 20
92.63209684153187
 10
41.87749956202108
 20
92.64827244674338
 10
42.19609924748844
 20
92.65326625268526
 10
42.51435860233407
 20
92.64698534198014
 10
42.82634936316575
 20
92.62954668273998
 10
43.12625946522786
 20
92.60127507788338
 10
43.40850236899301
 20
92.56269721850799
 10
43.6678203491041
 20
92.51453169960656
 10
43.91579272618925
 20
92.45747349184023
  0
ARC
  5
E8
330
2
100
AcDbEntity
  8
0
100
AcDbCircle
 10
44.17091487430016
 20
91.57831682244399
 30
0.0
 40
0.2286192571610045
100
AcDbArc
 50
309.6707429488009
 51
353.2989826470003
  0
LINE
  5
E9
330
2
100
AcDbEntity
  8
0
100
AcDbLine
 10
39.93026985979207
 20
91.70663206470406
 30
0.0
 11
39.93082019296543
 21
91.68849322470554
 31
0.0
  0
LINE
  5
EA
330
2
100
AcDbEntity
  8
0
100
AcDbLine
 10
43.98042936428915
 20
89.70101860912718
 30
0.0
 11
44.02005394904482
 21
89.74379286692032
 31
0.0
  0
LWPOLYLINE
  5
EB
330
2
100
AcDbEntity
  8
0
100
AcDbPolyline
 90
        7
 70
   128
 43
0.0
 10
43.97308501195036
 20
89.65573885856413
 10
43.95222007887396
 20
89.64426997065578
 10
43.94213121722427
 20
89.64221307378533
 10
43.94068936769228
 20
89.64855572685559
 10
43.94719619254188
 20
89.66076699978064
 10
43.96003326541366
 20
89.67785393633791
 10
43.98042936428915
 20
89.70101860912718
  0
LINE
  5
EC
330
2
100
AcDbEntity
  8
0
100
AcDbLine
 10
44.00954868894213
 20
89.67902596482289
 30
0.0
 11
43.97308501195036
 21
89.65573885856413
 31
0.0
  0
LINE
  5
ED
330
2
100
AcDbEntity
  8
0
100
AcDbLine
 10
43.92210151683729
 20
89.58016253156381
 30
0.0
 11
43.96970616403669
 21
89.61996452590737
 31
0.0
  0
ARC
  5
EE
330
2
100
AcDbEntity
  8
0
100
AcDbCircle
 10
10.7807893407445
 20
129.3016849643847
 30
0.0
 40
51.73147897689962
100
AcDbArc
 50
309.745561907001
 51
309.8396421747001
  0
LWPOLYLINE
  5
EF
330
2
100
AcDbEntity
  8
0
100
AcDbPolyline
 90
        3
 70
   128
 43
0.0
 10
40.4108201852282
 20
89.59596290833717
 10
40.41926402468956
 20
89.58878917977862
 10
40.42650877110282
 20
89.58293594815732
  0
LINE
  5
F0
330
2
100
AcDbEntity
  8
0
100
AcDbLine
 10
40.37524867028564
 20
89.6948307334674
 30
0.0
 11
40.33562408553004
 21
89.71894457512201
 31
0.0
  0
LWPOLYLINE
  5
F1
330
2
100
AcDbEntity
  8
0
100
AcDbPolyline
 90
        7
 70
   128
 43
0.0
 10
40.3825930226245
 20
89.74011048403047
 10
40.4034579557009
 20
89.71279375793811
 10
40.4135468173506
 20
89.69471867574132
 10
40.41498866688256
 20
89.68325063137312
 10
40.40848184203294
 20
89.68041847582666
 10
40.3956447691612
 20
89.68407717061511
 10
40.37524867028564
 20
89.6948307334674
  0
LINE
  5
F2
330
2
100
AcDbEntity
  8
0
100
AcDbLine
 10
40.34612934563273
 20
89.78371147721949
 30
0.0
 11
40.3825930226245
 21
89.74011048403047
 31
0.0
  0
LINE
  5
F3
330
2
100
AcDbEntity
  8
0
100
AcDbLine
 10
40.61077294333331
 20
89.92851759764716
 30
0.0
 11
40.55843241307806
 21
89.95900922988496
 31
0.0
  0
LWPOLYLINE
  5
F4
330
2
100
AcDbEntity
  8
0
100
AcDbPolyline
 90
        7
 70
   128
 43
0.0
 10
40.70460713936107
 20
89.96678059538993
 10
40.70736886763389
 20
89.93782532769454
 10
40.70063367723188
 20
89.91951768398575
 10
40.68467850893745
 20
89.90905614740995
 10
40.66451262414758
 20
89.90807375569641
 10
40.64042465911135
 20
89.91429320685151
 10
40.61077294333331
 20
89.92851759764716
  0
LINE
  5
F5
330
2
100
AcDbEntity
  8
0
100
AcDbLine
 10
40.69265033255767
 20
90.01373955159214
 30
0.0
 11
40.70460713936107
 21
89.96678059538993
 31
0.0
  0
ARC
  5
F6
330
2
100
AcDbEntity
  8
0
100
AcDbCircle
 10
43.21564932338769
 20
90.22197895982522
 30
0.0
 40
0.9357155433031538
100
AcDbArc
 50
277.1480160275004
 51
313.6871777323988
  0
LWPOLYLINE
  5
F7
330
2
100
AcDbEntity
  8
0
100
AcDbPolyline
 90
        3
 70
   128
 43
0.0
 10
41.06807860810055
 20
89.28241206058475
 10
41.17630968122687
 20
89.25854551468818
 10
41.20540493594765
 20
89.25281155748495
  0
ARC
  5
F8
330
2
100
AcDbEntity
  8
0
100
AcDbCircle
 10
42.17783902631086
 20
95.18708420710126
 30
0.0
 40
6.018050852051998
100
AcDbArc
 50
264.7705283934994
 51
275.2294711111996
  0
LWPOLYLINE
  5
F9
330
2
100
AcDbEntity
  8
0
100
AcDbPolyline
 90
        3
 70
   128
 43
0.0
 10
43.1502731455612
 20
89.25281154246603
 10
43.17777596554435
 20
89.25822473361911
 10
43.33226096216907
 20
89.29358410206514
  0
LWPOLYLINE
  5
FA
330
2
100
AcDbEntity
  8
0
100
AcDbPolyline
 90
       17
 70
   128
 43
0.0
 10
40.92211222205797
 20
89.64662707933348
 10
40.92466402372136
 20
89.65036686062033
 10
40.98803607017441
 20
89.70895707248857
 10
41.09192542524744
 20
89.76353585940936
 10
41.23279428630907
 20
89.81224457358065
 10
41.40584549957949
 20
89.85342450686166
 10
41.60518605787694
 20
89.88567331451703
 10
41.82402762201813
 20
89.90789281273579
 10
42.05491779561218
 20
89.9193263357284
 10
42.28999392332673
 20
89.91958455826525
 10
42.52125069937544
 20
89.9086586493671
 10
42.74081302758665
 20
89.88692069283398
 10
42.94120394365266
 20
89.85511094681571
 10
43.1155994270485
 20
89.81431266006028
 10
43.25806064042563
 20
89.76591516931954
 10
43.36373612652566
 20
89.71156658273718
 10
43.40631513224328
 20
89.67840309028709
  0
LWPOLYLINE
  5
FB
330
2
100
AcDbEntity
  8
0
100
AcDbPolyline
 90
        3
 70
   128
 43
0.0
 10
43.33161205531514
 20
89.45140064416277
 10
43.26375260932743
 20
89.41878340653397
 10
43.15027313720389
 20
89.37817964047106
  0
ARC
  5
FC
330
2
100
AcDbEntity
  8
0
100
AcDbCircle
 10
42.17783903612159
 20
93.8981850114103
 30
0.0
 40
4.637156205209239
100
AcDbArc
 50
263.2067635569998
 51
276.7932362199988
  0
LINE
  5
FD
330
2
100
AcDbEntity
  8
0
100
AcDbLine
 10
42.11350934591677
 20
91.73784983910259
 30
0.0
 11
42.11351148101988
 21
91.738451669889
 31
0.0
  0
LINE
  5
FE
330
2
100
AcDbEntity
  8
0
100
AcDbLine
 10
41.8987189642366
 20
91.73349400015489
 30
0.0
 11
41.8987248709554
 21
91.73289235970853
 31
0.0
  0
ARC
  5
FF
330
2
100
AcDbEntity
  8
0
100
AcDbCircle
 10
42.17667792938896
 20
84.34629275203594
 30
0.0
 40
7.392428793486077
100
AcDbArc
 50
90.4895840112001
 51
92.15485750019867
  0
LINE
  5
100
330
2
100
AcDbEntity
  8
0
100
AcDbLine
 10
42.61655858634941
 20
91.72509280370906
 30
0.0
 11
42.61656635880043
 21
91.72569429699464
 31
0.0
  0
LINE
  5
101
330
2
100
AcDbEntity
  8
0
100
AcDbLine
 10
42.40413502783579
 20
91.73529394479492
 30
0.0
 11
42.40413527909919
 21
91.73469206604501
 31
0.0
  0
ARC
  5
102
330
2
100
AcDbEntity
  8
0
100
AcDbCircle
 10
42.18682386792262
 20
84.57114456611035
 30
0.0
 40
7.167444486020405
100
AcDbArc
 50
86.56262318640029
 51
88.26257172630105
  0
LINE
  5
103
330
2
100
AcDbEntity
  8
0
100
AcDbLine
 10
42.16006227601805
 20
91.71563693471631
 30
0.0
 11
42.15027360552465
 21
91.73534268601995
 31
0.0
  0
LINE
  5
104
330
2
100
AcDbEntity
  8
0
100
AcDbLine
 10
42.16006227601805
 20
91.71563693471631
 30
0.0
 11
42.15806548881539
 21
90.29902523970628
 31
0.0
  0
LINE
  5
105
330
2
100
AcDbEntity
  8
0
100
AcDbLine
 10
42.35378619925788
 20
90.29689865711926
 30
0.0
 11
42.3560571868428
 21
91.71350736555275
 31
0.0
  0
LINE
  5
106
330
2
100
AcDbEntity
  8
0
100
AcDbLine
 10
42.3665845526143
 20
91.73299236999318
 30
0.0
 11
42.3560571868428
 21
91.71350736555275
 31
0.0
  0
LWPOLYLINE
  5
107
330
2
100
AcDbEntity
  8
0
100
AcDbPolyline
 90
        9
 70
   128
 43
0.0
 10
42.21071423145841
 20
90.20773393369685
 10
42.22242437596125
 20
90.18773597377055
 10
42.23509833116095
 20
90.17546068790455
 10
42.24433572277618
 20
90.17092438672147
 10
42.24930258345798
 20
90.16982148486317
 10
42.25956325719613
 20
90.1703347260104
 10
42.26612997066959
 20
90.17263330515161
 10
42.28127723215408
 20
90.18424791366316
 10
42.2962836238302
 20
90.20680419629215
  0
LINE
  5
108
330
2
100
AcDbEntity
  8
0
100
AcDbLine
 10
42.17543228423834
 20
90.25143335370836
 30
0.0
 11
42.21071423145841
 21
90.20773393369685
 31
0.0
  0
ARC
  5
109
330
2
100
AcDbEntity
  8
0
100
AcDbCircle
 10
42.23513054380791
 20
90.30018250517917
 30
0.0
 40
0.0770737436903251
100
AcDbArc
 50
180.8603308197
 51
219.2348180212987
  0
LINE
  5
10A
330
2
100
AcDbEntity
  8
0
100
AcDbLine
 10
42.21287218945052
 20
91.64412912789712
 30
0.0
 11
42.16006227601805
 21
91.71563693471631
 31
0.0
  0
ARC
  5
10B
330
2
100
AcDbEntity
  8
0
100
AcDbCircle
 10
42.25804062959777
 20
91.86305511248534
 30
0.0
 40
0.2235369649812211
100
AcDbArc
 50
258.3424050479986
 51
280.4125613661015
  0
ARC
  5
10C
330
2
100
AcDbEntity
  8
0
100
AcDbCircle
 10
42.28144731307458
 20
90.29862324671908
 30
0.0
 40
0.0723594407302895
100
AcDbArc
 50
317.4615891078011
 51
358.6343031246997
  0
LINE
  5
10D
330
2
100
AcDbEntity
  8
0
100
AcDbLine
 10
42.2962836238302
 20
90.20680419629215
 30
0.0
 11
42.33476350428478
 21
90.24970216319054
 31
0.0
  0
LINE
  5
10E
330
2
100
AcDbEntity
  8
0
100
AcDbLine
 10
42.3560571868428
 20
91.71350736555275
 30
0.0
 11
42.29844153295038
 21
91.6431993831647
 31
0.0
  0
LINE
  5
10F
330
2
100
AcDbEntity
  8
0
100
AcDbLine
 10
41.86743313524437
 20
90.29231707977217
 30
0.0
 11
41.85647223720525
 21
91.70862969593132
 31
0.0
  0
LINE
  5
110
330
2
100
AcDbEntity
  8
0
100
AcDbLine
 10
41.86447413661316
 20
91.72874607904439
 30
0.0
 11
41.85647223720525
 21
91.70862969593132
 31
0.0
  0
LINE
  5
111
330
2
100
AcDbEntity
  8
0
100
AcDbLine
 10
41.61484394785662
 20
91.71647426932194
 30
0.0
 11
41.61484040661108
 21
91.7170760609866
 31
0.0
  0
LINE
  5
112
330
2
100
AcDbEntity
  8
0
100
AcDbLine
 10
41.41232443564444
 20
91.69789895135728
 30
0.0
 11
41.41233564608625
 21
91.69729786745724
 31
0.0
  0
ARC
  5
113
330
2
100
AcDbEntity
  8
0
100
AcDbCircle
 10
42.10499646467328
 20
85.46197962089623
 30
0.0
 40
6.274271625948459
100
AcDbArc
 50
94.48060264869932
 51
96.33830487450143
  0
ARC
  5
114
330
2
100
AcDbEntity
  8
0
100
AcDbCircle
 10
41.7739564621538
 20
90.29235031600412
 30
0.0
 40
0.093476678980764
100
AcDbArc
 50
328.8620490771999
 51
359.9796281106002
  0
LINE
  5
115
330
2
100
AcDbEntity
  8
0
100
AcDbLine
 10
41.82625410806195
 20
90.19886014021555
 30
0.0
 11
41.85396546631674
 21
90.24401348978184
 31
0.0
  0
LINE
  5
116
330
2
100
AcDbEntity
  8
0
100
AcDbLine
 10
41.85647223720525
 20
91.70862969593132
 30
0.0
 11
41.81503434167434
 21
91.63494655173463
 31
0.0
  0
LINE
  5
117
330
2
100
AcDbEntity
  8
0
100
AcDbLine
 10
42.6563099509046
 20
91.69993914396521
 30
0.0
 11
42.64924226931131
 21
91.72021927402923
 31
0.0
  0
LINE
  5
118
330
2
100
AcDbEntity
  8
0
100
AcDbLine
 10
42.6563099509046
 20
91.69993914396521
 30
0.0
 11
42.64122359496738
 21
90.28390954251346
 31
0.0
  0
LWPOLYLINE
  5
119
330
2
100
AcDbEntity
  8
0
100
AcDbPolyline
 90
        9
 70
   128
 43
0.0
 10
41.74267064606083
 20
90.19402613428775
 10
41.75670342407308
 20
90.17490532752518
 10
41.77065619870247
 20
90.16353734122343
 10
41.78025196018641
 20
90.15964276023998
 10
41.785238863137
 20
90.15887902697828
 10
41.79518060228024
 20
90.16008063901928
 10
41.80128915016439
 20
90.16281110489197
 10
41.81455992826306
 20
90.17539406319285
 10
41.82625410806195
 20
90.19886014021555
  0
ARC
  5
11A
330
2
100
AcDbEntity
  8
0
100
AcDbCircle
 10
41.76150090517968
 20
91.83555275221307
 30
0.0
 40
0.207626290500427
100
AcDbArc
 50
261.6782932470983
 51
284.9416693599985
  0
LINE
  5
11B
330
2
100
AcDbEntity
  8
0
100
AcDbLine
 10
41.69833210556896
 20
90.23501253763766
 30
0.0
 11
41.74267064606083
 21
90.19402613428775
 31
0.0
  0
ARC
  5
11C
330
2
100
AcDbEntity
  8
0
100
AcDbCircle
 10
41.74098030156182
 20
90.2837647592578
 30
0.0
 40
0.0647738198076396
100
AcDbArc
 50
182.2157871802998
 51
228.8207303881996
  0
LINE
  5
11D
330
2
100
AcDbEntity
  8
0
100
AcDbLine
 10
41.66502612090829
 20
91.69755752690104
 30
0.0
 11
41.67625491309656
 21
90.28126039980765
 31
0.0
  0
LINE
  5
11E
330
2
100
AcDbEntity
  8
0
100
AcDbLine
 10
41.73145092860563
 20
91.6301125531346
 30
0.0
 11
41.66502612090829
 21
91.69755752690104
 31
0.0
  0
LINE
  5
11F
330
2
100
AcDbEntity
  8
0
100
AcDbLine
 10
42.65269644979739
 20
90.23533498501487
 30
0.0
 11
42.67651732413383
 21
90.18962169715775
 31
0.0
  0
ARC
  5
120
330
2
100
AcDbEntity
  8
0
100
AcDbCircle
 10
42.74715156203245
 20
90.28328656557077
 30
0.0
 40
0.1059297989256693
100
AcDbArc
 50
179.6630395243008
 51
206.9153231737991
  0
LINE
  5
121
330
2
100
AcDbEntity
  8
0
100
AcDbLine
 10
42.69190592584622
 20
91.62541899787948
 30
0.0
 11
42.6563099509046
 21
91.69993914396521
 31
0.0
  0
LINE
  5
122
330
2
100
AcDbEntity
  8
0
100
AcDbLine
 10
41.66502612090829
 20
91.69755752690104
 30
0.0
 11
41.6531835338227
 21
91.71652620084733
 31
0.0
  0
LWPOLYLINE
  5
123
330
2
100
AcDbEntity
  8
0
100
AcDbPolyline
 90
        9
 70
   128
 43
0.0
 10
42.67651732413383
 20
90.18962169715775
 10
42.6851069571126
 20
90.16893201095085
 10
42.69563835145588
 20
90.15586604868277
 10
42.70388801008743
 20
90.15073388592995
 10
42.70849611785852
 20
90.14930471511668
 10
42.71837645885962
 20
90.14913169104117
 10
42.7249539561297
 20
90.15098236884547
 10
42.74094538811058
 20
90.16153596115099
 10
42.75824126657183
 20
90.18299156386783
  0
LINE
  5
124
330
2
100
AcDbEntity
  8
0
100
AcDbLine
 10
43.08970987813434
 20
91.67907255935727
 30
0.0
 11
43.08972261577799
 21
91.67967334493877
 31
0.0
  0
LINE
  5
125
330
2
100
AcDbEntity
  8
0
100
AcDbLine
 10
42.89412933894076
 20
91.7031760829821
 30
0.0
 11
42.8941240883289
 21
91.70257439348217
 31
0.0
  0
ARC
  5
126
330
2
100
AcDbEntity
  8
0
100
AcDbCircle
 10
42.31221436064928
 20
86.03476368542208
 30
0.0
 40
5.698203589793747
100
AcDbArc
 50
82.15764326740085
 51
84.13859154129941
  0
ARC
  5
127
330
2
100
AcDbEntity
  8
0
100
AcDbCircle
 10
42.7480581228254
 20
91.81057337274067
 30
0.0
 40
0.1934818124531532
100
AcDbArc
 50
253.128901728801
 51
277.594783603999
  0
ARC
  5
128
330
2
100
AcDbEntity
  8
0
100
AcDbCircle
 10
42.76565512536961
 20
90.27174231505222
 30
0.0
 40
0.0625654175615312
100
AcDbArc
 50
308.8100763761993
 51
357.2537451734006
  0
LINE
  5
129
330
2
100
AcDbEntity
  8
0
100
AcDbLine
 10
42.75824126657183
 20
90.18299156386783
 30
0.0
 11
42.80486742902498
 21
90.22298960525796
 31
0.0
  0
LINE
  5
12A
330
2
100
AcDbEntity
  8
0
100
AcDbLine
 10
42.84349695188728
 20
91.68475298879481
 30
0.0
 11
42.77362986834475
 21
91.61878886452901
 31
0.0
  0
LINE
  5
12B
330
2
100
AcDbEntity
  8
0
100
AcDbLine
 10
42.82814868779261
 20
90.26874462833633
 30
0.0
 11
42.84349695188728
 21
91.68475298879481
 31
0.0
  0
LINE
  5
12C
330
2
100
AcDbEntity
  8
0
100
AcDbLine
 10
42.85583233694419
 20
91.7034589527695
 30
0.0
 11
42.84349695188728
 21
91.68475298879481
 31
0.0
  0
ARC
  5
12D
330
2
100
AcDbEntity
  8
0
100
AcDbCircle
 10
42.86901948968792
 20
91.44506909105224
 30
0.0
 40
0.2587261518789406
100
AcDbArc
 50
84.43174084869871
 51
92.92160542459953
  0
LINE
  5
12E
330
2
100
AcDbEntity
  8
0
100
AcDbLine
 10
41.40223372951904
 20
90.25531215536208
 30
0.0
 11
41.37878790194085
 21
91.67045237307524
 31
0.0
  0
LINE
  5
12F
330
2
100
AcDbEntity
  8
0
100
AcDbLine
 10
41.38371903283307
 20
91.6910094246637
 30
0.0
 11
41.37878790194085
 21
91.67045237307524
 31
0.0
  0
ARC
  5
130
330
2
100
AcDbEntity
  8
0
100
AcDbCircle
 10
41.42216390131554
 20
91.58431617406163
 30
0.0
 40
0.1134083667371288
100
AcDbArc
 50
94.97163329670071
 51
109.8156554630994
  0
ARC
  5
131
330
2
100
AcDbEntity
  8
0
100
AcDbCircle
 10
41.24482465436567
 20
90.25278284931326
 30
0.0
 40
0.1574293947677047
100
AcDbArc
 50
342.8310930837995
 51
0.920570140400461
  0
LINE
  5
132
330
2
100
AcDbEntity
  8
0
100
AcDbLine
 10
41.38018449656542
 20
90.15970075921039
 30
0.0
 11
41.39523878986283
 21
90.20631132934301
 31
0.0
  0
LINE
  5
133
330
2
100
AcDbEntity
  8
0
100
AcDbLine
 10
41.37878790194085
 20
91.67045237307524
 30
0.0
 11
41.35635173739117
 21
91.59459277029343
 31
0.0
  0
ARC
  5
134
330
2
100
AcDbEntity
  8
0
100
AcDbCircle
 10
41.31567988082249
 20
90.01929098824692
 30
0.0
 40
0.4531507907087117
100
AcDbArc
 50
225.0465525225008
 51
255.9155653374993
  0
ARC
  5
135
330
2
100
AcDbEntity
  8
0
100
AcDbCircle
 10
42.17783903212461
 20
93.79102442589106
 30
0.0
 40
4.338683124130957
100
AcDbArc
 50
262.7369963634001
 51
277.2630036040991
  0
ARC
  5
136
330
2
100
AcDbEntity
  8
0
100
AcDbCircle
 10
42.99040888894126
 20
90.10600419929053
 30
0.0
 40
0.5499878643001308
100
AcDbArc
 50
286.8979917815985
 51
312.3797689471991
  0
LWPOLYLINE
  5
137
330
2
100
AcDbEntity
  8
0
100
AcDbPolyline
 90
        9
 70
   128
 43
0.0
 10
41.30428314850941
 20
90.14943242929639
 10
41.31968210053001
 20
90.13131450181374
 10
41.33396288775756
 20
90.12090854598733
 10
41.34326304623139
 20
90.11765781673357
 10
41.34793028429416
 20
90.11722304522683
 10
41.3568755363252
 20
90.11906821552377
 10
41.36210954554159
 20
90.12218517193408
 10
41.37259948439027
 20
90.13557774465491
 10
41.38018449656542
 20
90.15970075921039
  0
ARC
  5
138
330
2
100
AcDbEntity
  8
0
100
AcDbCircle
 10
41.29844956569856
 20
91.73693613368405
 30
0.0
 40
0.1536694328201133
100
AcDbArc
 50
263.2735254266009
 51
292.1354181670992
  0
ARC
  5
139
330
2
100
AcDbEntity
  8
0
100
AcDbCircle
 10
43.08030327838921
 20
91.5890840414533
 30
0.0
 40
0.0904788233340661
100
AcDbArc
 50
66.70419049020022
 51
84.03248073530127
  0
LINE
  5
13A
330
2
100
AcDbEntity
  8
0
100
AcDbLine
 10
43.11995054328579
 20
91.65153397094723
 30
0.0
 11
43.11608569217127
 21
91.67218660661159
 31
0.0
  0
LINE
  5
13B
330
2
100
AcDbEntity
  8
0
100
AcDbLine
 10
43.11995054328579
 20
91.65153397094723
 30
0.0
 11
43.09280281348444
 21
90.23694346772645
 31
0.0
  0
LINE
  5
13C
330
2
100
AcDbEntity
  8
0
100
AcDbLine
 10
41.2539095216443
 20
90.18719161017729
 30
0.0
 11
41.30428314850941
 21
90.14943242929639
 31
0.0
  0
ARC
  5
13D
330
2
100
AcDbEntity
  8
0
100
AcDbCircle
 10
41.28659962111901
 20
90.23518688319279
 30
0.0
 40
0.0580705505070028
100
AcDbArc
 50
183.3181811131004
 51
235.7407994671994
  0
LINE
  5
13E
330
2
100
AcDbEntity
  8
0
100
AcDbLine
 10
41.20493735073605
 20
91.64693302021644
 30
0.0
 11
41.2286264258791
 21
90.23182571219575
 31
0.0
  0
LINE
  5
13F
330
2
100
AcDbEntity
  8
0
100
AcDbLine
 10
41.28045032072065
 20
91.58432446387669
 30
0.0
 11
41.20493735073605
 21
91.64693302021644
 31
0.0
  0
ARC
  5
140
330
2
100
AcDbEntity
  8
0
100
AcDbCircle
 10
43.30493520549178
 20
90.23285808794645
 30
0.0
 40
0.2121717278062884
100
AcDbArc
 50
178.8966980375005
 51
192.2570377628997
  0
LINE
  5
141
330
2
100
AcDbEntity
  8
0
100
AcDbLine
 10
43.09759992444834
 20
90.18781451687042
 30
0.0
 11
43.10833634555264
 21
90.14092370900883
 31
0.0
  0
LINE
  5
142
330
2
100
AcDbEntity
  8
0
100
AcDbLine
 10
43.13590689050148
 20
91.57525723209166
 30
0.0
 11
43.11995054328579
 21
91.65153397094723
 31
0.0
  0
ARC
  5
143
330
2
100
AcDbEntity
  8
0
100
AcDbCircle
 10
41.18989050886122
 20
91.42691098958493
 30
0.0
 40
0.2381492319008159
100
AcDbArc
 50
89.52910254859963
 51
98.53502807319884
  0
LINE
  5
144
330
2
100
AcDbEntity
  8
0
100
AcDbLine
 10
41.20493735073605
 20
91.64693302021644
 30
0.0
 11
41.19184776649807
 21
91.66505217833869
 31
0.0
  0
LINE
  5
145
330
2
100
AcDbEntity
  8
0
100
AcDbLine
 10
40.97809851009453
 20
91.6309345010814
 30
0.0
 11
40.97811415376996
 21
91.63033434932073
 31
0.0
  0
ARC
  5
146
330
2
100
AcDbEntity
  8
0
100
AcDbCircle
 10
41.83524471456101
 20
87.41919131952316
 30
0.0
 40
4.29807866878938
100
AcDbArc
 50
99.11258341090146
 51
101.5033620043992
  0
LINE
  5
147
330
2
100
AcDbEntity
  8
0
100
AcDbLine
 10
41.15454582312462
 20
91.662422793633
 30
0.0
 11
41.15453684413693
 21
91.66302414351253
 31
0.0
  0
LWPOLYLINE
  5
148
330
2
100
AcDbEntity
  8
0
100
AcDbPolyline
 90
        9
 70
   128
 43
0.0
 10
43.10833634555264
 20
90.14092370900883
 10
43.11322006269487
 20
90.11977494693532
 10
43.12089118869559
 20
90.10608872874554
 10
43.12759076394805
 20
90.10044720383406
 10
43.13152621699116
 20
90.09872691235846
 10
43.14035294100603
 20
90.09791644210471
 10
43.14649290789844
 20
90.09933380977548
 10
43.16223878576614
 20
90.10880596462179
 10
43.18064550132193
 20
90.12904503925049
  0
ARC
  5
149
330
2
100
AcDbEntity
  8
0
100
AcDbCircle
 10
43.19266962037462
 20
91.69476591451289
 30
0.0
 40
0.1323039404953822
100
AcDbArc
 50
244.5938052308992
 51
276.7481229081993
  0
ARC
  5
14A
330
2
100
AcDbEntity
  8
0
100
AcDbCircle
 10
43.2015217385264
 20
90.21346338299593
 30
0.0
 40
0.0567919841973096
100
AcDbArc
 50
302.7447172240995
 51
356.274941601
  0
LINE
  5
14B
330
2
100
AcDbEntity
  8
0
100
AcDbLine
 10
43.18064550132193
 20
90.12904503925049
 30
0.0
 11
43.23224034809991
 21
90.16569627616931
 31
0.0
  0
LINE
  5
14C
330
2
100
AcDbEntity
  8
0
100
AcDbLine
 10
43.28557316411798
 20
91.62432612209126
 30
0.0
 11
43.20821597680845
 21
91.56337853508135
 31
0.0
  0
LINE
  5
14D
330
2
100
AcDbEntity
  8
0
100
AcDbLine
 10
43.25819373826749
 20
90.20977367925087
 30
0.0
 11
43.28557316411798
 21
91.62432612209126
 31
0.0
  0
LINE
  5
14E
330
2
100
AcDbEntity
  8
0
100
AcDbLine
 10
43.29887595011029
 20
91.64215849812951
 30
0.0
 11
43.28557316411798
 21
91.62432612209126
 31
0.0
  0
ARC
  5
14F
330
2
100
AcDbEntity
  8
0
100
AcDbCircle
 10
42.1153081423394
 20
91.50629170393763
 30
0.0
 40
0.2321669179196317
100
AcDbArc
 50
81.39466129839979
 51
90.44339710359988
  0
ARC
  5
150
330
2
100
AcDbEntity
  8
0
100
AcDbCircle
 10
42.39736435061081
 20
91.48865594729844
 30
0.0
 40
0.2467309139143122
100
AcDbArc
 50
88.42751794960021
 51
97.10996217730127
  0
LINE
  5
151
330
2
100
AcDbEntity
  8
0
100
AcDbLine
 10
43.50071871222502
 20
91.60292527675009
 30
0.0
 11
43.50073559423115
 21
91.60352508035137
 31
0.0
  0
LINE
  5
152
330
2
100
AcDbEntity
  8
0
100
AcDbLine
 10
43.33530970804365
 20
91.63932921221826
 30
0.0
 11
43.33529907534419
 21
91.63872806697098
 31
0.0
  0
ARC
  5
153
330
2
100
AcDbEntity
  8
0
100
AcDbCircle
 10
42.65388045190113
 20
88.09085975931656
 30
0.0
 40
3.613306143913706
100
AcDbArc
 50
76.44543592179927
 51
79.12955736080009
  0
ARC
  5
154
330
2
100
AcDbEntity
  8
0
100
AcDbCircle
 10
41.90495790408156
 20
91.54434621857898
 30
0.0
 40
0.1892506476990189
100
AcDbArc
 50
91.88918615079938
 51
102.2923815442982
  0
LINE
  5
155
330
2
100
AcDbEntity
  8
0
100
AcDbLine
 10
42.15027360552465
 20
91.73534268601995
 30
0.0
 11
42.15004669159521
 21
91.73584498960876
 31
0.0
  0
LINE
  5
156
330
2
100
AcDbEntity
  8
0
100
AcDbLine
 10
42.3668254749177
 20
91.73348960701199
 30
0.0
 11
42.3665845526143
 21
91.73299236999318
 31
0.0
  0
LINE
  5
157
330
2
100
AcDbEntity
  8
0
100
AcDbLine
 10
41.86466635233178
 20
91.72925808543398
 30
0.0
 11
41.86447413661316
 21
91.72874607904439
 31
0.0
  0
ARC
  5
158
330
2
100
AcDbEntity
  8
0
100
AcDbCircle
 10
42.60798900351221
 20
91.56048581179129
 30
0.0
 40
0.1654309965024763
100
AcDbArc
 50
75.62194751229973
 51
87.02796497469917
  0
LINE
  5
159
330
2
100
AcDbEntity
  8
0
100
AcDbLine
 10
40.95708179587378
 20
91.62235416993565
 30
0.0
 11
40.9555575174706
 21
91.60157715095172
 31
0.0
  0
ARC
  5
15A
330
2
100
AcDbEntity
  8
0
100
AcDbCircle
 10
40.9847623420525
 20
91.58110628979722
 30
0.0
 40
0.0496749459117097
100
AcDbArc
 50
97.69119139560046
 51
123.8646939935989
  0
ARC
  5
15B
330
2
100
AcDbEntity
  8
0
100
AcDbCircle
 10
41.63343948722647
 20
91.45635461717324
 30
0.0
 40
0.2613840030406628
100
AcDbArc
 50
85.72616324599989
 51
94.08039563120031
  0
LINE
  5
15C
330
2
100
AcDbEntity
  8
0
100
AcDbLine
 10
42.64924226931131
 20
91.72021927402923
 30
0.0
 11
42.649068637819
 21
91.72073523692422
 31
0.0
  0
LINE
  5
15D
330
2
100
AcDbEntity
  8
0
100
AcDbLine
 10
40.95365206824062
 20
91.52488812112462
 30
0.0
 11
40.98847381463169
 21
90.0919946880032
 31
0.0
  0
LINE
  5
15E
330
2
100
AcDbEntity
  8
0
100
AcDbLine
 10
40.9555575174706
 20
91.60157715095172
 30
0.0
 11
40.95365206824062
 21
91.52488812112462
 31
0.0
  0
LINE
  5
15F
330
2
100
AcDbEntity
  8
0
100
AcDbLine
 10
41.6531835338227
 20
91.71652620084733
 30
0.0
 11
41.65291870388796
 21
91.71701178121828
 31
0.0
  0
ARC
  5
160
330
2
100
AcDbEntity
  8
0
100
AcDbCircle
 10
42.86991994657877
 20
91.44441033599301
 30
0.0
 40
0.2598957608611674
100
AcDbArc
 50
84.65512693330163
 51
93.04692044679951
  0
LWPOLYLINE
  5
161
330
2
100
AcDbEntity
  8
0
100
AcDbPolyline
 90
        9
 70
   128
 43
0.0
 10
40.92542701239796
 20
90.07699182588451
 10
40.94114278983004
 20
90.05993411146128
 10
40.95477838089608
 20
90.05047937136735
 10
40.96314910724822
 20
90.04783077618441
 10
40.96717858597704
 20
90.0476923344078
 10
40.97451775141309
 20
90.0500923981666
 10
40.97852057205744
 20
90.05352407716383
 10
40.98551473418394
 20
90.06751243054614
 10
40.98847381463169
 20
90.0919946880032
  0
LINE
  5
162
330
2
100
AcDbEntity
  8
0
100
AcDbLine
 10
42.85610551683008
 20
91.70393869291649
 30
0.0
 11
42.85583233694419
 21
91.7034589527695
 31
0.0
  0
ARC
  5
163
330
2
100
AcDbEntity
  8
0
100
AcDbCircle
 10
40.9033361701273
 20
91.59635874441161
 30
0.0
 40
0.08740560394706
100
AcDbArc
 50
261.6248948062995
 51
305.1458560284997
  0
ARC
  5
164
330
2
100
AcDbEntity
  8
0
100
AcDbCircle
 10
41.42266911656819
 20
91.58476846272769
 30
0.0
 40
0.1136024642731233
100
AcDbArc
 50
95.22461154279961
 51
109.9814290911
  0
LINE
  5
165
330
2
100
AcDbEntity
  8
0
100
AcDbLine
 10
43.48202882826052
 20
90.1613276332648
 30
0.0
 11
43.48207926268235
 21
90.16182318253717
 31
0.0
  0
ARC
  5
166
330
2
100
AcDbEntity
  8
0
100
AcDbCircle
 10
43.49577941948101
 20
91.56813564508052
 30
0.0
 40
0.0351385128280646
100
AcDbArc
 50
48.6607446314007
 51
81.9193797852986
  0
LINE
  5
167
330
2
100
AcDbEntity
  8
0
100
AcDbLine
 10
43.51938781278754
 20
91.57372014409954
 30
0.0
 11
43.51932317002265
 21
91.5770949288011
 31
0.0
  0
ARC
  5
168
330
2
100
AcDbEntity
  8
0
100
AcDbCircle
 10
42.14496064236938
 20
90.19658917691513
 30
0.0
 40
1.337533068824661
100
AcDbArc
 50
356.3787797301001
 51
358.4893295131998
  0
LINE
  5
169
330
2
100
AcDbEntity
  8
0
100
AcDbLine
 10
40.87245119753225
 20
90.11122946400744
 30
0.0
 11
40.92542701239796
 21
90.07699182588451
 31
0.0
  0
ARC
  5
16A
330
2
100
AcDbEntity
  8
0
100
AcDbCircle
 10
40.89906409727596
 20
90.15763671547356
 30
0.0
 40
0.0534965365431687
100
AcDbArc
 50
183.8013528994003
 51
240.1672702617006
  0
LINE
  5
16B
330
2
100
AcDbEntity
  8
0
100
AcDbLine
 10
40.81115014141045
 20
91.56721341245175
 30
0.0
 11
40.8456852583287
 21
90.15409003093212
 31
0.0
  0
LINE
  5
16C
330
2
100
AcDbEntity
  8
0
100
AcDbLine
 10
40.89060526600693
 20
91.50988525900592
 30
0.0
 11
40.81115014141045
 21
91.56721341245175
 31
0.0
  0
LINE
  5
16D
330
2
100
AcDbEntity
  8
0
100
AcDbLine
 10
41.38384938809453
 20
91.69153244806647
 30
0.0
 11
41.38371903283307
 21
91.6910094246637
 31
0.0
  0
LINE
  5
16E
330
2
100
AcDbEntity
  8
0
100
AcDbLine
 10
43.47982319889622
 20
90.1121103903614
 30
0.0
 11
43.47674353750913
 21
90.06495867745817
 31
0.0
  0
ARC
  5
16F
330
2
100
AcDbEntity
  8
0
100
AcDbCircle
 10
40.80678950326508
 20
91.40863274926626
 30
0.0
 40
0.176030213605152
100
AcDbArc
 50
92.95797134640082
 51
104.0740065747989
  0
LINE
  5
170
330
2
100
AcDbEntity
  8
0
100
AcDbLine
 10
40.81115014141045
 20
91.56721341245175
 30
0.0
 11
40.79770574417375
 21
91.58442843018226
 31
0.0
  0
ARC
  5
171
330
2
100
AcDbEntity
  8
0
100
AcDbCircle
 10
43.07986883596552
 20
91.58951829698892
 30
0.0
 40
0.0906919492069348
100
AcDbArc
 50
66.53793279680025
 51
83.76243692530122
  0
LWPOLYLINE
  5
172
330
2
100
AcDbEntity
  8
0
100
AcDbPolyline
 90
        9
 70
   128
 43
0.0
 10
43.47674353750913
 20
90.06495867745817
 10
43.47758848892659
 20
90.04361473101516
 10
43.48187658885865
 20
90.0295209983415
 10
43.48656953905889
 20
90.02349127485839
 10
43.48956415380869
 20
90.02153486391078
 10
43.49673574611349
 20
90.02017926718952
 10
43.50201965349298
 20
90.02120736413456
 10
43.51644704671087
 20
90.02965141101386
 10
43.534710145457
 20
90.04864096428919
  0
ARC
  5
173
330
2
100
AcDbEntity
  8
0
100
AcDbCircle
 10
40.89744095068905
 20
90.11484457171073
 30
0.0
 40
0.2283887527078835
100
AcDbArc
 50
181.6258981993001
 51
206.2755290776995
  0
LINE
  5
174
330
2
100
AcDbEntity
  8
0
100
AcDbLine
 10
40.76398335887991
 20
91.57937896476306
 30
0.0
 11
40.76396950911255
 21
91.57997955316124
 31
0.0
  0
LWPOLYLINE
  5
175
330
2
100
AcDbEntity
  8
0
100
AcDbPolyline
 90
        4
 70
   128
 43
0.0
 10
40.62565200005637
 20
91.53656521228667
 10
40.62923014872329
 20
91.41905533977183
 10
40.64354342378247
 20
90.94901923568205
 10
40.66914414907469
 20
90.10836439065348
  0
LINE
  5
176
330
2
100
AcDbEntity
  8
0
100
AcDbLine
 10
40.62563296629316
 20
91.5371641832486
 30
0.0
 11
40.62565200005637
 21
91.53656521228667
 31
0.0
  0
ARC
  5
177
330
2
100
AcDbEntity
  8
0
100
AcDbCircle
 10
41.36341437651732
 20
89.39828152509816
 30
0.0
 40
2.262551752893634
100
AcDbArc
 50
105.3635033297993
 51
109.0312479236005
  0
LWPOLYLINE
  5
178
330
2
100
AcDbEntity
  8
0
100
AcDbPolyline
 90
        5
 70
   128
 43
0.0
 10
43.57258369146022
 20
91.48074453354194
 10
43.54963346590213
 20
91.48261625491389
 10
43.53055799713525
 20
91.48636810156794
 10
43.51826211675393
 20
91.49144733204153
 10
43.51461708351234
 20
91.49706224671085
  0
LINE
  5
179
330
2
100
AcDbEntity
  8
0
100
AcDbLine
 10
43.11608569217127
 20
91.67218660661159
 30
0.0
 11
43.11597709550929
 21
91.67271218643326
 31
0.0
  0
ARC
  5
17A
330
2
100
AcDbEntity
  8
0
100
AcDbCircle
 10
41.18909846241042
 20
91.42609571165507
 30
0.0
 40
0.2394359774465295
100
AcDbArc
 50
89.410184561
 51
98.29940756789902
  0
ARC
  5
17B
330
2
100
AcDbEntity
  8
0
100
AcDbCircle
 10
43.56221081374368
 20
90.12762418084127
 30
0.0
 40
0.0525283533363553
100
AcDbArc
 50
299.1005446758991
 51
356.0487185412992
  0
LINE
  5
17C
330
2
100
AcDbEntity
  8
0
100
AcDbLine
 10
43.534710145457
 20
90.04864096428919
 30
0.0
 11
43.58775764675965
 21
90.08172660765692
 31
0.0
  0
LINE
  5
17D
330
2
100
AcDbEntity
  8
0
100
AcDbLine
 10
43.65215910285615
 20
91.53634476489267
 30
0.0
 11
43.57258369146022
 21
91.48074453354194
 31
0.0
  0
LINE
  5
17E
330
2
100
AcDbEntity
  8
0
100
AcDbLine
 10
43.6146143073141
 20
90.12400454549128
 30
0.0
 11
43.65215910285615
 21
91.53634476489267
 31
0.0
  0
LINE
  5
17F
330
2
100
AcDbEntity
  8
0
100
AcDbLine
 10
41.19184776649807
 20
91.66505217833869
 30
0.0
 11
41.19156322586053
 21
91.66551900255342
 31
0.0
  0
LINE
  5
180
330
2
100
AcDbEntity
  8
0
100
AcDbLine
 10
43.66552278349494
 20
91.55326849645035
 30
0.0
 11
43.65215910285615
 21
91.53634476489267
 31
0.0
  0
ARC
  5
181
330
2
100
AcDbEntity
  8
0
100
AcDbCircle
 10
43.6548152676142
 20
91.40158616041533
 30
0.0
 40
0.1520597973636158
100
AcDbArc
 50
73.66002788290038
 51
85.9620911355001
  0
ARC
  5
182
330
2
100
AcDbEntity
  8
0
100
AcDbCircle
 10
43.2971164010439
 20
91.4199139418354
 30
0.0
 40
0.2227145922056473
100
AcDbArc
 50
80.12554269779867
 51
89.47352505969938
  0
LINE
  5
183
330
2
100
AcDbEntity
  8
0
100
AcDbLine
 10
43.8215754281976
 20
91.50184027267783
 30
0.0
 11
43.82159525263213
 21
91.5024388156017
 31
0.0
  0
LINE
  5
184
330
2
100
AcDbEntity
  8
0
100
AcDbLine
 10
43.69761039492563
 20
91.54810441676501
 30
0.0
 11
43.69759519987861
 21
91.54750414891084
 31
0.0
  0
ARC
  5
185
330
2
100
AcDbEntity
  8
0
100
AcDbCircle
 10
43.16611860676554
 20
89.91392621905365
 30
0.0
 40
1.718435888450084
100
AcDbArc
 50
67.57721953250016
 51
71.98366605780091
  0
LINE
  5
186
330
2
100
AcDbEntity
  8
0
100
AcDbLine
 10
43.29916283454065
 20
91.64261913196245
 30
0.0
 11
43.29887595011029
 21
91.64215849812951
 31
0.0
  0
ARC
  5
187
330
2
100
AcDbEntity
  8
0
100
AcDbCircle
 10
40.98507471660735
 20
91.58147331253815
 30
0.0
 40
0.0499507420054671
100
AcDbArc
 50
98.02827188320158
 51
124.0014781511986
  0
LINE
  5
188
330
2
100
AcDbEntity
  8
0
100
AcDbLine
 10
40.95714154781371
 20
91.62288363383298
 30
0.0
 11
40.95708179587378
 21
91.62235416993565
 31
0.0
  0
ARC
  5
189
330
2
100
AcDbEntity
  8
0
100
AcDbCircle
 10
43.49551192666289
 20
91.56848423681189
 30
0.0
 40
0.0354280597241591
100
AcDbArc
 50
48.57396592930037
 51
81.52114768660149
  0
LINE
  5
18A
330
2
100
AcDbEntity
  8
0
100
AcDbLine
 10
43.78510966606479
 20
90.06608188605063
 30
0.0
 11
43.78513582192529
 21
90.06641752636157
 31
0.0
  0
LINE
  5
18B
330
2
100
AcDbEntity
  8
0
100
AcDbLine
 10
43.5189889775195
 20
91.59451805397948
 30
0.0
 11
43.51895299567916
 21
91.59504856816875
 31
0.0
  0
LINE
  5
18C
330
2
100
AcDbEntity
  8
0
100
AcDbLine
 10
40.58848304248881
 20
91.41186784847063
 30
0.0
 11
40.51050060130198
 21
91.46383143977073
 31
0.0
  0
ARC
  5
18D
330
2
100
AcDbEntity
  8
0
100
AcDbCircle
 10
40.80622056188358
 20
91.40804001786086
 30
0.0
 40
0.1770546674089777
100
AcDbArc
 50
92.84883666059933
 51
103.8058617397994
  0
LINE
  5
18E
330
2
100
AcDbEntity
  8
0
100
AcDbLine
 10
40.79770574417375
 20
91.58442843018226
 30
0.0
 11
40.79742075109249
 21
91.58487586993087
 31
0.0
  0
ARC
  5
18F
330
2
100
AcDbEntity
  8
0
100
AcDbCircle
 10
40.62734858084168
 20
90.05005525460397
 30
0.0
 40
0.1141876385392284
100
AcDbArc
 50
182.6338254349007
 51
232.8765480946008
  0
LWPOLYLINE
  5
190
330
2
100
AcDbEntity
  8
0
100
AcDbPolyline
 90
        4
 70
   128
 43
0.0
 10
40.51328156839416
 20
90.0448080199937
 10
40.50970156011156
 20
90.16231741238895
 10
40.49538168110639
 20
90.63235497125083
 10
40.46977285137324
 20
91.47300205079281
  0
LINE
  5
191
330
2
100
AcDbEntity
  8
0
100
AcDbLine
 10
40.51050060130198
 20
91.46383143977073
 30
0.0
 11
40.49761750065619
 21
91.48014938658013
 31
0.0
  0
LINE
  5
192
330
2
100
AcDbEntity
  8
0
100
AcDbLine
 10
40.46977285137324
 20
91.47300205079281
 30
0.0
 11
40.46975520740127
 21
91.47360156655238
 31
0.0
  0
ARC
  5
193
330
2
100
AcDbEntity
  8
0
100
AcDbCircle
 10
40.83123079570285
 20
90.71843294685873
 30
0.0
 40
0.8372241306982475
100
AcDbArc
 50
115.5789796883003
 51
122.6984517824991
  0
ARC
  5
194
330
2
100
AcDbEntity
  8
0
100
AcDbCircle
 10
43.82426748341097
 20
90.02003184170144
 30
0.0
 40
0.048930914965687
100
AcDbArc
 50
297.9365735558012
 51
356.7787079233007
  0
LINE
  5
195
330
2
100
AcDbEntity
  8
0
100
AcDbLine
 10
43.79630631646128
 20
89.94725877967951
 30
0.0
 11
43.84719131625846
 21
89.97680300492387
 31
0.0
  0
LINE
  5
196
330
2
100
AcDbEntity
  8
0
100
AcDbLine
 10
43.91827252601925
 20
91.42680468094004
 30
0.0
 11
43.84190177492233
 21
91.37651818972921
 31
0.0
  0
LINE
  5
197
330
2
100
AcDbEntity
  8
0
100
AcDbLine
 10
43.87312108512224
 20
90.01728228937835
 30
0.0
 11
43.91827252601925
 21
91.42680468094004
 31
0.0
  0
ARC
  5
198
330
2
100
AcDbEntity
  8
0
100
AcDbCircle
 10
43.65531846355449
 20
91.4011696445365
 30
0.0
 40
0.1529000809377023
100
AcDbArc
 50
73.94270365799869
 51
86.06780640209962
  0
LINE
  5
199
330
2
100
AcDbEntity
  8
0
100
AcDbLine
 10
43.66580371857224
 20
91.55370978409106
 30
0.0
 11
43.66552278349494
 21
91.55326849645035
 31
0.0
  0
LINE
  5
19A
330
2
100
AcDbEntity
  8
0
100
AcDbLine
 10
43.93078631832943
 20
91.44284665417057
 30
0.0
 11
43.91827252601925
 21
91.42680468094004
 31
0.0
  0
ARC
  5
19B
330
2
100
AcDbEntity
  8
0
100
AcDbCircle
 10
43.92061535731548
 20
91.36317758505144
 30
0.0
 40
0.0803156835500553
100
AcDbArc
 50
63.6033206174012
 51
82.72468261340041
  0
LINE
  5
19C
330
2
100
AcDbEntity
  8
0
100
AcDbLine
 10
44.0304142935683
 20
91.38270635159551
 30
0.0
 11
44.0304358246439
 21
91.38330348710521
 31
0.0
  0
LINE
  5
19D
330
2
100
AcDbEntity
  8
0
100
AcDbLine
 10
43.95634116288735
 20
91.43571847732395
 30
0.0
 11
43.95632236633758
 21
91.43511935689998
 31
0.0
  0
ARC
  5
19E
330
2
100
AcDbEntity
  8
0
100
AcDbCircle
 10
43.6726153746847
 20
90.95606101183047
 30
0.0
 40
0.557289518207983
100
AcDbArc
 50
50.05344165040043
 51
59.39494221400076
  0
LWPOLYLINE
  5
19F
330
2
100
AcDbEntity
  8
0
100
AcDbPolyline
 90
        3
 70
   128
 43
0.0
 10
40.46976539007942
 20
89.87095894378809
 10
40.46988030163459
 20
89.87073475203036
 10
40.47014141052117
 20
89.87024516821994
  0
LWPOLYLINE
  5
1A0
330
2
100
AcDbEntity
  8
0
100
AcDbPolyline
 90
        9
 70
   128
 43
0.0
 10
43.83053413375195
 20
91.49303698919515
 10
43.83074180395665
 20
91.4942227300974
 10
43.83056242677461
 20
91.49541925340342
 10
43.82999737322347
 20
91.4966220738585
 10
43.82904992038603
 20
91.49781969608609
 10
43.82772632423065
 20
91.499011267341
 10
43.82603515042316
 20
91.50018212059874
 10
43.82398716701453
 20
91.50132822940722
 10
43.82159525263213
 20
91.5024388156017
  0
LINE
  5
1A1
330
2
100
AcDbEntity
  8
0
100
AcDbLine
 10
40.49761750065619
 20
91.48014938658013
 30
0.0
 11
40.49735157246601
 21
91.48057803226198
 31
0.0
  0
ARC
  5
1A2
330
2
100
AcDbEntity
  8
0
100
AcDbCircle
 10
40.5083612119118
 20
91.37895906407932
 30
0.0
 40
0.1022136334309897
100
AcDbArc
 50
96.18344169059852
 51
112.1912365911013
  0
LINE
  5
1A3
330
2
100
AcDbEntity
  8
0
100
AcDbLine
 10
40.39634792396014
 20
89.89715330864333
 30
0.0
 11
40.44376609107771
 21
89.86987804149752
 31
0.0
  0
ARC
  5
1A4
330
2
100
AcDbEntity
  8
0
100
AcDbCircle
 10
40.41885989248125
 20
89.93821412181313
 30
0.0
 40
0.0468271193228316
100
AcDbArc
 50
182.1300945591007
 51
241.2658388085001
  0
LINE
  5
1A5
330
2
100
AcDbEntity
  8
0
100
AcDbLine
 10
40.32347737421953
 20
91.34383242441204
 30
0.0
 11
40.37206513028387
 21
89.93647362334565
 31
0.0
  0
ARC
  5
1A6
330
2
100
AcDbEntity
  8
0
100
AcDbCircle
 10
40.31876295404874
 20
91.31661204187846
 30
0.0
 40
0.0432362810494716
100
AcDbArc
 50
98.95409648769874
 51
128.3029255964002
  0
LINE
  5
1A7
330
2
100
AcDbEntity
  8
0
100
AcDbLine
 10
40.32347737421953
 20
91.34383242441204
 30
0.0
 11
40.31203352471873
 21
91.35932141769476
 31
0.0
  0
ARC
  5
1A8
330
2
100
AcDbEntity
  8
0
100
AcDbCircle
 10
40.44429854106711
 20
89.88087009904534
 30
0.0
 40
0.138119472650259
100
AcDbArc
 50
182.8728394781999
 51
224.7035696946011
  0
LINE
  5
1A9
330
2
100
AcDbEntity
  8
0
100
AcDbLine
 10
40.29196428113999
 20
91.35054148529714
 30
0.0
 11
40.29194390288438
 21
91.35113971591318
 31
0.0
  0
LWPOLYLINE
  5
1AA
330
2
100
AcDbEntity
  8
0
100
AcDbPolyline
 90
        4
 70
   128
 43
0.0
 10
40.25487557955104
 20
91.29556228776122
 10
40.25911068743122
 20
91.17859426469156
 10
40.27605177663318
 20
90.71072565636873
 10
40.3063526530721
 20
89.87394762002503
  0
LINE
  5
1AB
330
2
100
AcDbEntity
  8
0
100
AcDbLine
 10
40.25485371200414
 20
91.29615844171452
 30
0.0
 11
40.25487557955104
 21
91.29556228776122
 31
0.0
  0
ARC
  5
1AC
330
2
100
AcDbEntity
  8
0
100
AcDbCircle
 10
40.45245612913176
 20
91.20285758506021
 30
0.0
 40
0.2185217726074394
100
AcDbArc
 50
137.2680686354001
 51
154.7249796382998
  0
ARC
  5
1AD
330
2
100
AcDbEntity
  8
0
100
AcDbCircle
 10
43.92096940659213
 20
91.36336723563056
 30
0.0
 40
0.080534857831193
100
AcDbArc
 50
63.94648029759989
 51
82.81486628699926
  0
LINE
  5
1AE
330
2
100
AcDbEntity
  8
0
100
AcDbLine
 10
43.93104236912434
 20
91.44326966831821
 30
0.0
 11
43.93078631832943
 21
91.44284665417057
 31
0.0
  0
ARC
  5
1AF
330
2
100
AcDbEntity
  8
0
100
AcDbCircle
 10
43.97000738501564
 20
89.89811954840147
 30
0.0
 40
0.0461064187650927
100
AcDbArc
 50
299.714404992002
 51
358.4592259782993
  0
LINE
  5
1B0
330
2
100
AcDbEntity
  8
0
100
AcDbLine
 10
43.94760654625985
 20
89.83180746876874
 30
0.0
 11
43.99286127815797
 21
89.85807580456564
 31
0.0
  0
LINE
  5
1B1
330
2
100
AcDbEntity
  8
0
100
AcDbLine
 10
44.01609713370676
 20
89.89687982341401
 30
0.0
 11
44.06577837461122
 21
91.30317087739472
 31
0.0
  0
LINE
  5
1B2
330
2
100
AcDbEntity
  8
0
100
AcDbLine
 10
44.07658955454258
 20
91.31841807727914
 30
0.0
 11
44.06577837461122
 21
91.30317087739472
 31
0.0
  0
ARC
  5
1B3
330
2
100
AcDbEntity
  8
0
100
AcDbCircle
 10
43.92991491467079
 20
89.83992877576611
 30
0.0
 40
0.1317845153477459
100
AcDbArc
 50
313.1560753111998
 51
357.0498603037996
  0
LINE
  5
1B4
330
2
100
AcDbEntity
  8
0
100
AcDbLine
 10
44.11300315308415
 20
91.25364224942607
 30
0.0
 11
44.11302483537805
 21
91.25423791581095
 31
0.0
  0
LWPOLYLINE
  5
1B5
330
2
100
AcDbEntity
  8
0
100
AcDbPolyline
 90
        4
 70
   128
 43
0.0
 10
44.06152477606987
 20
89.83314623495985
 10
44.06576064228218
 20
89.9500222266449
 10
44.08270344938951
 20
90.41752619629198
 10
44.11300315308415
 20
91.25364224942607
  0
LINE
  5
1B6
330
2
100
AcDbEntity
  8
0
100
AcDbLine
 10
44.09386987059987
 20
91.30983030991146
 30
0.0
 11
44.09384892368592
 21
91.30923256214023
 31
0.0
  0
ARC
  5
1B7
330
2
100
AcDbEntity
  8
0
100
AcDbCircle
 10
43.96142455807149
 20
91.23309861217867
 30
0.0
 40
0.1530670253598373
100
AcDbArc
 50
7.938198811700713
 51
30.08569766849932
  0
LINE
  5
1B8
330
2
100
AcDbEntity
  8
0
100
AcDbLine
 10
40.31203352471873
 20
91.35932141769476
 30
0.0
 11
40.31180475371717
 21
91.35973323109025
 31
0.0
  0
LINE
  5
1B9
330
2
100
AcDbEntity
  8
0
100
AcDbLine
 10
44.06155962919302
 20
89.83244331295351
 30
0.0
 11
44.06152477606987
 21
89.83314623495985
 31
0.0
  0
ARC
  5
1BA
330
2
100
AcDbEntity
  8
0
100
AcDbCircle
 10
40.31846060180916
 20
91.3171032073947
 30
0.0
 40
0.0431464857413945
100
AcDbArc
 50
98.87397694469974
 51
127.9209570453987
  0
ARC
  5
1BB
330
2
100
AcDbEntity
  8
0
100
AcDbCircle
 10
40.39586069417725
 20
89.80092471618194
 30
0.0
 40
0.1017309812645729
100
AcDbArc
 50
181.2327470889001
 51
233.6926430207983
  0
LINE
  5
1BC
330
2
100
AcDbEntity
  8
0
100
AcDbLine
 10
40.29411833682788
 20
89.79914185442551
 30
0.0
 11
40.29415325844444
 21
89.7987360926084
 31
0.0
  0
LINE
  5
1BD
330
2
100
AcDbEntity
  8
0
100
AcDbLine
 10
44.07680303893044
 20
91.31882508075777
 30
0.0
 11
44.07658955454258
 21
91.31841807727914
 31
0.0
  0
ARC
  5
1BE
330
2
100
AcDbEntity
  8
0
100
AcDbCircle
 10
44.07195345218845
 20
91.2889345579763
 30
0.0
 40
0.0302813778308976
100
AcDbArc
 50
43.63429479720014
 51
80.78435105510024
  0
ARC
  5
1BF
330
2
100
AcDbEntity
  8
0
100
AcDbCircle
 10
43.94869272417357
 20
89.75918231071942
 30
0.0
 40
0.1006403906797802
100
AcDbArc
 50
307.2063426225999
 51
359.2897063572003
  0
LWPOLYLINE
  5
1C0
330
2
100
AcDbEntity
  8
0
100
AcDbPolyline
 90
        3
 70
   128
 43
0.0
 10
44.04932538150277
 20
89.75793470748266
 10
44.04975073829255
 20
89.75961621652103
 10
44.04975173928868
 20
89.75963935752348
  0
LWPOLYLINE
  5
1C1
330
2
100
AcDbEntity
  8
0
100
AcDbPolyline
 90
        3
 70
   128
 43
0.0
 10
40.25485371200414
 20
91.29615844171452
 10
40.25448155886294
 20
91.29488797514289
 10
40.25444544124709
 20
91.29408815097233
  0
LINE
  5
1C2
330
2
100
AcDbEntity
  8
0
100
AcDbLine
 10
43.96970616403669
 20
89.61996452590737
 30
0.0
 11
43.98119217697843
 21
89.63052321918103
 31
0.0
  0
LINE
  5
1C3
330
2
100
AcDbEntity
  8
0
100
AcDbLine
 10
44.11305445702635
 20
91.25354153507101
 30
0.0
 11
44.11302483537805
 21
91.25423791581095
 31
0.0
  0
LINE
  5
1C4
330
2
100
AcDbEntity
  8
0
100
AcDbLine
 10
40.2536011479956
 20
91.23017882456769
 30
0.0
 11
40.25342515224124
 21
91.23057684748404
 31
0.0
  0
LINE
  5
1C5
330
2
100
AcDbEntity
  8
0
100
AcDbLine
 10
40.24262258436465
 20
91.22131081559514
 30
0.0
 11
40.24265319913623
 21
91.22093953282211
 31
0.0
  0
LWPOLYLINE
  5
1C6
330
2
100
AcDbEntity
  8
0
100
AcDbPolyline
 90
       40
 70
   128
 43
0.0
 10
35.81931822953906
 20
98.29173206362739
 10
35.82696736735736
 20
98.38928614104982
 10
35.87487124959184
 20
98.52474334869771
 10
35.96583081941138
 20
98.65871415985246
 10
36.09922459673462
 20
98.7902832074506
 10
36.27414146901906
 20
98.91855191928867
 10
36.48938680969757
 20
99.0426439496495
 10
36.74348986589202
 20
99.16171167708609
 10
37.03471499550119
 20
99.27494179404849
 10
37.3610729342057
 20
99.38156076648811
 10
37.72033427224645
 20
99.48084035341668
 10
38.11004496165828
 20
99.57210221673264
 10
38.52754253302466
 20
99.65472317613278
 10
38.96997553359991
 20
99.72813865334076
 10
39.43432163741153
 20
99.79184713095765
 10
39.91740860640566
 20
99.84541355472215
 10
40.41593654975646
 20
99.88847198512978
 10
40.92650006411509
 20
99.92072823197455
 10
41.44561171586712
 20
99.94196201446293
 10
41.96972489562614
 20
99.95202821892393
 10
42.49525991922662
 20
99.95085810231792
 10
43.01862638017484
 20
99.93845966522538
 10
43.5362498459466
 20
99.91491759625304
 10
44.04459361010698
 20
99.88039274619133
 10
44.54018585607079
 20
99.83512092832105
 10
45.01964064392535
 20
99.77941133476949
 10
45.47968301581753
 20
99.71364462438925
 10
45.91717059303969
 20
99.63827001448589
 10
46.32911466919605
 20
99.55380236443019
 10
46.7127015373121
 20
99.46081868794777
 10
47.06531030022566
 20
99.35995413944512
 10
47.38453317429288
 20
99.25189781671749
 10
47.66818879611429
 20
99.1373877299884
 10
47.91433945173142
 20
99.01720611474766
 10
48.12130422014321
 20
98.89217400672693
 10
48.28766922017835
 20
98.76314548052478
 10
48.41229778766191
 20
98.63100191923862
 10
48.49433882324714
 20
98.49664593720902
 10
48.53323165078021
 20
98.36099546451949
 10
48.5363596146352
 20
98.29173203643595
  0
LINE
  5
1C7
330
2
100
AcDbEntity
  8
0
100
AcDbLine
 10
48.49814763468863
 20
97.23480503159962
 30
0.0
 11
48.49769219393558
 21
97.22521758118729
 31
0.0
  0
LINE
  5
1C8
330
2
100
AcDbEntity
  8
0
100
AcDbLine
 10
35.85753055158903
 20
97.23480502088046
 30
0.0
 11
35.85736416089158
 21
97.24045263419075
 31
0.0
  0
LWPOLYLINE
  5
1C9
330
2
100
AcDbEntity
  8
0
100
AcDbPolyline
 90
       20
 70
   128
 43
0.0
 10
37.87161316669934
 20
98.28192985010295
 10
38.13042789024958
 20
98.34353184741654
 10
38.53463638458896
 20
98.42695755542301
 10
38.96439923573613
 20
98.50133661180699
 10
39.41670227823795
 20
98.5661471432
 10
39.88837261109035
 20
98.62093471305477
 10
40.37610168108746
 20
98.66531509674636
 10
40.87646883593485
 20
98.69897672256362
 10
41.3859642376676
 20
98.72168369074621
 10
41.90101394369185
 20
98.73327668975692
 10
42.41800521553238
 20
98.73367435088788
 10
42.93331235009143
 20
98.72287387178598
 10
43.44332009916648
 20
98.70095114496129
 10
43.94445158488163
 20
98.66805980481514
 10
44.43319108895706
 20
98.62443058776301
 10
44.9061112549257
 20
98.57036953118054
 10
45.35989439107892
 20
98.50625589752812
 10
45.79135809570045
 20
98.43253932863675
 10
46.19747534336243
 20
98.34973691405956
 10
46.32538456406355
 20
98.32052861908737
  0
LINE
  5
1CA
330
2
100
AcDbEntity
  8
0
100
AcDbLine
 10
48.22949146461046
 20
97.00963514415397
 30
0.0
 11
48.22969929184722
 21
97.01749312831253
 31
0.0
  0
LINE
  5
1CB
330
2
100
AcDbEntity
  8
0
100
AcDbLine
 10
36.1259258632567
 20
97.02607952787223
 30
0.0
 11
36.12618683158356
 21
97.0096351550547
 31
0.0
  0
LWPOLYLINE
  5
1CC
330
2
100
AcDbEntity
  8
0
100
AcDbPolyline
 90
        3
 70
   128
 43
0.0
 10
39.65782404623657
 20
80.26312061063421
 10
39.65966903206784
 20
80.26319482787323
 10
39.66319408754762
 20
80.26228054095765
  0
ARC
  5
1CD
330
2
100
AcDbEntity
  8
0
100
AcDbCircle
 10
39.79551105643571
 20
79.35378066467283
 30
0.0
 40
0.918084857448221
100
AcDbArc
 50
79.72986713369838
 51
98.28648632990041
  0
LWPOLYLINE
  5
1CE
330
2
100
AcDbEntity
  8
0
100
AcDbPolyline
 90
        3
 70
   128
 43
0.0
 10
39.96597303215703
 20
80.2577539983511
 10
39.96349539298644
 20
80.25793399088319
 10
39.95919577351437
 20
80.25715606774923
  0
LWPOLYLINE
  5
1CF
330
2
100
AcDbEntity
  8
0
100
AcDbPolyline
 90
        8
 70
   128
 43
0.0
 10
38.02911030855632
 20
79.99416795597411
 10
38.02948638967916
 20
80.00080358187359
 10
38.03053837905505
 20
80.00686599012935
 10
38.03222679605059
 20
80.012123583284
 10
38.03448711799144
 20
80.01637865300924
 10
38.03723339002203
 20
80.01946750558632
 10
38.04036160883458
 20
80.02127463470042
 10
38.04190767000061
 20
80.021655445922
  0
ARC
  5
1D0
330
2
100
AcDbEntity
  8
0
100
AcDbCircle
 10
39.92544902408796
 20
80.33284764041423
 30
0.0
 40
0.1097810211481001
100
AcDbArc
 50
324.959086280399
 51
358.2738294336993
  0
LINE
  5
1D1
330
2
100
AcDbEntity
  8
0
100
AcDbLine
 10
40.03518022719949
 20
80.32954072838412
 30
0.0
 11
40.06213066048051
 21
80.63890422974189
 31
0.0
  0
LWPOLYLINE
  5
1D2
330
2
100
AcDbEntity
  8
0
100
AcDbPolyline
 90
        7
 70
   128
 43
0.0
 10
38.02911030855632
 20
79.99416795597411
 10
37.98075971965192
 20
79.98525019823995
 10
37.94012035824257
 20
79.97404498684082
 10
37.90876131688319
 20
79.96098462049764
 10
37.88789288658841
 20
79.94657412436534
 10
37.87832059082952
 20
79.93136848910464
 10
37.87771752704166
 20
79.92666434045354
  0
LWPOLYLINE
  5
1D3
330
2
100
AcDbEntity
  8
0
100
AcDbPolyline
 90
       50
 70
   128
 43
0.0
 10
57.3353368151575
 20
59.45294152642611
 10
57.2610502439947
 20
59.50793839058345
 10
56.96346242534471
 20
59.70705181960013
 10
56.626665061123
 20
59.90193612612295
 10
56.25155373126373
 20
60.09207492024841
 10
55.8391206051334
 20
60.27696363265667
 10
55.39045946510326
 20
60.45611193410451
 10
54.90676254822482
 20
60.62904515131773
 10
54.38930993884426
 20
60.79530435062457
 10
53.83947473334034
 20
60.95444869410286
 10
53.25871493852985
 20
61.10605626870676
 10
52.6485699346005
 20
61.24972473746833
 10
52.01065887172476
 20
61.38507345988461
 10
51.34667328180142
 20
61.5117435339462
 10
50.65837381511981
 20
61.62939879192528
 10
49.94758461681942
 20
61.73772738722892
 10
49.21619209388861
 20
61.83644187984945
 10
48.46613503716366
 20
61.9252808619156
 10
47.69940227699111
 20
62.0040086071713
 10
46.91802740590856
 20
62.07241603557519
 10
46.12408282402343
 20
62.13032198094254
 10
45.31967369676043
 20
62.17757309719823
 10
44.50693191188295
 20
62.21404376444823
 10
43.68801460516016
 20
62.23963721727272
 10
42.86509273542146
 20
62.25428599468711
 10
42.04034774909415
 20
62.25795063301489
 10
41.21596778938995
 20
62.25062206606188
 10
40.39413849918006
 20
62.23231944138357
 10
39.57703914194624
 20
62.2030911590705
 10
38.76683694917165
 20
62.1630148361997
 10
37.96567996657058
 20
62.11219677699521
 10
37.17569263417805
 20
62.05077185207152
 10
36.39896941380366
 20
61.97890308535379
 10
35.63757184418072
 20
61.89678040484652
 10
34.89351731393104
 20
61.8046222017503
 10
34.16878032430135
 20
61.70267228235638
 10
33.46528075045677
 20
61.59120188990268
 10
32.78488612762036
 20
61.47050573099038
 10
32.12939949837858
 20
61.34090447483418
 10
31.5005603076973
 20
61.20274111124501
 10
30.90003483692608
 20
61.05638275731634
 10
30.32941580549513
 20
60.90221736187032
 10
29.79021671915397
 20
60.74065366996993
 10
29.28386730181022
 20
60.57212000057577
 10
28.81171088091246
 20
60.39706331695051
 10
28.37499903800447
 20
60.21594788755604
 10
27.97488866387452
 20
60.0292540369434
 10
27.61244349350885
 20
59.83747675729348
 10
27.28862220223812
 20
59.64112473818573
 10
27.01893784903805
 20
59.45187770750369
  0
LWPOLYLINE
  5
1D4
330
2
100
AcDbEntity
  8
0
100
AcDbPolyline
 90
        3
 70
   128
 43
0.0
 10
29.1629214301906
 20
76.44648825654027
 10
29.0778439872841
 20
76.64859147876237
 10
29.06273985050926
 20
76.68585324506257
  0
LWPOLYLINE
  5
1D5
330
2
100
AcDbEntity
  8
0
100
AcDbPolyline
 90
        4
 70
   128
 43
0.0
 10
29.21663649609336
 20
76.42178699828573
 10
29.19049986489516
 20
76.41471066170058
 10
29.16774076406748
 20
76.4366693934995
 10
29.1629214301906
 20
76.44648825654027
  0
LWPOLYLINE
  5
1D6
330
2
100
AcDbEntity
  8
0
100
AcDbPolyline
 90
       10
 70
   128
 43
0.0
 10
33.06534019435636
 20
77.95567368036948
 10
32.49064530450841
 20
77.813824594128
 10
31.9488538640193
 20
77.66355155493363
 10
31.44180663296504
 20
77.50536452963652
 10
30.97122597585038
 20
77.33980110219949
 10
30.53871028905961
 20
77.16742348294253
 10
30.14572884599039
 20
76.98881719935728
 10
29.79361539634693
 20
76.80458906044309
 10
29.48356747739109
 20
76.61536489654782
 10
29.21663649609336
 20
76.42178699828573
  0
ARC
  5
1D7
330
2
100
AcDbEntity
  8
0
100
AcDbCircle
 10
33.00744610493972
 20
78.17195723466086
 30
0.0
 40
0.2238979710412468
100
AcDbArc
 50
284.9854374672005
 51
328.4295965691002
  0
LWPOLYLINE
  5
1D8
330
2
100
AcDbEntity
  8
0
100
AcDbPolyline
 90
        3
 70
   128
 43
0.0
 10
33.43694558722251
 20
78.39877540605598
 10
33.42434911720014
 20
78.380875554862
 10
33.19820661417987
 20
78.05473637659236
  0
LWPOLYLINE
  5
1D9
330
2
100
AcDbEntity
  8
0
100
AcDbPolyline
 90
        3
 70
   128
 43
0.0
 10
46.2126560928268
 20
78.77070929587919
 10
45.92723293904193
 20
79.06870512875411
 10
45.91571090320026
 20
79.08062402173228
  0
ARC
  5
1DA
330
2
100
AcDbEntity
  8
0
100
AcDbCircle
 10
46.40672047113911
 20
78.95421304760064
 30
0.0
 40
0.2670853980171381
100
AcDbArc
 50
223.3978477886988
 51
264.6919005949016
  0
ARC
  5
1DB
330
2
100
AcDbEntity
  8
0
100
AcDbCircle
 10
44.09276326265181
 20
46.9401007096524
 30
0.0
 40
31.83060012655491
100
AcDbArc
 50
75.04217420739985
 51
85.87574125940141
  0
ARC
  5
1DC
330
2
100
AcDbEntity
  8
0
100
AcDbCircle
 10
52.34132357598038
 20
77.79955830011774
 30
0.0
 40
0.1123082228136649
100
AcDbArc
 50
253.0038708963993
 51
319.2854300136008
  0
LWPOLYLINE
  5
1DD
330
2
100
AcDbEntity
  8
0
100
AcDbPolyline
 90
        3
 70
   128
 43
0.0
 10
52.63356541749836
 20
77.95877013140878
 10
52.62026464924386
 20
77.94374682145107
 10
52.42644966963529
 20
77.72630063782774
  0
ARC
  5
1DE
330
2
100
AcDbEntity
  8
0
100
AcDbCircle
 10
29.45852213216024
 20
76.26823880938414
 30
0.0
 40
1.027884601211319
100
AcDbArc
 50
152.1002334650004
 51
179.2713782740001
  0
ARC
  5
1DF
330
2
100
AcDbEntity
  8
0
100
AcDbCircle
 10
54.90640390728957
 20
76.27044263618031
 30
0.0
 40
1.018611456159145
100
AcDbArc
 50
0.6112892615992143
 51
27.76809725580071
  0
LWPOLYLINE
  5
1E0
330
2
100
AcDbEntity
  8
0
100
AcDbPolyline
 90
       22
 70
   128
 43
0.0
 10
35.33456004961206
 20
78.74070496894255
 10
34.68072803350506
 20
78.63656844183556
 10
34.0504844635756
 20
78.52310741059298
 10
33.44581256625128
 20
78.40067863860856
 10
32.86861518740902
 20
78.26966733242709
 10
32.32070781883176
 20
78.13048582959068
 10
31.80381493299638
 20
77.98357197242157
 10
31.31956236287038
 20
77.8293879692519
 10
30.86947416199774
 20
77.66841911618398
 10
30.45496600800147
 20
77.50117173253984
 10
30.07734219747598
 20
77.32817217252163
 10
29.7377913197627
 20
77.1499645604502
 10
29.43738162792613
 20
76.96710982943537
 10
29.17705761511579
 20
76.78018305225505
 10
28.95763902356242
 20
76.58977248426509
 10
28.77981612737862
 20
76.3964772400151
 10
28.64414853232029
 20
76.2009054961308
 10
28.55106274272865
 20
76.00367277910141
 10
28.50085175880583
 20
75.80539934291063
 10
28.49367408579335
 20
75.60670921206789
 10
28.52955154279007
 20
75.40822742679491
 10
28.5518409942794
 20
75.34008027403267
  0
LWPOLYLINE
  5
1E1
330
2
100
AcDbEntity
  8
0
100
AcDbPolyline
 90
       41
 70
   128
 43
0.0
 10
55.80383703593515
 20
75.34008019899883
 10
55.80461529178563
 20
75.34222108718823
 10
55.85482627576904
 20
75.54049452337908
 10
55.86200394872097
 20
75.73918465422178
 10
55.82612649178479
 20
75.93766643943421
 10
55.74730662067093
 20
76.13531525459959
 10
55.62579221433012
 20
76.33150941209757
 10
55.46196562196551
 20
76.52563140615665
 10
55.25634193810236
 20
76.71707055429985
 10
55.00956875338374
 20
76.90522451085967
 10
54.72242175482638
 20
77.08950123905383
 10
54.39580469348187
 20
77.26932089397715
 10
54.03074587964812
 20
77.4441178609295
 10
53.62839323578417
 20
77.61334203898508
 10
53.19001347416611
 20
77.77646107795739
 10
52.71698502335889
 20
77.93296168098388
 10
52.21079620651114
 20
78.08235135543677
 10
51.67304017405854
 20
78.22416021736831
 10
51.10540861856545
 20
78.35794194048574
 10
50.50968737595013
 20
78.48327572828792
 10
49.88775148633259
 20
78.59976712665875
 10
49.24155721743617
 20
78.70704973123543
 10
48.573138245553
 20
78.80478596530131
 10
47.88459690565502
 20
78.89266819923742
 10
47.17810047706768
 20
78.97041994882314
 10
46.45587087040637
 20
79.03779676122859
 10
45.72018092935919
 20
79.09458647154706
 10
44.97334545533291
 20
79.14061042374488
 10
44.21771426219084
 20
79.17572378115258
 10
43.45566556146663
 20
79.19981615634906
 10
42.6895958306775
 20
79.2128117152647
 10
41.92191611541008
 20
79.21466943371314
 10
41.15504138578077
 20
79.20538366459616
 10
40.39138500537043
 20
79.18498358081264
 10
39.63334899063433
 20
79.15353333816447
 10
38.8833192006824
 20
79.11113189597829
 10
38.14365513122498
 20
79.05791257047517
 10
37.41668406732389
 20
78.99404297045629
 10
36.70469346355266
 20
78.91972385847188
 10
36.00992366856112
 20
78.83518914252488
 10
35.33456004961206
 20
78.74070496894255
  0
LINE
  5
1E2
330
2
100
AcDbEntity
  8
0
100
AcDbLine
 10
28.54183452570996
 20
75.97712843278412
 30
0.0
 11
28.5518409942794
 21
75.94844329868583
 31
0.0
  0
LWPOLYLINE
  5
1E3
330
2
100
AcDbEntity
  8
0
100
AcDbPolyline
 90
       27
 70
   128
 43
0.0
 10
35.35272790353932
 20
79.43451774485868
 10
36.02629868286771
 20
79.52875100652477
 10
36.7192239032909
 20
79.61306133098712
 10
37.42932452158394
 20
79.68718297748885
 10
38.15436535510635
 20
79.75088307977995
 10
38.89206577348738
 20
79.80396108587729
 10
39.64010421803643
 20
79.84624997301871
 10
40.39612756607381
 20
79.87761683788119
 10
41.15775639201981
 20
79.89796287338598
 10
41.9225955640002
 20
79.90722387382961
 10
42.68823730999872
 20
79.90537096233054
 10
43.45227348398053
 20
79.89240999673571
 10
44.21229881342184
 20
79.86838151535869
 10
44.96592448685265
 20
79.83336141900629
 10
45.71077644206769
 20
79.78745963641803
 10
46.44451259187134
 20
79.73082081035045
 10
47.16482520099671
 20
79.66362276480346
 10
47.86944590525716
 20
79.58607752509305
 10
48.55615930417588
 20
79.49842849405975
 10
49.22280405651628
 20
79.40095182974831
 10
49.86728333027182
 20
79.29395409598221
 10
50.487567719417
 20
79.17777188961757
 10
51.08170701501352
 20
79.05277076735892
 10
51.64783145450238
 20
78.91934421878338
 10
52.18415992334339
 20
78.77791185820052
 10
52.68900455612146
 20
78.62891876333764
 10
53.10850209693639
 20
78.49104348514406
  0
ARC
  5
1E4
330
2
100
AcDbEntity
  8
0
100
AcDbCircle
 10
38.04527535361924
 20
58.56323275692258
 30
0.0
 40
21.04424740442242
100
AcDbArc
 50
97.35097096290138
 51
110.7115788106012
  0
LWPOLYLINE
  5
1E5
330
2
100
AcDbEntity
  8
0
100
AcDbPolyline
 90
       74
 70
   128
 43
0.0
 10
18.96380153752726
 20
38.06186077950989
 10
18.99465080613118
 20
38.26591019269651
 10
19.07145577963738
 20
38.52199133201901
 10
19.19046917240696
 20
38.77698948463654
 10
19.35147200574682
 20
39.0304385302232
 10
19.5541718213456
 20
39.28187539244045
 10
19.7981979598953
 20
39.53084122161334
 10
20.08310291436521
 20
39.77688078749524
 10
20.40836834070201
 20
40.01954445643075
 10
20.77339910351088
 20
40.25838945899728
 10
21.1775282066683
 20
40.49297954826509
 10
21.62001823598236
 20
40.72288575443521
 10
22.10006087495479
 20
40.94768847034401
 10
22.61677780779118
 20
41.16697704668029
 10
23.16922697106955
 20
41.38035072654682
 10
23.75639906530293
 20
41.58741974208091
 10
24.37721977827854
 20
41.78780618603374
 10
25.03055718155236
 20
41.98114349919053
 10
25.71521670687654
 20
42.16707895569206
 10
26.42994736988936
 20
42.34527297489164
 10
27.17344450573119
 20
42.51539953049818
 10
27.9443496759637
 20
42.67714829367331
 10
28.74125474365179
 20
42.83022362428368
 10
29.56270397594585
 20
42.9743459636594
 10
30.40719731565375
 20
43.10925178396612
 10
31.27319092192034
 20
43.23469528745783
 10
32.15910412469483
 20
43.35044674834404
 10
33.06331798994345
 20
43.4562949957498
 10
33.98418098164496
 20
43.55204664127279
 10
34.92001101489607
 20
43.63752692543025
 10
35.86909906776958
 20
43.71257917837248
 10
36.82970996756473
 20
43.7770670951216
 10
37.80009144331509
 20
43.83087231244514
 10
38.77846922272997
 20
43.87389637311944
 10
39.76305574974537
 20
43.90606148922782
 10
40.75205442687187
 20
43.92730793995812
 10
41.74365720569468
 20
43.93759748694414
 10
42.73605234606193
 20
43.93691129748183
 10
43.72742832359694
 20
43.92525052856991
 10
44.71597370876004
 20
43.90263684814953
 10
45.69988233945898
 20
43.86911105040019
 10
46.67735867103995
 20
43.82473439472118
 10
47.64661386835119
 20
43.76958802163035
 10
48.60588113838238
 20
43.70377308642015
 10
49.55340557029616
 20
43.62740924116078
 10
50.48745832402926
 20
43.54063621495264
 10
51.40633128011943
 20
43.44361247573218
 10
52.30834756230696
 20
43.33651518400401
 10
53.1918590721983
 20
43.21954036410478
 10
54.0552500986412
 20
43.09290128585828
 10
54.89694603557787
 20
42.95682922793414
 10
55.71540824153146
 20
42.81157297943922
 10
56.50914233838349
 20
42.65739792231268
 10
57.27669709967453
 20
42.49458559571769
 10
58.01667184685642
 20
42.3234331828563
 10
58.72771420935975
 20
42.14425358103721
 10
59.40852686050022
 20
41.95737425049097
 10
60.05786216760883
 20
41.76313587563078
 10
60.67453917602128
 20
41.56189409379789
 10
61.2574267703113
 20
41.35401583301756
 10
61.80546403813324
 20
41.13988139399054
 10
62.31764793015483
 20
40.91988157373608
 10
62.79304245003562
 20
40.69441821735382
 10
63.23077907961898
 20
40.46390309269807
 10
63.63006110321811
 20
40.22875782085502
 10
63.99015654916756
 20
39.98941143442425
 10
64.31040690040884
 20
39.74630114432953
 10
64.59022951937327
 20
39.4998712523429
 10
64.82911229871776
 20
39.25057181246675
 10
65.0266171417075
 20
38.99885800474333
 10
65.1823866816501
 20
38.74518992583844
 10
65.29613512970591
 20
38.49003108648746
 10
65.36765344713565
 20
38.23384702673051
 10
65.39187370959233
 20
38.06190074698494
  0
ARC
  5
1E6
330
2
100
AcDbEntity
  8
0
100
AcDbCircle
 10
41.90524832182409
 20
113.199303369415
 30
0.0
 40
81.20986620151738
100
AcDbArc
 50
264.8127409203011
 51
268.087013956401
  0
ARC
  5
1E7
330
2
100
AcDbEntity
  8
0
100
AcDbCircle
 10
42.17339160448585
 20
117.7571017310913
 30
0.0
 40
85.77415370200684
100
AcDbArc
 50
268.0096301190993
 51
275.0962985323994
  0
LINE
  5
1E8
330
2
100
AcDbEntity
  8
0
100
AcDbLine
 10
43.17552502913049
 20
89.59574452313198
 30
0.0
 11
43.17565442657513
 21
89.60147224913598
 31
0.0
  0
LINE
  5
1E9
330
2
100
AcDbEntity
  8
0
100
AcDbLine
 10
42.35806878732229
 20
89.9131467159701
 30
0.0
 11
42.36320661370611
 21
89.44100630864815
 31
0.0
  0
ARC
  5
1EA
330
2
100
AcDbEntity
  8
0
100
AcDbCircle
 10
44.32101212733832
 20
91.75427308272059
 30
0.0
 40
0.1920577726145889
100
AcDbArc
 50
311.4340476705999
 51
38.25735863379918
  0
ARC
  5
1EB
330
2
100
AcDbEntity
  8
0
100
AcDbCircle
 10
40.04493657476614
 20
91.75182135165961
 30
0.0
 40
0.2016751727626226
100
AcDbArc
 50
141.0090451523992
 51
238.8872080932999
  0
LWPOLYLINE
  5
1EC
330
2
100
AcDbEntity
  8
0
100
AcDbPolyline
 90
       21
 70
   128
 43
0.0
 10
43.8122291385739
 20
91.94524050225865
 10
43.58718881644515
 20
92.00032730284878
 10
43.33471723032411
 20
92.04677190390269
 10
43.05972813856068
 20
92.08367030752619
 10
42.76757423372405
 20
92.11030432163218
 10
42.46394185318172
 20
92.12615559405223
 10
42.15474068112604
 20
92.13091552711603
 10
41.84598914199906
 20
92.12449154803254
 10
41.54369664988504
 20
92.10700862828003
 10
41.2537469878917
 20
92.07880712821514
 10
40.98178380010625
 20
92.04043586719313
 10
40.73310045998012
 20
91.99264173510677
 10
40.5125373095302
 20
91.9363550108882
 10
40.32438735544078
 20
91.87267122533626
 10
40.17231268549509
 20
91.80282997377949
 10
40.05927333850272
 20
91.7281905326247
 10
39.9874695107488
 20
91.65020572717581
 10
39.9582986789749
 20
91.5703934765523
 10
39.97232868667032
 20
91.49030716846807
 10
40.02928634020216
 20
91.41150562002199
 10
40.03881832353624
 20
91.40234269515296
  0
LWPOLYLINE
  5
1ED
330
2
100
AcDbEntity
  8
0
100
AcDbPolyline
 90
        7
 70
   128
 43
0.0
 10
44.39797233681534
 20
91.55163961356043
 10
44.39576707692755
 20
91.58234277730803
 10
44.36018652019654
 20
91.66198066899267
 10
44.28212913826046
 20
91.73956192918065
 10
44.16311394116648
 20
91.81357645922771
 10
44.00545773982304
 20
91.88258370116471
 10
43.8122291385739
 20
91.94524050225865
  0
LWPOLYLINE
  5
1EE
330
2
100
AcDbEntity
  8
0
100
AcDbPolyline
 90
       24
 70
   128
 43
0.0
 10
44.42511768436825
 20
91.69175213876338
 10
44.41059734755067
 20
91.76895363275304
 10
44.35293593573956
 20
91.84872872824696
 10
44.25293874191498
 20
91.92565046293159
 10
44.11255215579939
 20
91.99822163265649
 10
43.93450847702196
 20
92.06502971394471
 10
43.72227317881169
 20
92.12477435877389
 10
43.47997719235768
 20
92.17629272924352
 10
43.21233656846904
 20
92.21858208227301
 10
42.92456088137446
 20
92.25081928518044
 10
42.62225091219177
 20
92.27237690344443
 10
42.31129090216515
 20
92.28283530034797
 10
41.99773355432709
 20
92.28199092207026
 10
41.68768165978945
 20
92.26986028586459
 10
41.38717021281379
 20
92.24667935513988
 10
41.10204813199927
 20
92.2128994512375
 10
40.83786512767754
 20
92.16917800071207
 10
40.59976314970175
 20
92.11636602236559
 10
40.39237674657775
 20
92.05549135061547
 10
40.21974220997293
 20
91.98773899056018
 10
40.08521991694287
 20
91.91442754615257
 10
39.9914280424176
 20
91.83698397588889
 10
39.94019203406098
 20
91.75691564752121
 10
39.93026985979207
 20
91.70663206470406
  0
LWPOLYLINE
  5
1EF
330
2
100
AcDbEntity
  8
0
100
AcDbPolyline
 90
        7
 70
   128
 43
0.0
 10
43.43540898009495
 20
89.91874835086276
 10
43.60459714045869
 20
89.86266189962755
 10
43.73683313773073
 20
89.80027750113196
 10
43.82869192623153
 20
89.73321084823909
 10
43.87779446087962
 20
89.66319893571819
 10
43.88286913160974
 20
89.59205506126352
 10
43.86196732524991
 20
89.54534270710464
  0
LWPOLYLINE
  5
1F0
330
2
100
AcDbEntity
  8
0
100
AcDbPolyline
 90
       18
 70
   128
 43
0.0
 10
40.5543468046235
 20
89.48189429377512
 10
40.49698431941544
 20
89.54052350597528
 10
40.46980762885698
 20
89.61133100764598
 10
40.48686798811677
 20
89.68234988639842
 10
40.54772361187203
 20
89.75174076964655
 10
40.65079837140518
 20
89.81770649051599
 10
40.79342268925233
 20
89.87853856866747
 10
40.97190271772982
 20
89.93266147862161
 10
41.18161579813555
 20
89.97867347869945
 10
41.41713056326444
 20
90.01538286362682
 10
41.67234722353948
 20
90.04183890596648
 10
41.94065596379028
 20
90.05735636801693
 10
42.21510749981187
 20
90.06153340280125
 10
42.48859387198418
 20
90.05426178149871
 10
42.75403185877774
 20
90.03572985967362
 10
43.00454676615487
 20
90.00641762691961
 10
43.23365033459777
 20
89.96708421969215
 10
43.43540898009495
 20
89.91874835086276
  0
LINE
  5
1F1
330
2
100
AcDbEntity
  8
0
100
AcDbLine
 10
40.97844509408044
 20
89.30574730701058
 30
0.0
 11
41.06807860810055
 21
89.28241206058475
 31
0.0
  0
LWPOLYLINE
  5
1F2
330
2
100
AcDbEntity
  8
0
100
AcDbPolyline
 90
        6
 70
   128
 43
0.0
 10
41.20540489803708
 20
89.37817964682986
 10
41.09761739414923
 20
89.4164040966238
 10
40.9919419080492
 20
89.47075268320615
 10
40.92665070770059
 20
89.52920158505534
 10
40.90396729244948
 20
89.58976040368465
 10
40.92211222205797
 20
89.64662707933348
  0
LWPOLYLINE
  5
1F3
330
2
100
AcDbEntity
  8
0
100
AcDbPolyline
 90
        6
 70
   128
 43
0.0
 10
43.40631513224328
 20
89.67840309028709
 10
43.42902732687427
 20
89.65311768088799
 10
43.45171074212539
 20
89.59255886225868
 10
43.43101401085351
 20
89.53195240532298
 10
43.36764196440045
 20
89.47336219351534
 10
43.33161205531514
 20
89.45140064416277
  0
LINE
  5
1F4
330
2
100
AcDbEntity
  8
0
100
AcDbLine
 10
43.51932317002265
 20
91.5770949288011
 30
0.0
 11
43.5189889775195
 21
91.59451805397948
 31
0.0
  0
LWPOLYLINE
  5
1F5
330
2
100
AcDbEntity
  8
0
100
AcDbPolyline
 90
        3
 70
   128
 43
0.0
 10
40.62919582483801
 20
91.42018256945366
 10
40.61008228339296
 20
91.41476782702939
 10
40.58848304248881
 20
91.41186784847063
  0
LWPOLYLINE
  5
1F6
330
2
100
AcDbEntity
  8
0
100
AcDbPolyline
 90
        9
 70
   128
 43
0.0
 10
43.83072415368649
 20
91.49366081300874
 10
43.83072471368469
 20
91.49368356788071
 10
43.83056175092509
 20
91.49487176552014
 10
43.83000738712093
 20
91.49606649116336
 10
43.82906498940773
 20
91.49725957865879
 10
43.82774092863609
 20
91.49843954710371
 10
43.82604349807301
 20
91.4996019613266
 10
43.82398379709323
 20
91.50073567289906
 10
43.8215754281976
 20
91.50184027267783
  0
LWPOLYLINE
  5
1F7
330
2
100
AcDbEntity
  8
0
100
AcDbPolyline
 90
        8
 70
   128
 43
0.0
 10
43.75348397336835
 20
89.94324617593187
 10
43.75399402348853
 20
89.93138082634377
 10
43.75636050636851
 20
89.92511054815642
 10
43.75821019104949
 20
89.92298907295692
 10
43.76323783961049
 20
89.92121779039207
 10
43.76730575225372
 20
89.92192723228713
 10
43.77943122578072
 20
89.92946650555948
 10
43.79630631646128
 20
89.94725877967951
  0
LWPOLYLINE
  5
1F8
330
2
100
AcDbEntity
  8
0
100
AcDbPolyline
 90
        8
 70
   128
 43
0.0
 10
40.44376609107771
 20
89.86987804149752
 10
40.45695400124531
 20
89.85482479812873
 10
40.46661859236976
 20
89.84698594154075
 10
40.471521410194
 20
89.84525789027122
 10
40.47351378953765
 20
89.84553705118303
 10
40.47628384523325
 20
89.8486381907163
 10
40.47710845751689
 20
89.85240467538657
 10
40.47675267737508
 20
89.8568331603443
  0
ARC
  5
1F9
330
2
100
AcDbEntity
  8
0
100
AcDbCircle
 10
44.02693896704699
 20
91.37769173384912
 30
0.0
 40
0.006101170811487
100
AcDbArc
 50
3.503658882299924
 51
55.27652475559989
  0
LINE
  5
1FA
330
2
100
AcDbEntity
  8
0
100
AcDbLine
 10
40.3784267564363
 20
91.30764918324102
 30
0.0
 11
40.32347737421953
 21
91.34383242441204
 31
0.0
  0
LWPOLYLINE
  5
1FB
330
2
100
AcDbEntity
  8
0
100
AcDbPolyline
 90
        7
 70
   128
 43
0.0
 10
43.91865157779136
 20
89.81587490309847
 10
43.91857787125474
 20
89.81200949471094
 10
43.91915654541421
 20
89.80980528414612
 10
43.92169767592252
 20
89.80777609177625
 10
43.92427230361588
 20
89.80825918640178
 10
43.93326966745937
 20
89.8150787254873
 10
43.94760654625985
 20
89.83180746876874
  0
LINE
  5
1FC
330
2
100
AcDbEntity
  8
0
100
AcDbLine
 10
44.06577837461122
 20
91.30317087739472
 30
0.0
 11
44.0295318965149
 21
91.27897532256691
 31
0.0
  0
ARC
  5
1FD
330
2
100
AcDbEntity
  8
0
100
AcDbCircle
 10
40.38212162055883
 20
91.41615979505228
 30
0.0
 40
0.0075210658375649
100
AcDbArc
 50
114.9620135691992
 51
173.0681921009002
  0
LWPOLYLINE
  5
1FE
330
2
100
AcDbEntity
  8
0
100
AcDbPolyline
 90
        3
 70
   128
 43
0.0
 10
40.25487557955104
 20
91.29556228776122
 10
40.2545013707009
 20
91.2942967630666
 10
40.25446324103991
 20
91.29358798708917
  0
ARC
  5
1FF
330
2
100
AcDbEntity
  8
0
100
AcDbCircle
 10
44.0268152968819
 20
91.3782060897847
 30
0.0
 40
0.0062523340713924
100
AcDbArc
 50
4.346068523999817
 51
54.61496876929932
  0
LINE
  5
200
330
2
100
AcDbEntity
  8
0
100
AcDbLine
 10
44.11303381763604
 20
91.25297296958539
 30
0.0
 11
44.11300315308415
 21
91.25364224942607
 31
0.0
  0
LWPOLYLINE
  5
201
330
2
100
AcDbEntity
  8
0
100
AcDbPolyline
 90
        9
 70
   128
 43
0.0
 10
40.2536011479956
 20
91.23017882456769
 10
40.25096690123096
 20
91.22903309111006
 10
40.24867118185373
 20
91.22784637488917
 10
40.24672882300434
 20
91.22662935148083
 10
40.24515252477935
 20
91.22538958228458
 10
40.24395242413409
 20
91.22413129838486
 10
40.24313635989325
 20
91.22286591697513
 10
40.24270953797561
 20
91.22159801100108
 10
40.24264425715066
 20
91.2207115790777
  0
LINE
  5
202
330
2
100
AcDbEntity
  8
0
100
AcDbLine
 10
40.25695305888541
 20
91.22480598695963
 30
0.0
 11
40.2536011479956
 21
91.23017882456769
 31
0.0
  0
LWPOLYLINE
  5
203
330
2
100
AcDbEntity
  8
0
100
AcDbPolyline
 90
        9
 70
   128
 43
0.0
 10
40.25342515224124
 20
91.23057684748404
 10
40.2508267131464
 20
91.22945322381333
 10
40.24856271139879
 20
91.2282896917741
 10
40.24664770228959
 20
91.22709681805543
 10
40.24509389937635
 20
91.22587848667244
 10
40.24391112052387
 20
91.2246492398353
 10
40.24310713685089
 20
91.22340988983536
 10
40.24268686346679
 20
91.22217182152708
 10
40.24262258436465
 20
91.22131081559514
  0
LWPOLYLINE
  5
204
330
2
100
AcDbEntity
  8
0
100
AcDbPolyline
 90
       12
 70
   128
 43
0.0
 10
46.92247440484311
 20
98.1592573913727
 10
47.2362705298891
 20
98.05291631123413
 10
47.51458562140469
 20
97.94015218427261
 10
47.75546762724775
 20
97.82175600919046
 10
47.95722625948227
 20
97.69855815910123
 10
48.11844654019529
 20
97.57142277627815
 10
48.23799775444392
 20
97.44124165644306
 10
48.31504166073662
 20
97.30892799921754
 10
48.34903699942193
 20
97.17540971539571
 10
48.33974642208389
 20
97.04162351828772
 10
48.28723381751543
 20
96.90850771393144
 10
48.22238224915791
 20
96.81301029434921
  0
LWPOLYLINE
  5
205
330
2
100
AcDbEntity
  8
0
100
AcDbPolyline
 90
       14
 70
   128
 43
0.0
 10
36.13329558829418
 20
96.81301023554548
 10
36.07380421921943
 20
96.89911330358041
 10
36.01823566256128
 20
97.03214592006709
 10
36.00587264434341
 20
97.16591550605379
 10
36.03680137680128
 20
97.29948373297421
 10
36.11080505007693
 20
97.43191358144811
 10
36.2273644403013
 20
97.56227630955585
 10
36.38566228354036
 20
97.6896574327142
 10
36.58458816795165
 20
97.81316352292769
 10
36.82274685412217
 20
97.93192817188925
 10
37.09846728615258
 20
98.04511846127015
 10
37.40981609871571
 20
98.15194035268035
 10
37.75460918401486
 20
98.25164459608295
 10
37.87161316669934
 20
98.28192985010295
  0
LWPOLYLINE
  5
206
330
2
100
AcDbEntity
  8
0
100
AcDbPolyline
 90
        3
 70
   128
 43
0.0
 10
46.32538456406355
 20
98.32052861908737
 10
46.57539749590537
 20
98.25842941503498
 10
46.92247440484311
 20
98.1592573913727
  0
LWPOLYLINE
  5
207
330
2
100
AcDbEntity
  8
0
100
AcDbPolyline
 90
       39
 70
   128
 43
0.0
 10
48.22969929184722
 20
97.01749312831253
 10
48.21665816505017
 20
97.12728886833007
 10
48.16217942577953
 20
97.25771289096194
 10
48.06572504071748
 20
97.38649965664986
 10
47.9279708386017
 20
97.51274571187357
 10
47.74988417107178
 20
97.63556569583426
 10
47.53271340587388
 20
97.75409798494861
 10
47.27798179927958
 20
97.86751117676502
 10
46.98747673505984
 20
97.97500984800755
 10
46.66323525022314
 20
98.07583987567973
 10
46.30753201700598
 20
98.16929405812159
 10
45.92286199637172
 20
98.25471685473779
 10
45.51192359415726
 20
98.33150913426408
 10
45.07759869583652
 20
98.39913222017486
 10
44.62293374031171
 20
98.45711170390377
 10
44.15111850150915
 20
98.50504111744356
 10
43.66546226807516
 20
98.54258397022114
 10
43.16937139620971
 20
98.56947727187195
 10
42.66632562616745
 20
98.5855321064702
 10
42.15985327700603
 20
98.59063599339942
 10
41.6535071499472
 20
98.58475306291587
 10
41.15083891337748
 20
98.56792467809952
 10
40.65537440642296
 20
98.54026871122304
 10
40.17058882152503
 20
98.50197934135998
 10
39.69988273098053
 20
98.45332495543631
 10
39.24655754252181
 20
98.39464704246514
 10
38.81379330553339
 20
98.32635701220965
 10
38.40462543342584
 20
98.24893393023907
 10
38.02192389455683
 20
98.1629208692499
 10
37.66837323288385
 20
98.06892111443737
 10
37.34645316805546
 20
97.96759405080557
 10
37.05842161675124
 20
97.85965046867854
 10
36.80629948340339
 20
97.74584732435201
 10
36.5918545668633
 20
97.62698304269731
 10
36.41659118835196
 20
97.50389124793052
 10
36.28173905962567
 20
97.37743559384806
 10
36.18824380624515
 20
97.24850268436373
 10
36.13676123175727
 20
97.11799717087442
 10
36.1259258632567
 20
97.02607952787223
  0
LINE
  5
208
330
2
100
AcDbEntity
  8
0
100
AcDbLine
 10
39.73293523816142
 20
80.26953515640888
 30
0.0
 11
39.73327815645106
 21
80.55117421897756
 31
0.0
  0
LWPOLYLINE
  5
209
330
2
100
AcDbEntity
  8
0
100
AcDbPolyline
 90
        8
 70
   128
 43
0.0
 10
39.73327815645106
 20
80.55117421897756
 10
39.73461982074056
 20
80.57310356900627
 10
39.73818683848095
 20
80.59311309855562
 10
39.74384497554325
 20
80.61045059129979
 10
39.75138171335039
 20
80.62446168459578
 10
39.76051391946633
 20
80.63462129763614
 10
39.7708979996913
 20
80.64055000051228
 10
39.77592873323888
 20
80.6417779583905
  0
LINE
  5
20A
330
2
100
AcDbEntity
  8
0
100
AcDbLine
 10
40.56277265346747
 20
79.88302540854911
 30
0.0
 11
40.74680582130453
 21
80.12945628100203
 31
0.0
  0
ARC
  5
20B
330
2
100
AcDbEntity
  8
0
100
AcDbCircle
 10
40.89120010695905
 20
80.03562058581165
 30
0.0
 40
0.1722058286470502
100
AcDbArc
 50
98.18070477610078
 51
146.9818764555003
  0
LWPOLYLINE
  5
20C
330
2
100
AcDbEntity
  8
0
100
AcDbPolyline
 90
        4
 70
   128
 43
0.0
 10
39.98777424087644
 20
80.25610205112766
 10
39.98852388903465
 20
80.25607381636374
 10
40.00972728742444
 20
80.26436432101416
 10
40.01533138504973
 20
80.26981563431881
  0
LWPOLYLINE
  5
20D
330
2
100
AcDbEntity
  8
0
100
AcDbPolyline
 90
        4
 70
   128
 43
0.0
 10
40.20726416313745
 20
80.61416533436078
 10
40.20743835238724
 20
80.57884268331676
 10
40.20882225272914
 20
80.29870175073957
 10
40.20976897478913
 20
80.10802387124805
  0
LWPOLYLINE
  5
20E
330
2
100
AcDbEntity
  8
0
100
AcDbPolyline
 90
        8
 70
   128
 43
0.0
 10
40.06213066048051
 20
80.63890422974189
 10
40.06346614347221
 20
80.64813697265101
 10
40.0656677697605
 20
80.6563741212839
 10
40.0686689630816
 20
80.66336537029313
 10
40.07237855642371
 20
80.66889933127214
 10
40.07668398057102
 20
80.6728054734609
 10
40.08145409946204
 20
80.67496848403372
 10
40.082907665354
 20
80.67526000160626
  0
ARC
  5
20F
330
2
100
AcDbEntity
  8
0
100
AcDbCircle
 10
40.14470922752296
 20
80.62239081035805
 30
0.0
 40
0.0630934102988143
100
AcDbArc
 50
352.5090371993992
 51
16.96742732450028
  0
ARC
  5
210
330
2
100
AcDbEntity
  8
0
100
AcDbCircle
 10
28.86695541239353
 20
75.64321100018631
 30
0.0
 40
0.437247065465244
100
AcDbArc
 50
176.1004730465013
 51
223.8894474526584
  0
ARC
  5
211
330
2
100
AcDbEntity
  8
0
100
AcDbCircle
 10
55.06757932967228
 20
75.79766584181396
 30
0.0
 40
0.8664017162751102
100
AcDbArc
 50
328.2863801737557
 51
351.7234969821293
  0
ARC
  5
212
330
2
100
AcDbEntity
  8
0
100
AcDbCircle
 10
40.41421218468735
 20
89.73547242809861
 30
0.0
 40
0.0959519161714902
100
AcDbArc
 50
209.128770498589
 51
231.6601891331391
  0
LINE
  5
213
330
2
100
AcDbEntity
  8
0
100
AcDbLine
 10
40.35469089203789
 20
89.66021297063099
 30
0.0
 11
40.38195377315182
 21
89.63563129361903
 31
0.0
  0
ARC
  5
214
330
2
100
AcDbEntity
  8
0
100
AcDbCircle
 10
31.64001337250569
 20
53.36331446152689
 30
0.0
 40
7.643620960896173
100
AcDbArc
 50
127.1976384826964
 51
143.9592873889111
  0
ARC
  5
215
330
2
100
AcDbEntity
  8
0
100
AcDbCircle
 10
54.12790804712495
 20
54.75376114727798
 30
0.0
 40
5.689454766299983
100
AcDbArc
 50
33.02351533314603
 51
55.68448250682866
  0
ENDSEC
  0
SECTION
  2
OBJECTS
  0
DICTIONARY
  5
9
330
0
100
AcDbDictionary
281
     1
  3
ACAD_COLOR
350
3E
  3
ACAD_GROUP
350
35
  3
ACAD_LAYOUT
350
16
  3
ACAD_MATERIAL
350
B
  3
ACAD_MLEADERSTYLE
350
41
  3
ACAD_MLINESTYLE
350
36
  3
ACAD_PLOTSETTINGS
350
37
  3
ACAD_PLOTSTYLENAME
350
8
  3
ACAD_SCALELIST
350
3F
  3
ACAD_TABLESTYLE
350
40
  3
ACAD_VISUALSTYLE
350
2B
  3
ACDB_RECOMPOSE_DATA
350
224
  3
AcDbVariableDictionary
350
216
  3
AcDsDecomposeData
350
22A
  0
DICTIONARY
  5
1E
330
1D
100
AcDbDictionary
280
     1
281
     1
  3
ACAD_LAYERSTATES
360
1F
  0
DICTIONARY
  5
6
330
5
100
AcDbDictionary
280
     1
281
     1
  0
DICTIONARY
  5
3
330
2
100
AcDbDictionary
280
     1
281
     1
  0
DICTIONARY
  5
3E
102
{ACAD_REACTORS
330
9
102
}
330
9
100
AcDbDictionary
281
     1
  0
DICTIONARY
  5
35
102
{ACAD_REACTORS
330
9
102
}
330
9
100
AcDbDictionary
281
     1
  0
DICTIONARY
  5
16
102
{ACAD_REACTORS
330
9
102
}
330
9
100
AcDbDictionary
281
     1
  3
Model
350
15
  3
レイアウト1
350
1C
  0
DICTIONARY
  5
B
102
{ACAD_REACTORS
330
9
102
}
330
9
100
AcDbDictionary
281
     1
  3
ByBlock
350
3B
  3
ByLayer
350
38
  3
Global
350
A
  0
DICTIONARY
  5
41
102
{ACAD_REACTORS
330
9
102
}
330
9
100
AcDbDictionary
281
     1
  0
DICTIONARY
  5
36
102
{ACAD_REACTORS
330
9
102
}
330
9
100
AcDbDictionary
281
     1
  3
Standard
350
42
  0
DICTIONARY
  5
37
102
{ACAD_REACTORS
330
9
102
}
330
9
100
AcDbDictionary
281
     1
  0
ACDBDICTIONARYWDFLT
  5
8
102
{ACAD_REACTORS
330
9
102
}
330
9
100
AcDbDictionary
281
     1
  3
Normal
350
7
100
AcDbDictionaryWithDefault
340
7
  0
DICTIONARY
  5
3F
102
{ACAD_REACTORS
330
9
102
}
330
9
100
AcDbDictionary
281
     1
  3
A0
350
47
  3
A1
350
48
  3
A2
350
49
  3
A3
350
4A
  3
A4
350
4B
  3
A5
350
4C
  3
A6
350
4D
  3
A7
350
4E
  3
A8
350
4F
  3
A9
350
50
  3
B0
350
51
  3
B1
350
52
  3
B2
350
53
  3
B3
350
54
  3
B4
350
55
  3
B5
350
56
  3
B6
350
57
  0
DICTIONARY
  5
40
102
{ACAD_REACTORS
330
9
102
}
330
9
100
AcDbDictionary
281
     1
  3
Standard
350
43
  0
DICTIONARY
  5
2B
102
{ACAD_REACTORS
330
9
102
}
330
9
100
AcDbDictionary
281
     1
  3
2dWireframe
350
2A
  3
Realistic
350
45
  3
Wireframe
350
46
  0
XRECORD
  5
224
102
{ACAD_REACTORS
330
9
102
}
330
9
100
AcDbXrecord
280
     1
 90
        1
330
43
  0
DICTIONARY
  5
216
102
{ACAD_REACTORS
330
9
102
}
330
9
100
AcDbDictionary
281
     1
  3
CANNOSCALE
350
21C
  3
CMLEADERSTYLE
350
218
  3
CTABLESTYLE
350
217
  3
CVIEWDETAILSTYLE
350
219
  3
CVIEWSECTIONSTYLE
350
21A
  3
LAYEREVAL
350
21E
  3
LAYERNOTIFY
350
21F
  3
LIGHTINGUNITS
350
21D
  3
MSLTSCALE
350
21B
  3
PSOLHEIGHT
350
221
  3
PSOLWIDTH
350
220
  3
XCLIPFRAME
350
222
  0
DICTIONARY
  5
22A
102
{ACAD_REACTORS
330
9
102
}
330
9
100
AcDbDictionary
281
     1
  3
AcDsRecords
350
22C
  3
AcDsSchemas
350
22B
1001
ACAD
1070
     2
  0
DICTIONARY
  5
1F
102
{ACAD_REACTORS
330
1E
102
}
330
1E
100
AcDbDictionary
281
     1
  0
LAYOUT
  5
15
102
{ACAD_XDICTIONARY
360
17
102
}
102
{ACAD_REACTORS
330
16
102
}
330
16
100
AcDbPlotSettings
  1

  2
none_device
  4
ISO_A4_(210.00_x_297.00_MM)
  6

 40
7.5
 41
20.0
 42
7.5
 43
20.0
 44
210.0
 45
297.0
 46
11.54999923706054
 47
-13.65000009536743
 48
0.0
 49
0.0
140
0.0
141
0.0
142
1.0
143
8.704084754739808
 70
 11952
 72
     1
 73
     0
 74
     0
  7

 75
     0
147
0.1148885871608098
 76
     0
 77
     2
 78
   300
148
0.0
149
0.0
100
AcDbLayout
  1
Model
 70
     1
 71
     0
 10
0.0
 20
0.0
 11
12.0
 21
9.0
 12
0.0
 22
0.0
 32
0.0
 14
0.0
 24
0.0
 34
0.0
 15
0.0
 25
0.0
 35
0.0
146
0.0
 13
0.0
 23
0.0
 33
0.0
 16
1.0
 26
0.0
 36
0.0
 17
0.0
 27
1.0
 37
0.0
 76
     0
330
2
331
29
1001
ACAD_PSEXT
1000
None
1000
None
1000
Not applicable
1000
The layout will not be plotted unless a new plotter configuration name is selected.
1070
     0
  0
LAYOUT
  5
1C
102
{ACAD_REACTORS
330
16
102
}
330
16
100
AcDbPlotSettings
  1

  2
C:\Documents and Settings\basas\Application Data\Autodesk\AutoCAD 2005\R16.1\enu\plotters\Default Windows System Printer.pc3
  4

  6

 40
0.0
 41
0.0
 42
0.0
 43
0.0
 44
0.0
 45
0.0
 46
0.0
 47
0.0
 48
0.0
 49
0.0
140
0.0
141
0.0
142
1.0
143
1.0
 70
   688
 72
     0
 73
     0
 74
     5
  7

 75
    16
147
1.0
 76
     0
 77
     2
 78
   300
148
0.0
149
0.0
100
AcDbLayout
  1
レイアウト1
 70
     1
 71
     1
 10
0.0
 20
0.0
 11
12.0
 21
9.0
 12
0.0
 22
0.0
 32
0.0
 14
0.0
 24
0.0
 34
0.0
 15
0.0
 25
0.0
 35
0.0
146
0.0
 13
0.0
 23
0.0
 33
0.0
 16
1.0
 26
0.0
 36
0.0
 17
0.0
 27
1.0
 37
0.0
 76
     0
330
19
  0
MATERIAL
  5
3B
102
{ACAD_XDICTIONARY
360
3C
102
}
102
{ACAD_REACTORS
330
B
102
}
330
B
100
AcDbMaterial
  1
ByBlock
  0
MATERIAL
  5
38
102
{ACAD_XDICTIONARY
360
39
102
}
102
{ACAD_REACTORS
330
B
102
}
330
B
100
AcDbMaterial
  1
ByLayer
  0
MATERIAL
  5
A
102
{ACAD_XDICTIONARY
360
C
102
}
102
{ACAD_REACTORS
330
B
102
}
330
B
100
AcDbMaterial
  1
Global
 43
0.0007999999797903
 43
0.0
 43
0.0
 43
0.0
 43
0.0
 43
0.0007999999797903
 43
0.0
 43
0.0
 43
0.0
 43
0.0
 43
1.0
 43
0.0
 43
0.0
 43
0.0
 43
0.0
 43
1.0
 49
0.0007999999797903
 49
0.0
 49
0.0
 49
0.0
 49
0.0
 49
0.0007999999797903
 49
0.0
 49
0.0
 49
0.0
 49
0.0
 49
1.0
 49
0.0
 49
0.0
 49
0.0
 49
0.0
 49
1.0
142
0.0007999999797903
142
0.0
142
0.0
142
0.0
142
0.0
142
0.0007999999797903
142
0.0
142
0.0
142
0.0
142
0.0
142
1.0
142
0.0
142
0.0
142
0.0
142
0.0
142
1.0
144
0.0007999999797903
144
0.0
144
0.0
144
0.0
144
0.0
144
0.0007999999797903
144
0.0
144
0.0
144
0.0
144
0.0
144
1.0
144
0.0
144
0.0
144
0.0
144
0.0
144
1.0
1001
ACAD
1070
    -1
1070
     3
1070
     0
1000

1071
        0
1070
     0
  0
MLINESTYLE
  5
42
102
{ACAD_REACTORS
330
36
102
}
330
36
100
AcDbMlineStyle
  2
STANDARD
 70
     0
  3

 62
   256
 51
90.0
 52
90.0
 71
     2
 49
0.5
 62
   256
  6
BYLAYER
 49
-0.5
 62
   256
  6
BYLAYER
  0
ACDBPLACEHOLDER
  5
7
102
{ACAD_REACTORS
330
8
102
}
330
8
  0
SCALE
  5
47
102
{ACAD_REACTORS
330
3F
102
}
330
3F
100
AcDbScale
 70
     0
300
1:1
140
1.0
141
1.0
290
     1
  0
SCALE
  5
48
102
{ACAD_REACTORS
330
3F
102
}
330
3F
100
AcDbScale
 70
     0
300
1:2
140
1.0
141
2.0
290
     0
  0
SCALE
  5
49
102
{ACAD_REACTORS
330
3F
102
}
330
3F
100
AcDbScale
 70
     0
300
1:4
140
1.0
141
4.0
290
     0
  0
SCALE
  5
4A
102
{ACAD_REACTORS
330
3F
102
}
330
3F
100
AcDbScale
 70
     0
300
1:5
140
1.0
141
5.0
290
     0
  0
SCALE
  5
4B
102
{ACAD_REACTORS
330
3F
102
}
330
3F
100
AcDbScale
 70
     0
300
1:8
140
1.0
141
8.0
290
     0
  0
SCALE
  5
4C
102
{ACAD_REACTORS
330
3F
102
}
330
3F
100
AcDbScale
 70
     0
300
1:10
140
1.0
141
10.0
290
     0
  0
SCALE
  5
4D
102
{ACAD_REACTORS
330
3F
102
}
330
3F
100
AcDbScale
 70
     0
300
1:16
140
1.0
141
16.0
290
     0
  0
SCALE
  5
4E
102
{ACAD_REACTORS
330
3F
102
}
330
3F
100
AcDbScale
 70
     0
300
1:20
140
1.0
141
20.0
290
     0
  0
SCALE
  5
4F
102
{ACAD_REACTORS
330
3F
102
}
330
3F
100
AcDbScale
 70
     0
300
1:30
140
1.0
141
30.0
290
     0
  0
SCALE
  5
50
102
{ACAD_REACTORS
330
3F
102
}
330
3F
100
AcDbScale
 70
     0
300
1:40
140
1.0
141
40.0
290
     0
  0
SCALE
  5
51
102
{ACAD_REACTORS
330
3F
102
}
330
3F
100
AcDbScale
 70
     0
300
1:50
140
1.0
141
50.0
290
     0
  0
SCALE
  5
52
102
{ACAD_REACTORS
330
3F
102
}
330
3F
100
AcDbScale
 70
     0
300
1:100
140
1.0
141
100.0
290
     0
  0
SCALE
  5
53
102
{ACAD_REACTORS
330
3F
102
}
330
3F
100
AcDbScale
 70
     0
300
2:1
140
2.0
141
1.0
290
     0
  0
SCALE
  5
54
102
{ACAD_REACTORS
330
3F
102
}
330
3F
100
AcDbScale
 70
     0
300
4:1
140
4.0
141
1.0
290
     0
  0
SCALE
  5
55
102
{ACAD_REACTORS
330
3F
102
}
330
3F
100
AcDbScale
 70
     0
300
8:1
140
8.0
141
1.0
290
     0
  0
SCALE
  5
56
102
{ACAD_REACTORS
330
3F
102
}
330
3F
100
AcDbScale
 70
     0
300
10:1
140
10.0
141
1.0
290
     0
  0
SCALE
  5
57
102
{ACAD_REACTORS
330
3F
102
}
330
3F
100
AcDbScale
 70
     0
300
100:1
140
100.0
141
1.0
290
     0
  0
TABLESTYLE
  5
43
102
{ACAD_XDICTIONARY
360
44
102
}
102
{ACAD_REACTORS
330
40
102
}
330
40
100
AcDbTableStyle
  3
Standard
 70
     0
 71
     0
 40
1.5
 41
1.5
280
     0
281
     0
  7
Standard
140
4.5
170
     2
 62
     0
 63
     7
283
     0
274
    -2
284
     1
 64
     0
275
    -2
285
     1
 65
     0
276
    -2
286
     1
 66
     0
277
    -2
287
     1
 67
     0
278
    -2
288
     1
 68
     0
279
    -2
289
     1
 69
     0
  7
Standard
140
6.0
170
     5
 62
     0
 63
     7
283
     0
274
    -2
284
     1
 64
     0
275
    -2
285
     1
 65
     0
276
    -2
286
     1
 66
     0
277
    -2
287
     1
 67
     0
278
    -2
288
     1
 68
     0
279
    -2
289
     1
 69
     0
  7
Standard
140
4.5
170
     5
 62
     0
 63
     7
283
     0
274
    -2
284
     1
 64
     0
275
    -2
285
     1
 65
     0
276
    -2
286
     1
 66
     0
277
    -2
287
     1
 67
     0
278
    -2
288
     1
 68
     0
279
    -2
289
     1
 69
     0
  0
VISUALSTYLE
  5
2A
102
{ACAD_XDICTIONARY
360
22E
102
}
102
{ACAD_REACTORS
330
2B
102
}
330
2B
100
AcDbVisualStyle
  2
2dWireframe
 70
     4
 71
     0
 72
     2
 73
     1
 90
        0
 40
-0.6
 41
-30.0
 62
     5
 63
     7
421
 16777215
 74
     1
 91
        4
 64
     7
 65
   257
 75
     1
175
     1
 42
1.0
 92
        0
 66
   257
 43
1.0
 76
     1
 77
     6
 78
     2
 67
     7
 79
     5
170
     0
171
     0
290
     0
174
     0
 93
        1
 44
0.0
173
     0
291
     0
 45
0.0
1001
ACAD
1000
AcDbSavedByObjectVersion
1070
     0
  0
VISUALSTYLE
  5
45
102
{ACAD_XDICTIONARY
360
233
102
}
102
{ACAD_REACTORS
330
2B
102
}
330
2B
100
AcDbVisualStyle
  2
Realistic
 70
     8
 71
     2
 72
     3
 73
     0
 90
        2
 40
-0.6
 41
30.0
 62
     5
 63
     7
421
 16777215
 74
     0
 91
        0
 64
     7
 65
   257
 75
     1
175
     1
 42
1.0
 92
        8
 66
   257
 43
1.0
 76
     1
 77
     6
 78
     2
 67
     7
 79
     3
170
     0
171
     0
290
     0
174
     0
 93
       13
 44
0.0
173
     0
291
     0
 45
0.0
1001
ACAD
1000
AcDbSavedByObjectVersion
1070
     0
  0
VISUALSTYLE
  5
46
102
{ACAD_XDICTIONARY
360
235
102
}
102
{ACAD_REACTORS
330
2B
102
}
330
2B
100
AcDbVisualStyle
  2
Wireframe
 70
     5
 71
     0
 72
     2
 73
     0
 90
        0
 40
-0.6
 41
-30.0
 62
     5
 63
     7
421
 16777215
 74
     1
 91
        4
 64
     7
 65
   257
 75
     1
175
     1
 42
1.0
 92
        0
 66
   257
 43
1.0
 76
     1
 77
     6
 78
     2
 67
     7
 79
     3
170
     0
171
     0
290
     0
174
     0
 93
        1
 44
0.0
173
     0
291
     0
 45
0.0
1001
ACAD
1000
AcDbSavedByObjectVersion
1070
     0
  0
DICTIONARYVAR
  5
21C
102
{ACAD_REACTORS
330
216
102
}
330
216
100
DictionaryVariables
280
     0
  1
1:1
  0
DICTIONARYVAR
  5
218
102
{ACAD_REACTORS
330
216
102
}
330
216
100
DictionaryVariables
280
     0
  1
STANDARD
  0
DICTIONARYVAR
  5
217
102
{ACAD_REACTORS
330
216
102
}
330
216
100
DictionaryVariables
280
     0
  1
STANDARD
  0
DICTIONARYVAR
  5
219
102
{ACAD_REACTORS
330
216
102
}
330
216
100
DictionaryVariables
280
     0
  1

  0
DICTIONARYVAR
  5
21A
102
{ACAD_REACTORS
330
216
102
}
330
216
100
DictionaryVariables
280
     0
  1

  0
DICTIONARYVAR
  5
21E
102
{ACAD_REACTORS
330
216
102
}
330
216
100
DictionaryVariables
280
     0
  1
0
  0
DICTIONARYVAR
  5
21F
102
{ACAD_REACTORS
330
216
102
}
330
216
100
DictionaryVariables
280
     0
  1
0
  0
DICTIONARYVAR
  5
21D
102
{ACAD_REACTORS
330
216
102
}
330
216
100
DictionaryVariables
280
     0
  1
2
  0
DICTIONARYVAR
  5
21B
102
{ACAD_REACTORS
330
216
102
}
330
216
100
DictionaryVariables
280
     0
  1
1
  0
DICTIONARYVAR
  5
221
102
{ACAD_REACTORS
330
216
102
}
330
216
100
DictionaryVariables
280
     0
  1
80.000000
  0
DICTIONARYVAR
  5
220
102
{ACAD_REACTORS
330
216
102
}
330
216
100
DictionaryVariables
280
     0
  1
5.000000
  0
DICTIONARYVAR
  5
222
102
{ACAD_REACTORS
330
216
102
}
330
216
100
DictionaryVariables
280
     0
  1
2
  0
DICTIONARY
  5
22C
102
{ACAD_REACTORS
330
22A
102
}
330
22A
100
AcDbDictionary
281
     1
  0
DICTIONARY
  5
22B
102
{ACAD_REACTORS
330
22A
102
}
330
22A
100
AcDbDictionary
281
     1
  3
3112824753232
350
225
  3
3112824753248
350
226
  3
3112824753264
350
227
  3
3112824753280
350
228
  3
3112824753296
350
229
  0
DICTIONARY
  5
17
330
15
100
AcDbDictionary
280
     1
281
     1
  0
DICTIONARY
  5
3C
330
3B
100
AcDbDictionary
280
     1
281
     1
  3
ACAD_XREC_ROUNDTRIP
360
231
  3
FBXASSET
360
3D
  0
DICTIONARY
  5
39
330
38
100
AcDbDictionary
280
     1
281
     1
  3
ACAD_XREC_ROUNDTRIP
360
230
  3
FBXASSET
360
3A
  0
DICTIONARY
  5
C
330
A
100
AcDbDictionary
280
     1
281
     1
  3
ACAD_XREC_ROUNDTRIP
360
22D
  3
BUMPTILE
360
D
  3
DIFFUSETILE
360
E
  3
FBXASSET
360
F
  3
OPACITYTILE
360
10
  3
REFLECTIONTILE
360
11
  0
DICTIONARY
  5
44
330
43
100
AcDbDictionary
280
     1
281
     1
  3
ACAD_ROUNDTRIP_2008_TABLESTYLE_CELLSTYLEMAP
360
223
  3
ACAD_XREC_ROUNDTRIP
360
232
  0
DICTIONARY
  5
22E
330
2A
100
AcDbDictionary
280
     1
281
     1
  3
ACAD_XREC_ROUNDTRIP
360
22F
  0
DICTIONARY
  5
233
330
45
100
AcDbDictionary
280
     1
281
     1
  3
ACAD_XREC_ROUNDTRIP
360
234
  0
DICTIONARY
  5
235
330
46
100
AcDbDictionary
280
     1
281
     1
  3
ACAD_XREC_ROUNDTRIP
360
236
  0
XRECORD
  5
225
102
{ACAD_REACTORS
330
22B
102
}
330
22B
100
AcDbXrecord
280
     1
  1
AcDb_Thumbnail_Schema
102
{ATTRRECORD
341
226
  2
AcDbDs::TreatedAsObjectData
280
     1
291
     1
102
ATTRRECORD}
102
{ATTRRECORD
341
227
  2
AcDbDs::Legacy
280
     1
291
     1
102
ATTRRECORD}
  2
AcDbDs::ID
280
    10
 91
        8
102
{ATTRRECORD
341
228
  2
AcDs:Indexable
280
     1
291
     1
102
ATTRRECORD}
102
{ATTRRECORD
341
229
  2
AcDbDs::HandleAttribute
280
     7
282
     1
102
ATTRRECORD}
  2
Thumbnail_Data
280
    15
 91
        0
  0
XRECORD
  5
226
102
{ACAD_REACTORS
330
22B
102
}
330
22B
100
AcDbXrecord
280
     1
  1
AcDbDs::TreatedAsObjectDataSchema
  2
AcDbDs::TreatedAsObjectData
280
     1
 91
        0
  0
XRECORD
  5
227
102
{ACAD_REACTORS
330
22B
102
}
330
22B
100
AcDbXrecord
280
     1
  1
AcDbDs::LegacySchema
  2
AcDbDs::Legacy
280
     1
 91
        0
  0
XRECORD
  5
228
102
{ACAD_REACTORS
330
22B
102
}
330
22B
100
AcDbXrecord
280
     1
  1
AcDbDs::IndexedPropertySchema
  2
AcDs:Indexable
280
     1
 91
        0
  0
XRECORD
  5
229
102
{ACAD_REACTORS
330
22B
102
}
330
22B
100
AcDbXrecord
280
     1
  1
AcDbDs::HandleAttributeSchema
  2
AcDbDs::HandleAttribute
280
     7
 91
        1
284
     1
  0
XRECORD
  5
231
102
{ACAD_REACTORS
330
3C
102
}
330
3C
100
AcDbXrecord
280
     1
102
MATERIAL
148
0.0
149
0.0
149
0.0
 93
        0
 94
       63
282
     0
 72
     1
 77
     1
171
     1
175
     1
179
     1
273
     0
  0
XRECORD
  5
3D
102
{ACAD_REACTORS
330
3C
102
}
330
3C
100
AcDbXrecord
280
     1
 70
     1
 90
429727718
  1
D62C5603-E3A1-4AEA-B7FB-FE5D8D0755AF
310
504B03040A0000080000CC70623B3DEE336E79000000790000001B0000006175746F6465736B2D64657369676E2D7061636B6167652E786D6C3C3F786D6C2076657273696F6E3D22312E302220656E636F64696E673D227574662D3822203F3E3C666F726D6174733E3C666F726D61743E687474703A2F2F736368656D612E
310
6175746F6465736B2E636F6D2F64657369676E2D7061636B6167652F323030393C2F666F726D61743E3C2F666F726D6174733E504B0304140006080800CC70623BD486FD9CA0000000F4000000130000005B436F6E74656E745F54797065735D2E786D6C7D8EC10E82300C865F65E91D8A1E8C310C0EEA1BF002731658846E
310
D98AC1B77784ABF1D8FE5FBFBF75BBCE937A534CCEB38643598122B6FEE978D0B0485F9C41B54DDD7D022595594E1A469170414C76A4D9A4D207E29CF43ECE46F218070CC6BECC4078ACAA135ACF422C856C0E68EA1BF5669944DDD7BCDE7B1F8E415D77AECB980613C2E4AC91FC167A2B244592486606FC29C8FD7F045B9A
310
EF7053A7E60B504B0304140006080800CC70623B853B8169EB0000007C01000008000000636F72652E786D6C8D90416EC3201045AF62CDB6C206821CC7C244919D9CA01740401C94182C03558F5F9C3852BBEB6A467FFE9B197D7EFC9E1EC5975982F5AE035262288C535E5B377690E21535501C055FBC8FBF6C503839990E
310
5619041F179FE64D52DE45E362569DD7661365082642A11EB9E920A89B99642953CC8E702F67A9EE7234257977194EC9EAE275C4EABCCF5EAD5940D4AC6F0E35A568B8F43562CD7046CD199FD07E60174276A7BE677B5EADB0E0D14EEFFB6A31321A0D82627C4084204C3F096B71DD52F6819B16635EADF63F509AF53FA164
310
5DDCD1EDDD17164090FCC8732078B56691CB33A85CD7DCC40F504B0304140006080800CC70623B55019EA25F0000007C00000007000000636E782E786D6C4DCB3B0E80201045D1AD90E915ED2CF8AC45050C11660C8261F98AB1B07AC9C97D42D718D865D3E909258CFD00CCE24AC6E326A164D74DC0B4128928FF32603847
310
2BA13128B1252AC747C6BAB984FC68F0B87FE8960A5C09FE86CFB69FBA01504B0304140006080800CC70623BDBABAAF470010000D40300000C0000006662782F636F72652E786D6CC553D16E823014FD95A6AF4B694182CC941A83FA05FB810A9511A125A5257EFE2E82712ECEB8A7F100CD39F7F69E734AF9FADC366850B6
310
AF8DCE7018308C942E4C59EB2AC3DE1D498AD15A706B8CFB56869196ADCAF00863C12B6B7C374385D14E6907A836A59A41D9F7CA615434B0C8705F7CAA5606D23BA8E84F41278B93AC54100640439DE0BDB320004D43C63716C7C399D30917DCFBBA9CD9BA8469F5B156168B24CED3F7248AC8769F27244EB73B92EED8862C
310
B7F13E0C179B3C8F979C8ECD82BBBABDAA2BAC924E9558448CBD9330242CFA08E3154B5651FCC6D215639C8EE5774DBE2B5F6CF2B5768B68963BB5F5588420E442FC700B1139D4CB01F450C1E918227C2E09DF070D8140C84E1E9AAB8F1340832A9CB13130A5F1376A908D57309505ECF2A0DF179C4E9D30F5B239B87E3823
310
7A79C6F31DE1A8A5AEC08474B03C7837EAE4938639B44E5932B833D2C6B6B279CDC613877FA26EE21F4A2A4C63EC7F29A2F301D1F9F7A0E37D145F504B0304140006080800CC70623B9C113CC27E0000009D0000000B0000006662782F636E782E786D6C4DCCDF0A83201C86E15B91DFB94BFB330DD428C8FB886521330DA7
310
6397BF1A1DECE883878F57749FCDA1B7892F1BBC047A23808C7F84D9FA55424E0BE6803A256208E9EF06C84F9B91703228B1C690F78B66B34CD9A5439DF5CF0BFBF65E35BCA1B8D6A5C6F540381E886698B5741C695F9503EBA150A2F8958E3DC3EA0B504B0304140006080800CC70623B7DF2F77C2A010000120200003100
310
00006662782F41393633353835312D344632462D344230382D423046372D3739314545314133324237412F636F72652E786D6C8D51DB8EC22014FC15C2939B0D2DB4B45643319AE817EC0F6041255A68B86CFCFC856D4D76DF7CE190393373060EDB3DC707F856CE6B6B7A480A0C81328395DA5C7B18C3057510EC3873D686
310
3F34088C18550F330C39BB3A1BA7051AAC09CA84841A2BD5020AEF55806078A44B0FFD7053A328440C89E1EFC52486BBB8AA8214A99D789CF9E05200300FC927E4FB4D5B375D43103D5527440FB843077C5AA3F5861C8F645F5787F59E95B390B318B55CE45AA638FAA2957BD7248B390B7A7CC51F9C124149C82B8C378810
310
84AB2F42B7B8DD56F413775B8C5999E9FF4471926F8AA236A1AE96B8B3CC434E5839373893369E1FAF30EA395917409EB7F26AF8801C171837A4A6AC9C89E9F9C9B1A58BA30FD6A5EF5DDDCF894B9AD9B6A59C957943A9FCAE2FD5BC4DFE03504B0304140006080800CC70623BAD7543B64E01000033030000300000006662
310
782F41393633353835312D344632462D344230382D423046372D3739314545314133324237412F636E782E786D6CD593CD6EC32010845F0571AD6CE3D48AD20813A9873E410FBD12D82434182C7EAAE6EDBB2424CD25871E7B41D6EC30B3FA84F9E67BB2E40B4234DE8DB46F1925E094D7C6ED479AD3AE5951B2113C789FEE
310
6C943839C1488B4C05DF079FE72A69D8C96C13AAD6B8631503449F83828872B949AC57D26200B826A308D316B4064D6E46FCDA41C05550DC9E483A00797BFD207EFB092A45DE9514C1BBD22178396BD39D891265658C238DEA00936C654E5E433CB65A26D9F6EDB5EBC14EBF49A45CB856E66048291F6939A9A81BB5C89177
310
38143CA680F4AA299D66A042CEB3354A2684DC9D8D178FE0D9B8B41CAAD720F880EE7EF93C0C18769E099ECC04D5A102C8049A8A05632F4DDF376CF1DE0F6BB65C2F8627B65A33C6BB62177CEBBDAD973006829F89F22E814B54F4BC2BE347F8AA8F681390B50FA73F804400B5F542E796F19FF974E7F78DB802FE05E20750
310
4B0304140006080800CC70623BE75B7789680500003C100000340000006662782F41393633353835312D344632462D344230382D423046372D3739314545314133324237412F6F626A656374732E786D6CAD575B8F9B3818FD2B887D06C22499CB8AA1CA655245D5B455A356FB305264C061D8018C6C3393D95FBFC7600890
310
A4CD5EF210B0B1BFEBF98E3F7B1FF6596ABC522E1296DF9BAE3D320D9A872C4AF2F8DE2CE5CEBA358D0FBEC719939D65A691938CDE9B6ADAF4BD98B3B2D05311DD91329583D9D5FC0F438434A7A611A644887B5384CF34233629258BA878B12322891DEFF6B66BD70BFB62634E8AE781D082709A4B588AF91C528CDA28B73F
310
1C998EEF39EABBEFA97FBD6A7C7E9553F9D3D79FE442923C3C523610337627CB87ABE99D359D4CC6D6E4FACAB5E6ABF9D2726FC6A3C5F56271377BB88362213924694B38DD99FE47C48627A1E7D49F5A8BB5E1A74C0A599ED3B0F21F1E56366B89112D681E218F0915D0D6F17AD41FBA2A369DCF6335D62ABBD39779D5DDD1
310
11D4D8DE3CBB96B2E04FB8202E41051754A1AA8E8F76B4C6DFE810B580B1547F4B84911149794252234D024EF8BBE963A95AE27B3D310A9D5C215C7960FAEE415ED75694C6AFB17BCACA5D99A60A9AA65F217B0BFC53292ACB92BF283FAD0D3621576592CB5BED907C2FA8E9DF794E35E97BEA31BED21FEB401ABB94C44839
310
DCACBF0E1C5DA8DA5B2F4DFFD32AD86F543D9E565E7056502E157C00AD2671CD534549AB752FCA9CDA00677A313F04E51B22FF19E57B300579E3C97EB29F682D92935CEC18CF901B7B54FD8C51F362B56FC72FE0B3C1EAE335EDCCBF5AEC39ADB17DC238973F804BA5E6F6BFE7AF1FB32E523BE9F3BD571418E3631DCA4D48
310
5250CF639223210A9446CA30052EDF057BD35F8329C1ECD84552BF0DC8D18BE7BCE23BFE6BD960AB4A7DE79923A103BEBD80F911CBAA2C60DB19B01CF164A5583B772EE6D3FFA56666CBCDA74DC97724A48F9A58967497E489C4D979006FD7A05E227A1EBDD0F737C623387A9C844D3709995625106D157315F8B8392CD4E0
310
A0B9A720C4BE9829CEF37EA1E13111214D53925356365ADA634861B52519DD27A00AEB808EAF0628E6F435519D446F45CF2C9CF5214F0A15B2F6D06B79DA3EE3CBF7F56780D2F4E7EF73A0F5E5B02A38D07DC852C6B7C1FBB6664213E0C39E3EBA7FF4E1AD23EA2829407C85E586727488B751B2DB9502BC7B228A3FD68B6E
310
A65A22397E690AA8D158D7E404EC8CDA235CC3B7D1898680131CEC2CDF2638C65196279577750F15884AEE19F94199155B92B13297978469D4F8D358DF0AEF7631E28DC8F0D9F437D5D39A83B2231A1D52D543813A824EF8D44BCFF2FA6A31BD1E8DAD87F1CCB526B3879935BF59CDADD5C37479BB1CDD4CA7B3556B516589
310
EF352754B706114D9C885EC9131DE6EFEB43D99AFE2391C2F958179413D7CFEF6B1B6DB1E7600F00DE6E5C67454A339A4BA2E0FBA85ED26F045D454F463DBFCE484C2F90F2E5E3666003662ED8F755951A7D1BECD5B30B550B2785C8E7320B7292A4838DDA71BBC863ED7613CAF659337A3354231D4FF4A182A54904C2898C
310
98B28C4AD0CE056CCF332A80986E571EE9DBC305BB5FEB7E509220A58D25CF042D712A806AC0AD0C657FDEF80D2D9CEAA2EE4D1C76F60BFE74219A06527D6F82DF6412526107381E55E353090704D085B52408A8913C4ED159D79BDA71BB4BC506F4831350EB6F975CD22D69BF7AC49B91A2C0A9DDA3D5CA36AD20FC478E37
310
E61844E2352865EBCB61A275A65283CAAA9DD27703B4102F5AF51EF5F573B75CBB5AD38BC845F7A49F82A0966A49C2E3EA5EA0ECD326CD965F1DB402C6FA8B51A4658C5C5E2EC9E214602E55810345408596591009A82E7E7FFACA19EEA299B14A0081A705CB3296EBC14CDF658DCD336EA6D1136881AAEB87B81AB9EE53D5
310
F5EB8BC8362082DA24122F98680A4E7930C01A0079749CEA14382A0783E5EBA5A10F8C098456A03D6A4AEB6BB881E2513747552A5DB22C7EDAF83BD5528081A365F7FF06504B0304140006080000CC70623B000000000000000000000000350000006662782F41393633353835312D344632462D344230382D423046372D37
310
39314545314133324237412F76657274696365732E62696E504B0304140006080800CC70623BF270F1330600000004000000360000006662782F41393633353835312D344632462D344230382D423046372D3739314545314133324237412F747269616E676C65732E62696E636660600000504B0304140006080000CC7062
310
3B000000000000000000000000370000006662782F41393633353835312D344632462D344230382D423046372D3739314545314133324237412F617474726962757465732E62696E504B0304140006080800CC70623B08DA0BD19000000041010000360000006662782F41393633353835312D344632462D344230382D4230
310
46372D3739314545314133324237412F6469726563746F72792E786D6C858F410AC3201045AF22B36F53E9A60B35CBEEBAE80D244E44489C6234F4F835464A48035D0DF398FF9F8AF63D0E6CC63039F212F8F9020C7D47C6792B21C5FE7403D62A1188E2E60C98D7234A5830286103A55745067B9D86B8A3CF9C7F90C11DE6
310
07FB144396D7B6A82D282E9A152AD114D5EF2CB866EEE831B8EEA07A7BB5A8D7D61A2BAAEB7FD5F70921FF497D00504B0304140006080800CC70623BEDD1DC58FD000000A00100003B0000006662782F41393633353835312D344632462D344230382D423046372D3739314545314133324237412F7265736F75726365732F
310
636F72652E786D6C8D504B6E833010BD0A9A6D65B00922041947112427E8052C33A156828DFCA97AFC9A40A576D7CDCCE87D344F8F9FBFE667F689CE6B6B3A6039850C8DB2A336530731DC4903D95970676DF82583CCC8193B5861107C72362E3BA4AC096842428D1D7107A5F7182053CF7474E0D507CE32973124857FE48B
310
540F3961CEF244279DE03EB81420DB9EAC1384436FA353E879B1B182C7A8C75DA3C7F453DF353A1075D537A7BA6464B8F535A99AE14A9A2BBD90E350DD183B5CFABE3AF262350B1EF4FC9351399401471025A527C218A1E53BAB5A5AB765F5469B96525EACF23FA6B88CFF34456DC2A1DCE36E360F82A5202F42F062ED2BAD
310
579969AFDD8A6F504B010214000A0000080000CC70623B3DEE336E79000000790000001B00000000000000000000000000000000006175746F6465736B2D64657369676E2D7061636B6167652E786D6C504B01021400140006080800CC70623BD486FD9CA0000000F40000001300000000000000000000000000B20000005B
310
436F6E74656E745F54797065735D2E786D6C504B01021400140006080800CC70623B853B8169EB0000007C010000080000000000000000000000000083010000636F72652E786D6C504B01021400140006080800CC70623B55019EA25F0000007C000000070000000000000000000000000094020000636E782E786D6C504B
310
01021400140006080800CC70623BDBABAAF470010000D40300000C00000000000000000000000000180300006662782F636F72652E786D6C504B01021400140006080800CC70623B9C113CC27E0000009D0000000B00000000000000000000000000B20400006662782F636E782E786D6C504B01021400140006080800CC70
310
623B7DF2F77C2A010000120200003100000000000000000000000000590500006662782F41393633353835312D344632462D344230382D423046372D3739314545314133324237412F636F72652E786D6C504B01021400140006080800CC70623BAD7543B64E010000330300003000000000000000000000000000D2060000
310
6662782F41393633353835312D344632462D344230382D423046372D3739314545314133324237412F636E782E786D6C504B01021400140006080800CC70623BE75B7789680500003C10000034000000000000000000000000006E0800006662782F41393633353835312D344632462D344230382D423046372D3739314545
310
314133324237412F6F626A656374732E786D6C504B01021400140006080000CC70623B0000000000000000000000003500000000000000000000000000280E00006662782F41393633353835312D344632462D344230382D423046372D3739314545314133324237412F76657274696365732E62696E504B01021400140006
310
080800CC70623BF270F133060000000400000036000000000000000000000000007B0E00006662782F41393633353835312D344632462D344230382D423046372D3739314545314133324237412F747269616E676C65732E62696E504B01021400140006080000CC70623B0000000000000000000000003700000000000000
310
000000000000D50E00006662782F41393633353835312D344632462D344230382D423046372D3739314545314133324237412F617474726962757465732E62696E504B01021400140006080800CC70623B08DA0BD1900000004101000036000000000000000000000000002A0F00006662782F41393633353835312D344632
310
462D344230382D423046372D3739314545314133324237412F6469726563746F72792E786D6C504B01021400140006080800CC70623BEDD1DC58FD000000A00100003B000000000000000000000000000E1000006662782F41393633353835312D344632462D344230382D423046372D3739314545314133324237412F7265
310
736F75726365732F636F72652E786D6C504B0506000000000E000E0080040000641100000000
  0
XRECORD
  5
230
102
{ACAD_REACTORS
330
39
102
}
330
39
100
AcDbXrecord
280
     1
102
MATERIAL
148
0.0
149
0.0
149
0.0
 93
        0
 94
       63
282
     0
 72
     1
 77
     1
171
     1
175
     1
179
     1
273
     0
  0
XRECORD
  5
3A
102
{ACAD_REACTORS
330
39
102
}
330
39
100
AcDbXrecord
280
     1
 70
     1
 90
429727718
  1
30362254-06B7-45E0-A893-8CFA70E3D6BC
310
504B03040A0000080000CC70623B3DEE336E79000000790000001B0000006175746F6465736B2D64657369676E2D7061636B6167652E786D6C3C3F786D6C2076657273696F6E3D22312E302220656E636F64696E673D227574662D3822203F3E3C666F726D6174733E3C666F726D61743E687474703A2F2F736368656D612E
310
6175746F6465736B2E636F6D2F64657369676E2D7061636B6167652F323030393C2F666F726D61743E3C2F666F726D6174733E504B0304140006080800CC70623BD486FD9CA0000000F4000000130000005B436F6E74656E745F54797065735D2E786D6C7D8EC10E82300C865F65E91D8A1E8C310C0EEA1BF002731658846E
310
D98AC1B77784ABF1D8FE5FBFBF75BBCE937A534CCEB38643598122B6FEE978D0B0485F9C41B54DDD7D022595594E1A469170414C76A4D9A4D207E29CF43ECE46F218070CC6BECC4078ACAA135ACF422C856C0E68EA1BF5669944DDD7BCDE7B1F8E415D77AECB980613C2E4AC91FC167A2B244592486606FC29C8FD7F045B9A
310
EF7053A7E60B504B0304140006080800CC70623B1EC5D7A3EB0000007C01000008000000636F72652E786D6C8D90416EC3201045AF82665B6103C6756C6122AB4D4ED00B204C5C94182C03558F5F9C3852BBEB6A467FFE9B197D71FC9E6FE8CBACC17AD7032D0820E3B41FAD9B7A48F1820F808E52ACDEC75F36404ECDA687
310
4D0629A6D5A76597B477D1B89855E747B38B2A041301E95B6E7A08FAD3CCAA50296647B8168BD2573599823EBB0CA76447F43862C7BCCF5EAC59410E4DDD9C7973C2755553CCCFA4C603E3040F1565ED3B1FDE4E432BCA0D9622DAF9795FAF464533826484B498524CD807E51D79ED187F21878E10516EF63F505AC67F42C9
310
BA58B1FDDD071640D2FCC87D2045B96591CB3DA85CB7DCE40F504B0304140006080800CC70623B55019EA25F0000007C00000007000000636E782E786D6C4DCB3B0E80201045D1AD90E915ED2CF8AC45050C11660C8261F98AB1B07AC9C97D42D718D865D3E909258CFD00CCE24AC6E326A164D74DC0B4128928FF32603847
310
2BA13128B1252AC747C6BAB984FC68F0B87FE8960A5C09FE86CFB69FBA01504B0304140006080800CC70623B8C9102E971010000D40300000C0000006662782F636F72652E786D6CC5535B6E833010BC8AE5DF0A6C08340F1947A84D4ED00B38C6A128602363A31CBFCB234A53A551FA553EC09AD9F5CE8C31DB9E9B1AF5CA
310
7695D1198E428A91D2D214952E33ECDD315861B4E5CC1AE3BE9561A445A3323CC098B3D21ADFCE9034DA29ED00D5A6503328BA4E398C640D8B0C77F253352214DE4145770A5B214FA2546114020D759C75CE8200340D19DE981F0F6746269C33EFAB6266AB02A655C74A59CCF365BADC27CB5D902ED22848F6340DF238A141
310
BE88E2F57B92BFEDF23523433367AE6A2EEAA455C2A902F398D2751045018D3FA264435F3771F242571B4A1919CA6F9A7C5B3CD9E42BED16F12C776AEB308F40C848FC700B1139D4891EF410CEC810227CC6846F8386402064270EF5C5C709A05E49676C024C61FC95EA45ED154CA5211D1FF4FB8291A913A68E9B83EBBB33
310
E2A7673CDE118E5AE8124C0807CB8377834E366998436B950D7A7746DAD846D4CFD978E0F04FD455FC5D49D2D4C6FE9722321F10997F0F32DC47FE05504B0304140006080800CC70623BFFEA85907E0000009D0000000B0000006662782F636E782E786D6C4DCCD10A83201886E15B91FFDC95D95A811AB6F23E625948A6C3
310
E9D8E5AF46073BFAE0E1E365ED67B3E8ADC3CB78C7815C7240DA3DFC64DCC221C519D7805AC182F7F1EF06C88D9BE6703008B6049F9E274D7A1E938DBB5AE3D6131B2589BA0D3D965551E0B2EA732C9B9A624AAEB41E3A557677029960D9AFB4EF11165F504B0304140006080800CC70623B4FEEA4082C0100001202000031
310
0000006662782F39464131463745442D413632322D343644302D413938332D3331353338454246344243312F636F72652E786D6C8D515B6EC32010BC0AE2AB55850DD871ED0813254D72825EC00192A2C460F1A872FC42ED48ED5F7E00CDCECCCEB26C731F6FE05B39AFADE921293004CA082BB5B9F43086336A21D870E6AC
310
0D7F68109861543DCC30E4ECE26C9C164858139409093556AA051CBC570102714B8F1E7AF1A5C6A11862480C7F2DA6415C878B2A4891CA89C7990F2E050073937C42DE1DB7E4F87ED8A36D4329AA9B3D46DBAEAD504556557BD81DEBDD0761E52CE42C462D17B996298E3E6BE59E35C962CE821E1FF18553435012728A7187
310
0841987E927A8D9B35ADDF70BBC6989599FE4F1427F9A4286A132ABAC49D651EF234CD5CE04CDA78BA3DC2A8FB645D00B9DF8B57E215725C60BCA2A463E54C4CE327C7A65E1C7DB02E7DEFCBF594B864C5CA6CDBD49C957943E9FA5D5FBAF336F90F504B0304140006080800CC70623BAD7543B64E01000033030000300000
310
006662782F39464131463745442D413632322D343644302D413938332D3331353338454246344243312F636E782E786D6CD593CD6EC32010845F0571AD6CE3D48AD20813A9873E410FBD12D82434182C7EAAE6EDBB2424CD25871E7B41D6EC30B3FA84F9E67BB2E40B4234DE8DB46F1925E094D7C6ED479AD3AE5951B2113C
310
789FEE6C943839C1488B4C05DF079FE72A69D8C96C13AAD6B8631503449F83828872B949AC57D26200B826A308D316B4064D6E46FCDA41C05550DC9E483A00797BFD207EFB092A45DE9514C1BBD22178396BD39D891265658C238DEA00936C654E5E433CB65A26D9F6EDB5EBC14EBF49A45CB856E66048291F6939A9A81BB5
310
C8917738143CA680F4AA299D66A042CEB3354A2684DC9D8D178FE0D9B8B41CAAD720F880EE7EF93C0C18769E099ECC04D5A102C8049A8A05632F4DDF376CF1DE0F6BB65C2F8627B65A33C6BB62177CEBBDAD973006829F89F22E814B54F4BC2BE347F8AA8F681390B50FA73F804400B5F542E796F19FF974E7F78DB802FE05
310
E207504B0304140006080800CC70623B16AB87BA640500003C100000340000006662782F39464131463745442D413632322D343644302D413938332D3331353338454246344243312F6F626A656374732E786D6CAD575B6FA33818FD2B887DE6924B3BED8A326A92B68A663B534DD4D13E548A0C38942D60649B369D5FBFC7
310
600890A493BDE42160637FD7F31D7FF63E6FB3D478A55C242CBF3247B66B1A340F5994E4F19559CA8D75611A9F7D8F33263BCB4C232719BD32D5B4E97B316765A1A722BA21652A07B3B7B33F0D11D29C9A46981221AE4C113ED38CD8A4942CA2E2C58E882476BCD9DA23BB5ED8171B73523C0F841684D35CC252CCE79062D4
310
468DFA43D7747CCF51DF7D4FFDEB5593E3AB9CCA9FBEFE241792E4E19EB28198C968BAB8199F5D5A67D3E9C49A9E8F47D6EC76B6B0469F26EEFC7C3EBFBCBEB98462213924694B38DD98FE1D62C393D073EA4FADC5DAF04326852CCF6958F90F0F2B9BB5C48816348F90C7840A68EB78EDF68723159BCEE7891A6B95DDE9D3
310
BCEAEEE8086A6C6F9E5D4B59F0175C10A7A0820BAA5055C7473B5AE3CFDD452D602CD5DF12616444529E90D448938013FE6EFA58AA96F85E4F8C42275708571E98FE6827AF6B2B4AE3D7D83D64E5A64C53054DD3AF90BD06FEA9149565C94FCA0F6B834DC85599E4F2423B24DF0B6AFA979E534DFA9E7A4CC6FA631D486393
310
921829879BF5D781A373557BCB85E97FB90DB62B558F8795179C15944B051F40AB495CF35451D26A4727654E6D8033BD98EF82F21D91FF8AF2DD9982BCF1643BDD4EB516C9492E368C67C88DED563FC36D5EACF66DFF057C3658BDBFA69DF9578B3DA735B64F18C7F20770A9D45CFCF7FCF563D6456A277DBEF78A02637CA2
310
43B90A490AEAB94F72244481D24819A6C0E59B606BFA4B3025981DBB48EAB701D97BF19C577CC77F2D1B6C55A9EF3C732474C0B727303F625995056C3B02963D9EAC146BE78EC5FCEC7FA999EBC5EACBAAE41B12D27B4D2C0BBA49F244E2ECDC81B76B502F113D8F5EE8FB1BE3111CDD4FC2AA9B844CAB1288B68AB90A7CDC
310
1C166AB0D3DC5310625FCC14E779BFD0709F8890A629C9292B1B2DED31A4B0DA928CEE135085754027E3018A397D4D5427D15BD1330B677DC8934285AC3DF45A9EB68FF8F2B8FC0A509AFEECFD0FF2DE25CC6047F7214B195F07EFEB9A094D800F7BFAE8FED187B78EA8A3A400F115961BCAD1215E47C966530AF0EE8128FE
310
58CEBB996A8964FFA529A046635D9353B0336A8F700DDF46271A024E70B0B37C9DE01847591E54DED53D54202AB947E4076556AC49C6CA5C9E1226B7F1A7B1BE15DEED62C41B91E1B3E9AFAAA735036547343A925075041DF0A9979E893B391F8FCFA6967B3EFB644DCF6E5CEBFAE272625DCC6FAF3FB93793C5F90CE1EF57
310
407342756B10D1C489E8953CD1617E5CEECAD6F4EF8914CE5D5D504E5C3F1F9736DA62CFC11E00BCDDB8CC8A9466349744C1F75EBDA4DF09BA8A9E8C7A7E9991989E20E5DBDD6A6003664ED8F7A04A8DBE0DF6EAD9B9AA858342E47399053949D2C146EDB85DE4B176BB0965FBAC19BD19AA918E27FA50C1D22402E144464C
310
59462568E704B6E71915404CB72B8FF4EDE184DDAF753F284990D2C6926782963815403548A70C657FDEF80D2D9CEAA2AE4C1C76F60BFE74219A06527D6582DF6412526107381E55E353090704D085B52408D0933C4ED159D79BDA71BB4BC506F4831350EB6F979CD22D69BF7AC49B91A2C0A9DDA3D5CA36AD20FC478E37E6
310
1844E2352865EBCB6EA275A652E3836BE04EFB400BF1A2556F515F1FBB35B2AB35BD889C744FFA1004B5544B121E57F70215746DD2F5E2C1412B602CBF19455AC6C8E5E9922C4E01E65215385004546899059180EAFCF7A707CE7017CD8CDB0410789AB32C63B91E5CEBBBACB17AC6CD347A022D5075FD106377347AAABA7E
310
7D11590744509B44E205134DC1290F06580320F78E537D3D73540E06CB970B431F185308AD40BBD794D6D77003C5A36E8EAA54BA64597CD8F83BD552A080A365F7FF06504B0304140006080000CC70623B000000000000000000000000350000006662782F39464131463745442D413632322D343644302D413938332D3331
310
353338454246344243312F76657274696365732E62696E504B0304140006080800CC70623BF270F1330600000004000000360000006662782F39464131463745442D413632322D343644302D413938332D3331353338454246344243312F747269616E676C65732E62696E636660600000504B0304140006080000CC70623B
310
000000000000000000000000370000006662782F39464131463745442D413632322D343644302D413938332D3331353338454246344243312F617474726962757465732E62696E504B0304140006080800CC70623B08DA0BD19000000041010000360000006662782F39464131463745442D413632322D343644302D413938
310
332D3331353338454246344243312F6469726563746F72792E786D6C858F410AC3201045AF22B36F53E9A60B35CBEEBAE80D244E44489C6234F4F835464A48035D0DF398FF9F8AF63D0E6CC63039F212F8F9020C7D47C6792B21C5FE7403D62A1188E2E60C98D7234A5830286103A55745067B9D86B8A3CF9C7F90C11DE607
310
FB144396D7B6A82D282E9A152AD114D5EF2CB866EEE831B8EEA07A7BB5A8D7D61A2BAAEB7FD5F70921FF497D00504B0304140006080800CC70623B0D6EF93BFE000000A00100003B0000006662782F39464131463745442D413632322D343644302D413938332D3331353338454246344243312F7265736F75726365732F63
310
6F72652E786D6C8D50596E833010BD0A9ADFCA60B334011947A8694ED00B586642AC041B79A97AFC9A40A5F6AF3F33A3B7689E1E3F7DCD8FEC139DD7D6F4C0720A191A65476DA61E62B892236427C19DB5E1970C322367EC618541F0C9D9B8EC90B226A009093576C41D94DE63804C3DD2D18357379C652E63480A7FCF17A9
310
EE72C29CE5894E3AC17D702940B63D59270887DE46A7D0F36263058F518FBB468FE9A7BE6A7420864373B8D4873369AA8691FA421B3294352543C5CAF65C0F6FEF43CB8BD52C78D0F34F46E550061C419494B6843142CB0F5677F4B52BEB177AEC28E5C52AFF638ACBF84F53D42654E51E77B379102C05791282176B5F693D
310
CB4C7BED567C03504B010214000A0000080000CC70623B3DEE336E79000000790000001B00000000000000000000000000000000006175746F6465736B2D64657369676E2D7061636B6167652E786D6C504B01021400140006080800CC70623BD486FD9CA0000000F40000001300000000000000000000000000B20000005B
310
436F6E74656E745F54797065735D2E786D6C504B01021400140006080800CC70623B1EC5D7A3EB0000007C010000080000000000000000000000000083010000636F72652E786D6C504B01021400140006080800CC70623B55019EA25F0000007C000000070000000000000000000000000094020000636E782E786D6C504B
310
01021400140006080800CC70623B8C9102E971010000D40300000C00000000000000000000000000180300006662782F636F72652E786D6C504B01021400140006080800CC70623BFFEA85907E0000009D0000000B00000000000000000000000000B30400006662782F636E782E786D6C504B01021400140006080800CC70
310
623B4FEEA4082C0100001202000031000000000000000000000000005A0500006662782F39464131463745442D413632322D343644302D413938332D3331353338454246344243312F636F72652E786D6C504B01021400140006080800CC70623BAD7543B64E010000330300003000000000000000000000000000D5060000
310
6662782F39464131463745442D413632322D343644302D413938332D3331353338454246344243312F636E782E786D6C504B01021400140006080800CC70623B16AB87BA640500003C1000003400000000000000000000000000710800006662782F39464131463745442D413632322D343644302D413938332D3331353338
310
454246344243312F6F626A656374732E786D6C504B01021400140006080000CC70623B0000000000000000000000003500000000000000000000000000270E00006662782F39464131463745442D413632322D343644302D413938332D3331353338454246344243312F76657274696365732E62696E504B01021400140006
310
080800CC70623BF270F133060000000400000036000000000000000000000000007A0E00006662782F39464131463745442D413632322D343644302D413938332D3331353338454246344243312F747269616E676C65732E62696E504B01021400140006080000CC70623B0000000000000000000000003700000000000000
310
000000000000D40E00006662782F39464131463745442D413632322D343644302D413938332D3331353338454246344243312F617474726962757465732E62696E504B01021400140006080800CC70623B08DA0BD190000000410100003600000000000000000000000000290F00006662782F39464131463745442D413632
310
322D343644302D413938332D3331353338454246344243312F6469726563746F72792E786D6C504B01021400140006080800CC70623B0D6EF93BFE000000A00100003B000000000000000000000000000D1000006662782F39464131463745442D413632322D343644302D413938332D3331353338454246344243312F7265
310
736F75726365732F636F72652E786D6C504B0506000000000E000E0080040000641100000000
  0
XRECORD
  5
22D
102
{ACAD_REACTORS
330
C
102
}
330
C
100
AcDbXrecord
280
     1
102
MATERIAL
148
0.0
149
0.0
149
0.0
 93
        0
 94
       63
282
     0
 72
     1
 77
     1
171
     1
175
     1
179
     1
273
     0
  0
XRECORD
  5
D
102
{ACAD_REACTORS
330
C
102
}
330
C
100
AcDbXrecord
280
     1
270
     1
271
     1
  0
XRECORD
  5
E
102
{ACAD_REACTORS
330
C
102
}
330
C
100
AcDbXrecord
280
     1
270
     1
271
     1
  0
XRECORD
  5
F
102
{ACAD_REACTORS
330
C
102
}
330
C
100
AcDbXrecord
280
     1
 70
     0
 90
1673772943
  1
ECE7A1D2-D628-4531-984C-D00F80459256
310
504B03040A0000080000CC70623B3DEE336E79000000790000001B0000006175746F6465736B2D64657369676E2D7061636B6167652E786D6C3C3F786D6C2076657273696F6E3D22312E302220656E636F64696E673D227574662D3822203F3E3C666F726D6174733E3C666F726D61743E687474703A2F2F736368656D612E
310
6175746F6465736B2E636F6D2F64657369676E2D7061636B6167652F323030393C2F666F726D61743E3C2F666F726D6174733E504B0304140006080800CC70623BD486FD9CA0000000F4000000130000005B436F6E74656E745F54797065735D2E786D6C7D8EC10E82300C865F65E91D8A1E8C310C0EEA1BF002731658846E
310
D98AC1B77784ABF1D8FE5FBFBF75BBCE937A534CCEB38643598122B6FEE978D0B0485F9C41B54DDD7D022595594E1A469170414C76A4D9A4D207E29CF43ECE46F218070CC6BECC4078ACAA135ACF422C856C0E68EA1BF5669944DDD7BCDE7B1F8E415D77AECB980613C2E4AC91FC167A2B244592486606FC29C8FD7F045B9A
310
EF7053A7E60B504B0304140006080800CC70623BD9DDAED0EC0000007C01000008000000636F72652E786D6C8D90416EC3201045AF82665B61836D9CD8C2444DD39CA01740405C94182C03558F5F9C3852BBEB6A467FFE9B197D7EF89E6EE8CB2CC17A37002D0820E394D7D68D03A478C17B4007C117EFE32F1B20272733C0
310
2A83E0E3E2D3BC49CABB685CCCAAF3DA6CA20CC14440EA969B0182FA34932C648AD911AEC52CD5558EA6A0CF2EC329598D1E47ACCEFBECC59A050463A7EA5833865FEBDD0E37353BE3EE8DBDE3F6786A48D375FBF6CC78B9C282473B3DEFABC5C86834888A900E538A49F5419B9EB47DD5BC907D4F082F57FB1F28CDFA9F50
310
B22ED6D5F6EE030B20687EE43E10BC5CB3C8E51E54AE6B6EE207504B0304140006080800CC70623B55019EA25F0000007C00000007000000636E782E786D6C4DCB3B0E80201045D1AD90E915ED2CF8AC45050C11660C8261F98AB1B07AC9C97D42D718D865D3E909258CFD00CCE24AC6E326A164D74DC0B4128928FF326038
310
472BA13128B1252AC747C6BAB984FC68F0B87FE8960A5C09FE86CFB69FBA01504B0304140006080800CC70623BA24EB22D72010000D40300000C0000006662782F636F72652E786D6CC5535B6E833010BC8AE5DF0A6C5E49888CA3A6694ED00B38E05014B091B1518EDFE511A5A9D228FD2A1F60CDEC7A67C6986DCE4D8D7A
310
69BA4AAB0C073EC548AA5C17952A33ECECD15B61B4E1CC686DBF9561A44423333CC098B3D268D7CE50AE9595CA02AA74216750749DB418E5352C32DCE59FB211BE70162ABA93DF8AFC244AE9073ED050C759670D0840D390E18DF9F1706664C23973AE2A66B62A605A75ACA4C13C4976E1364A12EF355A2EBD384AF65EFA96
310
BC7B8BED2EA6719AAE16FB8491A199335B351775B991C2CA02F390D2D40B028F861F41BCA68B7518BFD0D59A524686F29B26D7164F36B94AD9289CE54E6D1DE6010819891F6E21228B3AD1831EC219194284CF98F06DD01008846CC5A1BEF83801D4CBDC6A1303536877A57A513B0953A94FC707FDBE6064EA84A9E3E6E0FA
310
EE8CF0E9198F7784A316AA0413C2C2F2E0ECA0934D1AE6D05A69BCDE9E91D2A611F573361E38FC1375157F5752AE6B6DFE4B11990F88CCBF0719EE23FF02504B0304140006080800CC70623B408A7D3B7C0000009D0000000B0000006662782F636E782E786D6C4DCCD10A83201886E15B91FFDC552A92A0064DBC8F581632
310
D3703A76F9ABD1C18E3E78F878E5F0D9027ABBFCF2292AE86E2D20171F69F6715550CB827B40839639A5F2770314A7CD293819B45C73AAFB45B35BA61ACAA1C1C7E7855C58C15BC331339661262CC762340413D68D77DA5B42298546CBE6573AF60CEB2F504B0304140006080800CC70623B449FB9BD290100001202000031
310
0000006662782F36394639363044362D344446342D343946362D394244322D3234314243333846323333332F636F72652E786D6C8D515B6EC32010BC0AE22B55850D98B871848994463E412FE002495162B07854397EA176A4F62F3F2C9A9D991D587EB84F37F0AD7D30CEF6905418026DA553C65E7A98E219ED203808EE9D
310
8B7F6810D871D23D2C3014FCE25D9A57483A1BB58D19B54EE9151C43D0110279CB971E06F9A5A7B11A53CC8C70ADE6515EC78BAE4895DB992778883E0700CB907242D17643D7E2538BD869608875438BBAE38922CAC8F1BDD90DB4691A5E2F42C153326A951B95E398B3D1FE599322163C9AE9115F7A3D46ADA0A018778810
310
84E907617BDCEE297BC5BB3DC6BC2EF47FA234AB2745C9D8D8D035EE220B50105E2F0DC1954B9FB747187D9F9D8FA0CCDB042D5FA0C015C65B42DF78BD10F3F3B363CB56C7109DCFDFBBB97E662ED92EB62D13BC2E1BCAE5777DB9966D8A1F504B0304140006080800CC70623BAD7543B64E01000033030000300000006662
310
782F36394639363044362D344446342D343946362D394244322D3234314243333846323333332F636E782E786D6CD593CD6EC32010845F0571AD6CE3D48AD20813A9873E410FBD12D82434182C7EAAE6EDBB2424CD25871E7B41D6EC30B3FA84F9E67BB2E40B4234DE8DB46F1925E094D7C6ED479AD3AE5951B2113C789FEE
310
6C943839C1488B4C05DF079FE72A69D8C96C13AAD6B8631503449F83828872B949AC57D26200B826A308D316B4064D6E46FCDA41C05550DC9E483A00797BFD207EFB092A45DE9514C1BBD22178396BD39D891265658C238DEA00936C654E5E433CB65A26D9F6EDB5EBC14EBF49A45CB856E66048291F6939A9A81BB5C89177
310
38143CA680F4AA299D66A042CEB3354A2684DC9D8D178FE0D9B8B41CAAD720F880EE7EF93C0C18769E099ECC04D5A102C8049A8A05632F4DDF376CF1DE0F6BB65C2F8627B65A33C6BB62177CEBBDAD973006829F89F22E814B54F4BC2BE347F8AA8F681390B50FA73F804400B5F542E796F19FF974E7F78DB802FE05E20750
310
4B0304140006080800CC70623B8D05915C650500003B100000340000006662782F36394639363044362D344446342D343946362D394244322D3234314243333846323333332F6F626A656374732E786D6CAD575B6FA33814FE2B887D06429276DA1565D4266D158D3A339A6846FB502932E050B66023DB74D2FDF5FB190C01
310
9276B2973C046C8ECFF53B17071F77456EBD502133CEAE6CDF9DD81665314F32965ED995DA3A17B6F5310C04E7AA47665B8C14F4CAD6DB7618A48257A5D94AE89654B91AEDDEDDFC61C998326A5B714EA4BCB265FC440BE2924AF184CA6737218AB8E976E7FA6E4338649B0A523E8D98964450A6A029F619B8588D52FE7039
310
B1BD30F0F4F730D0FF866AF6369557DB33949F31A9088B0F848DD8CCFCF9F2767A76E99CCDE733677E3EF59D9BBB9BA5E37F984D16E78BC5E5F5ED25044B25C0C96822E8D60EEFE11B91C581D77CEA34368A1F5329E68CD1B8B61F16D63A1B8E092D294B10C78C4A48EB593D192E7DED9BDEE7995E1B91FDEDD3ACEA9FE831
310
6A756F9F7D4D79F4274C90A7A04248AA51D5F8C718DAE06FB2F75AC4796EBE65D22A88A22223B995679120E2D50E41AA49C260C046A35368846B0BECD0DFF3EBEB8AD4F835768F69B9ADF25C43D30E6B646F807FAA64AD59F61715C7A54127C4AACA98BA3006A9D792DAE165E0D59B61A01FB3A9F9D838D2DAE62445C86166
310
F37564E842E7DE6A69879FEEA2DD5AE7E371E1A5E025154AC307D06A03D73EB5978C58FFA4C8E9033066E0F3BD53BEC1F39F91BE7B55103791EDE6BBB991A2046172CB4581D8B893FA674DDA17A77B3B7C413D1B511FD2743BFF8A38F03A658705E3ADF8015C3A3417FF3D7E439FF591DA0B5F18BC20C1B8981957AE6392A3
310
F43C640C01D1A0B4728E2DD4F26DB4B3C3152A252A3B4E913CEC1C72F012782FF88EFF8637AA552DBEF76408E8A8DE9E50F9E1CB3A2DA0DB1B6039A893B56063DC5B3E3FFB5F72E67AB9FEB4AEC496C4F4C1149625DD662C53E89D7BF0F6151A046260D1337DFDC94502430F83B0EE07A130A224BCAD7DAE1D9FB6CD422FF6
310
920702629C4BB9AE79C12F243C6432A6794E18E5552BA56B431AAB5D91317302B2B071E86C3A42B1A02F999E24061403B5D0EB639195DA655DD3EBEAB4FB862DDF579F014AD0E73C22F99E28DA57FB98E75C6CA2D74D53086D600F4786E0FE3144B771A8A7B900F03594DB8A633CBC49B2EDB69228BB479CF863B5E807AAAB
310
23872F6DFEB4129B949CA33823F58830E86D65621E10047D9DB34D862E8EAC3C2ABC2F7B2C40D67CDFE01F5545B92105AF983AC54D93D69E56FB8E797F88913F898A9FEC705D3F9D1B54EC8426FB500D40A03BD0119B06E1B95DDC7EB8F6975367793EBD70E66733DFB9BC982F9CE564727731999F5D4ECFCE3B8D6A4DC2A0
310
6D50FD148437D110834A64C6CDDF57FBACB5C307A2A477DFE4939736CFEF2B175371E0E10CF0DD1D5C15654E0BCA14D1E87DD02FF93782A162C0A3D95F1524A52770F972BF1EE9809D13CE7DD599467F8ECE9ADD85CE85A34CD45355448C64F9E8A031DC2D596ACC6E5DD93D9B82DE2EF5CAF81363A8E47996A0DE24564A79
310
4115AACE09C55E14540231FDA13C319787134EBF34E3A022514E5B4D9E0826E25C02D5805B15ABE1BEF51B26383D445DD9E875EE33FE4C22DA16427D65A3BCA92CA6D28DD01DF5DC53330704308475351050232CCD31583787BA75774AFB06E5070DD0C8EF484E19968C5D83BA5B90B244D31E54D55A372320FE4786B7EA58
310
44E135AA5467CB7EA333A61683CC6A8C3257034C10CF46F40EF9F5BE59BE5BD30C3C72D235E95D10345C1D45445A5F0BB47E46A5EBE5570F9380B5FA629579952296A773720405982B9DE04011506178964401AA8BDF1FBF0A8EAB6861DD6580C0E38217056766716DAEB2D6FA0917D3E4116581EADB879C4E7CFFB11EFACD
310
3D641311495D92C8676CB409A72D18610D803CE8A626049E8EC1887CB5B44CC39883690DDA8399B4B9855B481E7D71D4A9D22F96E5BB73BF5793020C02137BF837504B0304140006080000CC70623B000000000000000000000000350000006662782F36394639363044362D344446342D343946362D394244322D32343142
310
43333846323333332F76657274696365732E62696E504B0304140006080800CC70623BF270F1330600000004000000360000006662782F36394639363044362D344446342D343946362D394244322D3234314243333846323333332F747269616E676C65732E62696E636660600000504B0304140006080000CC70623B0000
310
00000000000000000000370000006662782F36394639363044362D344446342D343946362D394244322D3234314243333846323333332F617474726962757465732E62696E504B0304140006080800CC70623B08DA0BD19000000041010000360000006662782F36394639363044362D344446342D343946362D394244322D
310
3234314243333846323333332F6469726563746F72792E786D6C858F410AC3201045AF22B36F53E9A60B35CBEEBAE80D244E44489C6234F4F835464A48035D0DF398FF9F8AF63D0E6CC63039F212F8F9020C7D47C6792B21C5FE7403D62A1188E2E60C98D7234A5830286103A55745067B9D86B8A3CF9C7F90C11DE607FB14
310
4396D7B6A82D282E9A152AD114D5EF2CB866EEE831B8EEA07A7BB5A8D7D61A2BAAEB7FD5F70921FF497D00504B0304140006080800CC70623BCA768048FE000000A00100003B0000006662782F36394639363044362D344446342D343946362D394244322D3234314243333846323333332F7265736F75726365732F636F72
310
652E786D6C8D50596E833010BD0A9ADFCA60D600328E9AA639412F609909B1126CE4A5EAF16B0295DABFFECC8CDEA2797AECF8353F924FB44E193D409E5248504B332A3D0D10FC95B4901C39B3C6F85F3248B49871801506CE266BC2B243D2688FDA47549B11775038871E12F988C7004EDE7016A9083E2ADC3D5D84BC8B09
310
D33C8D74D471E6BC8D0192EDC93A815B742658898E651BCB59086ADC356A8C3FD555A1055ED7E7E254D615792D0F075295F585746FF53B694EE78A565DD736979A65AB9933AFE69F8CD2A2F038022F28ED489E135A7CE4554F9BBEA85E68DB53CAB255FEC71496F19FA6A0B42F8B3DEE6673C0F318E4497096AD7DC5F52C33
310
EEB55BFE0D504B010214000A0000080000CC70623B3DEE336E79000000790000001B00000000000000000000000000000000006175746F6465736B2D64657369676E2D7061636B6167652E786D6C504B01021400140006080800CC70623BD486FD9CA0000000F40000001300000000000000000000000000B20000005B436F
310
6E74656E745F54797065735D2E786D6C504B01021400140006080800CC70623BD9DDAED0EC0000007C010000080000000000000000000000000083010000636F72652E786D6C504B01021400140006080800CC70623B55019EA25F0000007C000000070000000000000000000000000095020000636E782E786D6C504B0102
310
1400140006080800CC70623BA24EB22D72010000D40300000C00000000000000000000000000190300006662782F636F72652E786D6C504B01021400140006080800CC70623B408A7D3B7C0000009D0000000B00000000000000000000000000B50400006662782F636E782E786D6C504B01021400140006080800CC70623B
310
449FB9BD290100001202000031000000000000000000000000005A0500006662782F36394639363044362D344446342D343946362D394244322D3234314243333846323333332F636F72652E786D6C504B01021400140006080800CC70623BAD7543B64E010000330300003000000000000000000000000000D20600006662
310
782F36394639363044362D344446342D343946362D394244322D3234314243333846323333332F636E782E786D6C504B01021400140006080800CC70623B8D05915C650500003B10000034000000000000000000000000006E0800006662782F36394639363044362D344446342D343946362D394244322D32343142433338
310
46323333332F6F626A656374732E786D6C504B01021400140006080000CC70623B0000000000000000000000003500000000000000000000000000250E00006662782F36394639363044362D344446342D343946362D394244322D3234314243333846323333332F76657274696365732E62696E504B010214001400060808
310
00CC70623BF270F13306000000040000003600000000000000000000000000780E00006662782F36394639363044362D344446342D343946362D394244322D3234314243333846323333332F747269616E676C65732E62696E504B01021400140006080000CC70623B00000000000000000000000037000000000000000000
310
00000000D20E00006662782F36394639363044362D344446342D343946362D394244322D3234314243333846323333332F617474726962757465732E62696E504B01021400140006080800CC70623B08DA0BD190000000410100003600000000000000000000000000270F00006662782F36394639363044362D344446342D
310
343946362D394244322D3234314243333846323333332F6469726563746F72792E786D6C504B01021400140006080800CC70623BCA768048FE000000A00100003B000000000000000000000000000B1000006662782F36394639363044362D344446342D343946362D394244322D3234314243333846323333332F7265736F
310
75726365732F636F72652E786D6C504B0506000000000E000E0080040000621100000000
  0
XRECORD
  5
10
102
{ACAD_REACTORS
330
C
102
}
330
C
100
AcDbXrecord
280
     1
270
     1
271
     1
  0
XRECORD
  5
11
102
{ACAD_REACTORS
330
C
102
}
330
C
100
AcDbXrecord
280
     1
270
     1
271
     1
  0
CELLSTYLEMAP
  5
223
102
{ACAD_REACTORS
330
44
102
}
330
44
100
AcDbCellStyleMap
 90
        3
300
CELLSTYLE
  1
TABLEFORMAT_BEGIN
 90
        5
170
     1
 91
        0
 92
    32768
 62
   257
 93
        1
300
CONTENTFORMAT
  1
CONTENTFORMAT_BEGIN
 90
        0
 91
        0
 92
      512
 93
        0
300

 40
0.0
140
1.0
 94
        5
 62
     0
340
21
144
6.0
309
CONTENTFORMAT_END
171
     1
301
MARGIN
  1
CELLMARGIN_BEGIN
 40
1.5
 40
1.5
 40
1.5
 40
1.5
 40
4.5
 40
4.5
309
CELLMARGIN_END
 94
        6
 95
        1
302
GRIDFORMAT
  1
GRIDFORMAT_BEGIN
 90
        0
 91
        1
 62
     0
 92
       -2
340
24
 93
        0
 40
1.125
309
GRIDFORMAT_END
 95
        2
302
GRIDFORMAT
  1
GRIDFORMAT_BEGIN
 90
        0
 91
        1
 62
     0
 92
       -2
340
24
 93
        0
 40
1.125
309
GRIDFORMAT_END
 95
        4
302
GRIDFORMAT
  1
GRIDFORMAT_BEGIN
 90
        0
 91
        1
 62
     0
 92
       -2
340
24
 93
        0
 40
1.125
309
GRIDFORMAT_END
 95
        8
302
GRIDFORMAT
  1
GRIDFORMAT_BEGIN
 90
        0
 91
        1
 62
     0
 92
       -2
340
24
 93
        0
 40
1.125
309
GRIDFORMAT_END
 95
       16
302
GRIDFORMAT
  1
GRIDFORMAT_BEGIN
 90
        0
 91
        1
 62
     0
 92
       -2
340
24
 93
        0
 40
1.125
309
GRIDFORMAT_END
 95
       32
302
GRIDFORMAT
  1
GRIDFORMAT_BEGIN
 90
        0
 91
        1
 62
     0
 92
       -2
340
24
 93
        0
 40
1.125
309
GRIDFORMAT_END
309
TABLEFORMAT_END
  1
CELLSTYLE_BEGIN
 90
        1
 91
        1
300
_TITLE
309
CELLSTYLE_END
300
CELLSTYLE
  1
TABLEFORMAT_BEGIN
 90
        5
170
     1
 91
        0
 92
        0
 62
   257
 93
        1
300
CONTENTFORMAT
  1
CONTENTFORMAT_BEGIN
 90
        0
 91
        0
 92
      512
 93
        0
300

 40
0.0
140
1.0
 94
        5
 62
     0
340
21
144
4.5
309
CONTENTFORMAT_END
171
     1
301
MARGIN
  1
CELLMARGIN_BEGIN
 40
1.5
 40
1.5
 40
1.5
 40
1.5
 40
4.5
 40
4.5
309
CELLMARGIN_END
 94
        6
 95
        1
302
GRIDFORMAT
  1
GRIDFORMAT_BEGIN
 90
        0
 91
        1
 62
     0
 92
       -2
340
24
 93
        0
 40
1.125
309
GRIDFORMAT_END
 95
        2
302
GRIDFORMAT
  1
GRIDFORMAT_BEGIN
 90
        0
 91
        1
 62
     0
 92
       -2
340
24
 93
        0
 40
1.125
309
GRIDFORMAT_END
 95
        4
302
GRIDFORMAT
  1
GRIDFORMAT_BEGIN
 90
        0
 91
        1
 62
     0
 92
       -2
340
24
 93
        0
 40
1.125
309
GRIDFORMAT_END
 95
        8
302
GRIDFORMAT
  1
GRIDFORMAT_BEGIN
 90
        0
 91
        1
 62
     0
 92
       -2
340
24
 93
        0
 40
1.125
309
GRIDFORMAT_END
 95
       16
302
GRIDFORMAT
  1
GRIDFORMAT_BEGIN
 90
        0
 91
        1
 62
     0
 92
       -2
340
24
 93
        0
 40
1.125
309
GRIDFORMAT_END
 95
       32
302
GRIDFORMAT
  1
GRIDFORMAT_BEGIN
 90
        0
 91
        1
 62
     0
 92
       -2
340
24
 93
        0
 40
1.125
309
GRIDFORMAT_END
309
TABLEFORMAT_END
  1
CELLSTYLE_BEGIN
 90
        2
 91
        1
300
_HEADER
309
CELLSTYLE_END
300
CELLSTYLE
  1
TABLEFORMAT_BEGIN
 90
        5
170
     1
 91
        0
 92
        0
 62
   257
 93
        1
300
CONTENTFORMAT
  1
CONTENTFORMAT_BEGIN
 90
        0
 91
        0
 92
      512
 93
        0
300

 40
0.0
140
1.0
 94
        2
 62
     0
340
21
144
4.5
309
CONTENTFORMAT_END
171
     1
301
MARGIN
  1
CELLMARGIN_BEGIN
 40
1.5
 40
1.5
 40
1.5
 40
1.5
 40
4.5
 40
4.5
309
CELLMARGIN_END
 94
        6
 95
        1
302
GRIDFORMAT
  1
GRIDFORMAT_BEGIN
 90
        0
 91
        1
 62
     0
 92
       -2
340
24
 93
        0
 40
1.125
309
GRIDFORMAT_END
 95
        2
302
GRIDFORMAT
  1
GRIDFORMAT_BEGIN
 90
        0
 91
        1
 62
     0
 92
       -2
340
24
 93
        0
 40
1.125
309
GRIDFORMAT_END
 95
        4
302
GRIDFORMAT
  1
GRIDFORMAT_BEGIN
 90
        0
 91
        1
 62
     0
 92
       -2
340
24
 93
        0
 40
1.125
309
GRIDFORMAT_END
 95
        8
302
GRIDFORMAT
  1
GRIDFORMAT_BEGIN
 90
        0
 91
        1
 62
     0
 92
       -2
340
24
 93
        0
 40
1.125
309
GRIDFORMAT_END
 95
       16
302
GRIDFORMAT
  1
GRIDFORMAT_BEGIN
 90
        0
 91
        1
 62
     0
 92
       -2
340
24
 93
        0
 40
1.125
309
GRIDFORMAT_END
 95
       32
302
GRIDFORMAT
  1
GRIDFORMAT_BEGIN
 90
        0
 91
        1
 62
     0
 92
       -2
340
24
 93
        0
 40
1.125
309
GRIDFORMAT_END
309
TABLEFORMAT_END
  1
CELLSTYLE_BEGIN
 90
        3
 91
        2
300
_DATA
309
CELLSTYLE_END
  0
XRECORD
  5
232
102
{ACAD_REACTORS
330
44
102
}
330
44
100
AcDbXrecord
280
     1
102
ACAD_ROUNDTRIP_PRE2007_TABLESTYLE
 90
      512
 91
        0
  1

 92
      512
 93
        0
  2

 94
      512
 95
        0
  3

  0
XRECORD
  5
22F
102
{ACAD_REACTORS
330
22E
102
}
330
22E
100
AcDbXrecord
280
     1
102
RTVSPost2010Prop28
280
     1
102
RTVSPost2010PropOp28
 70
     1
102
RTVSPost2010Prop29
280
     1
102
RTVSPost2010PropOp29
 70
     1
102
RTVSPost2010Prop30
280
     0
102
RTVSPost2010PropOp30
 70
     1
102
RTVSPost2010Prop31
280
     0
102
RTVSPost2010PropOp31
 70
     1
102
RTVSPost2010Prop32
280
     0
102
RTVSPost2010PropOp32
 70
     1
102
RTVSPost2010Prop33
280
     0
102
RTVSPost2010PropOp33
 70
     1
102
RTVSPost2010Prop34
280
     0
102
RTVSPost2010PropOp34
 70
     1
102
RTVSPost2010Prop35
280
     0
102
RTVSPost2010PropOp35
 70
     1
102
RTVSPost2010Prop36
280
     0
102
RTVSPost2010PropOp36
 70
     1
102
RTVSPost2010Prop37
 90
       50
102
RTVSPost2010PropOp37
 70
     1
102
RTVSPost2010Prop38
140
0.0
102
RTVSPost2010PropOp38
 70
     1
102
RTVSPost2010Prop39
140
1.0
102
RTVSPost2010PropOp39
 70
     1
102
RTVSPost2010Prop40
 90
        0
102
RTVSPost2010PropOp40
 70
     1
102
RTVSPost2010Prop41ColorIndex
 90
       18
102
RTVSPost2010Prop41ColorRGB
 90
        0
102
RTVSPost2010PropOp41
 70
     1
102
RTVSPost2010Prop42
 90
       50
102
RTVSPost2010PropOp42
 70
     1
102
RTVSPost2010Prop43
 90
        3
102
RTVSPost2010PropOp43
 70
     1
102
RTVSPost2010Prop44ColorIndex
 90
        5
102
RTVSPost2010Prop44ColorRGB
 90
      255
102
RTVSPost2010PropOp44
 70
     1
102
RTVSPost2010Prop45
280
     0
102
RTVSPost2010PropOp45
 70
     1
102
RTVSPost2010Prop46
 90
       50
102
RTVSPost2010PropOp46
 70
     1
102
RTVSPost2010Prop47
 90
       50
102
RTVSPost2010PropOp47
 70
     1
102
RTVSPost2010Prop48
 90
       50
102
RTVSPost2010PropOp48
 70
     1
102
RTVSPost2010Prop49
280
     0
102
RTVSPost2010PropOp49
 70
     1
102
RTVSPost2010Prop50
 90
       50
102
RTVSPost2010PropOp50
 70
     1
102
RTVSPost2010Prop51ColorIndex
 90
      256
102
RTVSPost2010Prop51ColorRGB
 90
-16777216
102
RTVSPost2010PropOp51
 70
     0
102
RTVSPost2010Prop52
140
1.0
102
RTVSPost2010PropOp52
 70
     0
102
RTVSPost2010Prop53
 90
        2
102
RTVSPost2010PropOp53
 70
     1
102
RTVSPost2010Prop54
  1
strokes_ogs.tif
102
RTVSPost2010PropOp54
 70
     1
102
RTVSPost2010Prop55
280
     0
102
RTVSPost2010PropOp55
 70
     1
102
RTVSPost2010Prop56
140
1.0
102
RTVSPost2010PropOp56
 70
     1
102
RTVSPost2010Prop57
140
1.0
102
RTVSPost2010PropOp57
 70
     1
102
RTVSPropertyOp0
 70
     1
102
RTVSPropertyOp1
 70
     1
102
RTVSPropertyOp2
 70
     1
102
RTVSPropertyOp3
 70
     1
102
RTVSPropertyOp4
 70
     1
102
RTVSPropertyOp5
 70
     1
102
RTVSPropertyOp6
 70
     1
102
RTVSPropertyOp7
 70
     1
102
RTVSPropertyOp8
 70
     1
102
RTVSPropertyOp9
 70
     1
102
RTVSPropertyOp10
 70
     1
102
RTVSPropertyOp11
 70
     1
102
RTVSPropertyOp12
 70
     1
102
RTVSPropertyOp13
 70
     1
102
RTVSPropertyOp14
 70
     1
102
RTVSPropertyOp15
 70
     1
102
RTVSPropertyOp16
 70
     1
102
RTVSPropertyOp17
 70
     1
102
RTVSPropertyOp18
 70
     1
102
RTVSPropertyOp19
 70
     1
102
RTVSPropertyOp20
 70
     1
102
RTVSPropertyOp21
 70
     1
102
RTVSPropertyOp22
 70
     1
102
RTVSPropertyOp23
 70
     1
102
RTVSPropertyOp24
 70
     1
102
RTVSPropertyOp25
 70
     1
102
RTVSPropertyOp26
 70
     1
102
RTVSPropertyOp27
 70
     1
102
RTVSPropertyOp28
 70
     1
102
RTVSPropertyOp29
 70
     1
102
RTVSPropertyOp30
 70
     1
102
RTVSPropertyOp31
 70
     1
102
RTVSPropertyOp32
 70
     1
102
RTVSPropertyOp33
 70
     1
102
RTVSPropertyOp34
 70
     1
102
RTVSPropertyOp35
 70
     1
102
RTVSPropertyOp36
 70
     1
102
RTVSPropertyOp37
 70
     1
102
RTVSPropertyOp38
 70
     1
102
RTVSPropertyOp39
 70
     1
102
RTVSPropertyOp40
 70
     1
102
RTVSPropertyOp41
 70
     1
102
RTVSPropertyOp42
 70
     1
102
RTVSPropertyOp43
 70
     1
102
RTVSPropertyOp44
 70
     1
102
RTVSPropertyOp45
 70
     1
102
RTVSPropertyOp46
 70
     1
102
RTVSPropertyOp47
 70
     1
102
RTVSPropertyOp48
 70
     1
102
RTVSPropertyOp49
 70
     1
102
RTVSPropertyOp50
 70
     1
102
RTVSPropertyOp51
 70
     0
102
RTVSPropertyOp52
 70
     0
102
RTVSPropertyOp53
 70
     1
102
RTVSPropertyOp54
 70
     1
102
RTVSPropertyOp55
 70
     1
102
RTVSPropertyOp56
 70
     1
102
RTVSPropertyOp57
 70
     1
102
RTVSPropertyOp58
 70
     1
102
RTVSPropertyOp59
 70
     1
102
RTVSPropertyOp60
 70
     1
102
RTVSPropertyOp61
 70
     1
102
RTVSPropertyOp62
 70
     1
  0
XRECORD
  5
234
102
{ACAD_REACTORS
330
233
102
}
330
233
100
AcDbXrecord
280
     1
102
RTVSPost2010Prop28
280
     0
102
RTVSPost2010PropOp28
 70
     1
102
RTVSPost2010Prop29
280
     1
102
RTVSPost2010PropOp29
 70
     1
102
RTVSPost2010Prop30
280
     1
102
RTVSPost2010PropOp30
 70
     1
102
RTVSPost2010Prop31
280
     0
102
RTVSPost2010PropOp31
 70
     1
102
RTVSPost2010Prop32
280
     0
102
RTVSPost2010PropOp32
 70
     1
102
RTVSPost2010Prop33
280
     0
102
RTVSPost2010PropOp33
 70
     1
102
RTVSPost2010Prop34
280
     0
102
RTVSPost2010PropOp34
 70
     1
102
RTVSPost2010Prop35
280
     0
102
RTVSPost2010PropOp35
 70
     1
102
RTVSPost2010Prop36
280
     0
102
RTVSPost2010PropOp36
 70
     1
102
RTVSPost2010Prop37
 90
       50
102
RTVSPost2010PropOp37
 70
     1
102
RTVSPost2010Prop38
140
0.0
102
RTVSPost2010PropOp38
 70
     1
102
RTVSPost2010Prop39
140
1.0
102
RTVSPost2010PropOp39
 70
     1
102
RTVSPost2010Prop40
 90
        0
102
RTVSPost2010PropOp40
 70
     1
102
RTVSPost2010Prop41ColorIndex
 90
       18
102
RTVSPost2010Prop41ColorRGB
 90
        0
102
RTVSPost2010PropOp41
 70
     1
102
RTVSPost2010Prop42
 90
       50
102
RTVSPost2010PropOp42
 70
     1
102
RTVSPost2010Prop43
 90
        3
102
RTVSPost2010PropOp43
 70
     1
102
RTVSPost2010Prop44ColorIndex
 90
        5
102
RTVSPost2010Prop44ColorRGB
 90
      255
102
RTVSPost2010PropOp44
 70
     1
102
RTVSPost2010Prop45
280
     0
102
RTVSPost2010PropOp45
 70
     1
102
RTVSPost2010Prop46
 90
       50
102
RTVSPost2010PropOp46
 70
     1
102
RTVSPost2010Prop47
 90
       50
102
RTVSPost2010PropOp47
 70
     1
102
RTVSPost2010Prop48
 90
       50
102
RTVSPost2010PropOp48
 70
     1
102
RTVSPost2010Prop49
280
     0
102
RTVSPost2010PropOp49
 70
     1
102
RTVSPost2010Prop50
 90
       50
102
RTVSPost2010PropOp50
 70
     1
102
RTVSPost2010Prop51ColorIndex
 90
      256
102
RTVSPost2010Prop51ColorRGB
 90
-16777216
102
RTVSPost2010PropOp51
 70
     0
102
RTVSPost2010Prop52
140
1.0
102
RTVSPost2010PropOp52
 70
     0
102
RTVSPost2010Prop53
 90
        2
102
RTVSPost2010PropOp53
 70
     1
102
RTVSPost2010Prop54
  1
strokes_ogs.tif
102
RTVSPost2010PropOp54
 70
     1
102
RTVSPost2010Prop55
280
     0
102
RTVSPost2010PropOp55
 70
     1
102
RTVSPost2010Prop56
140
1.0
102
RTVSPost2010PropOp56
 70
     1
102
RTVSPost2010Prop57
140
1.0
102
RTVSPost2010PropOp57
 70
     1
102
RTVSPropertyOp0
 70
     1
102
RTVSPropertyOp1
 70
     1
102
RTVSPropertyOp2
 70
     1
102
RTVSPropertyOp3
 70
     1
102
RTVSPropertyOp4
 70
     1
102
RTVSPropertyOp5
 70
     1
102
RTVSPropertyOp6
 70
     1
102
RTVSPropertyOp7
 70
     1
102
RTVSPropertyOp8
 70
     1
102
RTVSPropertyOp9
 70
     1
102
RTVSPropertyOp10
 70
     1
102
RTVSPropertyOp11
 70
     1
102
RTVSPropertyOp12
 70
     1
102
RTVSPropertyOp13
 70
     1
102
RTVSPropertyOp14
 70
     1
102
RTVSPropertyOp15
 70
     1
102
RTVSPropertyOp16
 70
     1
102
RTVSPropertyOp17
 70
     1
102
RTVSPropertyOp18
 70
     1
102
RTVSPropertyOp19
 70
     1
102
RTVSPropertyOp20
 70
     1
102
RTVSPropertyOp21
 70
     1
102
RTVSPropertyOp22
 70
     1
102
RTVSPropertyOp23
 70
     1
102
RTVSPropertyOp24
 70
     1
102
RTVSPropertyOp25
 70
     1
102
RTVSPropertyOp26
 70
     1
102
RTVSPropertyOp27
 70
     1
102
RTVSPropertyOp28
 70
     1
102
RTVSPropertyOp29
 70
     1
102
RTVSPropertyOp30
 70
     1
102
RTVSPropertyOp31
 70
     1
102
RTVSPropertyOp32
 70
     1
102
RTVSPropertyOp33
 70
     1
102
RTVSPropertyOp34
 70
     1
102
RTVSPropertyOp35
 70
     1
102
RTVSPropertyOp36
 70
     1
102
RTVSPropertyOp37
 70
     1
102
RTVSPropertyOp38
 70
     1
102
RTVSPropertyOp39
 70
     1
102
RTVSPropertyOp40
 70
     1
102
RTVSPropertyOp41
 70
     1
102
RTVSPropertyOp42
 70
     1
102
RTVSPropertyOp43
 70
     1
102
RTVSPropertyOp44
 70
     1
102
RTVSPropertyOp45
 70
     1
102
RTVSPropertyOp46
 70
     1
102
RTVSPropertyOp47
 70
     1
102
RTVSPropertyOp48
 70
     1
102
RTVSPropertyOp49
 70
     1
102
RTVSPropertyOp50
 70
     1
102
RTVSPropertyOp51
 70
     0
102
RTVSPropertyOp52
 70
     0
102
RTVSPropertyOp53
 70
     1
102
RTVSPropertyOp54
 70
     1
102
RTVSPropertyOp55
 70
     1
102
RTVSPropertyOp56
 70
     1
102
RTVSPropertyOp57
 70
     1
102
RTVSPropertyOp58
 70
     1
102
RTVSPropertyOp59
 70
     1
102
RTVSPropertyOp60
 70
     1
102
RTVSPropertyOp61
 70
     1
102
RTVSPropertyOp62
 70
     1
  0
XRECORD
  5
236
102
{ACAD_REACTORS
330
235
102
}
330
235
100
AcDbXrecord
280
     1
102
RTVSPost2010Prop28
280
     0
102
RTVSPost2010PropOp28
 70
     1
102
RTVSPost2010Prop29
280
     1
102
RTVSPost2010PropOp29
 70
     1
102
RTVSPost2010Prop30
280
     1
102
RTVSPost2010PropOp30
 70
     1
102
RTVSPost2010Prop31
280
     0
102
RTVSPost2010PropOp31
 70
     1
102
RTVSPost2010Prop32
280
     0
102
RTVSPost2010PropOp32
 70
     1
102
RTVSPost2010Prop33
280
     0
102
RTVSPost2010PropOp33
 70
     1
102
RTVSPost2010Prop34
280
     0
102
RTVSPost2010PropOp34
 70
     1
102
RTVSPost2010Prop35
280
     0
102
RTVSPost2010PropOp35
 70
     1
102
RTVSPost2010Prop36
280
     0
102
RTVSPost2010PropOp36
 70
     1
102
RTVSPost2010Prop37
 90
       50
102
RTVSPost2010PropOp37
 70
     1
102
RTVSPost2010Prop38
140
0.0
102
RTVSPost2010PropOp38
 70
     1
102
RTVSPost2010Prop39
140
1.0
102
RTVSPost2010PropOp39
 70
     1
102
RTVSPost2010Prop40
 90
        0
102
RTVSPost2010PropOp40
 70
     1
102
RTVSPost2010Prop41ColorIndex
 90
       18
102
RTVSPost2010Prop41ColorRGB
 90
        0
102
RTVSPost2010PropOp41
 70
     1
102
RTVSPost2010Prop42
 90
       50
102
RTVSPost2010PropOp42
 70
     1
102
RTVSPost2010Prop43
 90
        3
102
RTVSPost2010PropOp43
 70
     1
102
RTVSPost2010Prop44ColorIndex
 90
        5
102
RTVSPost2010Prop44ColorRGB
 90
      255
102
RTVSPost2010PropOp44
 70
     1
102
RTVSPost2010Prop45
280
     0
102
RTVSPost2010PropOp45
 70
     1
102
RTVSPost2010Prop46
 90
       50
102
RTVSPost2010PropOp46
 70
     1
102
RTVSPost2010Prop47
 90
       50
102
RTVSPost2010PropOp47
 70
     1
102
RTVSPost2010Prop48
 90
       50
102
RTVSPost2010PropOp48
 70
     1
102
RTVSPost2010Prop49
280
     0
102
RTVSPost2010PropOp49
 70
     1
102
RTVSPost2010Prop50
 90
       50
102
RTVSPost2010PropOp50
 70
     1
102
RTVSPost2010Prop51ColorIndex
 90
      256
102
RTVSPost2010Prop51ColorRGB
 90
-16777216
102
RTVSPost2010PropOp51
 70
     0
102
RTVSPost2010Prop52
140
1.0
102
RTVSPost2010PropOp52
 70
     0
102
RTVSPost2010Prop53
 90
        2
102
RTVSPost2010PropOp53
 70
     1
102
RTVSPost2010Prop54
  1
strokes_ogs.tif
102
RTVSPost2010PropOp54
 70
     1
102
RTVSPost2010Prop55
280
     0
102
RTVSPost2010PropOp55
 70
     1
102
RTVSPost2010Prop56
140
1.0
102
RTVSPost2010PropOp56
 70
     1
102
RTVSPost2010Prop57
140
1.0
102
RTVSPost2010PropOp57
 70
     1
102
RTVSPropertyOp0
 70
     1
102
RTVSPropertyOp1
 70
     1
102
RTVSPropertyOp2
 70
     1
102
RTVSPropertyOp3
 70
     1
102
RTVSPropertyOp4
 70
     1
102
RTVSPropertyOp5
 70
     1
102
RTVSPropertyOp6
 70
     1
102
RTVSPropertyOp7
 70
     1
102
RTVSPropertyOp8
 70
     1
102
RTVSPropertyOp9
 70
     1
102
RTVSPropertyOp10
 70
     1
102
RTVSPropertyOp11
 70
     1
102
RTVSPropertyOp12
 70
     1
102
RTVSPropertyOp13
 70
     1
102
RTVSPropertyOp14
 70
     1
102
RTVSPropertyOp15
 70
     1
102
RTVSPropertyOp16
 70
     1
102
RTVSPropertyOp17
 70
     1
102
RTVSPropertyOp18
 70
     1
102
RTVSPropertyOp19
 70
     1
102
RTVSPropertyOp20
 70
     1
102
RTVSPropertyOp21
 70
     1
102
RTVSPropertyOp22
 70
     1
102
RTVSPropertyOp23
 70
     1
102
RTVSPropertyOp24
 70
     1
102
RTVSPropertyOp25
 70
     1
102
RTVSPropertyOp26
 70
     1
102
RTVSPropertyOp27
 70
     1
102
RTVSPropertyOp28
 70
     1
102
RTVSPropertyOp29
 70
     1
102
RTVSPropertyOp30
 70
     1
102
RTVSPropertyOp31
 70
     1
102
RTVSPropertyOp32
 70
     1
102
RTVSPropertyOp33
 70
     1
102
RTVSPropertyOp34
 70
     1
102
RTVSPropertyOp35
 70
     1
102
RTVSPropertyOp36
 70
     1
102
RTVSPropertyOp37
 70
     1
102
RTVSPropertyOp38
 70
     1
102
RTVSPropertyOp39
 70
     1
102
RTVSPropertyOp40
 70
     1
102
RTVSPropertyOp41
 70
     1
102
RTVSPropertyOp42
 70
     1
102
RTVSPropertyOp43
 70
     1
102
RTVSPropertyOp44
 70
     1
102
RTVSPropertyOp45
 70
     1
102
RTVSPropertyOp46
 70
     1
102
RTVSPropertyOp47
 70
     1
102
RTVSPropertyOp48
 70
     1
102
RTVSPropertyOp49
 70
     1
102
RTVSPropertyOp50
 70
     1
102
RTVSPropertyOp51
 70
     0
102
RTVSPropertyOp52
 70
     0
102
RTVSPropertyOp53
 70
     1
102
RTVSPropertyOp54
 70
     1
102
RTVSPropertyOp55
 70
     1
102
RTVSPropertyOp56
 70
     1
102
RTVSPropertyOp57
 70
     1
102
RTVSPropertyOp58
 70
     1
102
RTVSPropertyOp59
 70
     1
102
RTVSPropertyOp60
 70
     1
102
RTVSPropertyOp61
 70
     1
102
RTVSPropertyOp62
 70
     1
  0
ENDSEC
  0
EOF
