  0
SECTION
  2
HEADER
  9
$ACADVER
  1
AC1032
  9
$ACADMAINTVER
 90
      174
  9
$DWGCODEPAGE
  3
ANSI_932
  9
$LASTSAVEDBY
  1
c23053
  9
$REQUIREDVERSIONS
160
                 0
  9
$INSBASE
 10
0.0
 20
0.0
 30
0.0
  9
$EXTMIN
 10
357.3037733665014
 20
185.7972116011627
 30
-0.0015258207003583
  9
$EXTMAX
 10
407.3236093615689
 20
202.8596654989054
 30
0.0000000349246037
  9
$LIMMIN
 10
346.7580496757709
 20
173.5926446613657
  9
$LIMMAX
 10
414.6669279892848
 20
214.4031575559083
  9
$ORTHOMODE
 70
     0
  9
$REGENMODE
 70
     1
  9
$FILLMODE
 70
     1
  9
$QTEXTMODE
 70
     0
  9
$MIRRTEXT
 70
     0
  9
$LTSCALE
 40
1.0
  9
$ATTMODE
 70
     1
  9
$TEXTSIZE
 40
2.5
  9
$TRACEWID
 40
1.0
  9
$TEXTSTYLE
  7
Standard
  9
$CLAYER
  8
0
  9
$CELTYPE
  6
ByLayer
  9
$CECOLOR
 62
   256
  9
$CELTSCALE
 40
1.0
  9
$DISPSILH
 70
     0
  9
$DIMSCALE
 40
1.0
  9
$DIMASZ
 40
2.5
  9
$DIMEXO
 40
0.625
  9
$DIMDLI
 40
3.75
  9
$DIMRND
 40
0.0
  9
$DIMDLE
 40
0.0
  9
$DIMEXE
 40
1.25
  9
$DIMTP
 40
0.0
  9
$DIMTM
 40
0.0
  9
$DIMTXT
 40
2.5
  9
$DIMCEN
 40
2.5
  9
$DIMTSZ
 40
0.0
  9
$DIMTOL
 70
     0
  9
$DIMLIM
 70
     0
  9
$DIMTIH
 70
     0
  9
$DIMTOH
 70
     0
  9
$DIMSE1
 70
     0
  9
$DIMSE2
 70
     0
  9
$DIMTAD
 70
     1
  9
$DIMZIN
 70
     8
  9
$DIMBLK
  1

  9
$DIMASO
 70
     1
  9
$DIMSHO
 70
     1
  9
$DIMPOST
  1

  9
$DIMAPOST
  1

  9
$DIMALT
 70
     0
  9
$DIMALTD
 70
     3
  9
$DIMALTF
 40
0.03937007874016
  9
$DIMLFAC
 40
1.0
  9
$DIMTOFL
 70
     1
  9
$DIMTVP
 40
0.0
  9
$DIMTIX
 70
     0
  9
$DIMSOXD
 70
     0
  9
$DIMSAH
 70
     0
  9
$DIMBLK1
  1

  9
$DIMBLK2
  1

  9
$DIMSTYLE
  2
ISO-25
  9
$DIMCLRD
 70
     0
  9
$DIMCLRE
 70
     0
  9
$DIMCLRT
 70
     0
  9
$DIMTFAC
 40
1.0
  9
$DIMGAP
 40
0.625
  9
$DIMJUST
 70
     0
  9
$DIMSD1
 70
     0
  9
$DIMSD2
 70
     0
  9
$DIMTOLJ
 70
     0
  9
$DIMTZIN
 70
     8
  9
$DIMALTZ
 70
     0
  9
$DIMALTTZ
 70
     0
  9
$DIMUPT
 70
     0
  9
$DIMDEC
 70
     2
  9
$DIMTDEC
 70
     2
  9
$DIMALTU
 70
     2
  9
$DIMALTTD
 70
     3
  9
$DIMTXSTY
  7
Standard
  9
$DIMAUNIT
 70
     0
  9
$DIMADEC
 70
     0
  9
$DIMALTRND
 40
0.0
  9
$DIMAZIN
 70
     0
  9
$DIMDSEP
 70
    44
  9
$DIMATFIT
 70
     3
  9
$DIMFRAC
 70
     0
  9
$DIMLDRBLK
  1

  9
$DIMLUNIT
 70
     2
  9
$DIMLWD
 70
    -2
  9
$DIMLWE
 70
    -2
  9
$DIMTMOVE
 70
     0
  9
$DIMFXL
 40
1.0
  9
$DIMFXLON
 70
     0
  9
$DIMJOGANG
 40
0.7853981633974483
  9
$DIMTFILL
 70
     0
  9
$DIMTFILLCLR
 70
     0
  9
$DIMARCSYM
 70
     0
  9
$DIMLTYPE
  6

  9
$DIMLTEX1
  6

  9
$DIMLTEX2
  6

  9
$DIMTXTDIRECTION
 70
     0
  9
$LUNITS
 70
     2
  9
$LUPREC
 70
     4
  9
$SKETCHINC
 40
1.0
  9
$FILLETRAD
 40
0.0
  9
$AUNITS
 70
     0
  9
$AUPREC
 70
     0
  9
$MENU
  1
.
  9
$ELEVATION
 40
0.0
  9
$PELEVATION
 40
0.0
  9
$THICKNESS
 40
0.0
  9
$LIMCHECK
 70
     0
  9
$CHAMFERA
 40
0.0
  9
$CHAMFERB
 40
0.0
  9
$CHAMFERC
 40
0.0
  9
$CHAMFERD
 40
0.0
  9
$SKPOLY
 70
     0
  9
$TDCREATE
 40
2459497.676597222
  9
$TDUCREATE
 40
2459497.343263889
  9
$TDUPDATE
 40
2459497.677303241
  9
$TDUUPDATE
 40
2459497.343969908
  9
$TDINDWG
 40
0.0007060185
  9
$TDUSRTIMER
 40
0.0007060185
  9
$USRTIMER
 70
     1
  9
$ANGBASE
 50
0.0
  9
$ANGDIR
 70
     0
  9
$PDMODE
 70
     0
  9
$PDSIZE
 40
0.0
  9
$PLINEWID
 40
0.0
  9
$SPLFRAME
 70
     0
  9
$SPLINETYPE
 70
     6
  9
$SPLINESEGS
 70
     8
  9
$HANDSEED
  5
4B8
  9
$SURFTAB1
 70
     6
  9
$SURFTAB2
 70
     6
  9
$SURFTYPE
 70
     6
  9
$SURFU
 70
     6
  9
$SURFV
 70
     6
  9
$UCSBASE
  2

  9
$UCSNAME
  2

  9
$UCSORG
 10
0.0
 20
0.0
 30
0.0
  9
$UCSXDIR
 10
1.0
 20
0.0
 30
0.0
  9
$UCSYDIR
 10
0.0
 20
1.0
 30
0.0
  9
$UCSORTHOREF
  2

  9
$UCSORTHOVIEW
 70
     0
  9
$UCSORGTOP
 10
0.0
 20
0.0
 30
0.0
  9
$UCSORGBOTTOM
 10
0.0
 20
0.0
 30
0.0
  9
$UCSORGLEFT
 10
0.0
 20
0.0
 30
0.0
  9
$UCSORGRIGHT
 10
0.0
 20
0.0
 30
0.0
  9
$UCSORGFRONT
 10
0.0
 20
0.0
 30
0.0
  9
$UCSORGBACK
 10
0.0
 20
0.0
 30
0.0
  9
$PUCSBASE
  2

  9
$PUCSNAME
  2

  9
$PUCSORG
 10
0.0
 20
0.0
 30
0.0
  9
$PUCSXDIR
 10
1.0
 20
0.0
 30
0.0
  9
$PUCSYDIR
 10
0.0
 20
1.0
 30
0.0
  9
$PUCSORTHOREF
  2

  9
$PUCSORTHOVIEW
 70
     0
  9
$PUCSORGTOP
 10
0.0
 20
0.0
 30
0.0
  9
$PUCSORGBOTTOM
 10
0.0
 20
0.0
 30
0.0
  9
$PUCSORGLEFT
 10
0.0
 20
0.0
 30
0.0
  9
$PUCSORGRIGHT
 10
0.0
 20
0.0
 30
0.0
  9
$PUCSORGFRONT
 10
0.0
 20
0.0
 30
0.0
  9
$PUCSORGBACK
 10
0.0
 20
0.0
 30
0.0
  9
$USERI1
 70
     0
  9
$USERI2
 70
     0
  9
$USERI3
 70
     0
  9
$USERI4
 70
     0
  9
$USERI5
 70
     0
  9
$USERR1
 40
0.0
  9
$USERR2
 40
0.0
  9
$USERR3
 40
0.0
  9
$USERR4
 40
0.0
  9
$USERR5
 40
0.0
  9
$WORLDVIEW
 70
     1
  9
$SHADEDGE
 70
     3
  9
$SHADEDIF
 70
    70
  9
$TILEMODE
 70
     1
  9
$MAXACTVP
 70
    64
  9
$PINSBASE
 10
0.0
 20
0.0
 30
0.0
  9
$PLIMCHECK
 70
     0
  9
$PEXTMIN
 10
0.0
 20
0.0
 30
0.0
  9
$PEXTMAX
 10
0.0
 20
0.0
 30
0.0
  9
$PLIMMIN
 10
0.0
 20
0.0
  9
$PLIMMAX
 10
12.0
 20
9.0
  9
$UNITMODE
 70
     0
  9
$VISRETAIN
 70
     1
  9
$PLINEGEN
 70
     0
  9
$PSLTSCALE
 70
     1
  9
$TREEDEPTH
 70
  3020
  9
$CMLSTYLE
  2
Standard
  9
$CMLJUST
 70
     0
  9
$CMLSCALE
 40
20.0
  9
$PROXYGRAPHICS
 70
     1
  9
$MEASUREMENT
 70
     1
  9
$CELWEIGHT
370
    -1
  9
$ENDCAPS
280
     0
  9
$JOINSTYLE
280
     0
  9
$LWDISPLAY
290
     0
  9
$INSUNITS
 70
     4
  9
$HYPERLINKBASE
  1

  9
$STYLESHEET
  1

  9
$XEDIT
290
     1
  9
$CEPSNTYPE
380
     0
  9
$PSTYLEMODE
290
     1
  9
$FINGERPRINTGUID
  2
{DAE950ED-51DE-7D46-8BFC-55F7BB36CD8E}
  9
$VERSIONGUID
  2
{70DC7002-E174-6E48-B4D4-86D2E229962E}
  9
$EXTNAMES
290
     1
  9
$PSVPSCALE
 40
0.0
  9
$OLESTARTUP
290
     0
  9
$SORTENTS
280
   127
  9
$INDEXCTL
280
     0
  9
$HIDETEXT
280
     1
  9
$XCLIPFRAME
280
     2
  9
$HALOGAP
280
     0
  9
$OBSCOLOR
 70
   257
  9
$OBSLTYPE
280
     0
  9
$INTERSECTIONDISPLAY
280
     0
  9
$INTERSECTIONCOLOR
 70
   257
  9
$DIMASSOC
280
     2
  9
$PROJECTNAME
  1

  9
$CAMERADISPLAY
290
     0
  9
$LENSLENGTH
 40
50.0
  9
$CAMERAHEIGHT
 40
0.0
  9
$STEPSPERSEC
 40
2.0
  9
$STEPSIZE
 40
6.0
  9
$3DDWFPREC
 40
2.0
  9
$PSOLWIDTH
 40
5.0
  9
$PSOLHEIGHT
 40
80.0
  9
$LOFTANG1
 40
1.570796326794896
  9
$LOFTANG2
 40
1.570796326794896
  9
$LOFTMAG1
 40
0.0
  9
$LOFTMAG2
 40
0.0
  9
$LOFTPARAM
 70
     7
  9
$LOFTNORMALS
280
     1
  9
$LATITUDE
 40
37.795
  9
$LONGITUDE
 40
-122.394
  9
$NORTHDIRECTION
 40
0.0
  9
$TIMEZONE
 70
 -8000
  9
$LIGHTGLYPHDISPLAY
280
     1
  9
$TILEMODELIGHTSYNCH
280
     1
  9
$CMATERIAL
347
EC
  9
$SOLIDHIST
280
     0
  9
$SHOWHIST
280
     1
  9
$DWFFRAME
280
     2
  9
$DGNFRAME
280
     0
  9
$REALWORLDSCALE
290
     1
  9
$INTERFERECOLOR
 62
     1
  9
$INTERFEREOBJVS
345
F9
  9
$INTERFEREVPVS
346
F6
  9
$CSHADOW
280
     0
  9
$SHADOWPLANELOCATION
 40
0.0
  0
ENDSEC
  0
SECTION
  2
CLASSES
  0
CLASS
  1
ACDBDICTIONARYWDFLT
  2
AcDbDictionaryWithDefault
  3
ObjectDBX Classes
 90
        0
 91
        1
280
     0
281
     0
  0
CLASS
  1
DICTIONARYVAR
  2
AcDbDictionaryVar
  3
ObjectDBX Classes
 90
        0
 91
       11
280
     0
281
     0
  0
CLASS
  1
TABLESTYLE
  2
AcDbTableStyle
  3
ObjectDBX Classes
 90
     4095
 91
        1
280
     0
281
     0
  0
CLASS
  1
MATERIAL
  2
AcDbMaterial
  3
ObjectDBX Classes
 90
     1153
 91
        3
280
     0
281
     0
  0
CLASS
  1
VISUALSTYLE
  2
AcDbVisualStyle
  3
ObjectDBX Classes
 90
     4095
 91
       24
280
     0
281
     0
  0
CLASS
  1
SCALE
  2
AcDbScale
  3
ObjectDBX Classes
 90
     1153
 91
       17
280
     0
281
     0
  0
CLASS
  1
MLEADERSTYLE
  2
AcDbMLeaderStyle
  3
ACDB_MLEADERSTYLE_CLASS
 90
     4095
 91
        2
280
     0
281
     0
  0
CLASS
  1
CELLSTYLEMAP
  2
AcDbCellStyleMap
  3
ObjectDBX Classes
 90
     1152
 91
        1
280
     0
281
     0
  0
CLASS
  1
EXACXREFPANELOBJECT
  2
ExAcXREFPanelObject
  3
EXAC_ESW
 90
     1025
 91
        0
280
     0
281
     0
  0
CLASS
  1
NPOCOLLECTION
  2
AcDbImpNonPersistentObjectsCollection
  3
ObjectDBX Classes
 90
     1153
 91
        0
280
     0
281
     0
  0
CLASS
  1
LAYER_INDEX
  2
AcDbLayerIndex
  3
ObjectDBX Classes
 90
        0
 91
        0
280
     0
281
     0
  0
CLASS
  1
SPATIAL_INDEX
  2
AcDbSpatialIndex
  3
ObjectDBX Classes
 90
        0
 91
        0
280
     0
281
     0
  0
CLASS
  1
IDBUFFER
  2
AcDbIdBuffer
  3
ObjectDBX Classes
 90
        0
 91
        0
280
     0
281
     0
  0
CLASS
  1
ACDBSECTIONVIEWSTYLE
  2
AcDbSectionViewStyle
  3
ObjectDBX Classes
 90
     1025
 91
        1
280
     0
281
     0
  0
CLASS
  1
ACDBDETAILVIEWSTYLE
  2
AcDbDetailViewStyle
  3
ObjectDBX Classes
 90
     1025
 91
        1
280
     0
281
     0
  0
ENDSEC
  0
SECTION
  2
TABLES
  0
TABLE
  2
VPORT
  5
8
330
0
100
AcDbSymbolTable
 70
     1
  0
VPORT
  5
EA
330
8
100
AcDbSymbolTableRecord
100
AcDbViewportTableRecord
  2
*Active
 70
     0
 10
0.0
 20
0.0
 11
1.0
 21
1.0
 12
384.4364931593136
 22
190.2220549984658
 13
0.0
 23
0.0
 14
10.0
 24
10.0
 15
10.0
 25
10.0
 16
0.0
 26
0.0
 36
1.0
 17
0.0
 27
0.0
 37
0.0
 40
65.61698747883927
 41
2.137844611528822
 42
50.0
 43
0.0
 44
0.0
 50
0.0
 51
0.0
 71
     0
 72
  1000
 73
     1
 74
     3
 75
     0
 76
     1
 77
     0
 78
     0
281
     0
 65
     1
110
0.0
120
0.0
130
0.0
111
1.0
121
0.0
131
0.0
112
0.0
122
1.0
132
0.0
 79
     0
146
0.0
348
F5
 60
     3
 61
     5
292
     1
282
     1
141
0.0
142
0.0
 63
   250
421
  3355443
1001
ACAD_NAV_VCDISPLAY
1070
     3
  0
ENDTAB
  0
TABLE
  2
LTYPE
  5
5
330
0
100
AcDbSymbolTable
 70
     1
  0
LTYPE
  5
14
330
5
100
AcDbSymbolTableRecord
100
AcDbLinetypeTableRecord
  2
ByBlock
 70
     0
  3

 72
    65
 73
     0
 40
0.0
  0
LTYPE
  5
15
330
5
100
AcDbSymbolTableRecord
100
AcDbLinetypeTableRecord
  2
ByLayer
 70
     0
  3

 72
    65
 73
     0
 40
0.0
  0
LTYPE
  5
16
330
5
100
AcDbSymbolTableRecord
100
AcDbLinetypeTableRecord
  2
Continuous
 70
     0
  3
Solid line
 72
    65
 73
     0
 40
0.0
  0
ENDTAB
  0
TABLE
  2
LAYER
  5
2
102
{ACAD_XDICTIONARY
360
1FF
102
}
330
0
100
AcDbSymbolTable
 70
     1
  0
LAYER
  5
10
102
{ACAD_XDICTIONARY
360
13C
102
}
330
2
100
AcDbSymbolTableRecord
100
AcDbLayerTableRecord
  2
0
 70
     0
 62
     7
  6
Continuous
370
    -3
390
F
347
EE
348
0
  0
ENDTAB
  0
TABLE
  2
STYLE
  5
3
330
0
100
AcDbSymbolTable
 70
     3
  0
STYLE
  5
11
330
3
100
AcDbSymbolTableRecord
100
AcDbTextStyleTableRecord
  2
Standard
 70
     0
 40
0.0
 41
1.0
 50
0.0
 71
     0
 42
2.5
  3
arial.ttf
  4

1001
ACAD
1000
Arial
1071
       34
  0
STYLE
  5
132
330
3
100
AcDbSymbolTableRecord
100
AcDbTextStyleTableRecord
  2
Annotative
 70
     0
 40
0.0
 41
1.0
 50
0.0
 71
     0
 42
2.5
  3
arial.ttf
  4

1001
AcadAnnotative
1000
AnnotativeData
1002
{
1070
     1
1070
     1
1002
}
1001
ACAD
1000
Arial
1071
       34
  0
ENDTAB
  0
TABLE
  2
VIEW
  5
6
330
0
100
AcDbSymbolTable
 70
     0
  0
ENDTAB
  0
TABLE
  2
UCS
  5
7
330
0
100
AcDbSymbolTable
 70
     0
  0
ENDTAB
  0
TABLE
  2
APPID
  5
9
330
0
100
AcDbSymbolTable
 70
     8
  0
APPID
  5
12
330
9
100
AcDbSymbolTableRecord
100
AcDbRegAppTableRecord
  2
ACAD
 70
     0
  0
APPID
  5
9E
330
9
100
AcDbSymbolTableRecord
100
AcDbRegAppTableRecord
  2
ACAD_PSEXT
 70
     0
  0
APPID
  5
133
330
9
100
AcDbSymbolTableRecord
100
AcDbRegAppTableRecord
  2
AcadAnnoPO
 70
     0
  0
APPID
  5
134
330
9
100
AcDbSymbolTableRecord
100
AcDbRegAppTableRecord
  2
AcadAnnotative
 70
     0
  0
APPID
  5
135
330
9
100
AcDbSymbolTableRecord
100
AcDbRegAppTableRecord
  2
ACAD_DSTYLE_DIMJAG
 70
     0
  0
APPID
  5
136
330
9
100
AcDbSymbolTableRecord
100
AcDbRegAppTableRecord
  2
ACAD_DSTYLE_DIMTALN
 70
     0
  0
APPID
  5
165
330
9
100
AcDbSymbolTableRecord
100
AcDbRegAppTableRecord
  2
ACAD_MLEADERVER
 70
     0
  0
APPID
  5
217
330
9
100
AcDbSymbolTableRecord
100
AcDbRegAppTableRecord
  2
ACAD_NAV_VCDISPLAY
 70
     0
  0
ENDTAB
  0
TABLE
  2
DIMSTYLE
  5
A
330
0
100
AcDbSymbolTable
 70
     4
100
AcDbDimStyleTable
 71
     2
340
27
340
137
  0
DIMSTYLE
105
1B0
330
A
100
AcDbSymbolTableRecord
100
AcDbDimStyleTableRecord
  2
Standard
 70
     0
340
11
  0
DIMSTYLE
105
137
330
A
100
AcDbSymbolTableRecord
100
AcDbDimStyleTableRecord
  2
Annotative
 70
     0
 40
0.0
 41
2.5
 42
0.625
 43
3.75
 44
1.25
 73
     0
 74
     0
 77
     1
 78
     8
140
2.5
141
2.5
143
0.03937007874016
147
0.625
171
     3
172
     1
271
     2
272
     2
274
     3
278
    44
283
     0
284
     8
340
11
1001
AcadAnnotative
1000
AnnotativeData
1002
{
1070
     1
1070
     1
1002
}
1001
ACAD_DSTYLE_DIMJAG
1070
   388
1040
1.5
1001
ACAD_DSTYLE_DIMTALN
1070
   392
1070
     0
  0
DIMSTYLE
105
27
330
A
100
AcDbSymbolTableRecord
100
AcDbDimStyleTableRecord
  2
ISO-25
 70
     0
 41
2.5
 42
0.625
 43
3.75
 44
1.25
 73
     0
 74
     0
 77
     1
 78
     8
140
2.5
141
2.5
143
0.03937007874016
147
0.625
171
     3
172
     1
271
     2
272
     2
274
     3
278
    44
283
     0
284
     8
340
11
  0
ENDTAB
  0
TABLE
  2
BLOCK_RECORD
  5
1
330
0
100
AcDbSymbolTable
 70
     3
  0
BLOCK_RECORD
  5
1F
102
{ACAD_XDICTIONARY
360
1CE
102
}
330
1
100
AcDbSymbolTableRecord
100
AcDbBlockTableRecord
  2
*Model_Space
340
22
 70
     0
280
     1
281
     0
  0
BLOCK_RECORD
  5
D2
330
1
100
AcDbSymbolTableRecord
100
AcDbBlockTableRecord
  2
*Paper_Space
340
D3
 70
     0
280
     1
281
     0
  0
BLOCK_RECORD
  5
D6
330
1
100
AcDbSymbolTableRecord
100
AcDbBlockTableRecord
  2
*Paper_Space0
340
D7
 70
     0
280
     1
281
     0
  0
ENDTAB
  0
ENDSEC
  0
SECTION
  2
BLOCKS
  0
BLOCK
  5
20
330
1F
100
AcDbEntity
  8
0
100
AcDbBlockBegin
  2
*Model_Space
 70
     0
 10
0.0
 20
0.0
 30
0.0
  3
*Model_Space
  1

  0
ENDBLK
  5
21
330
1F
100
AcDbEntity
  8
0
100
AcDbBlockEnd
  0
BLOCK
  5
D4
330
D2
100
AcDbEntity
 67
     1
  8
0
100
AcDbBlockBegin
  2
*Paper_Space
 70
     0
 10
0.0
 20
0.0
 30
0.0
  3
*Paper_Space
  1

  0
ENDBLK
  5
D5
330
D2
100
AcDbEntity
 67
     1
  8
0
100
AcDbBlockEnd
  0
BLOCK
  5
D8
330
D6
100
AcDbEntity
 67
     1
  8
0
100
AcDbBlockBegin
  2
*Paper_Space0
 70
     0
 10
0.0
 20
0.0
 30
0.0
  3
*Paper_Space0
  1

  0
ENDBLK
  5
D9
330
D6
100
AcDbEntity
 67
     1
  8
0
100
AcDbBlockEnd
  0
ENDSEC
  0
SECTION
  2
ENTITIES
  0
SPLINE
  5
3A4
330
1F
100
AcDbEntity
  8
0
100
AcDbSpline
210
0.0
220
0.0
230
1.0
 70
     8
 71
     3
 72
    11
 73
     7
 74
     0
 42
0.000000001
 43
0.0000000001
 40
0.0
 40
0.0
 40
0.0
 40
0.0
 40
0.206586184924337
 40
0.562585182750225
 40
0.8330531928148246
 40
1.0
 40
1.0
 40
1.0
 40
1.0
 10
396.0133803537203
 20
197.4017501230432
 30
0.0
 10
396.0186595274668
 20
197.4035287954926
 30
0.0
 10
396.0330360208808
 20
197.408372559684
 30
0.0
 10
396.049471142084
 20
197.4201758487316
 30
0.0
 10
396.0604431098638
 20
197.4362813052423
 30
0.0
 10
396.0604932917344
 20
197.4467266459823
 30
0.0
 10
396.0605124444991
 20
197.4507132879928
 30
0.0
  0
LINE
  5
3A5
330
1F
100
AcDbEntity
  8
0
100
AcDbLine
 10
396.0613663726178
 20
197.4495068628903
 30
0.0
 11
396.0625124413898
 21
197.4909502524822
 31
0.0
  0
SPLINE
  5
3A6
330
1F
100
AcDbEntity
  8
0
100
AcDbSpline
210
0.0
220
0.0
230
1.0
 70
     8
 71
     3
 72
    10
 73
     6
 74
     0
 42
0.000000001
 43
0.0000000001
 40
0.0
 40
0.0
 40
0.0
 40
0.0
 40
0.1179831249703958
 40
0.6054487769297793
 40
1.0
 40
1.0
 40
1.0
 40
1.0
 10
394.5634282850858
 20
197.3895674433916
 30
0.0
 10
394.5632614588055
 20
197.3881587238301
 30
0.0
 10
394.5624053637716
 20
197.3809296600485
 30
0.0
 10
394.5681926869914
 20
197.3693801981604
 30
0.0
 10
394.5755231249651
 20
197.361873507611
 30
0.0
 10
394.5788022382678
 20
197.3585155515204
 30
0.0
  0
LINE
  5
3A7
330
1F
100
AcDbEntity
  8
0
100
AcDbLine
 10
394.5615326690211
 20
197.431749219039
 30
0.0
 11
394.5626774620613
 21
197.390002610034
 31
0.0
  0
LINE
  5
3A8
330
1F
100
AcDbEntity
  8
0
100
AcDbLine
 10
394.967374564736
 20
197.0997942611383
 30
0.0
 11
396.0133803537204
 21
197.4017501230586
 31
0.0
  0
LINE
  5
3A9
330
1F
100
AcDbEntity
  8
0
100
AcDbLine
 10
394.5788022382289
 20
197.3585155515087
 30
0.0
 11
394.8587492384223
 21
197.116074337667
 31
0.0
  0
SPLINE
  5
3AA
330
1F
100
AcDbEntity
  8
0
100
AcDbSpline
210
0.0
220
0.0
230
1.0
 70
     8
 71
     3
 72
    12
 73
     8
 74
     0
 42
0.000000001
 43
0.0000000001
 40
0.0
 40
0.0
 40
0.0
 40
0.0
 40
0.1574428475352137
 40
0.4255139692532686
 40
0.700241289172373
 40
0.9562028295221312
 40
1.0
 40
1.0
 40
1.0
 40
1.0
 10
394.8587492383821
 20
197.1160743377082
 30
0.0
 10
394.8629413726328
 20
197.1129704041058
 30
0.0
 10
394.8742712724191
 20
197.1045815371098
 30
0.0
 10
394.899331448599
 20
197.0963992010659
 30
0.0
 10
394.9317474209043
 20
197.093478247113
 30
0.0
 10
394.9549032496462
 20
197.0963740668597
 30
0.0
 10
394.9657846972699
 20
197.0993582481148
 30
0.0
 10
394.9673745647179
 20
197.099794261116
 30
0.0
  0
SPLINE
  5
3AB
330
1F
100
AcDbEntity
  8
0
100
AcDbSpline
210
0.0
220
0.0
230
1.0
 70
     8
 71
     3
 72
    12
 73
     8
 74
     0
 42
0.000000001
 43
0.0000000001
 40
0.0
 40
0.0
 40
0.0
 40
0.0
 40
0.2018396905986587
 40
0.4441819590329593
 40
0.6983751139884
 40
0.8832847024663978
 40
1.0
 40
1.0
 40
1.0
 40
1.0
 10
395.5744231608485
 20
197.4833177296209
 30
0.0
 10
395.5846550389258
 20
197.4832503754673
 30
0.0
 10
395.6071719959993
 20
197.4831021514001
 30
0.0
 10
395.6397007147009
 20
197.4922447195633
 30
0.0
 10
395.6635243766784
 20
197.5072067609693
 30
0.0
 10
395.6768808503541
 20
197.5255739917086
 30
0.0
 10
395.6771455787276
 20
197.5374776948343
 30
0.0
 10
395.6772480167302
 20
197.5420838938467
 30
0.0
  0
SPLINE
  5
3AC
330
1F
100
AcDbEntity
  8
0
100
AcDbSpline
210
0.0
220
0.0
230
1.0
 70
     8
 71
     3
 72
    13
 73
     9
 74
     0
 42
0.000000001
 43
0.0000000001
 40
0.0
 40
0.0
 40
0.0
 40
0.0
 40
0.0819312965015498
 40
0.2616079585093969
 40
0.4536099379265759
 40
0.6965894858713893
 40
0.9588641837214233
 40
1.0
 40
1.0
 40
1.0
 40
1.0
 10
395.484952790979
 20
197.5425503989127
 30
0.0
 10
395.4846723004715
 20
197.539603484215
 30
0.0
 10
395.4837766897318
 20
197.5301939377914
 30
0.0
 10
395.4921577686903
 20
197.5151906165756
 30
0.0
 10
395.5083534535063
 20
197.4998593197906
 30
0.0
 10
395.534093366038
 20
197.4885479138289
 30
0.0
 10
395.5585533132096
 20
197.4825761883682
 30
0.0
 10
395.5725284399381
 20
197.4832291960855
 30
0.0
 10
395.5744231608485
 20
197.4833177296209
 30
0.0
  0
LINE
  5
3AD
330
1F
100
AcDbEntity
  8
0
100
AcDbLine
 10
395.483816765062
 20
197.603028149642
 30
0.0
 11
395.483816765062
 21
197.5420813346368
 31
0.0
  0
LINE
  5
3AE
330
1F
100
AcDbEntity
  8
0
100
AcDbLine
 10
395.6781964237633
 20
197.542081563313
 30
0.0
 11
395.6781964237633
 21
197.6030359036409
 31
0.0
  0
SPLINE
  5
3AF
330
1F
100
AcDbEntity
  8
0
100
AcDbSpline
210
0.0
220
0.0
230
1.0
 70
     8
 71
     3
 72
    13
 73
     9
 74
     0
 42
0.000000001
 43
0.0000000001
 40
0.0
 40
0.0
 40
0.0
 40
0.0
 40
0.0807420116254217
 40
0.3042993008877847
 40
0.5320771040456451
 40
0.7411269442674568
 40
0.9258890084757668
 40
1.0
 40
1.0
 40
1.0
 40
1.0
 10
395.1869423372374
 20
197.3593657681768
 30
0.0
 10
395.1917671447601
 20
197.3591072210293
 30
0.0
 10
395.2099508080916
 20
197.3581328123586
 30
0.0
 10
395.2410873371486
 20
197.3642226863209
 30
0.0
 10
395.2738645411272
 20
197.3769268721596
 30
0.0
 10
395.2957910789363
 20
197.3953722581809
 30
0.0
 10
395.3071686078583
 20
197.4143049134783
 30
0.0
 10
395.305949886693
 20
197.4257280024972
 30
0.0
 10
395.3056009873698
 20
197.4289982403018
 30
0.0
  0
SPLINE
  5
3B0
330
1F
100
AcDbEntity
  8
0
100
AcDbSpline
210
0.0
220
0.0
230
1.0
 70
     8
 71
     3
 72
    13
 73
     9
 74
     0
 42
0.000000001
 43
0.0000000001
 40
0.0
 40
0.0
 40
0.0
 40
0.0
 40
0.0455833087987141
 40
0.2274574889281346
 40
0.4151560434183076
 40
0.6279368432437284
 40
0.8557818410756066
 40
1.0
 40
1.0
 40
1.0
 40
1.0
 10
395.070530009743
 20
197.4290373928666
 30
0.0
 10
395.0701857155469
 20
197.4270811311602
 30
0.0
 10
395.0684677118444
 20
197.4173195235199
 30
0.0
 10
395.0774842687833
 20
197.3999399165245
 30
0.0
 10
395.0956404149319
 20
197.3816053211851
 30
0.0
 10
395.124089180098
 20
197.3676712609757
 30
0.0
 10
395.1562907637008
 20
197.3593955613219
 30
0.0
 10
395.1783801185993
 20
197.3593740906018
 30
0.0
 10
395.1869423372374
 20
197.3593657681768
 30
0.0
  0
LINE
  5
3B1
330
1F
100
AcDbEntity
  8
0
100
AcDbLine
 10
395.0694321867519
 20
197.4919991028416
 30
0.0
 11
395.0694321867519
 21
197.4286935363966
 31
0.0
  0
LINE
  5
3B2
330
1F
100
AcDbEntity
  8
0
100
AcDbLine
 10
395.3070072370845
 20
197.428693749177
 30
0.0
 11
395.3070072370845
 21
197.492007677034
 31
0.0
  0
SPLINE
  5
3B3
330
1F
100
AcDbEntity
  8
0
100
AcDbSpline
210
0.0
220
0.0
230
1.0
 70
     8
 71
     3
 72
     9
 73
     5
 74
     0
 42
0.000000001
 43
0.0000000001
 40
0.0
 40
0.0
 40
0.0
 40
0.0
 40
0.4598887265575576
 40
1.0
 40
1.0
 40
1.0
 40
1.0
 10
391.9216578719156
 20
196.644845927149
 30
0.0
 10
391.9282517358412
 20
196.6313661293046
 30
0.0
 10
391.9425896909698
 20
196.6020551306519
 30
0.0
 10
391.9693340969982
 20
196.5760322241412
 30
0.0
 10
391.9837790521956
 20
196.5619769589671
 30
0.0
  0
SPLINE
  5
3B4
330
1F
100
AcDbEntity
  8
0
100
AcDbSpline
210
0.0
220
0.0
230
1.0
 70
     8
 71
     3
 72
    15
 73
    11
 74
     0
 42
0.000000001
 43
0.0000000001
 40
0.0
 40
0.0
 40
0.0
 40
0.0
 40
0.1324609063746903
 40
0.2605707432565254
 40
0.3857298213926778
 40
0.5111802715704385
 40
0.6440394121350995
 40
0.7859199275468946
 40
0.9379481916813713
 40
1.0
 40
1.0
 40
1.0
 40
1.0
 10
392.0655372848873
 20
196.5072792027296
 30
0.0
 10
392.092083782687
 20
196.4948668679369
 30
0.0
 10
392.1443047802012
 20
196.4704499181291
 30
0.0
 10
392.231763205221
 20
196.4471001034545
 30
0.0
 10
392.3215157587803
 20
196.4329702652745
 30
0.0
 10
392.4150124748219
 20
196.4284248798826
 30
0.0
 10
392.5130217754246
 20
196.4336129838631
 30
0.0
 10
392.6132012558137
 20
196.4513860321167
 30
0.0
 10
392.6932540076976
 20
196.4738979955538
 30
0.0
 10
392.7320417412805
 20
196.4949106456178
 30
0.0
 10
392.7432844925642
 20
196.5010012308792
 30
0.0
  0
SPLINE
  5
3B5
330
1F
100
AcDbEntity
  8
0
100
AcDbSpline
210
0.0
220
0.0
230
1.0
 70
     8
 71
     3
 72
     9
 73
     5
 74
     0
 42
0.000000001
 43
0.0000000001
 40
0.0
 40
0.0
 40
0.0
 40
0.0
 40
0.2323661982389986
 40
1.0
 40
1.0
 40
1.0
 40
1.0
 10
392.8449733281638
 20
196.5680570865943
 30
0.0
 10
392.8522254051726
 20
196.5737665130471
 30
0.0
 10
392.8834350951526
 20
196.5983373262549
 30
0.0
 10
392.8973564907586
 20
196.6286337403933
 30
0.0
 10
392.9080430245934
 20
196.6518902919579
 30
0.0
  0
SPLINE
  5
3B6
330
1F
100
AcDbEntity
  8
0
100
AcDbSpline
210
0.0
220
0.0
230
1.0
 70
     8
 71
     3
 72
     9
 73
     5
 74
     0
 42
0.000000001
 43
0.0000000001
 40
0.0
 40
0.0
 40
0.0
 40
0.0
 40
0.2328125414153839
 40
1.0
 40
1.0
 40
1.0
 40
1.0
 10
391.7227690548336
 20
196.2441342534719
 30
0.0
 10
391.7300171599363
 20
196.2498407159815
 30
0.0
 10
391.7611499548389
 20
196.2743516915277
 30
0.0
 10
391.7750661422202
 20
196.3045930815797
 30
0.0
 10
391.7857424666506
 20
196.3277938967576
 30
0.0
  0
LINE
  5
3B7
330
1F
100
AcDbEntity
  8
0
100
AcDbLine
 10
359.8263325612728
 20
185.8410432733813
 30
0.0
 11
406.2500080960307
 21
199.2424040567453
 31
0.0
  0
LINE
  5
3B8
330
1F
100
AcDbEntity
  8
0
100
AcDbLine
 10
406.3227486928559
 20
199.8909014374857
 30
0.0
 11
404.9353683630286
 21
201.0924080477657
 31
0.0
  0
SPLINE
  5
3B9
330
1F
100
AcDbEntity
  8
0
100
AcDbSpline
210
0.0
220
0.0
230
1.0
 70
     8
 71
     3
 72
    12
 73
     8
 74
     0
 42
0.000000001
 43
0.0000000001
 40
0.0
 40
0.0
 40
0.0
 40
0.0
 40
0.0834775661538329
 40
0.2605704493779896
 40
0.4565578845154663
 40
0.7246286662456493
 40
1.0
 40
1.0
 40
1.0
 40
1.0
 10
406.354568452265
 20
199.2737978336058
 30
0.0
 10
406.3557174599892
 20
199.2740322332571
 30
0.0
 10
406.3593040218984
 20
199.2747638983655
 30
0.0
 10
406.3637886178888
 20
199.2797264555967
 30
0.0
 10
406.3674579480966
 20
199.2876758316922
 30
0.0
 10
406.3689912776172
 20
199.2992064240658
 30
0.0
 10
406.3675376342068
 20
199.3089978992103
 30
0.0
 10
406.3668010484449
 20
199.3139594056764
 30
0.0
  0
LINE
  5
3BA
330
1F
100
AcDbEntity
  8
0
100
AcDbLine
 10
406.2500080960307
 20
199.2424040567453
 30
0.0
 11
406.3547011500161
 21
199.2733336198968
 31
0.0
  0
SPLINE
  5
3BB
330
1F
100
AcDbEntity
  8
0
100
AcDbSpline
210
0.0
220
0.0
230
1.0
 70
     8
 71
     3
 72
    11
 73
     7
 74
     0
 42
0.000000001
 43
0.0000000001
 40
0.0
 40
0.0
 40
0.0
 40
0.0
 40
0.3097708450478694
 40
0.5812776826880312
 40
0.8085771522339076
 40
1.0
 40
1.0
 40
1.0
 40
1.0
 10
406.3668010484449
 20
199.3139594056764
 30
0.0
 10
406.366592699645
 20
199.315218441145
 30
0.0
 10
406.3662017380375
 20
199.3175809914989
 30
0.0
 10
406.3662379415514
 20
199.3202455501628
 30
0.0
 10
406.3665256259008
 20
199.3218196756222
 30
0.0
 10
406.3665952833936
 20
199.3219730210562
 30
0.0
 10
406.3666271279719
 20
199.3220431243645
 30
0.0
  0
LINE
  5
3BC
330
1F
100
AcDbEntity
  8
0
100
AcDbLine
 10
406.3666970447357
 20
199.3218059622116
 30
0.0
 11
406.3977542516421
 21
199.3461042654871
 31
0.0
  0
LINE
  5
3BD
330
1F
100
AcDbEntity
  8
0
100
AcDbLine
 10
406.4023190357742
 20
199.4290055030218
 30
0.0
 11
406.3461864050562
 21
199.8404651377375
 31
0.0
  0
SPLINE
  5
3BE
330
1F
100
AcDbEntity
  8
0
100
AcDbSpline
210
0.0
220
0.0
230
1.0
 70
     8
 71
     3
 72
    10
 73
     6
 74
     0
 42
0.000000001
 43
0.0000000001
 40
0.0
 40
0.0
 40
0.0
 40
0.0
 40
0.349782144901749
 40
0.6507314763285115
 40
1.0
 40
1.0
 40
1.0
 40
1.0
 10
406.3977542516163
 20
199.3461042654855
 30
0.0
 10
406.3989402140441
 20
199.3473233543752
 30
0.0
 10
406.4011465676068
 20
199.3495913361019
 30
0.0
 10
406.4026873187222
 20
199.3540844450201
 30
0.0
 10
406.4028758198571
 20
199.3572564667645
 30
0.0
 10
406.4029770744022
 20
199.3589603377718
 30
0.0
  0
LINE
  5
3BF
330
1F
100
AcDbEntity
  8
0
100
AcDbLine
 10
406.4029770743938
 20
199.3589603377295
 30
0.0
 11
406.4029770743938
 21
199.4197449416345
 31
0.0
  0
LINE
  5
3C0
330
1F
100
AcDbEntity
  8
0
100
AcDbLine
 10
406.4029770743938
 20
199.4197449416345
 30
0.0
 11
406.4023190357742
 21
199.4290055030218
 31
0.0
  0
SPLINE
  5
3C1
330
1F
100
AcDbEntity
  8
0
100
AcDbSpline
210
0.0
220
0.0
230
1.0
 70
     8
 71
     3
 72
    11
 73
     7
 74
     0
 42
0.000000001
 43
0.0000000001
 40
0.0
 40
0.0
 40
0.0
 40
0.0
 40
0.2156573996233644
 40
0.5195042221122093
 40
0.8307184319418258
 40
1.0
 40
1.0
 40
1.0
 40
1.0
 10
406.3461864050797
 20
199.8404651377052
 30
0.0
 10
406.3454380311407
 20
199.8447204078869
 30
0.0
 10
406.3436352484782
 20
199.854971068562
 30
0.0
 10
406.3375774061388
 20
199.8710696118726
 30
0.0
 10
406.3300750388485
 20
199.8837372924031
 30
0.0
 10
406.3246573702541
 20
199.8890350170255
 30
0.0
 10
406.3227486928483
 20
199.8909014374448
 30
0.0
  0
LINE
  5
3C2
330
1F
100
AcDbEntity
  8
0
100
AcDbLine
 10
358.2093418019007
 20
187.2232071744931
 30
0.0
 11
358.241375362149
 21
187.1426612337197
 31
0.0
  0
SPLINE
  5
3C3
330
1F
100
AcDbEntity
  8
0
100
AcDbSpline
210
0.0
220
0.0
230
1.0
 70
     8
 71
     3
 72
    10
 73
     6
 74
     0
 42
0.000000001
 43
0.0000000001
 40
0.0
 40
0.0
 40
0.0
 40
0.0
 40
0.0707663612754914
 40
0.5965993844856922
 40
1.0
 40
1.0
 40
1.0
 40
1.0
 10
358.2424756750316
 20
187.1058141544733
 30
0.0
 10
358.2425138426565
 20
187.1051502835161
 30
0.0
 10
358.2428356167476
 20
187.0995534858669
 30
0.0
 10
358.2461891339202
 20
187.089186167373
 30
0.0
 10
358.2501368004646
 20
187.0812698979263
 30
0.0
 10
358.2518505687222
 20
187.0778332724811
 30
0.0
  0
SPLINE
  5
3C4
330
1F
100
AcDbEntity
  8
0
100
AcDbSpline
210
0.0
220
0.0
230
1.0
 70
     8
 71
     3
 72
     9
 73
     5
 74
     0
 42
0.000000001
 43
0.0000000001
 40
0.0
 40
0.0
 40
0.0
 40
0.0
 40
0.4589107587144361
 40
1.0
 40
1.0
 40
1.0
 40
1.0
 10
358.2432242776679
 20
187.1292695194905
 30
0.0
 10
358.2424708974292
 20
187.1260853405221
 30
0.0
 10
358.240829226964
 20
187.1191467824083
 30
0.0
 10
358.2418975934307
 20
187.1104953509546
 30
0.0
 10
358.2424756750316
 20
187.1058141544733
 30
0.0
  0
SPLINE
  5
3C5
330
1F
100
AcDbEntity
  8
0
100
AcDbSpline
210
0.0
220
0.0
230
1.0
 70
     8
 71
     3
 72
     9
 73
     5
 74
     0
 42
0.000000001
 43
0.0000000001
 40
0.0
 40
0.0
 40
0.0
 40
0.0
 40
0.4858602277137507
 40
1.0
 40
1.0
 40
1.0
 40
1.0
 10
358.2068225233983
 20
187.2357546222805
 30
0.0
 10
358.2069352744148
 20
187.2337197736371
 30
0.0
 10
358.2071673391323
 20
187.2295316377757
 30
0.0
 10
358.2086034435349
 20
187.2253547028762
 30
0.0
 10
358.2093418019253
 20
187.2232071745182
 30
0.0
  0
LINE
  5
3C6
330
1F
100
AcDbEntity
  8
0
100
AcDbLine
 10
358.206822523375
 20
187.296539226106
 30
0.0
 11
358.206822523375
 21
187.2357546222873
 31
0.0
  0
SPLINE
  5
3C7
330
1F
100
AcDbEntity
  8
0
100
AcDbSpline
210
0.0
220
0.0
230
1.0
 70
     8
 71
     3
 72
    12
 73
     8
 74
     0
 42
0.000000001
 43
0.0000000001
 40
0.0
 40
0.0
 40
0.0
 40
0.0
 40
0.2481684625787956
 40
0.5048888998256024
 40
0.7195452079994053
 40
0.8994475791686852
 40
1.0
 40
1.0
 40
1.0
 40
1.0
 10
358.2413753621307
 20
187.1426612336991
 30
0.0
 10
358.2418416044214
 20
187.1413430765224
 30
0.0
 10
358.2427901558802
 20
187.1386613379979
 30
0.0
 10
358.2434856614321
 20
187.1346664650724
 30
0.0
 10
358.243606617265
 20
187.1315985530242
 30
0.0
 10
358.2433959895929
 20
187.1298702354199
 30
0.0
 10
358.2432695945259
 20
187.1294280557042
 30
0.0
 10
358.2432242776679
 20
187.1292695194905
 30
0.0
  0
LINE
  5
3C8
330
1F
100
AcDbEntity
  8
0
100
AcDbLine
 10
358.2075347803775
 20
187.3051520871645
 30
0.0
 11
358.206822523375
 21
187.296539226106
 31
0.0
  0
LINE
  5
3C9
330
1F
100
AcDbEntity
  8
0
100
AcDbLine
 10
358.2255847247188
 20
187.4061976070137
 30
0.0
 11
358.2075347803775
 21
187.3051520871645
 31
0.0
  0
LINE
  5
3CA
330
1F
100
AcDbEntity
  8
0
100
AcDbLine
 10
359.7212625633313
 20
185.8114194128077
 30
0.0
 11
359.7888492952535
 21
185.8302232510221
 31
0.0
  0
LINE
  5
3CB
330
1F
100
AcDbEntity
  8
0
100
AcDbLine
 10
359.7174246298401
 20
185.8108686913301
 30
0.0
 11
359.7210386402309
 21
185.8118623552986
 31
0.0
  0
LINE
  5
3CC
330
1F
100
AcDbEntity
  8
0
100
AcDbLine
 10
403.9906432452819
 20
202.8483133147776
 30
0.0
 11
398.3885508733046
 21
201.2311285452641
 31
0.0
  0
LINE
  5
3CD
330
1F
100
AcDbEntity
  8
0
100
AcDbLine
 10
384.4507914391361
 20
197.2076439646719
 30
0.0
 11
357.3948922914498
 21
189.3972786365792
 31
0.0
  0
LINE
  5
3CE
330
1F
100
AcDbEntity
  8
0
100
AcDbLine
 10
358.1374494878061
 20
187.3807551092128
 30
0.0
 11
384.3817313335559
 21
194.9568267034247
 31
0.0
  0
LINE
  5
3CF
330
1F
100
AcDbEntity
  8
0
100
AcDbLine
 10
399.3045034753271
 20
199.2646599599017
 30
0.0
 11
404.8977974228706
 21
200.8793048430748
 31
0.0
  0
LINE
  5
3D0
330
1F
100
AcDbEntity
  8
0
100
AcDbLine
 10
406.3964995258945
 20
199.4716722935189
 30
0.0
 11
406.4915184957563
 21
199.4991019074267
 31
0.0
  0
LINE
  5
3D1
330
1F
100
AcDbEntity
  8
0
100
AcDbLine
 10
407.2957691481446
 20
200.0251763417935
 30
0.0
 11
407.2823406728923
 21
200.0368057426095
 31
0.0
  0
LINE
  5
3D2
330
1F
100
AcDbEntity
  8
0
100
AcDbLine
 10
357.3873346048103
 20
189.3826870509165
 30
0.0
 11
357.3465247238845
 21
189.3714969651035
 31
0.0
  0
ARC
  5
3D3
330
1F
100
AcDbEntity
  8
0
100
AcDbCircle
 10
357.3533783767948
 20
189.3465023170455
 30
0.0
 40
0.0259172154890149
100
AcDbArc
 50
105.3338028952994
 51
168.6480582833005
  0
ARC
  5
3D4
330
1F
100
AcDbEntity
  8
0
100
AcDbCircle
 10
404.0688336283941
 20
202.8320958242639
 30
0.0
 40
0.0259172154890192
100
AcDbArc
 50
49.1066053508982
 51
106.872213136199
  0
LINE
  5
3D5
330
1F
100
AcDbEntity
  8
0
100
AcDbLine
 10
404.0613120576535
 20
202.8568976336387
 30
0.0
 11
404.0103736991099
 21
202.8414483734513
 31
0.0
  0
LINE
  5
3D6
330
1F
100
AcDbEntity
  8
0
100
AcDbLine
 10
407.2733904698686
 20
200.0911531867406
 30
0.0
 11
404.0858002821114
 21
202.8516872662688
 31
0.0
  0
LINE
  5
3D7
330
1F
100
AcDbEntity
  8
0
100
AcDbLine
 10
407.2823406800287
 20
200.0359004580641
 30
0.0
 11
407.2823403989145
 21
200.0715613462154
 31
0.0
  0
ARC
  5
3D8
330
1F
100
AcDbEntity
  8
0
100
AcDbCircle
 10
407.2564239705314
 20
200.0715616111758
 30
0.0
 40
0.0259172154890273
100
AcDbArc
 50
0.0
 51
49.10660535079892
  0
LINE
  5
3D9
330
1F
100
AcDbEntity
  8
0
100
AcDbLine
 10
399.3045036063818
 20
198.1780695438546
 30
0.0
 11
399.3045036063818
 21
199.2660930491357
 31
0.0
  0
LINE
  5
3DA
330
1F
100
AcDbEntity
  8
0
100
AcDbLine
 10
392.9564525041603
 20
196.2897549776776
 30
0.0
 11
399.2734034790979
 21
198.1133016506192
 31
0.0
  0
SPLINE
  5
3DB
330
1F
100
AcDbEntity
  8
0
100
AcDbSpline
210
0.0
220
0.0
230
1.0
 70
     8
 71
     3
 72
     9
 73
     5
 74
     0
 42
0.000000001
 43
0.0000000001
 40
0.0
 40
0.0
 40
0.0
 40
0.0
 40
0.4443011513693526
 40
1.0
 40
1.0
 40
1.0
 40
1.0
 10
392.8203793477308
 20
196.2622948333534
 30
0.0
 10
392.8398190187743
 20
196.2678414966794
 30
0.0
 10
392.8835723851197
 20
196.2803255141279
 30
0.0
 10
392.9264048848322
 20
196.284355977897
 30
0.0
 10
392.9502068556065
 20
196.286595701973
 30
0.0
  0
ARC
  5
3DC
330
1F
100
AcDbEntity
  8
0
100
AcDbCircle
 10
392.9474676654026
 20
196.3208805436588
 30
0.0
 40
0.0323965193612841
100
AcDbArc
 50
275.4515374778014
 51
286.1021137519991
  0
LINE
  5
3DD
330
1F
100
AcDbEntity
  8
0
100
AcDbLine
 10
391.6982265338605
 20
195.9397995605574
 30
0.0
 11
392.8204749289004
 21
196.2637647670423
 31
0.0
  0
SPLINE
  5
3DE
330
1F
100
AcDbEntity
  8
0
100
AcDbSpline
210
0.0
220
0.0
230
1.0
 70
     8
 71
     3
 72
    10
 73
     6
 74
     0
 42
0.000000001
 43
0.0000000001
 40
0.0
 40
0.0
 40
0.0
 40
0.0
 40
0.2232322133390887
 40
0.929520302335851
 40
1.0
 40
1.0
 40
1.0
 40
1.0
 10
391.5677421250211
 20
195.8869963325952
 30
0.0
 10
391.5773166347197
 20
195.8918118764525
 30
0.0
 10
391.6171840938853
 20
195.911863399103
 30
0.0
 10
391.6612132428379
 20
195.9270309448265
 30
0.0
 10
391.6951242129252
 20
195.9364125871342
 30
0.0
 10
391.6982011105003
 20
195.9372638264941
 30
0.0
  0
ARC
  5
3DF
330
1F
100
AcDbEntity
  8
0
100
AcDbCircle
 10
391.553263664823
 20
195.9184085161778
 30
0.0
 40
0.0323965193612815
100
AcDbArc
 50
286.1021137519991
 51
295.7301064229984
  0
LINE
  5
3E0
330
1F
100
AcDbEntity
  8
0
100
AcDbLine
 10
385.2452985411424
 20
194.0637365695148
 30
0.0
 11
391.5622489586007
 21
195.8872830815105
 31
0.0
  0
LINE
  5
3E1
330
1F
100
AcDbEntity
  8
0
100
AcDbLine
 10
384.3817313175737
 20
196.9079901965665
 30
0.0
 11
384.3817313175737
 21
194.8040021996291
 31
0.0
  0
LINE
  5
3E2
330
1F
100
AcDbEntity
  8
0
100
AcDbLine
 10
384.4037180675099
 20
194.7514565302815
 30
0.0
 11
385.1745870896814
 21
194.0838643740823
 31
0.0
  0
ELLIPSE
  5
3E3
330
1F
100
AcDbEntity
  8
0
100
AcDbEllipse
 10
394.6479394476115
 20
197.4323349246971
 30
0.0
 11
0.0864152729551024
 21
-0.000008769785986
 31
0.0
210
0.0
220
0.0
230
1.0
 40
0.4998681179
 41
2.982478662197955
 42
3.155354716431924
  0
ELLIPSE
  5
3E4
330
1F
100
AcDbEntity
  8
0
100
AcDbEllipse
 10
395.976105122771
 20
197.4915534463
 30
0.0
 11
0.0864152729551147
 21
-0.000008769785986
 31
0.0
210
0.0
220
0.0
230
0.9999999999999998
 40
0.4998681179
 41
6.269423244337282
 42
6.476839974539044
  0
ELLIPSE
  5
3E5
330
1F
100
AcDbEntity
  8
0
100
AcDbEllipse
 10
395.6950448755402
 20
197.6742761394709
 30
0.0
 11
0.0647943610281939
 21
0.0000065813890116
 31
0.0
210
0.0
220
0.0
230
1.0
 40
0.5001318975000001
 41
0.5236241120382177
 42
2.094115852337374
  0
LINE
  5
3E6
330
1F
100
AcDbEntity
  8
0
100
AcDbLine
 10
396.0343091666733
 20
197.4451490517005
 30
0.0
 11
395.7511554973588
 21
197.6904853248129
 31
0.0
  0
ELLIPSE
  5
3E7
330
1F
100
AcDbEntity
  8
0
100
AcDbEllipse
 10
395.9781783326111
 20
197.428956871415
 30
0.0
 11
0.0648114547163176
 21
-0.0000065773394895
 31
0.0
210
0.0
220
0.0
230
1.0
 40
0.4998681179
 41
5.236266914535733
 42
6.806758654834484
  0
ELLIPSE
  5
3E8
330
1F
100
AcDbEntity
  8
0
100
AcDbEllipse
 10
394.6404828061024
 20
197.3693517329832
 30
0.0
 11
0.0648114547163299
 21
-0.0000065773394895
 31
0.0
210
0.0
220
0.0
230
1.0
 40
0.4998681179
 41
2.094674260946225
 42
3.665166001245686
  0
LINE
  5
3E9
330
1F
100
AcDbEntity
  8
0
100
AcDbLine
 10
395.6626600900254
 20
197.7023414023749
 30
0.0
 11
394.608064258155
 21
197.3974072809683
 31
0.0
  0
LWPOLYLINE
  5
3EA
330
1F
100
AcDbEntity
  8
0
100
AcDbPolyline
 90
       17
 70
   128
 43
0.0
 10
395.7746145104866
 20
197.4982216214481
 10
395.7492709028451
 20
197.4871088253505
 10
395.7343618890016
 20
197.4719928350691
 10
395.7321577406635
 20
197.4551750100977
 10
395.7429931683885
 20
197.4392156135827
 10
395.7652180206472
 20
197.4265439678138
 10
395.795449341617
 20
197.4190895492698
 10
395.8290855117182
 20
197.4179873465082
 10
395.8610052429514
 20
197.4234050524659
 10
395.8863477356342
 20
197.4345175266717
 10
395.9012567495641
 20
197.4496335169531
 10
395.9034609783319
 20
197.4664512722072
 10
395.8926254701772
 20
197.4824107384394
 10
395.8704006983482
 20
197.4950823145775
 10
395.8401692968624
 20
197.5025368028388
 10
395.8065331268475
 20
197.5036390056004
 10
395.7746145104866
 20
197.4982216214481
  0
LWPOLYLINE
  5
3EB
330
1F
100
AcDbEntity
  8
0
100
AcDbPolyline
 90
       17
 70
   128
 43
0.0
 10
395.5127554738938
 20
197.4226294288218
 10
395.4874129811245
 20
197.4115169545296
 10
395.472503967281
 20
197.3964009643346
 10
395.470299818943
 20
197.3795831393632
 10
395.4811352466679
 20
197.3636237428482
 10
395.5033600989267
 20
197.3509520970793
 10
395.5335914199828
 20
197.3434976784489
 10
395.5672275899977
 20
197.3423954756873
 10
395.5991462063586
 20
197.3478128598396
 10
395.6244898140001
 20
197.3589256559372
 10
395.6393988278435
 20
197.3740416461323
 10
395.6416030566114
 20
197.3908594014727
 10
395.6307675484567
 20
197.406818867705
 10
395.6085427766277
 20
197.4194904437566
 10
395.5783113751418
 20
197.426944932018
 10
395.544675205127
 20
197.4280471347795
 10
395.5127554738938
 20
197.4226294288218
  0
LWPOLYLINE
  5
3EC
330
1F
100
AcDbEntity
  8
0
100
AcDbPolyline
 90
       17
 70
   128
 43
0.0
 10
395.2508975522596
 20
197.347037558001
 10
395.2255550594904
 20
197.3359250837951
 10
395.2106460456469
 20
197.3208090935137
 10
395.2084418973088
 20
197.3039912685424
 10
395.2192773250338
 20
197.2880318720274
 10
395.2415021772925
 20
197.2753602262585
 10
395.2717334982622
 20
197.2679058076281
 10
395.3053696683635
 20
197.2668036049529
 10
395.3372882847244
 20
197.2722209891051
 10
395.3626318922795
 20
197.2833337851163
 10
395.3775409062094
 20
197.2984497753978
 10
395.3797451349772
 20
197.3152675306519
 10
395.3689096268225
 20
197.3312269968841
 10
395.3466848549935
 20
197.3438985730222
 10
395.3164534535076
 20
197.3513530612835
 10
395.2828172834927
 20
197.3524552639587
 10
395.2508975522596
 20
197.347037558001
  0
LWPOLYLINE
  5
3ED
330
1F
100
AcDbEntity
  8
0
100
AcDbPolyline
 90
        5
 70
   128
 43
0.0
 10
395.5270164176563
 20
197.626256966321
 10
395.4953374052614
 20
197.6123661844113
 10
395.4767011580429
 20
197.593471179195
 10
395.4739456536874
 20
197.572448852388
 10
395.4838171696297
 20
197.5559648158397
  0
LWPOLYLINE
  5
3EE
330
1F
100
AcDbEntity
  8
0
100
AcDbPolyline
 90
        8
 70
   128
 43
0.0
 10
395.6781956218847
 20
197.5559570780822
 10
395.6853189378067
 20
197.5655217552725
 10
395.6880744421622
 20
197.5865440820794
 10
395.6745311718411
 20
197.6064937367184
 10
395.6467490720535
 20
197.6223329024068
 10
395.6089595817795
 20
197.6316508974667
 10
395.5669143490886
 20
197.6330286683048
 10
395.5270164176563
 20
197.626256966321
  0
LWPOLYLINE
  5
3EF
330
1F
100
AcDbEntity
  8
0
100
AcDbPolyline
 90
        6
 70
   128
 43
0.0
 10
395.1234301160386
 20
197.5222210877391
 10
395.0889543275049
 20
197.5077567866187
 10
395.0664522152937
 20
197.4882692260834
 10
395.0586370308379
 20
197.4661086739179
 10
395.0664520368105
 20
197.4439481708223
 10
395.0694329182222
 20
197.4402183604985
  0
LWPOLYLINE
  5
3F0
330
1F
100
AcDbEntity
  8
0
100
AcDbPolyline
 90
        9
 70
   128
 43
0.0
 10
395.3070063713631
 20
197.4402096579295
 10
395.3099941155671
 20
197.443948096008
 10
395.3178092999365
 20
197.4661086481735
 10
395.3099942135342
 20
197.4882692208999
 10
395.2874918246999
 20
197.5077568613467
 10
395.2530162104163
 20
197.5222211097688
 10
395.2107254159099
 20
197.5299173117439
 10
395.1657209147781
 20
197.529917391569
 10
395.1234301160386
 20
197.5222210877391
  0
LWPOLYLINE
  5
3F1
330
1F
100
AcDbEntity
  8
0
100
AcDbPolyline
 90
       17
 70
   128
 43
0.0
 10
394.9264486828461
 20
197.260858833456
 10
394.8947696703648
 20
197.2469680515462
 10
394.8761334231463
 20
197.2280730463299
 10
394.8733779187908
 20
197.207050719523
 10
394.8869222235544
 20
197.1871014564067
 10
394.9147032888994
 20
197.1712618991956
 10
394.9524927792599
 20
197.1619439041357
 10
394.9945379314346
 20
197.1605662030149
 10
395.0344370581689
 20
197.1673381570868
 10
395.0661159901341
 20
197.1812290087138
 10
395.0847512029965
 20
197.2001236224074
 10
395.0875067073519
 20
197.2211459493007
 10
395.0739634369444
 20
197.2410956038533
 10
395.0461813372433
 20
197.2569347695418
 10
395.0083918468828
 20
197.2662527646016
 10
394.9663477290642
 20
197.2676308572452
 10
394.9264486828461
 20
197.260858833456
  0
LWPOLYLINE
  5
3F2
330
1F
100
AcDbEntity
  8
0
100
AcDbPolyline
 90
       17
 70
   128
 43
0.0
 10
395.5432106993035
 20
197.5561094772703
 10
395.5210358284812
 20
197.5463860656014
 10
395.507989914104
 20
197.5331593871125
 10
395.5060618805229
 20
197.5184440784511
 10
395.5155424329371
 20
197.5044793498014
 10
395.5349896959171
 20
197.4933918554717
 10
395.5614414552714
 20
197.4868689945224
 10
395.5908736112127
 20
197.4859047716468
 10
395.6188025700379
 20
197.4906449968401
 10
395.6409773604305
 20
197.5003684781399
 10
395.6540222403653
 20
197.5135947651061
 10
395.6559513083888
 20
197.5283104652902
 10
395.6464708364044
 20
197.5422751243091
 10
395.6270234929946
 20
197.5533626882696
 10
395.6005706991978
 20
197.5598851576962
 10
395.5711395776989
 20
197.5608497721809
 10
395.5432106993035
 20
197.5561094772703
  0
LWPOLYLINE
  5
3F3
330
1F
100
AcDbEntity
  8
0
100
AcDbPolyline
 90
       17
 70
   128
 43
0.0
 10
395.1396243976858
 20
197.4520735986884
 10
395.1111142024534
 20
197.4395721314901
 10
395.0943420891437
 20
197.422566829589
 10
395.0918617456189
 20
197.4036465579385
 10
395.1040510946419
 20
197.3856920323184
 10
395.1290545706219
 20
197.3714366265465
 10
395.163065533723
 20
197.3630505806904
 10
395.2009056374681
 20
197.3618104678465
 10
395.2368139113648
 20
197.3679050108714
 10
395.265325221383
 20
197.380406799875
 10
395.2820973346927
 20
197.3974121018625
 10
395.2845777586473
 20
197.4163323037958
 10
395.2723884096242
 20
197.4342868294159
 10
395.2473849336443
 20
197.4485422351014
 10
395.2133738901133
 20
197.4569283506747
 10
395.1755337863683
 20
197.4581684636051
 10
395.1396243976858
 20
197.4520735986884
  0
SPLINE
  5
3F4
330
1F
100
AcDbEntity
  8
0
100
AcDbSpline
210
0.0
220
0.0
230
1.0
 70
     8
 71
     3
 72
    19
 73
    15
 74
     0
 42
0.000000001
 43
0.0000000001
 40
0.0
 40
0.0
 40
0.0
 40
0.0
 40
0.0833346831400055
 40
0.1666650480000955
 40
0.2499999073483894
 40
0.3333351978939819
 40
0.4166654310442289
 40
0.4999999365239157
 40
0.5833344420036025
 40
0.6666655745249126
 40
0.7500000926516105
 40
0.8333349519999044
 40
0.9166653168599944
 40
1.0
 40
1.0
 40
1.0
 40
1.0
 10
392.0472866858847
 20
196.5388581056088
 30
0.0
 10
392.0312994567274
 20
196.5555111637503
 30
0.0
 10
391.9993258268474
 20
196.5888164170965
 30
0.0
 10
391.9862082716806
 20
196.6444822923961
 30
0.0
 10
392.0003338976584
 20
196.6996325332696
 30
0.0
 10
392.0431332719368
 20
196.7511464507058
 30
0.0
 10
392.1109577514434
 20
196.7953520886312
 30
0.0
 10
392.1993729503977
 20
196.8292990815467
 30
0.0
 10
392.3023787787557
 20
196.8506104070181
 30
0.0
 10
392.4128574541482
 20
196.8578770670374
 30
0.0
 10
392.5234817562945
 20
196.8506520144288
 30
0.0
 10
392.6260673053444
 20
196.8291937222715
 30
0.0
 10
392.71592464314
 20
196.7956806675373
 30
0.0
 10
392.7576242203397
 20
196.7651830595445
 30
0.0
 10
392.778474549156
 20
196.7499338604527
 30
0.0
  0
SPLINE
  5
3F5
330
1F
100
AcDbEntity
  8
0
100
AcDbSpline
210
0.0
220
0.0
230
1.0
 70
     8
 71
     3
 72
    11
 73
     7
 74
     0
 42
0.000000001
 43
0.0000000001
 40
0.0
 40
0.0
 40
0.0
 40
0.0
 40
0.250000221727151
 40
0.49999985349966
 40
0.749998599893951
 40
1.0
 40
1.0
 40
1.0
 40
1.0
 10
392.636235956262
 20
196.6843638958797
 30
0.0
 10
392.6159805222031
 20
196.6980284700189
 30
0.0
 10
392.5754697018845
 20
196.7253575860512
 30
0.0
 10
392.4811945763785
 20
196.7473619667015
 30
0.0
 10
392.3775451885248
 20
196.751874920939
 30
0.0
 10
392.3151329025549
 20
196.7383344800958
 30
0.0
 10
392.2839265939458
 20
196.7315642237418
 30
0.0
  0
SPLINE
  5
3F6
330
1F
100
AcDbEntity
  8
0
100
AcDbSpline
210
0.0
220
0.0
230
1.0
 70
     8
 71
     3
 72
    11
 73
     7
 74
     0
 42
0.000000001
 43
0.0000000001
 40
0.0
 40
0.0
 40
0.0
 40
0.0
 40
0.2500014001060491
 40
0.5000001465003401
 40
0.7499997782728489
 40
1.0
 40
1.0
 40
1.0
 40
1.0
 10
392.2839265939458
 20
196.7315642237418
 30
0.0
 10
392.2565970116557
 20
196.7214366239119
 30
0.0
 10
392.2019381371735
 20
196.7011815317544
 30
0.0
 10
392.1579301092783
 20
196.6540435531516
 30
0.0
 10
392.1489052518006
 20
196.60221903601
 30
0.0
 10
392.1759852591354
 20
196.5710127782317
 30
0.0
 10
392.1895252787787
 20
196.5554096309323
 30
0.0
  0
SPLINE
  5
3F7
330
1F
100
AcDbEntity
  8
0
100
AcDbSpline
210
0.0
220
0.0
230
1.0
 70
     8
 71
     3
 72
    11
 73
     7
 74
     0
 42
0.000000001
 43
0.0000000001
 40
0.0
 40
0.0
 40
0.0
 40
0.0
 40
0.2500012435919002
 40
0.4999999114629782
 40
0.749999464711996
 40
1.0
 40
1.0
 40
1.0
 40
1.0
 10
392.5418346410949
 20
196.5082093030702
 30
0.0
 10
392.5691642585538
 20
196.5183368748164
 30
0.0
 10
392.6238232118992
 20
196.5385919139661
 30
0.0
 10
392.6678311982354
 20
196.5857299081711
 30
0.0
 10
392.6768560713556
 20
196.6375544477753
 30
0.0
 10
392.6497760123557
 20
196.668760726081
 30
0.0
 10
392.636235956262
 20
196.6843638958797
 30
0.0
  0
SPLINE
  5
3F8
330
1F
100
AcDbEntity
  8
0
100
AcDbSpline
210
0.0
220
0.0
230
1.0
 70
     8
 71
     3
 72
    19
 73
    15
 74
     0
 42
0.000000001
 43
0.0000000001
 40
0.0
 40
0.0
 40
0.0
 40
0.0
 40
0.0833347914282791
 40
0.1666650315157388
 40
0.2499999750642403
 40
0.3333344808391191
 40
0.4166655544430367
 40
0.5000000634763261
 40
0.5833345725096156
 40
0.6666647467421007
 40
0.7500000249357597
 40
0.8333349684842611
 40
0.916665208571721
 40
1.0
 40
1.0
 40
1.0
 40
1.0
 10
392.778474549156
 20
196.7499338604527
 30
0.0
 10
392.7944618162809
 20
196.7332807820922
 30
0.0
 10
392.826435477384
 20
196.6999755348813
 30
0.0
 10
392.8395529810193
 20
196.6443096100379
 30
0.0
 10
392.8254272314642
 20
196.5891596207727
 30
0.0
 10
392.782629254316
 20
196.5376453256432
 30
0.0
 10
392.7148034552716
 20
196.4934401103394
 30
0.0
 10
392.6263884963907
 20
196.4594927709057
 30
0.0
 10
392.5233828126576
 20
196.4381815581313
 30
0.0
 10
392.4129042590396
 20
196.4309153511369
 30
0.0
 10
392.3022797866961
 20
196.4381396643957
 30
0.0
 10
392.199694045293
 20
196.4595982828559
 30
0.0
 10
392.1098365781439
 20
196.4931112418896
 30
0.0
 10
392.0681370295525
 20
196.5236088734229
 30
0.0
 10
392.0472866858847
 20
196.5388581056088
 30
0.0
  0
SPLINE
  5
3F9
330
1F
100
AcDbEntity
  8
0
100
AcDbSpline
210
0.0
220
0.0
230
1.0
 70
     8
 71
     3
 72
    11
 73
     7
 74
     0
 42
0.000000001
 43
0.0000000001
 40
0.0
 40
0.0
 40
0.0
 40
0.0
 40
0.250000535288004
 40
0.5000000885370218
 40
0.7499987564080999
 40
1.0
 40
1.0
 40
1.0
 40
1.0
 10
392.1895252787787
 20
196.5554096309323
 30
0.0
 10
392.2097807335823
 20
196.54174502976
 30
0.0
 10
392.2502915636231
 20
196.5144158810923
 30
0.0
 10
392.3445667358564
 20
196.4924114959841
 30
0.0
 10
392.4482161299544
 20
196.4878985159499
 30
0.0
 10
392.5106283635437
 20
196.5014390174458
 30
0.0
 10
392.5418346410949
 20
196.5082093030702
 30
0.0
  0
LINE
  5
3FA
330
1F
100
AcDbEntity
  8
0
100
AcDbLine
 10
392.9034934276671
 20
196.6469594224328
 30
0.0
 11
392.9047274070292
 21
196.6516193479718
 31
0.0
  0
SPLINE
  5
3FB
330
1F
100
AcDbEntity
  8
0
100
AcDbSpline
210
0.0
220
0.0
230
1.0
 70
     8
 71
     3
 72
    11
 73
     7
 74
     0
 42
0.000000001
 43
0.0000000001
 40
0.0
 40
0.0
 40
0.0
 40
0.0
 40
0.25054562038954
 40
0.4996768807712266
 40
0.750061952906494
 40
1.0
 40
1.0
 40
1.0
 40
1.0
 10
391.7902783133122
 20
196.5891354460513
 30
0.0
 10
391.8125305346756
 20
196.5655745175268
 30
0.0
 10
391.8569093609499
 20
196.5185856647387
 30
0.0
 10
391.8777122039325
 20
196.4480458232463
 30
0.0
 10
391.8714580484971
 20
196.3850466372411
 30
0.0
 10
391.8352744463316
 20
196.3453683011583
 30
0.0
 10
391.817198809779
 20
196.3255468588717
 30
0.0
  0
SPLINE
  5
3FC
330
1F
100
AcDbEntity
  8
0
100
AcDbSpline
210
0.0
220
0.0
230
1.0
 70
     8
 71
     3
 72
    19
 73
    15
 74
     0
 42
0.000000001
 43
0.0000000001
 40
0.0
 40
0.0
 40
0.0
 40
0.0
 40
0.0833347997786036
 40
0.1666651540355468
 40
0.2500000027801219
 40
0.3333345103031446
 40
0.4166656322212102
 40
0.5000001270972234
 40
0.5833346219732364
 40
0.6666648445203535
 40
0.7500001244621723
 40
0.8333349732067475
 40
0.9166653274636907
 40
1.0
 40
1.0
 40
1.0
 40
1.0
 10
391.6562272689733
 20
196.4259689757974
 30
0.0
 10
391.635376481505
 20
196.4412180344255
 30
0.0
 10
391.5936760188602
 20
196.4717153382156
 30
0.0
 10
391.503818983991
 20
196.5052285441299
 30
0.0
 10
391.4012333415146
 20
196.526686800348
 30
0.0
 10
391.290609064402
 20
196.5339118625865
 30
0.0
 10
391.180130382302
 20
196.5266451999869
 30
0.0
 10
391.0771245557413
 20
196.5053338752069
 30
0.0
 10
390.9887093563054
 20
196.4713868821062
 30
0.0
 10
390.9208848769278
 20
196.4271812442304
 30
0.0
 10
390.8780855026149
 20
196.3756673267808
 30
0.0
 10
390.8639598766461
 20
196.320517085911
 30
0.0
 10
390.8770774318108
 20
196.2648512106104
 30
0.0
 10
390.909051061691
 20
196.2315459572643
 30
0.0
 10
390.9250382908484
 20
196.2148928991229
 30
0.0
  0
SPLINE
  5
3FD
330
1F
100
AcDbEntity
  8
0
100
AcDbSpline
210
0.0
220
0.0
230
1.0
 70
     8
 71
     3
 72
    11
 73
     7
 74
     0
 42
0.000000001
 43
0.0000000001
 40
0.0
 40
0.0
 40
0.0
 40
0.0
 40
0.2500014001060491
 40
0.5000001465003401
 40
0.7499997782728489
 40
1.0
 40
1.0
 40
1.0
 40
1.0
 10
391.1616781989095
 20
196.407599853396
 30
0.0
 10
391.1928845075186
 20
196.4143701097501
 30
0.0
 10
391.2552967934886
 20
196.4279105505933
 30
0.0
 10
391.3589461813422
 20
196.4233975963557
 30
0.0
 10
391.4532213068482
 20
196.4013932157055
 30
0.0
 10
391.4937321271668
 20
196.3740640996731
 30
0.0
 10
391.5139875612258
 20
196.360399525534
 30
0.0
  0
SPLINE
  5
3FE
330
1F
100
AcDbEntity
  8
0
100
AcDbSpline
210
0.0
220
0.0
230
1.0
 70
     8
 71
     3
 72
    11
 73
     7
 74
     0
 42
0.000000001
 43
0.0000000001
 40
0.0
 40
0.0
 40
0.0
 40
0.0
 40
0.2500003411099535
 40
0.5000000922649833
 40
0.7500016171940991
 40
1.0
 40
1.0
 40
1.0
 40
1.0
 10
391.0672768837424
 20
196.2314452605865
 30
0.0
 10
391.0537368798441
 20
196.2470484037337
 30
0.0
 10
391.0266569039995
 20
196.2782546532075
 30
0.0
 10
391.0356815572991
 20
196.330079416379
 30
0.0
 10
391.079690640697
 20
196.3772171033642
 30
0.0
 10
391.1343491273345
 20
196.3974723124817
 30
0.0
 10
391.1616781989095
 20
196.407599853396
 30
0.0
  0
SPLINE
  5
3FF
330
1F
100
AcDbEntity
  8
0
100
AcDbSpline
210
0.0
220
0.0
230
1.0
 70
     8
 71
     3
 72
    11
 73
     7
 74
     0
 42
0.000000001
 43
0.0000000001
 40
0.0
 40
0.0
 40
0.0
 40
0.0
 40
0.250000535288004
 40
0.5000000885370218
 40
0.7499987564080999
 40
1.0
 40
1.0
 40
1.0
 40
1.0
 10
391.5139875612258
 20
196.360399525534
 30
0.0
 10
391.5275276173194
 20
196.3447963557353
 30
0.0
 10
391.5546076763194
 20
196.3135900774295
 30
0.0
 10
391.5455828031992
 20
196.2617655378253
 30
0.0
 10
391.5015748168629
 20
196.2146275436204
 30
0.0
 10
391.4469158635176
 20
196.1943725044707
 30
0.0
 10
391.4195862460587
 20
196.1842449327244
 30
0.0
  0
SPLINE
  5
400
330
1F
100
AcDbEntity
  8
0
100
AcDbSpline
210
0.0
220
0.0
230
1.0
 70
     8
 71
     3
 72
    19
 73
    15
 74
     0
 42
0.000000001
 43
0.0000000001
 40
0.0
 40
0.0
 40
0.0
 40
0.0
 40
0.083334780824586
 40
0.1666650103089317
 40
0.2499999432537207
 40
0.3333352108436245
 40
0.4166653744730042
 40
0.4999998729026364
 40
0.5833343713322686
 40
0.6666654343329661
 40
0.7499999295041881
 40
0.833334862448977
 40
0.9166650919333228
 40
1.0
 40
1.0
 40
1.0
 40
1.0
 10
390.9250382908484
 20
196.2148928991229
 30
0.0
 10
390.9458886345161
 20
196.1996436669369
 30
0.0
 10
390.987588183107
 20
196.1691460354037
 30
0.0
 10
391.0774456502591
 20
196.1356330763705
 30
0.0
 10
391.1800313916512
 20
196.114174457908
 30
0.0
 10
391.2906558640352
 20
196.1069501446576
 30
0.0
 10
391.4011344175027
 20
196.1142163516209
 30
0.0
 10
391.5041401017975
 20
196.1355275645113
 30
0.0
 10
391.5925550585821
 20
196.1694749035123
 30
0.0
 10
391.6603808654494
 20
196.2136801204305
 30
0.0
 10
391.7031788134012
 20
196.2651944095351
 30
0.0
 10
391.7173046719182
 20
196.3203444212855
 30
0.0
 10
391.7041867549694
 20
196.3760102905481
 30
0.0
 10
391.6722140634818
 20
196.4093157690666
 30
0.0
 10
391.6562272689733
 20
196.4259689757974
 30
0.0
  0
SPLINE
  5
401
330
1F
100
AcDbEntity
  8
0
100
AcDbSpline
210
0.0
220
0.0
230
1.0
 70
     8
 71
     3
 72
    11
 73
     7
 74
     0
 42
0.000000001
 43
0.0000000001
 40
0.0
 40
0.0
 40
0.0
 40
0.0
 40
0.249998226291891
 40
0.4999996726971283
 40
0.7499993453288366
 40
1.0
 40
1.0
 40
1.0
 40
1.0
 10
391.4195862460587
 20
196.1842449327244
 30
0.0
 10
391.3883803259096
 20
196.1774748387884
 30
0.0
 10
391.3259680836623
 20
196.1639345637136
 30
0.0
 10
391.2223186669093
 20
196.1684469408936
 30
0.0
 10
391.1280431706287
 20
196.1904515374284
 30
0.0
 10
391.0875323392266
 20
196.2177806683083
 30
0.0
 10
391.0672768837424
 20
196.2314452605865
 30
0.0
  0
SPLINE
  5
402
330
1F
100
AcDbEntity
  8
0
100
AcDbSpline
210
0.0
220
0.0
230
1.0
 70
     8
 71
     3
 72
    16
 73
    12
 74
     0
 42
0.000000001
 43
0.0000000001
 40
0.0
 40
0.0
 40
0.0
 40
0.0
 40
0.1119926898940227
 40
0.2239856290457651
 40
0.3360089408865827
 40
0.4479766042931482
 40
0.5600175698404158
 40
0.6699854530900897
 40
0.7800124547002825
 40
0.8900064085348285
 40
1.0
 40
1.0
 40
1.0
 40
1.0
 10
404.785652185223
 20
200.5083590978159
 30
0.0
 10
404.8370423930054
 20
200.4207699556107
 30
0.0
 10
404.9398229229474
 20
200.2455914762567
 30
0.0
 10
405.1009484734481
 20
200.0043788880846
 30
0.0
 10
405.266656602551
 20
199.7841410832552
 30
0.0
 10
405.4370299433169
 20
199.5987413330364
 30
0.0
 10
405.6076770276099
 20
199.4522524538257
 30
0.0
 10
405.7758011207586
 20
199.3466922597251
 30
0.0
 10
405.9383285306945
 20
199.2825733305831
 30
0.0
 10
406.0964340468071
 20
199.2461520167183
 30
0.0
 10
406.197360035936
 20
199.2434387194964
 30
0.0
 10
406.2478229473765
 20
199.2420820731201
 30
0.0
  0
ARC
  5
403
330
1F
100
AcDbEntity
  8
0
100
AcDbCircle
 10
404.855130699499
 20
200.5499437498175
 30
0.0
 40
0.0809725090783286
100
AcDbArc
 50
169.1700710524005
 51
210.9015901885018
  0
ARC
  5
404
330
1F
100
AcDbEntity
  8
0
100
AcDbCircle
 10
404.7607374918207
 20
200.568229127181
 30
0.0
 40
0.0151768527423466
100
AcDbArc
 50
348.3253522156993
 51
23.93814096809923
  0
LINE
  5
405
330
1F
100
AcDbEntity
  8
0
100
AcDbLine
 10
404.7425752525906
 20
200.6549331472058
 30
0.0
 11
404.7746088932687
 21
200.5743871367151
 31
0.0
  0
ARC
  5
406
330
1F
100
AcDbEntity
  8
0
100
AcDbCircle
 10
404.7852455939191
 20
200.6722002973871
 30
0.0
 40
0.0460316467502651
100
AcDbArc
 50
181.0125502586
 51
202.0314059406998
  0
LINE
  5
407
330
1F
100
AcDbEntity
  8
0
100
AcDbLine
 10
404.7392211351126
 20
200.73217131748
 30
0.0
 11
404.7392211351126
 21
200.6713868530096
 31
0.0
  0
ARC
  5
408
330
1F
100
AcDbEntity
  8
0
100
AcDbCircle
 10
404.7909860886015
 20
200.732512173355
 30
0.0
 40
0.051766075669628
100
AcDbArc
 50
170.3203040821005
 51
180.3772691272999
  0
LINE
  5
409
330
1F
100
AcDbEntity
  8
0
100
AcDbLine
 10
404.7573834787026
 20
200.8387708288782
 30
0.0
 11
404.7399570005386
 21
200.7412161245277
 31
0.0
  0
LINE
  5
40A
330
1F
100
AcDbEntity
  8
0
100
AcDbLine
 10
359.8241474125862
 20
185.8407212897317
 30
0.0
 11
359.8263325612728
 21
185.8410432733813
 31
0.0
  0
LINE
  5
40B
330
1F
100
AcDbEntity
  8
0
100
AcDbLine
 10
404.8906136457996
 20
200.5390052094141
 30
0.0
 11
404.7856521852453
 21
200.5083590977987
 31
0.0
  0
SPLINE
  5
40C
330
1F
100
AcDbEntity
  8
0
100
AcDbSpline
210
0.0
220
0.0
230
1.0
 70
     8
 71
     3
 72
    18
 73
    14
 74
     0
 42
0.000000001
 43
0.0000000001
 40
0.0
 40
0.0
 40
0.0
 40
0.0
 40
0.0682014331704549
 40
0.1599163097103251
 40
0.2517233603128263
 40
0.3433228622486983
 40
0.4359190393873186
 40
0.5288032674383044
 40
0.621406037882703
 40
0.6811475031796844
 40
0.8013823695719285
 40
0.9217055494834561
 40
1.0
 40
1.0
 40
1.0
 40
1.0
 10
406.35247625526
 20
199.2729950528002
 30
0.0
 10
406.3213049534395
 20
199.2733715465914
 30
0.0
 10
406.2482155867756
 20
199.2742543359245
 30
0.0
 10
406.1296227114818
 20
199.2918011169383
 30
0.0
 10
405.9966307707732
 20
199.3295861798105
 30
0.0
 10
405.8597743948044
 20
199.3904365667192
 30
0.0
 10
405.7195252000723
 20
199.4797471848924
 30
0.0
 10
405.5775964472551
 20
199.5976680149911
 30
0.0
 10
405.4528524160314
 20
199.7246475921071
 30
0.0
 10
405.3161627065271
 20
199.8865891358064
 30
0.0
 10
405.1687366763848
 20
200.0873406895617
 30
0.0
 10
405.0173012372113
 20
200.3216269727094
 30
0.0
 10
404.92643344581
 20
200.4775434287025
 30
0.0
 10
404.8906136458149
 20
200.5390052094223
 30
0.0
  0
ARC
  5
40D
330
1F
100
AcDbEntity
  8
0
100
AcDbCircle
 10
406.2680310324737
 20
199.8335572955581
 30
0.0
 40
0.0774814904817497
100
AcDbArc
 50
5.851993061299742
 51
43.13275095210026
  0
LINE
  5
40E
330
1F
100
AcDbEntity
  8
0
100
AcDbLine
 10
406.4012412858191
 20
199.429997600813
 30
0.0
 11
406.3451087356171
 21
199.8414572354423
 31
0.0
  0
ARC
  5
40F
330
1F
100
AcDbEntity
  8
0
100
AcDbCircle
 10
406.3416360617374
 20
199.421679405104
 30
0.0
 40
0.0601828474062561
100
AcDbArc
 50
0.2141271343999116
 51
7.944591698300014
  0
LINE
  5
410
330
1F
100
AcDbEntity
  8
0
100
AcDbLine
 10
404.8796503287973
 20
200.6048657416129
 30
0.0
 11
404.847616768549
 21
200.6854116823863
 31
0.0
  0
ARC
  5
411
330
1F
100
AcDbEntity
  8
0
100
AcDbCircle
 10
404.9589998559167
 20
200.5799362262819
 30
0.0
 40
0.0796995725819924
100
AcDbArc
 50
169.1701553836993
 51
210.9016744190994
  0
ARC
  5
412
330
1F
100
AcDbEntity
  8
0
100
AcDbCircle
 10
404.8889471462093
 20
200.7021364281836
 30
0.0
 40
0.0445860654983284
100
AcDbArc
 50
181.0131069857999
 51
202.0312042411004
  0
LINE
  5
413
330
1F
100
AcDbEntity
  8
0
100
AcDbLine
 10
404.8443680505117
 20
200.7013480961194
 30
0.0
 11
404.8443680505117
 21
200.762132699938
 31
0.0
  0
ARC
  5
414
330
1F
100
AcDbEntity
  8
0
100
AcDbCircle
 10
404.8646899658659
 20
200.5982237975377
 30
0.0
 40
0.0163685026071597
100
AcDbArc
 50
348.3240952036
 51
23.93975885639973
  0
ARC
  5
415
330
1F
100
AcDbEntity
  8
0
100
AcDbCircle
 10
404.895335932997
 20
200.7624663268103
 30
0.0
 40
0.0509689743773201
100
AcDbArc
 50
170.3215576143997
 51
180.3750428294999
  0
SPLINE
  5
416
330
1F
100
AcDbEntity
  8
0
100
AcDbSpline
210
0.0
220
0.0
230
1.0
 70
     8
 71
     3
 72
    17
 73
    13
 74
     0
 42
0.000000001
 43
0.0000000001
 40
0.0
 40
0.0
 40
0.0
 40
0.0
 40
0.0678292243610802
 40
0.1589757938389302
 40
0.2502129073541653
 40
0.3412482261595204
 40
0.4331747538584765
 40
0.5253832544263805
 40
0.6173175950760534
 40
0.7445274983614882
 40
0.8723632472350786
 40
1.0
 40
1.0
 40
1.0
 40
1.0
 10
358.3245688536927
 20
187.0961996136653
 30
0.0
 10
358.3555745798518
 20
187.0428656739113
 30
0.0
 10
358.4282447301611
 20
186.9178634275961
 30
0.0
 10
358.5461245822594
 20
186.7310239601546
 30
0.0
 10
358.6782730273531
 20
186.539438165053
 30
0.0
 10
358.8141934965592
 20
186.3639795133417
 30
0.0
 10
358.9534424759483
 20
186.2107709523608
 30
0.0
 10
359.0943597116785
 20
186.0828673214566
 30
0.0
 10
359.2528015714075
 20
185.9685775020583
 30
0.0
 10
359.4260454298638
 20
185.8845123766132
 30
0.0
 10
359.6107718292325
 20
185.8353535363033
 30
0.0
 10
359.7281141542671
 20
185.8317319644262
 30
0.0
 10
359.7867396158461
 20
185.8299225889696
 30
0.0
  0
ARC
  5
417
330
1F
100
AcDbEntity
  8
0
100
AcDbCircle
 10
358.3940473679256
 20
187.137784265669
 30
0.0
 40
0.0809725090780369
100
AcDbArc
 50
169.1700710521996
 51
210.9015901885018
  0
ARC
  5
418
330
1F
100
AcDbEntity
  8
0
100
AcDbCircle
 10
358.2996541603336
 20
187.1560696430326
 30
0.0
 40
0.0151768527424729
100
AcDbArc
 50
348.3253522160004
 51
23.93814096799871
  0
LINE
  5
419
330
1F
100
AcDbEntity
  8
0
100
AcDbLine
 10
358.3135255617817
 20
187.1622276525667
 30
0.0
 11
358.2814919211036
 21
187.2427736630574
 31
0.0
  0
ARC
  5
41A
330
1F
100
AcDbEntity
  8
0
100
AcDbCircle
 10
358.324162262432
 20
187.2600408132386
 30
0.0
 40
0.0460316467504874
100
AcDbArc
 50
181.0125502586994
 51
202.0314059406998
  0
LINE
  5
41B
330
1F
100
AcDbEntity
  8
0
100
AcDbLine
 10
358.278137803539
 20
187.2592273688612
 30
0.0
 11
358.278137803539
 21
187.3200119726798
 31
0.0
  0
ARC
  5
41C
330
1F
100
AcDbEntity
  8
0
100
AcDbCircle
 10
358.3299016228907
 20
187.3203527867416
 30
0.0
 40
0.051764941271457
100
AcDbArc
 50
170.3201994185002
 51
180.3772310915002
  0
LINE
  5
41D
330
1F
100
AcDbEntity
  8
0
100
AcDbLine
 10
358.2963001472156
 20
187.4266113447298
 30
0.0
 11
358.2788736690515
 21
187.3290566403792
 31
0.0
  0
LINE
  5
41E
330
1F
100
AcDbEntity
  8
0
100
AcDbLine
 10
359.7191859519692
 20
185.8111236978973
 30
0.0
 11
359.7867396158571
 21
185.8299225889472
 31
0.0
  0
SPLINE
  5
41F
330
1F
100
AcDbEntity
  8
0
100
AcDbSpline
210
0.0
220
0.0
230
1.0
 70
     8
 71
     3
 72
    14
 73
    10
 74
     0
 42
0.000000001
 43
0.0000000001
 40
0.0
 40
0.0
 40
0.0
 40
0.0
 40
0.0088330502412465
 40
0.1828144333808169
 40
0.3562562453995489
 40
0.52798789106403
 40
0.700108973534818
 40
0.8720574024942415
 40
1.0
 40
1.0
 40
1.0
 40
1.0
 10
359.0318612975274
 20
186.0644107718659
 30
0.0
 10
359.0294764170638
 20
186.066098955935
 30
0.0
 10
358.9801174121088
 20
186.1010386885976
 30
0.0
 10
358.883109155978
 20
186.1945924167858
 30
0.0
 10
358.7433921256774
 20
186.3452467324851
 30
0.0
 10
358.606887127911
 20
186.5216178476963
 30
0.0
 10
358.4742305829242
 20
186.7135401971786
 30
0.0
 10
358.3559086419833
 20
186.9010202505744
 30
0.0
 10
358.2829798644033
 20
187.0264514780191
 30
0.0
 10
358.2518505687222
 20
187.0778332724811
 30
0.0
  0
LINE
  5
420
330
1F
100
AcDbEntity
  8
0
100
AcDbLine
 10
359.7191859519692
 20
185.8111236978973
 30
0.0
 11
359.7212625633313
 21
185.8114194128077
 31
0.0
  0
LINE
  5
421
330
1F
100
AcDbEntity
  8
0
100
AcDbLine
 10
357.3120347811819
 20
189.1082118339877
 30
0.0
 11
358.1177221628771
 21
187.3985128453294
 31
0.0
  0
LINE
  5
422
330
1F
100
AcDbEntity
  8
0
100
AcDbLine
 10
404.0723827163328
 20
202.6067615678496
 30
0.0
 11
404.878070098028
 21
200.8970625791913
 31
0.0
  0
ARC
  5
423
330
1F
100
AcDbEntity
  8
0
100
AcDbCircle
 10
404.1396677142442
 20
202.6385905969492
 30
0.0
 40
0.0744335814472697
100
AcDbArc
 50
181.0953376655002
 51
205.3163933730996
  0
ARC
  5
424
330
1F
100
AcDbEntity
  8
0
100
AcDbCircle
 10
357.3793197791796
 20
189.1400408630873
 30
0.0
 40
0.0744335814473573
100
AcDbArc
 50
181.0953376655002
 51
205.3163933730996
  0
LINE
  5
425
330
1F
100
AcDbEntity
  8
0
100
AcDbLine
 10
404.0652477340354
 20
202.8089436510976
 30
0.0
 11
404.0652477340354
 21
202.6371677183206
 31
0.0
  0
LINE
  5
426
330
1F
100
AcDbEntity
  8
0
100
AcDbLine
 10
357.387198289587
 20
189.3715597251959
 30
0.0
 11
357.387198289587
 21
189.3790413834245
 31
0.0
  0
LINE
  5
427
330
1F
100
AcDbEntity
  8
0
100
AcDbLine
 10
403.9829492434192
 20
202.8225944033078
 30
0.0
 11
403.9829492434192
 21
202.8300760615365
 31
0.0
  0
LINE
  5
428
330
1F
100
AcDbEntity
  8
0
100
AcDbLine
 10
403.9829492434192
 20
202.8225944033078
 30
0.0
 11
404.0278399373063
 21
202.8355532304848
 31
0.0
  0
ARC
  5
429
330
1F
100
AcDbEntity
  8
0
100
AcDbCircle
 10
404.0378405381734
 20
202.8100133287905
 30
0.0
 40
0.027428062196225
100
AcDbArc
 50
357.7649327638996
 51
111.3837070305993
  0
LINE
  5
42A
330
1F
100
AcDbEntity
  8
0
100
AcDbLine
 10
357.3048997988844
 20
189.3103939172357
 30
0.0
 11
357.3048997988844
 21
189.1386179844587
 31
0.0
  0
ARC
  5
42B
330
1F
100
AcDbEntity
  8
0
100
AcDbCircle
 10
357.3580527337306
 20
189.3077655416601
 30
0.0
 40
0.0532178807969144
100
AcDbArc
 50
107.2092219384011
 51
177.1690695945992
  0
LINE
  5
42C
330
1F
100
AcDbEntity
  8
0
100
AcDbLine
 10
357.3423075956999
 20
189.3586008981053
 30
0.0
 11
357.387198289587
 21
189.3715597251959
 31
0.0
  0
LWPOLYLINE
  5
42D
330
1F
100
AcDbEntity
  8
0
100
AcDbPolyline
 90
        9
 70
   128
 43
0.0
 10
404.0002275185652
 20
202.8450392581699
 10
403.9968566659091
 20
202.84738347057
 10
403.9936153500013
 20
202.8484875356563
 10
403.9906282801633
 20
202.8483088972746
 10
403.9880100281112
 20
202.8468546105228
 10
403.9858611657725
 20
202.844180603197
 10
403.9842645646532
 20
202.8403893824631
 10
403.9832813724492
 20
202.8356268238868
 10
403.9829492434192
 20
202.8300760615365
  0
LINE
  5
42E
330
1F
100
AcDbEntity
  8
0
100
AcDbLine
 10
404.0072097923094
 20
202.8389924317624
 30
0.0
 11
404.0002275185652
 21
202.8450392581699
 31
0.0
  0
LWPOLYLINE
  5
42F
330
1F
100
AcDbEntity
  8
0
100
AcDbPolyline
 90
        7
 70
   128
 43
0.0
 10
357.3948922914498
 20
189.3972786365792
 10
357.3948773263312
 20
189.3972742190762
 10
357.3922590742791
 20
189.3958199324108
 10
357.3901102119404
 20
189.393145925085
 10
357.3885136108211
 20
189.3893547043511
 10
357.3875304186171
 20
189.3845921456884
 10
357.387198289587
 20
189.3790413834245
  0
LWPOLYLINE
  5
430
330
1F
100
AcDbEntity
  8
0
100
AcDbPolyline
 90
        9
 70
   128
 43
0.0
 10
404.878070098028
 20
200.8970625791913
 10
404.8817884471543
 20
200.8902887985605
 10
404.8858949239471
 20
200.8848571622722
 10
404.8901414775015
 20
200.8810959249921
 10
404.8942715283343
 20
200.8792321685244
 10
404.8980355774595
 20
200.87937856278
 10
404.9012062515906
 20
200.8815263282158
 10
404.903591900694
 20
200.8855455843347
 10
404.9050485859977
 20
200.8911936415533
  0
LWPOLYLINE
  5
431
330
1F
100
AcDbEntity
  8
0
100
AcDbPolyline
 90
        6
 70
   128
 43
0.0
 10
358.1177221628771
 20
187.3985128453294
 10
358.1214405120897
 20
187.3917390646986
 10
358.1255469888826
 20
187.3863074284103
 10
358.1297935423506
 20
187.3825461911302
 10
358.1339235932698
 20
187.3806824346625
 10
358.1374494878061
 20
187.3807551092128
  0
LINE
  5
432
330
1F
100
AcDbEntity
  8
0
100
AcDbLine
 10
404.9050485859977
 20
200.8911936415533
 30
0.0
 11
404.9372551300961
 21
201.1049264003755
 31
0.0
  0
LINE
  5
433
330
1F
100
AcDbEntity
  8
0
100
AcDbLine
 10
406.3479941716994
 20
199.8272180655964
 30
0.0
 11
406.3906261723086
 21
199.8395248640969
 31
0.0
  0
ARC
  5
434
330
1F
100
AcDbEntity
  8
0
100
AcDbCircle
 10
406.3998899480353
 20
199.8077939480721
 30
0.0
 40
0.0330555377176451
100
AcDbArc
 50
3.247515211400159
 51
106.2750561346015
  0
LINE
  5
435
330
1F
100
AcDbEntity
  8
0
100
AcDbLine
 10
406.4328924028237
 20
199.809666527451
 30
0.0
 11
406.465098946922
 21
199.5401503978749
 31
0.0
  0
LWPOLYLINE
  5
436
330
1F
100
AcDbEntity
  8
0
100
AcDbPolyline
 90
        9
 70
   128
 43
0.0
 10
406.465098946922
 20
199.5401503978749
 10
406.4665556322258
 20
199.5319792876337
 10
406.4689412812428
 20
199.5238279660504
 10
406.4721119553738
 20
199.5161884319805
 10
406.4758760044989
 20
199.5095225134443
 10
406.4800060554182
 20
199.5042328119227
 10
406.4842526088862
 20
199.500638802711
 10
406.4883590856791
 20
199.4989578126328
 10
406.4920774348918
 20
199.4992912235283
  0
LINE
  5
437
330
1F
100
AcDbEntity
  8
0
100
AcDbLine
 10
406.4920774348918
 20
199.4992912235283
 30
0.0
 11
407.297764816587
 21
199.8134987320281
 31
0.0
  0
ARC
  5
438
330
1F
100
AcDbEntity
  8
0
100
AcDbCircle
 10
407.2866107225295
 20
199.8283426703352
 30
0.0
 40
0.0185676147245525
100
AcDbArc
 50
306.9220854682003
 51
9.936799159200257
  0
LINE
  5
439
330
1F
100
AcDbEntity
  8
0
100
AcDbLine
 10
407.3048997988844
 20
199.8315467306776
 30
0.0
 11
407.3048997988844
 21
200.0033226634547
 31
0.0
  0
ARC
  5
43A
330
1F
100
AcDbEntity
  8
0
100
AcDbCircle
 10
407.276832700264
 20
200.0044302639948
 30
0.0
 40
0.0280889445430995
100
AcDbArc
 50
357.7401326042005
 51
47.61103274749948
  0
LWPOLYLINE
  5
43B
330
1F
100
AcDbEntity
  8
0
100
AcDbPolyline
 90
        9
 70
   128
 43
0.0
 10
405.8360032216874
 20
200.5670330686792
 10
405.80286480726
 20
200.5532465194172
 10
405.7658330433239
 20
200.5539257570232
 10
405.7261319518473
 20
200.5690483276856
 10
405.6850737664599
 20
200.5981143152716
 10
405.6440155810724
 20
200.6401631907998
 10
405.6043144895094
 20
200.693804927872
 10
405.5672827255734
 20
200.757266586881
 10
405.5341443112324
 20
200.8284505535852
  0
LINE
  5
43C
330
1F
100
AcDbEntity
  8
0
100
AcDbLine
 10
405.4582981339547
 20
201.4416710222858
 30
0.0
 11
405.4582981339547
 21
201.1872947261382
 31
0.0
  0
ARC
  5
43D
330
1F
100
AcDbEntity
  8
0
100
AcDbCircle
 10
406.4124369751931
 20
201.2027022543388
 30
0.0
 40
0.9542632342458924
100
AcDbArc
 50
180.9251374956998
 51
200.0167092019004
  0
ARC
  5
43E
330
1F
100
AcDbEntity
  8
0
100
AcDbCircle
 10
405.5926381462818
 20
200.7676588820555
 30
0.0
 40
0.320338397104837
100
AcDbArc
 50
324.7777969842005
 51
4.807843845300426
  0
LINE
  5
43F
330
1F
100
AcDbEntity
  8
0
100
AcDbLine
 10
405.9118493988787
 20
201.0488841049759
 30
0.0
 11
405.9118493988787
 21
200.7945078088284
 31
0.0
  0
ARC
  5
440
330
1F
100
AcDbEntity
  8
0
100
AcDbCircle
 10
405.7890180512697
 20
201.0499253140763
 30
0.0
 40
0.1228357605854624
100
AcDbArc
 50
359.5143303138994
 51
42.58912650729988
  0
LINE
  5
441
330
1F
100
AcDbEntity
  8
0
100
AcDbLine
 10
405.4906946586722
 20
201.4697272182249
 30
0.0
 11
405.8794528742476
 21
201.1330527276085
 31
0.0
  0
LWPOLYLINE
  5
442
330
1F
100
AcDbEntity
  8
0
100
AcDbPolyline
 90
        9
 70
   128
 43
0.0
 10
405.4906946586722
 20
201.4697272182249
 10
405.4843744103928
 20
201.4741225458399
 10
405.4782970435706
 20
201.4761925676635
 10
405.4726961066141
 20
201.4758577806503
 10
405.4677868438123
 20
201.4731310229791
 10
405.4637579281744
 20
201.4681170909972
 10
405.4607641602049
 20
201.4610086800658
 10
405.4589206145002
 20
201.4520789294726
 10
405.4582981339547
 20
201.4416710222858
  0
ELLIPSE
  5
443
330
1F
100
AcDbEntity
  8
0
100
AcDbEllipse
 10
404.0174645730711
 20
202.8165159202312
 30
0.0
 11
-0.0069875557266048
 21
0.0249625364989824
 31
0.0
210
0.0
220
0.0
230
1.0
 40
0.4372786387
 41
0.0094199740950146
 42
0.9863410782280459
  0
LINE
  5
444
330
1F
100
AcDbEntity
  8
0
100
AcDbLine
 10
406.4772976640682
 20
199.5236913190867
 30
0.0
 11
406.4780128359799
 21
199.5239551864044
 31
0.0
  0
ARC
  5
445
330
1F
100
AcDbEntity
  8
0
100
AcDbCircle
 10
398.4951393259133
 20
198.8633090163057
 30
0.0
 40
0.0614178185355647
100
AcDbArc
 50
179.5141120834005
 51
222.5890823745013
  0
LINE
  5
446
330
1F
100
AcDbEntity
  8
0
100
AcDbLine
 10
384.4056187778664
 20
194.8142647731791
 30
0.0
 11
398.4337237158219
 21
198.8638298542836
 31
0.0
  0
LINE
  5
447
330
1F
100
AcDbEntity
  8
0
100
AcDbLine
 10
385.2363133552668
 20
194.0668057614193
 30
0.0
 11
385.225298545336
 21
194.0763448666114
 31
0.0
  0
ARC
  5
448
330
1F
100
AcDbEntity
  8
0
100
AcDbCircle
 10
385.2063534608026
 20
194.0470199322639
 30
0.0
 40
0.0349122901340666
100
AcDbArc
 50
57.13591759680113
 51
107.6021525068993
  0
LINE
  5
449
330
1F
100
AcDbEntity
  8
0
100
AcDbLine
 10
398.460936737832
 20
198.8122062809329
 30
0.0
 11
398.4499219279013
 21
198.8217453861249
 31
0.0
  0
ARC
  5
44A
330
1F
100
AcDbEntity
  8
0
100
AcDbCircle
 10
398.4798818210696
 20
198.8415312063821
 30
0.0
 40
0.0349122820019554
100
AcDbArc
 50
237.1359113073006
 51
287.6021587964
  0
LWPOLYLINE
  5
44B
330
1F
100
AcDbEntity
  8
0
100
AcDbPolyline
 90
        9
 70
   128
 43
0.0
 10
399.2534034832915
 20
198.1259099477159
 10
399.2516557636402
 20
198.1278380350319
 10
399.2506946062528
 20
198.1298998142307
 10
399.2505556904961
 20
198.1320154678909
 10
399.2512459622703
 20
198.1341043161527
 10
399.2527369213636
 20
198.1360854802846
 10
399.2549720807731
 20
198.1378830092821
 10
399.2578671044108
 20
198.1394283349184
 10
399.2613085199689
 20
198.140661386617
  0
LINE
  5
44C
330
1F
100
AcDbEntity
  8
0
100
AcDbLine
 10
399.2644182932222
 20
198.1163708424374
 30
0.0
 11
399.2534034832915
 21
198.1259099477159
 31
0.0
  0
ARC
  5
44D
330
1F
100
AcDbEntity
  8
0
100
AcDbCircle
 10
392.4088556866416
 20
195.541413888607
 30
0.0
 40
1.46550569960321
100
AcDbArc
 50
68.07991717269832
 51
104.6806666772008
  0
LINE
  5
44E
330
1F
100
AcDbEntity
  8
0
100
AcDbLine
 10
390.8843656228112
 20
196.6266484431068
 30
0.0
 11
392.0066140178511
 21
196.9506136495918
 31
0.0
  0
LWPOLYLINE
  5
44F
330
1F
100
AcDbEntity
  8
0
100
AcDbPolyline
 90
       22
 70
   128
 43
0.0
 10
391.553263772725
 20
195.890352273415
 10
391.4431259414728
 20
195.8757636624439
 10
391.3299896496799
 20
195.8690214936455
 10
391.2160799730585
 20
195.8702585101597
 10
391.1036357638756
 20
195.879450056853
 10
390.994868044406
 20
195.8964153551864
 10
390.8919169403814
 20
195.9208213290284
 10
390.7968044544677
 20
195.9521874596405
 10
390.711403065226
 20
195.9898975315319
 10
390.637390051562
 20
196.0332095802649
 10
390.5762224362216
 20
196.0812724428424
 10
390.5291018838596
 20
196.1331407090045
 10
390.4969558396132
 20
196.1877949176502
 10
390.480414931623
 20
196.2441598392735
 10
390.4798057409937
 20
196.3011274731727
 10
390.4951390425483
 20
196.3575775289614
 10
390.5261144707049
 20
196.4124004203224
 10
390.5721233683832
 20
196.4645179692346
 10
390.6322592913385
 20
196.5129052045972
 10
390.7053406607578
 20
196.5566106517807
 10
390.7899305542512
 20
196.5947752377678
 10
390.8843656228112
 20
196.6266484431068
  0
ARC
  5
450
330
1F
100
AcDbEntity
  8
0
100
AcDbCircle
 10
395.6941483571569
 20
197.5888142075273
 30
0.0
 40
0.1745663848546859
100
AcDbArc
 50
57.13674512700132
 51
107.6017744482012
  0
LINE
  5
451
330
1F
100
AcDbEntity
  8
0
100
AcDbLine
 10
395.6413595852784
 20
197.7552076216318
 30
0.0
 11
394.5939278984825
 21
197.4528401385212
 31
0.0
  0
LWPOLYLINE
  5
452
330
1F
100
AcDbEntity
  8
0
100
AcDbPolyline
 90
        9
 70
   128
 43
0.0
 10
394.5544003244051
 20
197.3790824396665
 10
394.5456637146035
 20
197.3887237287505
 10
394.5408571345137
 20
197.3990320245882
 10
394.5401644637557
 20
197.4096112152829
 10
394.5436125584395
 20
197.420054421026
 10
394.5510697444238
 20
197.4299607460349
 10
394.562248805658
 20
197.4389494262423
 10
394.5767196255628
 20
197.4466746278538
 10
394.5939278984825
 20
197.4528401385212
  0
LINE
  5
453
330
1F
100
AcDbEntity
  8
0
100
AcDbLine
 10
394.5544003244051
 20
197.3790824396665
 30
0.0
 11
394.8351701646576
 21
197.1359286253329
 31
0.0
  0
LINE
  5
454
330
1F
100
AcDbEntity
  8
0
100
AcDbLine
 10
394.8411788061084
 20
197.1312914109634
 30
0.0
 11
394.8351701646576
 21
197.1359286253329
 31
0.0
  0
LWPOLYLINE
  5
455
330
1F
100
AcDbEntity
  8
0
100
AcDbPolyline
 90
        8
 70
   128
 43
0.0
 10
396.0696441796293
 20
197.4922905777819
 10
396.0783807894309
 20
197.4826492886116
 10
396.0831873695207
 20
197.4723409928603
 10
396.0838799597626
 20
197.4617618717965
 10
396.0804318651652
 20
197.4513186660533
 10
396.0729746791809
 20
197.4414123410444
 10
396.0617956179467
 20
197.432423660837
 10
396.0542863192669
 20
197.4280374472699
  0
LINE
  5
456
330
1F
100
AcDbEntity
  8
0
100
AcDbLine
 10
396.0696441796293
 20
197.4922905777819
 30
0.0
 11
395.7888743393768
 21
197.7354443920292
 31
0.0
  0
ARC
  5
457
330
1F
100
AcDbEntity
  8
0
100
AcDbCircle
 10
398.3789085483958
 20
201.177613865181
 30
0.0
 40
0.0548568610765733
100
AcDbArc
 50
357.7659918633002
 51
111.383786209001
  0
LINE
  5
458
330
1F
100
AcDbEntity
  8
0
100
AcDbLine
 10
398.4337237158219
 20
198.8638298542836
 30
0.0
 11
398.4337237158219
 21
201.1754754943039
 31
0.0
  0
LINE
  5
459
330
1F
100
AcDbEntity
  8
0
100
AcDbLine
 10
384.4056188345388
 20
196.9242378779582
 30
0.0
 11
384.4056187778664
 21
197.1259104131994
 31
0.0
  0
ARC
  5
45A
330
1F
100
AcDbEntity
  8
0
100
AcDbCircle
 10
384.5119248878977
 20
197.1206534462441
 30
0.0
 40
0.1064360123486251
100
AcDbArc
 50
107.2086873322995
 51
177.1689599200997
  0
LINE
  5
45B
330
1F
100
AcDbEntity
  8
0
100
AcDbLine
 10
384.4804354861969
 20
197.2223246925109
 30
0.0
 11
398.3589070074915
 21
201.2286943268669
 31
0.0
  0
ARC
  5
45C
330
1F
100
AcDbEntity
  8
0
100
AcDbCircle
 10
398.4792791516436
 20
200.9324630879264
 30
0.0
 40
0.0523707857651639
100
AcDbArc
 50
57.13723671349959
 51
107.6015825061998
  0
ARC
  5
45D
330
1F
100
AcDbEntity
  8
0
100
AcDbCircle
 10
398.4786296632861
 20
198.8463814165492
 30
0.0
 40
0.0399149965738586
100
AcDbArc
 50
287.2099909791996
 51
357.1677440149997
  0
LINE
  5
45E
330
1F
100
AcDbEntity
  8
0
100
AcDbLine
 10
399.2893649249735
 20
198.1768169780478
 30
0.0
 11
398.5184959028019
 21
198.8444091342469
 31
0.0
  0
ARC
  5
45F
330
1F
100
AcDbEntity
  8
0
100
AcDbCircle
 10
399.2494986854578
 20
198.1787892604364
 30
0.0
 40
0.0399149965738586
100
AcDbArc
 50
287.2099909791996
 51
357.1677440149997
  0
LWPOLYLINE
  5
460
330
1F
100
AcDbEntity
  8
0
100
AcDbPolyline
 90
        9
 70
   128
 43
0.0
 10
399.2893649249735
 20
198.1768169780478
 10
399.2895724251983
 20
198.1802861933615
 10
399.2901869604759
 20
198.1832627130786
 10
399.2911848764227
 20
198.1856321253057
 10
399.2925278751696
 20
198.1873035694688
 10
399.2941643028419
 20
198.1882125235368
 10
399.2960312415982
 20
198.1883240088582
 10
399.2980570841587
 20
198.1876339842479
 10
399.3001637866174
 20
198.1861687879034
  0
LINE
  5
461
330
1F
100
AcDbEntity
  8
0
100
AcDbLine
 10
399.2957044226599
 20
199.3042716696405
 30
0.0
 11
398.5076970411579
 21
200.9764531181443
 31
0.0
  0
ARC
  5
462
330
1F
100
AcDbEntity
  8
0
100
AcDbCircle
 10
399.2536550223081
 20
199.2843794010729
 30
0.0
 40
0.0465172486343604
100
AcDbArc
 50
1.094324111999522
 51
25.31738064480015
  0
LINE
  5
463
330
1F
100
AcDbEntity
  8
0
100
AcDbLine
 10
399.3001637866174
 20
199.2852678059854
 30
0.0
 11
399.3001637866174
 21
199.2741922931845
 31
0.0
  0
LINE
  5
464
330
1F
100
AcDbEntity
  8
0
100
AcDbLine
 10
398.4445222441705
 20
200.9769202092599
 30
0.0
 11
398.4634424241605
 21
200.9823819947858
 31
0.0
  0
LWPOLYLINE
  5
465
330
1F
100
AcDbEntity
  8
0
100
AcDbPolyline
 90
        9
 70
   128
 43
0.0
 10
399.288305674122
 20
198.1640414686058
 10
399.2934671998082
 20
198.1658909200665
 10
399.2978087009086
 20
198.1682085170413
 10
399.301162514637
 20
198.170905167288
 10
399.3034001486222
 20
198.1738771655741
 10
399.304433843717
 20
198.1770099899444
 10
399.3042265045244
 20
198.1801838620006
 10
399.3027843316519
 20
198.1832762654498
 10
399.3001637866174
 20
198.1861687879034
  0
ARC
  5
466
330
1F
100
AcDbEntity
  8
0
100
AcDbCircle
 10
399.29373959484
 20
199.2655376916729
 30
0.0
 40
0.0107783285530931
100
AcDbArc
 50
2.953494484299993
 51
53.41400865150003
  0
LWPOLYLINE
  5
467
330
1F
100
AcDbEntity
  8
0
100
AcDbPolyline
 90
        9
 70
   128
 43
0.0
 10
399.2806165857313
 20
198.1303991146569
 10
399.2803052951792
 20
198.1251950478486
 10
399.279383572563
 20
198.1207300593369
 10
399.2778866584711
 20
198.1171759757685
 10
399.2758722409102
 20
198.1146690184599
 10
399.2734175591435
 20
198.1133056222597
 10
399.2706171510524
 20
198.1131382548431
 10
399.2675784274264
 20
198.1141733963777
 10
399.2644182932222
 20
198.1163708424374
  0
LINE
  5
468
330
1F
100
AcDbEntity
  8
0
100
AcDbLine
 10
399.288305674122
 20
198.1640414686058
 30
0.0
 11
399.2864416389578
 21
198.1635033680346
 31
0.0
  0
LINE
  5
469
330
1F
100
AcDbEntity
  8
0
100
AcDbLine
 10
399.2806165857313
 20
198.1539356244922
 30
0.0
 11
399.2806165857313
 21
198.1303991146569
 31
0.0
  0
LWPOLYLINE
  5
46A
330
1F
100
AcDbEntity
  8
0
100
AcDbPolyline
 90
       11
 70
   128
 43
0.0
 10
392.7260469623485
 20
196.477199581296
 10
392.8070450874327
 20
196.5050338007767
 10
392.8783366627611
 20
196.5388604102318
 10
392.9381671766443
 20
196.5778469239056
 10
392.9850644377676
 20
196.6210335058434
 10
393.0178713422408
 20
196.6673560856282
 10
393.0357827431695
 20
196.7156749324566
 10
393.0383553685684
 20
196.7647995361845
 10
393.025526059825
 20
196.8135204435153
 10
392.9976123912931
 20
196.8606383299462
 10
392.9792941285251
 20
196.8820778025435
  0
LWPOLYLINE
  5
46B
330
1F
100
AcDbEntity
  8
0
100
AcDbPolyline
 90
       13
 70
   128
 43
0.0
 10
390.724219200076
 20
196.5581126272457
 10
390.7184495170798
 20
196.551820792528
 10
390.6856414977344
 20
196.5054978909378
 10
390.6677312921077
 20
196.4571792962838
 10
390.6651575519229
 20
196.4080543707506
 10
390.6779867801501
 20
196.3593335330506
 10
390.7059004487686
 20
196.3122156466197
 10
390.7482124807916
 20
196.267861293093
 10
390.8038804585993
 20
196.2273624690325
 10
390.8715341974952
 20
196.1917165527757
 10
390.9495066301293
 20
196.1618008454361
 10
391.0358803672072
 20
196.1383528448788
 10
391.1123407052718
 20
196.1291583115956
  0
LINE
  5
46C
330
1F
100
AcDbEntity
  8
0
100
AcDbLine
 10
391.6037985673086
 20
196.1532343748111
 30
0.0
 11
392.7260469623485
 21
196.477199581296
 31
0.0
  0
LINE
  5
46D
330
1F
100
AcDbEntity
  8
0
100
AcDbLine
 10
392.9498122339917
 20
196.2885914591037
 30
0.0
 11
392.9505456225958
 21
196.2886306465382
 31
0.0
  0
LINE
  5
46E
330
1F
100
AcDbEntity
  8
0
100
AcDbLine
 10
392.8204749289004
 20
196.2637647670423
 30
0.0
 11
392.8200473770888
 21
196.2636578804716
 31
0.0
  0
LINE
  5
46F
330
1F
100
AcDbEntity
  8
0
100
AcDbLine
 10
391.6982265338605
 20
195.9397995605574
 30
0.0
 11
391.6975568045897
 21
195.9396465469586
 31
0.0
  0
LINE
  5
470
330
1F
100
AcDbEntity
  8
0
100
AcDbLine
 10
391.5673282651171
 20
195.8892240927916
 30
0.0
 11
391.5668189253983
 21
195.8890254042472
 31
0.0
  0
ARC
  5
471
330
1F
100
AcDbEntity
  8
0
100
AcDbCircle
 10
385.2436405218378
 20
194.0735694967966
 30
0.0
 40
0.0099717343489021
100
AcDbArc
 50
222.7102215908989
 51
279.5711301022014
  0
LINE
  5
472
330
1F
100
AcDbEntity
  8
0
100
AcDbLine
 10
384.3979296894758
 20
196.9220182129832
 30
0.0
 11
384.4056188345388
 21
196.9242378779582
 31
0.0
  0
LWPOLYLINE
  5
473
330
1F
100
AcDbEntity
  8
0
100
AcDbPolyline
 90
        7
 70
   128
 43
0.0
 10
384.3979296894758
 20
196.9220182129832
 10
384.3927672471841
 20
196.9201685897779
 10
384.3884257460836
 20
196.917850992803
 10
384.3850721305356
 20
196.9151544927898
 10
384.3828351345458
 20
196.9121825856459
 10
384.3818005228456
 20
196.9090495896172
 10
384.3817313175737
 20
196.9079901965665
  0
ARC
  5
474
330
1F
100
AcDbEntity
  8
0
100
AcDbCircle
 10
385.1884369971186
 20
194.1013797108884
 30
0.0
 40
0.0223295087078932
100
AcDbArc
 50
231.6655096744011
 51
289.241732395799
  0
ARC
  5
475
330
1F
100
AcDbEntity
  8
0
100
AcDbCircle
 10
384.3559265430601
 20
194.7681937971176
 30
0.0
 40
0.0409452839654116
100
AcDbArc
 50
359.5146834145997
 51
42.58914707919955
  0
ARC
  5
476
330
1F
100
AcDbEntity
  8
0
100
AcDbCircle
 10
398.7183439144514
 20
198.3758654736635
 30
0.0
 40
0.000008442686708
100
AcDbArc
 50
329.7336634514004
 51
56.69077989379914
  0
ARC
  5
477
330
1F
100
AcDbEntity
  8
0
100
AcDbCircle
 10
398.2452155730032
 20
198.3690519029364
 30
0.0
 40
0.0000116086723427
100
AcDbArc
 50
148.8141624189007
 51
206.4850141502994
  0
SPLINE
  5
478
330
1F
100
AcDbEntity
  8
0
100
AcDbSpline
210
0.0
220
0.0
230
1.0
 70
     8
 71
     3
 72
    18
 73
    14
 74
     0
 42
0.000000001
 43
0.0000000001
 40
0.0
 40
0.0
 40
0.0
 40
0.0
 40
0.0920560732301134
 40
0.1843382237398696
 40
0.276593570308773
 40
0.3687204051081105
 40
0.4607251044574945
 40
0.5528696672701848
 40
0.6451281627396956
 40
0.7374016718398245
 40
0.8294394812769244
 40
0.9215141429842228
 40
1.0
 40
1.0
 40
1.0
 40
1.0
 10
392.8502198358833
 20
196.8276995232603
 30
0.0
 10
392.8253185314478
 20
196.8459152266272
 30
0.0
 10
392.7754547683371
 20
196.8823913686679
 30
0.0
 10
392.6679713608149
 20
196.9224981621731
 30
0.0
 10
392.5452125586467
 20
196.9481788513842
 30
0.0
 10
392.412968705528
 20
196.9568168136906
 30
0.0
 10
392.2809545817996
 20
196.9481600365966
 30
0.0
 10
392.1577561959274
 20
196.9227235789441
 30
0.0
 10
392.0519539606683
 20
196.8821417897185
 30
0.0
 10
391.9705404350334
 20
196.8292497221193
 30
0.0
 10
391.9201583821037
 20
196.7677938387022
 30
0.0
 10
391.9009916339287
 20
196.7047763365462
 30
0.0
 10
391.9156883892814
 20
196.6645837204754
 30
0.0
 10
391.9224513110163
 20
196.6460885145412
 30
0.0
  0
LINE
  5
479
330
1F
100
AcDbEntity
  8
0
100
AcDbLine
 10
392.0672432429523
 20
196.5064470385467
 30
0.0
 11
391.9902195613072
 21
196.5566367281279
 31
0.0
  0
SPLINE
  5
47A
330
1F
100
AcDbEntity
  8
0
100
AcDbSpline
210
0.0
220
0.0
230
1.0
 70
     8
 71
     3
 72
    10
 73
     6
 74
     0
 42
0.000000001
 43
0.0000000001
 40
0.0
 40
0.0
 40
0.0
 40
0.0
 40
0.2745048638721421
 40
0.6368846059886588
 40
1.0
 40
1.0
 40
1.0
 40
1.0
 10
392.9047274069988
 20
196.6516193479757
 30
0.0
 10
392.9106306088509
 20
196.6680703970841
 30
0.0
 10
392.9243267537299
 20
196.7062388279884
 30
0.0
 10
392.9070666987835
 20
196.7678419180675
 30
0.0
 10
392.8691815953454
 20
196.8077335048429
 30
0.0
 10
392.8502198358833
 20
196.8276995232603
 30
0.0
  0
SPLINE
  5
47B
330
1F
100
AcDbEntity
  8
0
100
AcDbSpline
210
0.0
220
0.0
230
1.0
 70
     8
 71
     3
 72
    11
 73
     7
 74
     0
 42
0.000000001
 43
0.0000000001
 40
0.0
 40
0.0
 40
0.0
 40
0.0
 40
0.1970719873331659
 40
0.5084388757739993
 40
0.7516245182859214
 40
1.0
 40
1.0
 40
1.0
 40
1.0
 10
391.851701050523
 20
196.9002310898233
 30
0.0
 10
391.8434874191087
 20
196.8804532617802
 30
0.0
 10
391.8222965356209
 20
196.829427153039
 30
0.0
 10
391.8288852559877
 20
196.7543248862082
 30
0.0
 10
391.8569752223397
 20
196.6815739526848
 30
0.0
 10
391.8944757149483
 20
196.6437806709496
 30
0.0
 10
391.9134239239442
 20
196.6246845217752
 30
0.0
  0
SPLINE
  5
47C
330
1F
100
AcDbEntity
  8
0
100
AcDbSpline
210
0.0
220
0.0
230
1.0
 70
     8
 71
     3
 72
    18
 73
    14
 74
     0
 42
0.000000001
 43
0.0000000001
 40
0.0
 40
0.0
 40
0.0
 40
0.0
 40
0.0782337746080276
 40
0.1704118861178721
 40
0.2625899083495151
 40
0.3547632135690863
 40
0.4469408826043589
 40
0.5391194440491175
 40
0.6312927492686887
 40
0.7234707715003318
 40
0.8156488830101761
 40
0.9078218259302076
 40
1.0
 40
1.0
 40
1.0
 40
1.0
 10
390.8002653073737
 20
196.3220204966435
 30
0.0
 10
390.7934920578148
 20
196.3404558293476
 30
0.0
 10
390.7787382991183
 20
196.380612396419
 30
0.0
 10
390.7977987504943
 20
196.4436481530108
 30
0.0
 10
390.8481453803617
 20
196.5051616779331
 30
0.0
 10
390.9295081103238
 20
196.5580713778744
 30
0.0
 10
391.0352128760288
 20
196.59867257676
 30
0.0
 10
391.1584491048142
 20
196.6241681910016
 30
0.0
 10
391.2906039517588
 20
196.6328598851412
 30
0.0
 10
391.4229382262072
 20
196.6242175579915
 30
0.0
 10
391.5456548080028
 20
196.5985479105774
 30
0.0
 10
391.6531449955124
 20
196.5584578873776
 30
0.0
 10
391.7030288205675
 20
196.5219758520469
 30
0.0
 10
391.7279714408471
 20
196.5037343167743
 30
0.0
  0
SPLINE
  5
47D
330
1F
100
AcDbEntity
  8
0
100
AcDbSpline
210
0.0
220
0.0
230
1.0
 70
     8
 71
     3
 72
    11
 73
     7
 74
     0
 42
0.000000001
 43
0.0000000001
 40
0.0
 40
0.0
 40
0.0
 40
0.0
 40
0.1631751275859444
 40
0.4418337150847779
 40
0.7181979457885277
 40
1.0
 40
1.0
 40
1.0
 40
1.0
 10
391.3930776872903
 20
196.767837975166
 30
0.0
 10
391.4198180991548
 20
196.7612415579959
 30
0.0
 10
391.4922238370377
 20
196.7433802604586
 30
0.0
 10
391.5982828543304
 20
196.7013832023648
 30
0.0
 10
391.7094214581074
 20
196.6488463954817
 30
0.0
 10
391.7631515433706
 20
196.6091679489738
 30
0.0
 10
391.7902783133122
 20
196.5891354460513
 30
0.0
  0
SPLINE
  5
47E
330
1F
100
AcDbEntity
  8
0
100
AcDbSpline
210
0.0
220
0.0
230
1.0
 70
     8
 71
     3
 72
    10
 73
     6
 74
     0
 42
0.000000001
 43
0.0000000001
 40
0.0
 40
0.0
 40
0.0
 40
0.0
 40
0.3621969292343287
 40
0.7243733036421063
 40
1.0
 40
1.0
 40
1.0
 40
1.0
 10
391.7279714408471
 20
196.5037343167743
 30
0.0
 10
391.746883631412
 20
196.4838327932191
 30
0.0
 10
391.784706939267
 20
196.4440308755281
 30
0.0
 10
391.8020727532487
 20
196.382474468307
 30
0.0
 10
391.7884249021542
 20
196.3442660972233
 30
0.0
 10
391.7825269811783
 20
196.3277543437092
 30
0.0
  0
SPLINE
  5
47F
330
1F
100
AcDbEntity
  8
0
100
AcDbSpline
210
0.0
220
0.0
230
1.0
 70
     8
 71
     3
 72
     9
 73
     5
 74
     0
 42
0.000000001
 43
0.0000000001
 40
0.0
 40
0.0
 40
0.0
 40
0.0
 40
0.5361409811507981
 40
1.0
 40
1.0
 40
1.0
 40
1.0
 10
391.8171965800718
 20
196.3255462152107
 30
0.0
 10
391.8085912528632
 20
196.3163349378543
 30
0.0
 10
391.7925407595952
 20
196.2991542378516
 30
0.0
 10
391.7651012087254
 20
196.2829108870111
 30
0.0
 10
391.7523731255812
 20
196.2753762622273
 30
0.0
  0
LINE
  5
480
330
1F
100
AcDbEntity
  8
0
100
AcDbLine
 10
404.7856521851826
 20
200.5083590978377
 30
0.0
 11
399.3045035881534
 21
198.9260877888239
 31
0.0
  0
LINE
  5
481
330
1F
100
AcDbEntity
  8
0
100
AcDbLine
 10
384.5135776529188
 20
194.6563152537107
 30
0.0
 11
358.3619766504246
 21
187.1069983143873
 31
0.0
  0
LINE
  5
482
330
1F
100
AcDbEntity
  8
0
100
AcDbLine
 10
404.8450924105083
 20
200.7710351540878
 30
0.0
 11
404.8626188975052
 21
200.8691497239416
 31
0.0
  0
ARC
  5
483
330
1F
100
AcDbEntity
  8
0
100
AcDbCircle
 10
406.3189641005362
 20
199.88675334853
 30
0.0
 40
0.0056151385544493
100
AcDbArc
 50
357.7274982678995
 51
47.62361022399954
  0
LWPOLYLINE
  5
484
330
1F
100
AcDbEntity
  8
0
100
AcDbPolyline
 90
        4
 70
   128
 43
0.0
 10
406.3668007034899
 20
199.3139604673994
 10
406.3667660274651
 20
199.3140444765848
 10
406.3664442781069
 20
199.3142562757846
 10
406.3658168389934
 20
199.3143919538763
  0
LINE
  5
485
330
1F
100
AcDbEntity
  8
0
100
AcDbLine
 10
406.3547050924566
 20
199.2733348044
 30
0.0
 11
406.3524762552927
 21
199.2729950527712
 31
0.0
  0
ARC
  5
486
330
1F
100
AcDbEntity
  8
0
100
AcDbCircle
 10
406.4009830229265
 20
199.4286355936028
 30
0.0
 40
0.0013862767535505
100
AcDbArc
 50
15.47611338090002
 51
79.26308472370109
  0
ARC
  5
487
330
1F
100
AcDbEntity
  8
0
100
AcDbCircle
 10
406.3448506903427
 20
199.8400955730174
 30
0.0
 40
0.0013858975509203
100
AcDbArc
 50
15.46566715870062
 51
79.26926807319955
  0
ARC
  5
488
330
1F
100
AcDbEntity
  8
0
100
AcDbCircle
 10
406.400101629139
 20
199.4195926623568
 30
0.0
 40
0.0028794747077814
100
AcDbArc
 50
3.03146695389959
 51
53.39887749379972
  0
LINE
  5
489
330
1F
100
AcDbEntity
  8
0
100
AcDbLine
 10
358.3636468942751
 20
187.1042120932072
 30
0.0
 11
358.3488924009437
 21
187.0999593876834
 31
0.0
  0
LINE
  5
48A
330
1F
100
AcDbEntity
  8
0
100
AcDbLine
 10
357.3048997988844
 20
189.1386179844587
 30
0.0
 11
384.4056188473246
 21
196.9619217033128
 31
0.0
  0
LINE
  5
48B
330
1F
100
AcDbEntity
  8
0
100
AcDbLine
 10
398.444521699477
 20
201.014603873755
 30
0.0
 11
404.0652477340354
 21
202.6371677183206
 31
0.0
  0
LINE
  5
48C
330
1F
100
AcDbEntity
  8
0
100
AcDbLine
 10
357.387198289587
 20
189.3790413834245
 30
0.0
 11
384.4273066512511
 21
197.1848483041432
 31
0.0
  0
LWPOLYLINE
  5
48D
330
1F
100
AcDbEntity
  8
0
100
AcDbPolyline
 90
        7
 70
   128
 43
0.0
 10
357.3406157359415
 20
189.3577808081219
 10
357.3409005079988
 20
189.3619538022258
 10
357.3416626703275
 20
189.365532247372
 10
357.3428758095702
 20
189.3683798124414
 10
357.3444939040091
 20
189.370387257753
 10
357.3464508637944
 20
189.3714759813164
 10
357.3465247238845
 20
189.3714969651035
  0
LINE
  5
48E
330
1F
100
AcDbEntity
  8
0
100
AcDbLine
 10
404.0556800427594
 20
202.8432614432751
 30
0.0
 11
404.0556800427594
 21
202.8311677446731
 31
0.0
  0
LWPOLYLINE
  5
48F
330
1F
100
AcDbEntity
  8
0
100
AcDbPolyline
 90
        6
 70
   128
 43
0.0
 10
404.0556800427594
 20
202.8432614432751
 10
404.0558934642904
 20
202.8474138402768
 10
404.056606573019
 20
202.8509781247747
 10
404.0577883354983
 20
202.8538168180357
 10
404.0593932125894
 20
202.8558202619884
 10
404.0613120576535
 20
202.8568976336387
  0
LINE
  5
490
330
1F
100
AcDbEntity
  8
0
100
AcDbLine
 10
392.0066140178511
 20
196.9506136495918
 30
0.0
 11
392.0374503132375
 21
196.959075697423
 31
0.0
  0
LWPOLYLINE
  5
491
330
1F
100
AcDbEntity
  8
0
100
AcDbPolyline
 90
       14
 70
   128
 43
0.0
 10
392.9559479820199
 20
196.9009715283997
 10
392.9604355127208
 20
196.8989402438286
 10
393.0390263568112
 20
196.857693494025
 10
393.1053045528856
 20
196.8113555633008
 10
393.1579680652203
 20
196.7608377775809
 10
393.1959802273116
 20
196.7071331782161
 10
393.2185952931407
 20
196.6512982559607
 10
393.2253678968708
 20
196.5944305979795
 10
393.2161636167904
 20
196.5376481535566
 10
393.1911656305087
 20
196.4820680220644
 10
393.150863751887
 20
196.4287824778977
 10
393.0960503742174
 20
196.3788393109695
 10
393.0278044494091
 20
196.3332209439155
 10
392.9474673182847
 20
196.2928241695821
  0
LWPOLYLINE
  5
492
330
1F
100
AcDbEntity
  8
0
100
AcDbPolyline
 90
       23
 70
   128
 43
0.0
 10
398.1792343997946
 20
198.263379407832
 10
398.1494694960929
 20
198.296804550721
 10
398.1342550906283
 20
198.3325937109094
 10
398.1342557858144
 20
198.3691826626318
 10
398.1494696210138
 20
198.4049716750922
 10
398.179234378888
 20
198.4383972909703
 10
398.2222466386108
 20
198.4679982138579
 10
398.2766276192453
 20
198.4924805820617
 10
398.3400014705555
 20
198.5107750371028
 10
398.4095977812945
 20
198.522081830124
 10
398.4823742134215
 20
198.5259062235115
 10
398.5551503424899
 20
198.5220816119874
 10
398.6247467630315
 20
198.5107752114392
 10
398.6881199190691
 20
198.4924807148443
 10
398.7425013602526
 20
198.4679981038825
 10
398.7855140689479
 20
198.4383972729146
 10
398.8152779382072
 20
198.4049717385893
 10
398.8304923437581
 20
198.3691825783145
 10
398.8304926829282
 20
198.3325940181148
 10
398.8152777328565
 20
198.2968046837626
 10
398.7855141702842
 20
198.2633793200591
 10
398.7425017496155
 20
198.2337785366061
 10
398.7010055250152
 20
198.2142085703835
  0
LWPOLYLINE
  5
493
330
1F
100
AcDbEntity
  8
0
100
AcDbPolyline
 90
        3
 70
   128
 43
0.0
 10
398.2609402598096
 20
198.2161167709884
 10
398.2222460740475
 20
198.2337781853414
 10
398.1792343997946
 20
198.263379407832
  0
LINE
  5
494
330
1F
100
AcDbEntity
  8
0
100
AcDbLine
 10
399.2870902007748
 20
198.165094099423
 30
0.0
 11
399.288305674122
 21
198.1640414686058
 31
0.0
  0
ARC
  5
495
330
1F
100
AcDbEntity
  8
0
100
AcDbCircle
 10
392.9547944848557
 20
196.299587904873
 30
0.0
 40
0.0099717343488192
100
AcDbArc
 50
222.7102215906004
 51
279.5711301023005
  0
LINE
  5
496
330
1F
100
AcDbEntity
  8
0
100
AcDbLine
 10
394.8351701646576
 20
197.1359286253329
 30
0.0
 11
394.8351701646576
 21
197.1364941348281
 31
0.0
  0
ARC
  5
497
330
1F
100
AcDbEntity
  8
0
100
AcDbCircle
 10
391.5605909393825
 20
195.8971160087923
 30
0.0
 40
0.0099717343489706
100
AcDbArc
 50
222.7102215909991
 51
279.5711301019998
  0
ARC
  5
498
330
1F
100
AcDbEntity
  8
0
100
AcDbCircle
 10
384.3938190443473
 20
194.8052671997213
 30
0.0
 40
0.0121537386752606
100
AcDbArc
 50
185.974348745196
 51
230.3971656722048
  0
ARC
  5
499
330
1F
100
AcDbEntity
  8
0
100
AcDbCircle
 10
384.4207540665306
 20
194.7681937971176
 30
0.0
 40
0.0238822395050562
100
AcDbArc
 50
180.0000000000049
 51
224.493219071402
  0
ELLIPSE
  5
49A
330
1F
100
AcDbEntity
  8
0
100
AcDbEllipse
 10
398.482846881438
 20
198.2554510115083
 30
0.0
 11
-0.2364507339141255
 21
0.0015254861654626
 31
0.0
210
0.0
220
0.0
230
1.0
 40
0.4949556854659901
 41
0.0
 42
6.283185307179586
  0
ELLIPSE
  5
49B
330
1F
100
AcDbEntity
  8
0
100
AcDbEllipse
 10
398.4828480869319
 20
198.3658641993055
 30
0.0
 11
-0.2366320024338239
 21
0.0015266556379123
 31
0.0
210
0.0
220
0.0
230
1.0
 40
0.4945765318287055
 41
3.141592653589793
 42
6.292368475777093
  0
LINE
  5
49C
330
1F
100
AcDbEntity
  8
0
100
AcDbLine
 10
398.2462160844981
 20
198.3673908549434
 30
0.0
 11
398.2465415261681
 21
198.2524816316631
 31
0.0
  0
LINE
  5
49D
330
1F
100
AcDbEntity
  8
0
100
AcDbLine
 10
398.7192976153515
 20
198.2539255253402
 30
0.0
 11
398.7194800893657
 21
198.3643375436676
 31
0.0
  0
LINE
  5
49E
330
1F
100
AcDbEntity
  8
0
100
AcDbLine
 10
405.5158180754046
 20
200.8760635108078
 30
0.0
 11
405.5377046935062
 21
200.8208025674558
 31
0.0
  0
LINE
  5
49F
330
1F
100
AcDbEntity
  8
0
100
AcDbLine
 10
405.8360032216874
 20
200.5670330686792
 30
0.0
 11
405.8562809099361
 21
200.5856995958612
 31
0.0
  0
ARC
  5
4A0
330
1F
100
AcDbEntity
  8
0
100
AcDbCircle
 10
359.8574128862902
 20
187.2430220814745
 30
0.0
 40
1.438978820152004
100
AcDbArc
 50
234.990897967846
 51
264.417261940379
  0
LINE
  5
4A1
330
1F
100
AcDbEntity
  8
0
100
AcDbLine
 10
359.8241474125862
 20
185.8407212897317
 30
0.0
 11
359.791648295392
 21
185.8318375241835
 31
0.0
  0
ARC
  5
4A2
330
1F
100
AcDbEntity
  8
0
100
AcDbCircle
 10
385.4590742487074
 20
194.5472093335899
 30
0.0
 40
0.000008442686708
100
AcDbArc
 50
329.7336634514004
 51
56.69077989379914
  0
ARC
  5
4A3
330
1F
100
AcDbEntity
  8
0
100
AcDbCircle
 10
384.9859459072592
 20
194.5403957628628
 30
0.0
 40
0.0000116086723427
100
AcDbArc
 50
148.8141624189007
 51
206.4850141502994
  0
LWPOLYLINE
  5
4A4
330
1F
100
AcDbEntity
  8
0
100
AcDbPolyline
 90
       23
 70
   128
 43
0.0
 10
384.9199647340506
 20
194.4347232677584
 10
384.8901998303489
 20
194.4681484106473
 10
384.8749854248842
 20
194.5039375708357
 10
384.8749861200704
 20
194.5405265225581
 10
384.8901999552698
 20
194.5763155350185
 10
384.919964713144
 20
194.6097411508966
 10
384.9629769728668
 20
194.6393420737842
 10
385.0173579535013
 20
194.6638244419881
 10
385.0807318048114
 20
194.6821188970291
 10
385.1503281155505
 20
194.6934256900503
 10
385.2231045476775
 20
194.6972500834379
 10
385.2958806767459
 20
194.6934254719138
 10
385.3654770972875
 20
194.6821190713656
 10
385.4288502533251
 20
194.6638245747706
 10
385.4832316945086
 20
194.6393419638088
 10
385.5262444032039
 20
194.6097411328409
 10
385.5560082724632
 20
194.5763155985156
 10
385.5712226780141
 20
194.5405264382408
 10
385.5712230171841
 20
194.5039378780412
 10
385.5560080671125
 20
194.468148543689
 10
385.5262445045402
 20
194.4347231799854
 10
385.4832320838715
 20
194.4051223965324
 10
385.4417358592712
 20
194.3855524303098
  0
LWPOLYLINE
  5
4A5
330
1F
100
AcDbEntity
  8
0
100
AcDbPolyline
 90
        3
 70
   128
 43
0.0
 10
385.0016705940656
 20
194.3874606309148
 10
384.9629764083035
 20
194.4051220452678
 10
384.9199647340506
 20
194.4347232677584
  0
ELLIPSE
  5
4A6
330
1F
100
AcDbEntity
  8
0
100
AcDbEllipse
 10
385.2235772156939
 20
194.4267948714346
 30
0.0
 11
-0.2364507339141255
 21
0.0015254861654626
 31
0.0
210
0.0
220
0.0
230
1.0
 40
0.4949556854659901
 41
0.0
 42
6.283185307179586
  0
ELLIPSE
  5
4A7
330
1F
100
AcDbEntity
  8
0
100
AcDbEllipse
 10
385.2235784211879
 20
194.5372080592319
 30
0.0
 11
-0.2366320024338239
 21
0.0015266556379123
 31
0.0
210
0.0
220
0.0
230
1.0
 40
0.4945765318287055
 41
3.141592653589793
 42
6.292368475777093
  0
LINE
  5
4A8
330
1F
100
AcDbEntity
  8
0
100
AcDbLine
 10
384.9869464187541
 20
194.5387347148698
 30
0.0
 11
384.9872718604241
 21
194.4238254915894
 31
0.0
  0
LINE
  5
4A9
330
1F
100
AcDbEntity
  8
0
100
AcDbLine
 10
385.4600279496075
 20
194.4252693852666
 30
0.0
 11
385.4602104236217
 21
194.5356814035939
 31
0.0
  0
ARC
  5
4AA
330
1F
100
AcDbEntity
  8
0
100
AcDbCircle
 10
391.4439117167919
 20
196.6177279097285
 30
0.0
 40
0.4661905565054817
100
AcDbArc
 50
290.6772174311109
 51
306.7383525898524
  0
ARC
  5
4AB
330
1F
100
AcDbEntity
  8
0
100
AcDbCircle
 10
4.547028465069445
 20
-240.6167258697451
 30
0.0
 40
584.1513291022859
100
AcDbArc
 50
48.45115820207714
 51
48.46122222668082
  0
ARC
  5
4AC
330
1F
100
AcDbEntity
  8
0
100
AcDbCircle
 10
392.5304026009397
 20
196.9344647204609
 30
0.0
 40
0.4829174842372597
100
AcDbArc
 50
296.1565036910606
 51
310.6469699493272
  0
ENDSEC
  0
SECTION
  2
OBJECTS
  0
DICTIONARY
  5
C
330
0
100
AcDbDictionary
281
     1
  3
ACAD_CIP_PREVIOUS_PRODUCT_INFO
350
216
  3
ACAD_COLOR
350
6B
  3
ACAD_DETAILVIEWSTYLE
350
21B
  3
ACAD_GROUP
350
D
  3
ACAD_LAYOUT
350
1A
  3
ACAD_MATERIAL
350
6A
  3
ACAD_MLEADERSTYLE
350
12D
  3
ACAD_MLINESTYLE
350
17
  3
ACAD_PLOTSETTINGS
350
19
  3
ACAD_PLOTSTYLENAME
350
E
  3
ACAD_SCALELIST
350
10C
  3
ACAD_SECTIONVIEWSTYLE
350
219
  3
ACAD_TABLESTYLE
350
7E
  3
ACAD_VISUALSTYLE
350
EF
  3
ACDB_RECOMPOSE_DATA
350
4B7
  3
AcDbVariableDictionary
350
5E
  0
DICTIONARY
  5
1FF
330
2
100
AcDbDictionary
280
     1
281
     1
  3
ACAD_LAYERSTATES
360
200
  0
DICTIONARY
  5
13C
330
10
100
AcDbDictionary
280
     1
281
     1
  0
DICTIONARY
  5
1CE
330
1F
100
AcDbDictionary
280
     1
281
     1
  0
XRECORD
  5
216
102
{ACAD_REACTORS
330
C
102
}
330
C
100
AcDbXrecord
280
     1
300
ACD
300
2021
300

  0
DICTIONARY
  5
6B
102
{ACAD_REACTORS
330
C
102
}
330
C
100
AcDbDictionary
281
     1
  0
DICTIONARY
  5
21B
102
{ACAD_REACTORS
330
C
102
}
330
C
100
AcDbDictionary
281
     1
  3
Metric50
350
21C
  0
DICTIONARY
  5
D
102
{ACAD_REACTORS
330
C
102
}
330
C
100
AcDbDictionary
281
     1
  0
DICTIONARY
  5
1A
102
{ACAD_REACTORS
330
C
102
}
330
C
100
AcDbDictionary
281
     1
  3
Model
350
22
  3
布局1
350
D3
  3
布局2
350
D7
  0
DICTIONARY
  5
6A
102
{ACAD_REACTORS
330
C
102
}
330
C
100
AcDbDictionary
281
     1
  3
ByBlock
350
ED
  3
ByLayer
350
EC
  3
Global
350
EE
  0
DICTIONARY
  5
12D
102
{ACAD_REACTORS
330
C
102
}
330
C
100
AcDbDictionary
281
     1
  3
Annotative
350
13B
  3
Standard
350
12E
  0
DICTIONARY
  5
17
102
{ACAD_REACTORS
330
C
102
}
330
C
100
AcDbDictionary
281
     1
  3
Standard
350
18
  0
DICTIONARY
  5
19
102
{ACAD_REACTORS
330
C
102
}
330
C
100
AcDbDictionary
281
     1
  0
ACDBDICTIONARYWDFLT
  5
E
102
{ACAD_REACTORS
330
C
102
}
330
C
100
AcDbDictionary
281
     1
  3
Normal
350
F
100
AcDbDictionaryWithDefault
340
F
  0
DICTIONARY
  5
10C
102
{ACAD_REACTORS
330
C
102
}
330
C
100
AcDbDictionary
281
     1
  3
A0
350
10D
  3
A1
350
1BE
  3
A2
350
1BF
  3
A3
350
1C0
  3
A4
350
1C1
  3
A5
350
1C2
  3
A6
350
1C3
  3
A7
350
1C4
  3
A8
350
1C5
  3
A9
350
1C6
  3
B0
350
1C7
  3
B1
350
1C8
  3
B2
350
1C9
  3
B3
350
1CA
  3
B4
350
1CB
  3
B5
350
1CC
  3
B6
350
1CD
  0
DICTIONARY
  5
219
102
{ACAD_REACTORS
330
C
102
}
330
C
100
AcDbDictionary
281
     1
  3
Metric50
350
21A
  0
DICTIONARY
  5
7E
102
{ACAD_REACTORS
330
C
102
}
330
C
100
AcDbDictionary
281
     1
  3
Standard
350
7F
  0
DICTIONARY
  5
EF
102
{ACAD_REACTORS
330
C
102
}
330
C
100
AcDbDictionary
281
     1
  3
2dWireframe
350
F5
  3
Basic
350
F4
  3
Brighten
350
FB
  3
ColorChange
350
FF
  3
Conceptual
350
F8
  3
Dim
350
FA
  3
EdgeColorOff
350
1E6
  3
Facepattern
350
FE
  3
Flat
350
F0
  3
FlatWithEdges
350
F1
  3
Gouraud
350
F2
  3
GouraudWithEdges
350
F3
  3
Hidden
350
F7
  3
JitterOff
350
1E4
  3
Linepattern
350
FD
  3
OverhangOff
350
1E5
  3
Realistic
350
F9
  3
Shaded
350
1F3
  3
Shaded with edges
350
1F2
  3
Shades of Gray
350
1EF
  3
Sketchy
350
1F0
  3
Thicken
350
FC
  3
Wireframe
350
F6
  3
X-Ray
350
1F1
  0
XRECORD
  5
4B7
102
{ACAD_REACTORS
330
C
102
}
330
C
100
AcDbXrecord
280
     1
 90
        1
330
7F
  0
DICTIONARY
  5
5E
102
{ACAD_REACTORS
330
C
102
}
330
C
100
AcDbDictionary
281
     1
  3
CANNOSCALE
350
146
  3
CENTEREXE
350
259
  3
CENTERLTYPEFILE
350
25A
  3
CMLEADERSTYLE
350
145
  3
CTABLESTYLE
350
84
  3
CVIEWDETAILSTYLE
350
227
  3
CVIEWSECTIONSTYLE
350
228
  3
DIMASSOC
350
5F
  3
HIDETEXT
350
63
  3
LAYEREVAL
350
1AE
  3
LAYERNOTIFY
350
1AF
  0
DICTIONARY
  5
200
102
{ACAD_REACTORS
330
1FF
102
}
330
1FF
100
AcDbDictionary
281
     1
  0
ACDBDETAILVIEWSTYLE
  5
21C
102
{ACAD_REACTORS
330
21B
102
}
330
21B
100
AcDbModelDocViewStyle
 70
     0
  3
Metric50
290
     0
300
Metric50
 90
        0
100
AcDbDetailViewStyle
 70
     0
 71
     0
 90
        3
 71
     1
340
11
 62
   256
 40
5.0
340
0
 62
   256
 40
5.0
300

 40
0.0
280
     1
 71
     2
340
16
 90
       25
 62
   256
 71
     3
340
11
 62
   256
 40
5.0
 90
        0
 40
15.0
 90
        1
300
%<\AcVar ViewDetailId>% (%<\AcVar ViewScale \f "%sn">%)
 71
     4
340
16
 90
       25
 62
   256
340
16
 90
       25
 62
   256
280
     0
  0
LAYOUT
  5
22
102
{ACAD_XDICTIONARY
360
205
102
}
102
{ACAD_REACTORS
330
1A
102
}
330
1A
100
AcDbPlotSettings
  1

  2
none_device
  4
ISO_A4_(210.00_x_297.00_MM)
  6

 40
7.5
 41
20.0
 42
7.5
 43
20.0
 44
210.0
 45
297.0
 46
11.54999923706054
 47
-13.65000009536743
 48
0.0
 49
0.0
140
0.0
141
0.0
142
1.0
143
8.704084754739808
 70
 11952
 72
     1
 73
     0
 74
     0
  7

 75
     0
147
0.1148885871608098
 76
     0
 77
     2
 78
   300
148
0.0
149
0.0
100
AcDbLayout
  1
Model
 70
     1
 71
     0
 10
0.0
 20
0.0
 11
12.0
 21
9.0
 12
0.0
 22
0.0
 32
0.0
 14
0.0
 24
0.0
 34
0.0
 15
0.0
 25
0.0
 35
0.0
146
0.0
 13
0.0
 23
0.0
 33
0.0
 16
1.0
 26
0.0
 36
0.0
 17
0.0
 27
1.0
 37
0.0
 76
     0
330
1F
331
EA
1001
ACAD_PSEXT
1000
None
1000
None
1000
Not applicable
1000
The layout will not be plotted unless a new plotter configuration name is selected.
1070
     0
  0
LAYOUT
  5
D3
102
{ACAD_REACTORS
330
1A
102
}
330
1A
100
AcDbPlotSettings
  1

  2
C:\Documents and Settings\basas\Application Data\Autodesk\AutoCAD 2005\R16.1\enu\plotters\Default Windows System Printer.pc3
  4

  6

 40
0.0
 41
0.0
 42
0.0
 43
0.0
 44
0.0
 45
0.0
 46
0.0
 47
0.0
 48
0.0
 49
0.0
140
0.0
141
0.0
142
1.0
143
1.0
 70
   688
 72
     0
 73
     0
 74
     5
  7

 75
    16
147
1.0
 76
     0
 77
     2
 78
   300
148
0.0
149
0.0
100
AcDbLayout
  1
布局1
 70
     1
 71
     1
 10
0.0
 20
0.0
 11
12.0
 21
9.0
 12
0.0
 22
0.0
 32
0.0
 14
0.0
 24
0.0
 34
0.0
 15
0.0
 25
0.0
 35
0.0
146
0.0
 13
0.0
 23
0.0
 33
0.0
 16
1.0
 26
0.0
 36
0.0
 17
0.0
 27
1.0
 37
0.0
 76
     0
330
D2
  0
LAYOUT
  5
D7
102
{ACAD_REACTORS
330
1A
102
}
330
1A
100
AcDbPlotSettings
  1

  2
C:\Documents and Settings\basas\Application Data\Autodesk\AutoCAD 2005\R16.1\enu\plotters\Default Windows System Printer.pc3
  4

  6

 40
0.0
 41
0.0
 42
0.0
 43
0.0
 44
0.0
 45
0.0
 46
0.0
 47
0.0
 48
0.0
 49
0.0
140
0.0
141
0.0
142
1.0
143
1.0
 70
   688
 72
     0
 73
     0
 74
     5
  7

 75
    16
147
1.0
 76
     0
 77
     2
 78
   300
148
0.0
149
0.0
100
AcDbLayout
  1
布局2
 70
     1
 71
     2
 10
0.0
 20
0.0
 11
12.0
 21
9.0
 12
0.0
 22
0.0
 32
0.0
 14
0.0
 24
0.0
 34
0.0
 15
0.0
 25
0.0
 35
0.0
146
0.0
 13
0.0
 23
0.0
 33
0.0
 16
1.0
 26
0.0
 36
0.0
 17
0.0
 27
1.0
 37
0.0
 76
     0
330
D6
  0
MATERIAL
  5
ED
102
{ACAD_XDICTIONARY
360
1F9
102
}
102
{ACAD_REACTORS
330
6A
102
}
330
6A
100
AcDbMaterial
  1
ByBlock
 94
       63
  0
MATERIAL
  5
EC
102
{ACAD_XDICTIONARY
360
1F7
102
}
102
{ACAD_REACTORS
330
6A
102
}
330
6A
100
AcDbMaterial
  1
ByLayer
 94
       63
  0
MATERIAL
  5
EE
102
{ACAD_XDICTIONARY
360
173
102
}
102
{ACAD_REACTORS
330
6A
102
}
330
6A
100
AcDbMaterial
  1
Global
 43
0.0007999999797903
 43
0.0
 43
0.0
 43
0.0
 43
0.0
 43
0.0007999999797903
 43
0.0
 43
0.0
 43
0.0
 43
0.0
 43
1.0
 43
0.0
 43
0.0
 43
0.0
 43
0.0
 43
1.0
 49
0.0007999999797903
 49
0.0
 49
0.0
 49
0.0
 49
0.0
 49
0.0007999999797903
 49
0.0
 49
0.0
 49
0.0
 49
0.0
 49
1.0
 49
0.0
 49
0.0
 49
0.0
 49
0.0
 49
1.0
142
0.0007999999797903
142
0.0
142
0.0
142
0.0
142
0.0
142
0.0007999999797903
142
0.0
142
0.0
142
0.0
142
0.0
142
1.0
142
0.0
142
0.0
142
0.0
142
0.0
142
1.0
144
0.0007999999797903
144
0.0
144
0.0
144
0.0
144
0.0
144
0.0007999999797903
144
0.0
144
0.0
144
0.0
144
0.0
144
1.0
144
0.0
144
0.0
144
0.0
144
0.0
144
1.0
 94
       63
1001
ACAD
1070
    -1
1070
     3
1070
     0
1000

1071
        0
1070
     0
  0
MLEADERSTYLE
  5
13B
102
{ACAD_REACTORS
330
12D
102
}
330
12D
100
AcDbMLeaderStyle
179
     2
170
     2
171
     1
172
     0
 90
        2
 40
0.0
 41
0.0
173
     1
 91
-1056964608
340
14
 92
       -2
290
     1
 42
2.0
291
     1
 43
8.0
  3
Standard
 44
4.0
300

342
11
174
     1
178
     1
175
     1
176
     0
 93
-1056964608
 45
4.0
292
     0
297
     0
 46
4.0
 94
-1056964608
 47
1.0
 49
1.0
140
1.0
293
     1
141
0.0
294
     1
177
     0
142
1.0
295
     0
296
     1
143
3.75
271
     0
272
     9
273
     9
298
     0
  0
MLEADERSTYLE
  5
12E
102
{ACAD_REACTORS
330
12D
102
}
330
12D
100
AcDbMLeaderStyle
179
     2
170
     2
171
     1
172
     0
 90
        2
 40
0.0
 41
0.0
173
     1
 91
-1056964608
340
14
 92
       -2
290
     1
 42
2.0
291
     1
 43
8.0
  3
Standard
 44
4.0
300

342
11
174
     1
178
     1
175
     1
176
     0
 93
-1056964608
 45
4.0
292
     0
297
     0
 46
4.0
 94
-1056964608
 47
1.0
 49
1.0
140
1.0
293
     1
141
0.0
294
     1
177
     0
142
1.0
295
     0
296
     0
143
3.75
271
     0
272
     9
273
     9
298
     0
  0
MLINESTYLE
  5
18
102
{ACAD_REACTORS
330
17
102
}
330
17
100
AcDbMlineStyle
  2
STANDARD
 70
     0
  3

 62
   256
 51
90.0
 52
90.0
 71
     2
 49
0.5
 62
   256
  6
BYLAYER
 49
-0.5
 62
   256
  6
BYLAYER
  0
ACDBPLACEHOLDER
  5
F
102
{ACAD_REACTORS
330
E
102
}
330
E
  0
SCALE
  5
10D
102
{ACAD_REACTORS
330
10C
102
}
330
10C
100
AcDbScale
 70
     0
300
1:1
140
1.0
141
1.0
290
     1
  0
SCALE
  5
1BE
102
{ACAD_REACTORS
330
10C
102
}
330
10C
100
AcDbScale
 70
     0
300
1:2
140
1.0
141
2.0
290
     0
  0
SCALE
  5
1BF
102
{ACAD_REACTORS
330
10C
102
}
330
10C
100
AcDbScale
 70
     0
300
1:4
140
1.0
141
4.0
290
     0
  0
SCALE
  5
1C0
102
{ACAD_REACTORS
330
10C
102
}
330
10C
100
AcDbScale
 70
     0
300
1:5
140
1.0
141
5.0
290
     0
  0
SCALE
  5
1C1
102
{ACAD_REACTORS
330
10C
102
}
330
10C
100
AcDbScale
 70
     0
300
1:8
140
1.0
141
8.0
290
     0
  0
SCALE
  5
1C2
102
{ACAD_REACTORS
330
10C
102
}
330
10C
100
AcDbScale
 70
     0
300
1:10
140
1.0
141
10.0
290
     0
  0
SCALE
  5
1C3
102
{ACAD_REACTORS
330
10C
102
}
330
10C
100
AcDbScale
 70
     0
300
1:16
140
1.0
141
16.0
290
     0
  0
SCALE
  5
1C4
102
{ACAD_REACTORS
330
10C
102
}
330
10C
100
AcDbScale
 70
     0
300
1:20
140
1.0
141
20.0
290
     0
  0
SCALE
  5
1C5
102
{ACAD_REACTORS
330
10C
102
}
330
10C
100
AcDbScale
 70
     0
300
1:30
140
1.0
141
30.0
290
     0
  0
SCALE
  5
1C6
102
{ACAD_REACTORS
330
10C
102
}
330
10C
100
AcDbScale
 70
     0
300
1:40
140
1.0
141
40.0
290
     0
  0
SCALE
  5
1C7
102
{ACAD_REACTORS
330
10C
102
}
330
10C
100
AcDbScale
 70
     0
300
1:50
140
1.0
141
50.0
290
     0
  0
SCALE
  5
1C8
102
{ACAD_REACTORS
330
10C
102
}
330
10C
100
AcDbScale
 70
     0
300
1:100
140
1.0
141
100.0
290
     0
  0
SCALE
  5
1C9
102
{ACAD_REACTORS
330
10C
102
}
330
10C
100
AcDbScale
 70
     0
300
2:1
140
2.0
141
1.0
290
     0
  0
SCALE
  5
1CA
102
{ACAD_REACTORS
330
10C
102
}
330
10C
100
AcDbScale
 70
     0
300
4:1
140
4.0
141
1.0
290
     0
  0
SCALE
  5
1CB
102
{ACAD_REACTORS
330
10C
102
}
330
10C
100
AcDbScale
 70
     0
300
8:1
140
8.0
141
1.0
290
     0
  0
SCALE
  5
1CC
102
{ACAD_REACTORS
330
10C
102
}
330
10C
100
AcDbScale
 70
     0
300
10:1
140
10.0
141
1.0
290
     0
  0
SCALE
  5
1CD
102
{ACAD_REACTORS
330
10C
102
}
330
10C
100
AcDbScale
 70
     0
300
100:1
140
100.0
141
1.0
290
     0
  0
ACDBSECTIONVIEWSTYLE
  5
21A
102
{ACAD_REACTORS
330
219
102
}
330
219
100
AcDbModelDocViewStyle
 70
     0
  3
Metric50
290
     0
300
Metric50
 90
        0
100
AcDbSectionViewStyle
 70
     0
 71
     0
 90
      102
 71
     1
340
11
 62
   256
 40
5.0
340
0
340
0
 62
   256
 40
5.0
300
I, O, Q, S, X, Z
 40
10.0
 90
        0
 40
2.5
 90
        0
 71
     2
340
16
 90
       25
 62
   256
340
16
 90
       50
 62
   256
 40
5.0
 40
2.5
 40
5.0
 71
     3
340
11
 62
   256
 40
5.0
 90
        0
 40
15.0
 90
        1
300
%<\AcVar ViewSectionStartId>%-%<\AcVar ViewSectionEndId>% (%<\AcVar ViewScale \f "%sn">%)
 71
     4
 62
   256
 62
   257
300
ANSI31
 40
1.0
 90
        0
290
     0
290
     0
 90
        6
 40
0.0
 40
1.570796326794896
 40
0.2617993877991494
 40
1.308996938995747
 40
-0.2617993877991494
 40
1.832595714594046
  0
TABLESTYLE
  5
7F
102
{ACAD_XDICTIONARY
360
162
102
}
102
{ACAD_REACTORS
330
7E
102
}
330
7E
100
AcDbTableStyle
280
     0
  3
Standard
 70
     0
 71
     0
 40
1.5
 41
1.5
280
     0
281
     0
  7
Standard
140
4.5
170
     2
 62
     0
 63
     7
283
     0
 90
      512
 91
        0
  1

274
    -2
284
     1
 64
     0
275
    -2
285
     1
 65
     0
276
    -2
286
     1
 66
     0
277
    -2
287
     1
 67
     0
278
    -2
288
     1
 68
     0
279
    -2
289
     1
 69
     0
  7
Standard
140
6.0
170
     5
 62
     0
 63
     7
283
     0
 90
      512
 91
        0
  1

274
    -2
284
     1
 64
     0
275
    -2
285
     1
 65
     0
276
    -2
286
     1
 66
     0
277
    -2
287
     1
 67
     0
278
    -2
288
     1
 68
     0
279
    -2
289
     1
 69
     0
  7
Standard
140
4.5
170
     5
 62
     0
 63
     7
283
     0
 90
      512
 91
        0
  1

274
    -2
284
     1
 64
     0
275
    -2
285
     1
 65
     0
276
    -2
286
     1
 66
     0
277
    -2
287
     1
 67
     0
278
    -2
288
     1
 68
     0
279
    -2
289
     1
 69
     0
  0
VISUALSTYLE
  5
F5
102
{ACAD_REACTORS
330
EF
102
}
330
EF
100
AcDbVisualStyle
  2
2dWireframe
 70
     4
177
     3
291
     0
 70
    58
 90
        0
176
     1
 90
        2
176
     1
 90
        1
176
     1
 90
        0
176
     1
 40
0.6
176
     1
 40
30.0
176
     1
 62
     7
420
 16777215
176
     1
 90
        1
176
     1
 90
        4
176
     1
 62
     7
176
     1
 62
   257
176
     1
 90
        1
176
     1
 90
        1
176
     1
 40
1.0
176
     1
 90
        0
176
     1
 62
   257
176
     1
 40
1.0
176
     1
 90
        1
176
     1
 90
        6
176
     1
 90
        2
176
     1
 62
     7
176
     1
 90
        5
176
     1
 90
        0
176
     1
 90
        0
176
     1
290
     0
176
     1
 90
        1
176
     1
 40
0.0
176
     1
 90
        0
176
     1
290
     1
176
     1
290
     1
176
     1
290
     0
176
     1
290
     0
176
     1
290
     0
176
     1
290
     0
176
     1
290
     0
176
     1
290
     0
176
     1
290
     0
176
     1
 90
       50
176
     1
 40
0.0
176
     1
 40
1.0
176
     1
 90
        0
176
     1
 62
    18
420
        0
176
     1
 90
       50
176
     1
 90
        3
176
     1
 62
     5
420
      255
176
     1
290
     0
176
     1
 90
       50
176
     1
 90
       50
176
     1
 90
       50
176
     1
290
     0
176
     1
 90
       50
176
     1
 62
   256
176
     0
 40
1.0
176
     0
 90
        2
176
     1
  1
strokes_ogs.tif
176
     1
290
     0
176
     1
 40
1.0
176
     1
 40
1.0
176
     1
  0
VISUALSTYLE
  5
F4
102
{ACAD_REACTORS
330
EF
102
}
330
EF
100
AcDbVisualStyle
  2
Basic
 70
     7
177
     3
291
     1
 70
    58
 90
        1
176
     1
 90
        0
176
     1
 90
        1
176
     1
 90
        0
176
     1
 40
0.6
176
     1
 40
30.0
176
     1
 62
     7
420
 16777215
176
     1
 90
        0
176
     1
 90
        4
176
     1
 62
     7
176
     1
 62
   257
176
     1
 90
        1
176
     1
 90
        1
176
     1
 40
1.0
176
     1
 90
        8
176
     1
 62
     7
176
     1
 40
1.0
176
     1
 90
        1
176
     1
 90
        6
176
     1
 90
        2
176
     1
 62
     7
176
     1
 90
        5
176
     1
 90
        0
176
     1
 90
        0
176
     1
290
     0
176
     1
 90
        1
176
     1
 40
0.0
176
     1
 90
        0
176
     1
290
     0
176
     1
290
     1
176
     1
290
     1
176
     1
290
     0
176
     1
290
     0
176
     1
290
     0
176
     1
290
     0
176
     1
290
     0
176
     1
290
     0
176
     1
 90
       50
176
     1
 40
0.0
176
     1
 40
1.0
176
     1
 90
        0
176
     1
 62
    18
420
        0
176
     1
 90
       50
176
     1
 90
        3
176
     1
 62
     5
420
      255
176
     1
290
     0
176
     1
 90
       50
176
     1
 90
       50
176
     1
 90
       50
176
     1
290
     0
176
     1
 90
       50
176
     1
 62
   256
176
     0
 40
1.0
176
     0
 90
        2
176
     1
  1
strokes_ogs.tif
176
     1
290
     0
176
     1
 40
1.0
176
     1
 40
1.0
176
     1
  0
VISUALSTYLE
  5
FB
102
{ACAD_REACTORS
330
EF
102
}
330
EF
100
AcDbVisualStyle
  2
Brighten
 70
    12
177
     3
291
     1
 70
    58
 90
        2
176
     1
 90
        2
176
     1
 90
        1
176
     1
 90
        0
176
     1
 40
0.6
176
     1
 40
30.0
176
     1
 62
     7
420
 16777215
176
     1
 90
        1
176
     1
 90
        4
176
     1
 62
     7
176
     1
 62
   257
176
     1
 90
        1
176
     1
 90
        1
176
     1
 40
1.0
176
     1
 90
        8
176
     1
 62
     7
176
     1
 40
1.0
176
     1
 90
        1
176
     1
 90
        6
176
     1
 90
        2
176
     1
 62
     7
176
     1
 90
        5
176
     1
 90
        0
176
     1
 90
        0
176
     1
290
     0
176
     1
 90
        1
176
     1
 40
50.0
176
     1
 90
        0
176
     1
290
     0
176
     1
290
     1
176
     1
290
     1
176
     1
290
     0
176
     1
290
     0
176
     1
290
     0
176
     1
290
     0
176
     1
290
     0
176
     1
290
     0
176
     1
 90
       50
176
     1
 40
0.0
176
     1
 40
1.0
176
     1
 90
        0
176
     1
 62
    18
420
        0
176
     1
 90
       50
176
     1
 90
        3
176
     1
 62
     5
420
      255
176
     1
290
     0
176
     1
 90
       50
176
     1
 90
       50
176
     1
 90
       50
176
     1
290
     0
176
     1
 90
       50
176
     1
 62
   256
176
     0
 40
1.0
176
     0
 90
        2
176
     1
  1
strokes_ogs.tif
176
     1
290
     0
176
     1
 40
1.0
176
     1
 40
1.0
176
     1
  0
VISUALSTYLE
  5
FF
102
{ACAD_REACTORS
330
EF
102
}
330
EF
100
AcDbVisualStyle
  2
ColorChange
 70
    16
177
     3
291
     1
 70
    58
 90
        2
176
     1
 90
        2
176
     1
 90
        3
176
     1
 90
        0
176
     1
 40
0.6
176
     1
 40
30.0
176
     1
 62
     8
420
  8421504
176
     1
 90
        1
176
     1
 90
        4
176
     1
 62
     7
176
     1
 62
   257
176
     1
 90
        1
176
     1
 90
        1
176
     1
 40
1.0
176
     1
 90
        8
176
     1
 62
     8
420
  8421504
176
     1
 40
1.0
176
     1
 90
        1
176
     1
 90
        6
176
     1
 90
        2
176
     1
 62
     7
176
     1
 90
        5
176
     1
 90
        0
176
     1
 90
        0
176
     1
290
     0
176
     1
 90
        1
176
     1
 40
0.0
176
     1
 90
        0
176
     1
290
     0
176
     1
290
     1
176
     1
290
     1
176
     1
290
     0
176
     1
290
     0
176
     1
290
     0
176
     1
290
     0
176
     1
290
     0
176
     1
290
     0
176
     1
 90
       50
176
     1
 40
0.0
176
     1
 40
1.0
176
     1
 90
        0
176
     1
 62
    18
420
        0
176
     1
 90
       50
176
     1
 90
        3
176
     1
 62
     5
420
      255
176
     1
290
     0
176
     1
 90
       50
176
     1
 90
       50
176
     1
 90
       50
176
     1
290
     0
176
     1
 90
       50
176
     1
 62
   256
176
     0
 40
1.0
176
     0
 90
        2
176
     1
  1
strokes_ogs.tif
176
     1
290
     0
176
     1
 40
1.0
176
     1
 40
1.0
176
     1
  0
VISUALSTYLE
  5
F8
102
{ACAD_REACTORS
330
EF
102
}
330
EF
100
AcDbVisualStyle
  2
Conceptual
 70
     9
177
     3
291
     0
 70
    58
 90
        3
176
     1
 90
        2
176
     1
 90
        1
176
     1
 90
        0
176
     1
 40
0.6
176
     1
 40
30.0
176
     1
 62
     7
420
 16777215
176
     1
 90
        2
176
     1
 90
        2
176
     1
 62
     7
176
     1
 62
   257
176
     1
 90
        1
176
     1
 90
        1
176
     1
 40
40.0
176
     1
 90
        8
176
     1
 62
     7
176
     1
 40
1.0
176
     1
 90
        1
176
     1
 90
        6
176
     1
 90
        2
176
     1
 62
     7
176
     1
 90
        3
176
     1
 90
        0
176
     1
 90
        0
176
     1
290
     0
176
     1
 90
        1
176
     1
 40
0.0
176
     1
 90
        0
176
     1
290
     0
176
     1
290
     1
176
     1
290
     1
176
     1
290
     0
176
     1
290
     0
176
     1
290
     0
176
     1
290
     0
176
     1
290
     0
176
     1
290
     0
176
     1
 90
       50
176
     1
 40
0.0
176
     1
 40
1.0
176
     1
 90
        0
176
     1
 62
    18
420
        0
176
     1
 90
       50
176
     1
 90
        3
176
     1
 62
     5
420
      255
176
     1
290
     0
176
     1
 90
       50
176
     1
 90
       50
176
     1
 90
       50
176
     1
290
     0
176
     1
 90
       50
176
     1
 62
   256
176
     0
 40
1.0
176
     0
 90
        2
176
     1
  1
strokes_ogs.tif
176
     1
290
     0
176
     1
 40
1.0
176
     1
 40
1.0
176
     1
  0
VISUALSTYLE
  5
FA
102
{ACAD_REACTORS
330
EF
102
}
330
EF
100
AcDbVisualStyle
  2
Dim
 70
    11
177
     3
291
     1
 70
    58
 90
        2
176
     1
 90
        2
176
     1
 90
        1
176
     1
 90
        0
176
     1
 40
0.6
176
     1
 40
30.0
176
     1
 62
     7
420
 16777215
176
     1
 90
        1
176
     1
 90
        4
176
     1
 62
     7
176
     1
 62
   257
176
     1
 90
        1
176
     1
 90
        1
176
     1
 40
1.0
176
     1
 90
        8
176
     1
 62
     7
176
     1
 40
1.0
176
     1
 90
        1
176
     1
 90
        6
176
     1
 90
        2
176
     1
 62
     7
176
     1
 90
        5
176
     1
 90
        0
176
     1
 90
        0
176
     1
290
     0
176
     1
 90
        1
176
     1
 40
-50.0
176
     1
 90
        0
176
     1
290
     0
176
     1
290
     1
176
     1
290
     1
176
     1
290
     0
176
     1
290
     0
176
     1
290
     0
176
     1
290
     0
176
     1
290
     0
176
     1
290
     0
176
     1
 90
       50
176
     1
 40
0.0
176
     1
 40
1.0
176
     1
 90
        0
176
     1
 62
    18
420
        0
176
     1
 90
       50
176
     1
 90
        3
176
     1
 62
     5
420
      255
176
     1
290
     0
176
     1
 90
       50
176
     1
 90
       50
176
     1
 90
       50
176
     1
290
     0
176
     1
 90
       50
176
     1
 62
   256
176
     0
 40
1.0
176
     0
 90
        2
176
     1
  1
strokes_ogs.tif
176
     1
290
     0
176
     1
 40
1.0
176
     1
 40
1.0
176
     1
  0
VISUALSTYLE
  5
1E6
102
{ACAD_REACTORS
330
EF
102
}
330
EF
100
AcDbVisualStyle
  2
EdgeColorOff
 70
    22
177
     3
291
     1
 70
    58
 90
        2
176
     0
 90
        2
176
     0
 90
        0
176
     0
 90
        0
176
     0
 40
0.6
176
     0
 40
30.0
176
     0
 62
     7
420
 16777215
176
     0
 90
        1
176
     0
 90
        4
176
     0
 62
     7
176
     0
 62
   257
176
     0
 90
        1
176
     0
 90
        1
176
     0
 40
1.0
176
     0
 90
        8
176
     2
 62
     7
176
     0
 40
1.0
176
     0
 90
        1
176
     0
 90
        6
176
     0
 90
        2
176
     0
 62
     7
176
     0
 90
        5
176
     0
 90
        0
176
     0
 90
        0
176
     0
290
     0
176
     0
 90
        1
176
     0
 40
0.0
176
     0
 90
        0
176
     0
290
     0
176
     1
290
     1
176
     1
290
     1
176
     1
290
     0
176
     1
290
     0
176
     1
290
     0
176
     1
290
     0
176
     1
290
     0
176
     1
290
     0
176
     1
 90
       50
176
     1
 40
0.0
176
     1
 40
1.0
176
     1
 90
        0
176
     1
 62
    18
420
        0
176
     1
 90
       50
176
     1
 90
        3
176
     1
 62
     5
420
      255
176
     1
290
     0
176
     1
 90
       50
176
     1
 90
       50
176
     1
 90
       50
176
     1
290
     0
176
     1
 90
       50
176
     1
 62
   256
176
     0
 40
1.0
176
     0
 90
        2
176
     1
  1
strokes_ogs.tif
176
     1
290
     0
176
     1
 40
1.0
176
     1
 40
1.0
176
     1
  0
VISUALSTYLE
  5
FE
102
{ACAD_REACTORS
330
EF
102
}
330
EF
100
AcDbVisualStyle
  2
Facepattern
 70
    15
177
     3
291
     1
 70
    58
 90
        2
176
     1
 90
        2
176
     1
 90
        1
176
     1
 90
        0
176
     1
 40
0.6
176
     1
 40
30.0
176
     1
 62
     7
420
 16777215
176
     1
 90
        1
176
     1
 90
        4
176
     1
 62
     7
176
     1
 62
   257
176
     1
 90
        1
176
     1
 90
        1
176
     1
 40
1.0
176
     1
 90
        8
176
     1
 62
     7
176
     1
 40
1.0
176
     1
 90
        1
176
     1
 90
        6
176
     1
 90
        2
176
     1
 62
     7
176
     1
 90
        5
176
     1
 90
        0
176
     1
 90
        0
176
     1
290
     0
176
     1
 90
        1
176
     1
 40
0.0
176
     1
 90
        0
176
     1
290
     0
176
     1
290
     1
176
     1
290
     1
176
     1
290
     0
176
     1
290
     0
176
     1
290
     0
176
     1
290
     0
176
     1
290
     0
176
     1
290
     0
176
     1
 90
       50
176
     1
 40
0.0
176
     1
 40
1.0
176
     1
 90
        0
176
     1
 62
    18
420
        0
176
     1
 90
       50
176
     1
 90
        3
176
     1
 62
     5
420
      255
176
     1
290
     0
176
     1
 90
       50
176
     1
 90
       50
176
     1
 90
       50
176
     1
290
     0
176
     1
 90
       50
176
     1
 62
   256
176
     0
 40
1.0
176
     0
 90
        2
176
     1
  1
strokes_ogs.tif
176
     1
290
     0
176
     1
 40
1.0
176
     1
 40
1.0
176
     1
  0
VISUALSTYLE
  5
F0
102
{ACAD_REACTORS
330
EF
102
}
330
EF
100
AcDbVisualStyle
  2
Flat
 70
     0
177
     3
291
     1
 70
    58
 90
        2
176
     1
 90
        1
176
     1
 90
        1
176
     1
 90
        2
176
     1
 40
0.6
176
     1
 40
30.0
176
     1
 62
     7
420
 16777215
176
     1
 90
        0
176
     1
 90
        0
176
     1
 62
     7
176
     1
 62
   257
176
     1
 90
        1
176
     1
 90
        1
176
     1
 40
1.0
176
     1
 90
        8
176
     1
 62
     7
176
     1
 40
1.0
176
     1
 90
        1
176
     1
 90
        6
176
     1
 90
        2
176
     1
 62
     7
176
     1
 90
        5
176
     1
 90
        0
176
     1
 90
        0
176
     1
290
     0
176
     1
 90
       13
176
     1
 40
0.0
176
     1
 90
        0
176
     1
290
     0
176
     1
290
     1
176
     1
290
     1
176
     1
290
     0
176
     1
290
     0
176
     1
290
     0
176
     1
290
     0
176
     1
290
     0
176
     1
290
     0
176
     1
 90
       50
176
     1
 40
0.0
176
     1
 40
1.0
176
     1
 90
        0
176
     1
 62
    18
420
        0
176
     1
 90
       50
176
     1
 90
        3
176
     1
 62
     5
420
      255
176
     1
290
     0
176
     1
 90
       50
176
     1
 90
       50
176
     1
 90
       50
176
     1
290
     0
176
     1
 90
       50
176
     1
 62
   256
176
     0
 40
1.0
176
     0
 90
        2
176
     1
  1
strokes_ogs.tif
176
     1
290
     0
176
     1
 40
1.0
176
     1
 40
1.0
176
     1
  0
VISUALSTYLE
  5
F1
102
{ACAD_REACTORS
330
EF
102
}
330
EF
100
AcDbVisualStyle
  2
FlatWithEdges
 70
     1
177
     3
291
     1
 70
    58
 90
        2
176
     1
 90
        1
176
     1
 90
        1
176
     1
 90
        2
176
     1
 40
0.6
176
     1
 40
30.0
176
     1
 62
     7
420
 16777215
176
     1
 90
        1
176
     1
 90
        0
176
     1
 62
     7
176
     1
 62
   257
176
     1
 90
        1
176
     1
 90
        1
176
     1
 40
1.0
176
     1
 90
        0
176
     1
 62
   257
176
     1
 40
1.0
176
     1
 90
        1
176
     1
 90
        6
176
     1
 90
        2
176
     1
 62
     7
176
     1
 90
        5
176
     1
 90
        0
176
     1
 90
        0
176
     1
290
     0
176
     1
 90
       13
176
     1
 40
0.0
176
     1
 90
        0
176
     1
290
     0
176
     1
290
     1
176
     1
290
     1
176
     1
290
     0
176
     1
290
     0
176
     1
290
     0
176
     1
290
     0
176
     1
290
     0
176
     1
290
     0
176
     1
 90
       50
176
     1
 40
0.0
176
     1
 40
1.0
176
     1
 90
        0
176
     1
 62
    18
420
        0
176
     1
 90
       50
176
     1
 90
        3
176
     1
 62
     5
420
      255
176
     1
290
     0
176
     1
 90
       50
176
     1
 90
       50
176
     1
 90
       50
176
     1
290
     0
176
     1
 90
       50
176
     1
 62
   256
176
     0
 40
1.0
176
     0
 90
        2
176
     1
  1
strokes_ogs.tif
176
     1
290
     0
176
     1
 40
1.0
176
     1
 40
1.0
176
     1
  0
VISUALSTYLE
  5
F2
102
{ACAD_REACTORS
330
EF
102
}
330
EF
100
AcDbVisualStyle
  2
Gouraud
 70
     2
177
     3
291
     1
 70
    58
 90
        2
176
     1
 90
        2
176
     1
 90
        1
176
     1
 90
        2
176
     1
 40
0.6
176
     1
 40
30.0
176
     1
 62
     7
420
 16777215
176
     1
 90
        0
176
     1
 90
        0
176
     1
 62
     7
176
     1
 62
   257
176
     1
 90
        1
176
     1
 90
        1
176
     1
 40
1.0
176
     1
 90
        0
176
     1
 62
     7
176
     1
 40
1.0
176
     1
 90
        1
176
     1
 90
        6
176
     1
 90
        2
176
     1
 62
     7
176
     1
 90
        5
176
     1
 90
        0
176
     1
 90
        0
176
     1
290
     0
176
     1
 90
       13
176
     1
 40
0.0
176
     1
 90
        0
176
     1
290
     0
176
     1
290
     1
176
     1
290
     1
176
     1
290
     0
176
     1
290
     0
176
     1
290
     0
176
     1
290
     0
176
     1
290
     0
176
     1
290
     0
176
     1
 90
       50
176
     1
 40
0.0
176
     1
 40
1.0
176
     1
 90
        0
176
     1
 62
    18
420
        0
176
     1
 90
       50
176
     1
 90
        3
176
     1
 62
     5
420
      255
176
     1
290
     0
176
     1
 90
       50
176
     1
 90
       50
176
     1
 90
       50
176
     1
290
     0
176
     1
 90
       50
176
     1
 62
   256
176
     0
 40
1.0
176
     0
 90
        2
176
     1
  1
strokes_ogs.tif
176
     1
290
     0
176
     1
 40
1.0
176
     1
 40
1.0
176
     1
  0
VISUALSTYLE
  5
F3
102
{ACAD_REACTORS
330
EF
102
}
330
EF
100
AcDbVisualStyle
  2
GouraudWithEdges
 70
     3
177
     3
291
     1
 70
    58
 90
        2
176
     1
 90
        2
176
     1
 90
        1
176
     1
 90
        2
176
     1
 40
0.6
176
     1
 40
30.0
176
     1
 62
     7
420
 16777215
176
     1
 90
        1
176
     1
 90
        0
176
     1
 62
     7
176
     1
 62
   257
176
     1
 90
        1
176
     1
 90
        1
176
     1
 40
1.0
176
     1
 90
        0
176
     1
 62
   257
176
     1
 40
1.0
176
     1
 90
        1
176
     1
 90
        6
176
     1
 90
        2
176
     1
 62
     7
176
     1
 90
        5
176
     1
 90
        0
176
     1
 90
        0
176
     1
290
     0
176
     1
 90
       13
176
     1
 40
0.0
176
     1
 90
        0
176
     1
290
     0
176
     1
290
     1
176
     1
290
     1
176
     1
290
     0
176
     1
290
     0
176
     1
290
     0
176
     1
290
     0
176
     1
290
     0
176
     1
290
     0
176
     1
 90
       50
176
     1
 40
0.0
176
     1
 40
1.0
176
     1
 90
        0
176
     1
 62
    18
420
        0
176
     1
 90
       50
176
     1
 90
        3
176
     1
 62
     5
420
      255
176
     1
290
     0
176
     1
 90
       50
176
     1
 90
       50
176
     1
 90
       50
176
     1
290
     0
176
     1
 90
       50
176
     1
 62
   256
176
     0
 40
1.0
176
     0
 90
        2
176
     1
  1
strokes_ogs.tif
176
     1
290
     0
176
     1
 40
1.0
176
     1
 40
1.0
176
     1
  0
VISUALSTYLE
  5
F7
102
{ACAD_REACTORS
330
EF
102
}
330
EF
100
AcDbVisualStyle
  2
Hidden
 70
     6
177
     3
291
     0
 70
    58
 90
        1
176
     1
 90
        2
176
     1
 90
        2
176
     1
 90
        0
176
     1
 40
0.6
176
     1
 40
30.0
176
     1
 62
     7
420
 16777215
176
     1
 90
        2
176
     1
 90
        2
176
     1
 62
     7
176
     1
 62
   257
176
     1
 90
        2
176
     1
 90
        1
176
     1
 40
40.0
176
     1
 90
        0
176
     1
 62
   257
176
     1
 40
1.0
176
     1
 90
        1
176
     1
 90
        6
176
     1
 90
        2
176
     1
 62
     7
176
     1
 90
        3
176
     1
 90
        0
176
     1
 90
        0
176
     1
290
     0
176
     1
 90
        1
176
     1
 40
0.0
176
     1
 90
        0
176
     1
290
     0
176
     1
290
     1
176
     1
290
     1
176
     1
290
     0
176
     1
290
     0
176
     1
290
     0
176
     1
290
     0
176
     1
290
     0
176
     1
290
     0
176
     1
 90
       50
176
     1
 40
0.0
176
     1
 40
1.0
176
     1
 90
        0
176
     1
 62
    18
420
        0
176
     1
 90
       50
176
     1
 90
        3
176
     1
 62
     5
420
      255
176
     1
290
     0
176
     1
 90
       50
176
     1
 90
       50
176
     1
 90
       50
176
     1
290
     0
176
     1
 90
       50
176
     1
 62
   256
176
     0
 40
1.0
176
     0
 90
        2
176
     1
  1
strokes_ogs.tif
176
     1
290
     0
176
     1
 40
1.0
176
     1
 40
1.0
176
     1
  0
VISUALSTYLE
  5
1E4
102
{ACAD_REACTORS
330
EF
102
}
330
EF
100
AcDbVisualStyle
  2
JitterOff
 70
    20
177
     3
291
     1
 70
    58
 90
        2
176
     0
 90
        2
176
     0
 90
        0
176
     0
 90
        0
176
     0
 40
0.6
176
     0
 40
30.0
176
     0
 62
     7
420
 16777215
176
     0
 90
        1
176
     0
 90
        4
176
     0
 62
     7
176
     0
 62
   257
176
     0
 90
        1
176
     0
 90
        1
176
     0
 40
1.0
176
     0
 90
       10
176
     2
 62
     7
176
     0
 40
1.0
176
     0
 90
        1
176
     0
 90
        6
176
     0
 90
        2
176
     0
 62
     7
176
     0
 90
        5
176
     0
 90
        0
176
     0
 90
        0
176
     0
290
     0
176
     0
 90
        1
176
     0
 40
0.0
176
     0
 90
        0
176
     0
290
     0
176
     1
290
     1
176
     1
290
     1
176
     1
290
     0
176
     1
290
     0
176
     1
290
     0
176
     1
290
     0
176
     1
290
     0
176
     1
290
     0
176
     1
 90
       50
176
     1
 40
0.0
176
     1
 40
1.0
176
     1
 90
        0
176
     1
 62
    18
420
        0
176
     1
 90
       50
176
     1
 90
        3
176
     1
 62
     5
420
      255
176
     1
290
     0
176
     1
 90
       50
176
     1
 90
       50
176
     1
 90
       50
176
     1
290
     0
176
     1
 90
       50
176
     1
 62
   256
176
     0
 40
1.0
176
     0
 90
        2
176
     1
  1
strokes_ogs.tif
176
     1
290
     0
176
     1
 40
1.0
176
     1
 40
1.0
176
     1
  0
VISUALSTYLE
  5
FD
102
{ACAD_REACTORS
330
EF
102
}
330
EF
100
AcDbVisualStyle
  2
Linepattern
 70
    14
177
     3
291
     1
 70
    58
 90
        2
176
     1
 90
        2
176
     1
 90
        1
176
     1
 90
        0
176
     1
 40
0.6
176
     1
 40
30.0
176
     1
 62
     7
420
 16777215
176
     1
 90
        1
176
     1
 90
        4
176
     1
 62
     7
176
     1
 62
   257
176
     1
 90
        7
176
     1
 90
        7
176
     1
 40
1.0
176
     1
 90
        8
176
     1
 62
     7
176
     1
 40
1.0
176
     1
 90
        1
176
     1
 90
        6
176
     1
 90
        2
176
     1
 62
     7
176
     1
 90
        5
176
     1
 90
        0
176
     1
 90
        0
176
     1
290
     0
176
     1
 90
        1
176
     1
 40
0.0
176
     1
 90
        0
176
     1
290
     0
176
     1
290
     1
176
     1
290
     1
176
     1
290
     0
176
     1
290
     0
176
     1
290
     0
176
     1
290
     0
176
     1
290
     0
176
     1
290
     0
176
     1
 90
       50
176
     1
 40
0.0
176
     1
 40
1.0
176
     1
 90
        0
176
     1
 62
    18
420
        0
176
     1
 90
       50
176
     1
 90
        3
176
     1
 62
     5
420
      255
176
     1
290
     0
176
     1
 90
       50
176
     1
 90
       50
176
     1
 90
       50
176
     1
290
     0
176
     1
 90
       50
176
     1
 62
   256
176
     0
 40
1.0
176
     0
 90
        2
176
     1
  1
strokes_ogs.tif
176
     1
290
     0
176
     1
 40
1.0
176
     1
 40
1.0
176
     1
  0
VISUALSTYLE
  5
1E5
102
{ACAD_REACTORS
330
EF
102
}
330
EF
100
AcDbVisualStyle
  2
OverhangOff
 70
    21
177
     3
291
     1
 70
    58
 90
        2
176
     0
 90
        2
176
     0
 90
        0
176
     0
 90
        0
176
     0
 40
0.6
176
     0
 40
30.0
176
     0
 62
     7
420
 16777215
176
     0
 90
        1
176
     0
 90
        4
176
     0
 62
     7
176
     0
 62
   257
176
     0
 90
        1
176
     0
 90
        1
176
     0
 40
1.0
176
     0
 90
        9
176
     2
 62
     7
176
     0
 40
1.0
176
     0
 90
        1
176
     0
 90
        6
176
     0
 90
        2
176
     0
 62
     7
176
     0
 90
        5
176
     0
 90
        0
176
     0
 90
        0
176
     0
290
     0
176
     0
 90
        1
176
     0
 40
0.0
176
     0
 90
        0
176
     0
290
     0
176
     1
290
     1
176
     1
290
     1
176
     1
290
     0
176
     1
290
     0
176
     1
290
     0
176
     1
290
     0
176
     1
290
     0
176
     1
290
     0
176
     1
 90
       50
176
     1
 40
0.0
176
     1
 40
1.0
176
     1
 90
        0
176
     1
 62
    18
420
        0
176
     1
 90
       50
176
     1
 90
        3
176
     1
 62
     5
420
      255
176
     1
290
     0
176
     1
 90
       50
176
     1
 90
       50
176
     1
 90
       50
176
     1
290
     0
176
     1
 90
       50
176
     1
 62
   256
176
     0
 40
1.0
176
     0
 90
        2
176
     1
  1
strokes_ogs.tif
176
     1
290
     0
176
     1
 40
1.0
176
     1
 40
1.0
176
     1
  0
VISUALSTYLE
  5
F9
102
{ACAD_REACTORS
330
EF
102
}
330
EF
100
AcDbVisualStyle
  2
Realistic
 70
     8
177
     3
291
     0
 70
    58
 90
        2
176
     1
 90
        3
176
     1
 90
        0
176
     1
 90
        2
176
     1
 40
0.6
176
     1
 40
30.0
176
     1
 62
     7
420
 16777215
176
     1
 90
        0
176
     1
 90
        0
176
     1
 62
     7
176
     1
 62
   257
176
     1
 90
        1
176
     1
 90
        1
176
     1
 40
1.0
176
     1
 90
        8
176
     1
 62
   257
176
     1
 40
1.0
176
     1
 90
        1
176
     1
 90
        6
176
     1
 90
        2
176
     1
 62
     7
176
     1
 90
        3
176
     1
 90
        0
176
     1
 90
        0
176
     1
290
     0
176
     1
 90
       13
176
     1
 40
0.0
176
     1
 90
        0
176
     1
290
     0
176
     1
290
     1
176
     1
290
     1
176
     1
290
     0
176
     1
290
     0
176
     1
290
     0
176
     1
290
     0
176
     1
290
     0
176
     1
290
     0
176
     1
 90
       50
176
     1
 40
0.0
176
     1
 40
1.0
176
     1
 90
        0
176
     1
 62
    18
420
        0
176
     1
 90
       50
176
     1
 90
        3
176
     1
 62
     5
420
      255
176
     1
290
     0
176
     1
 90
       50
176
     1
 90
       50
176
     1
 90
       50
176
     1
290
     0
176
     1
 90
       50
176
     1
 62
   256
176
     0
 40
1.0
176
     0
 90
        2
176
     1
  1
strokes_ogs.tif
176
     1
290
     0
176
     1
 40
1.0
176
     1
 40
1.0
176
     1
  0
VISUALSTYLE
  5
1F3
102
{ACAD_REACTORS
330
EF
102
}
330
EF
100
AcDbVisualStyle
  2
Shaded
 70
    27
177
     3
291
     0
 70
    58
 90
        2
176
     1
 90
        2
176
     1
 90
        1
176
     1
 90
        2
176
     1
 40
0.6
176
     1
 40
30.0
176
     1
 62
     7
420
 16777215
176
     1
 90
        0
176
     1
 90
        4
176
     1
 62
     7
176
     1
 62
   257
176
     1
 90
        1
176
     1
 90
        1
176
     1
 40
1.0
176
     1
 90
        8
176
     1
 62
   257
176
     1
 40
1.0
176
     1
 90
        1
176
     1
 90
        6
176
     1
 90
        2
176
     1
 62
     8
420
  7895160
176
     1
 90
        3
176
     1
 90
        0
176
     1
 90
        0
176
     1
290
     0
176
     1
 90
        5
176
     1
 40
0.0
176
     1
 90
        0
176
     1
290
     0
176
     1
290
     1
176
     1
290
     1
176
     1
290
     0
176
     1
290
     0
176
     1
290
     0
176
     1
290
     0
176
     1
290
     0
176
     1
290
     0
176
     1
 90
       50
176
     1
 40
0.0
176
     1
 40
1.0
176
     1
 90
        0
176
     1
 62
    18
420
        0
176
     1
 90
       50
176
     1
 90
        3
176
     1
 62
     5
420
      255
176
     1
290
     0
176
     1
 90
       50
176
     1
 90
       50
176
     1
 90
       50
176
     1
290
     0
176
     1
 90
       50
176
     1
 62
   256
176
     0
 40
1.0
176
     0
 90
        2
176
     1
  1
strokes_ogs.tif
176
     1
290
     0
176
     1
 40
1.0
176
     1
 40
1.0
176
     1
  0
VISUALSTYLE
  5
1F2
102
{ACAD_REACTORS
330
EF
102
}
330
EF
100
AcDbVisualStyle
  2
Shaded with edges
 70
    26
177
     3
291
     0
 70
    58
 90
        2
176
     1
 90
        2
176
     1
 90
        1
176
     1
 90
        2
176
     1
 40
0.6
176
     1
 40
30.0
176
     1
 62
     7
420
 16777215
176
     1
 90
        1
176
     1
 90
        2
176
     1
 62
     7
176
     1
 62
   257
176
     1
 90
        2
176
     1
 90
        1
176
     1
 40
1.0
176
     1
 90
        8
176
     1
 62
   257
176
     1
 40
1.0
176
     1
 90
        1
176
     1
 90
        6
176
     1
 90
        2
176
     1
 62
     7
176
     1
 90
        3
176
     1
 90
        0
176
     1
 90
        0
176
     1
290
     0
176
     1
 90
        5
176
     1
 40
0.0
176
     1
 90
        0
176
     1
290
     0
176
     1
290
     1
176
     1
290
     1
176
     1
290
     0
176
     1
290
     0
176
     1
290
     0
176
     1
290
     0
176
     1
290
     0
176
     1
290
     0
176
     1
 90
       50
176
     1
 40
0.0
176
     1
 40
1.0
176
     1
 90
        0
176
     1
 62
    18
420
        0
176
     1
 90
       50
176
     1
 90
        3
176
     1
 62
     5
420
      255
176
     1
290
     0
176
     1
 90
       50
176
     1
 90
       50
176
     1
 90
       50
176
     1
290
     0
176
     1
 90
       50
176
     1
 62
   256
176
     0
 40
1.0
176
     0
 90
        2
176
     1
  1
strokes_ogs.tif
176
     1
290
     0
176
     1
 40
1.0
176
     1
 40
1.0
176
     1
  0
VISUALSTYLE
  5
1EF
102
{ACAD_REACTORS
330
EF
102
}
330
EF
100
AcDbVisualStyle
  2
Shades of Gray
 70
    23
177
     3
291
     0
 70
    58
 90
        2
176
     1
 90
        2
176
     1
 90
        3
176
     1
 90
        0
176
     1
 40
0.6
176
     1
 40
30.0
176
     1
 62
     7
420
 16777215
176
     1
 90
        2
176
     1
 90
        2
176
     1
 62
     7
176
     1
 62
     7
176
     1
 90
        1
176
     1
 90
        1
176
     1
 40
40.0
176
     1
 90
        8
176
     1
 62
     7
176
     1
 40
1.0
176
     1
 90
        1
176
     1
 90
        6
176
     1
 90
        2
176
     1
 62
     7
176
     1
 90
        3
176
     1
 90
        0
176
     1
 90
        0
176
     1
290
     0
176
     1
 90
        1
176
     1
 40
0.0
176
     1
 90
        0
176
     1
290
     0
176
     1
290
     1
176
     1
290
     1
176
     1
290
     0
176
     1
290
     0
176
     1
290
     0
176
     1
290
     0
176
     1
290
     0
176
     1
290
     0
176
     1
 90
       50
176
     1
 40
0.0
176
     1
 40
1.0
176
     1
 90
        0
176
     1
 62
    18
420
        0
176
     1
 90
       50
176
     1
 90
        3
176
     1
 62
     5
420
      255
176
     1
290
     0
176
     1
 90
       50
176
     1
 90
       50
176
     1
 90
       50
176
     1
290
     0
176
     1
 90
       50
176
     1
 62
   256
176
     0
 40
1.0
176
     0
 90
        2
176
     1
  1
strokes_ogs.tif
176
     1
290
     0
176
     1
 40
1.0
176
     1
 40
1.0
176
     1
  0
VISUALSTYLE
  5
1F0
102
{ACAD_REACTORS
330
EF
102
}
330
EF
100
AcDbVisualStyle
  2
Sketchy
 70
    24
177
     3
291
     0
 70
    58
 90
        1
176
     1
 90
        2
176
     1
 90
        2
176
     1
 90
        0
176
     1
 40
0.6
176
     1
 40
30.0
176
     1
 62
     7
420
 16777215
176
     1
 90
        2
176
     1
 90
        2
176
     1
 62
     7
176
     1
 62
     7
176
     1
 90
        1
176
     1
 90
        1
176
     1
 40
40.0
176
     1
 90
       11
176
     1
 62
     7
176
     1
 40
1.0
176
     1
 90
        1
176
     1
 90
        6
176
     1
 90
        2
176
     1
 62
     7
176
     1
 90
        6
176
     1
 90
        0
176
     1
 90
        0
176
     1
290
     0
176
     1
 90
        1
176
     1
 40
0.0
176
     1
 90
        0
176
     1
290
     0
176
     1
290
     1
176
     1
290
     1
176
     1
290
     0
176
     1
290
     0
176
     1
290
     0
176
     1
290
     0
176
     1
290
     0
176
     1
290
     0
176
     1
 90
       50
176
     1
 40
0.0
176
     1
 40
1.0
176
     1
 90
        0
176
     1
 62
    18
420
        0
176
     1
 90
       50
176
     1
 90
        3
176
     1
 62
     5
420
      255
176
     1
290
     0
176
     1
 90
       50
176
     1
 90
       50
176
     1
 90
       50
176
     1
290
     0
176
     1
 90
       50
176
     1
 62
   256
176
     0
 40
1.0
176
     0
 90
        2
176
     1
  1
strokes_ogs.tif
176
     1
290
     0
176
     1
 40
1.0
176
     1
 40
1.0
176
     1
  0
VISUALSTYLE
  5
FC
102
{ACAD_REACTORS
330
EF
102
}
330
EF
100
AcDbVisualStyle
  2
Thicken
 70
    13
177
     3
291
     1
 70
    58
 90
        2
176
     1
 90
        2
176
     1
 90
        1
176
     1
 90
        0
176
     1
 40
0.6
176
     1
 40
30.0
176
     1
 62
     7
420
 16777215
176
     1
 90
        1
176
     1
 90
        4
176
     1
 62
     7
176
     1
 62
   257
176
     1
 90
        1
176
     1
 90
        1
176
     1
 40
1.0
176
     1
 90
       12
176
     1
 62
     7
176
     1
 40
1.0
176
     1
 90
        1
176
     1
 90
        6
176
     1
 90
        2
176
     1
 62
     7
176
     1
 90
        5
176
     1
 90
        0
176
     1
 90
        0
176
     1
290
     0
176
     1
 90
        1
176
     1
 40
0.0
176
     1
 90
        0
176
     1
290
     0
176
     1
290
     1
176
     1
290
     1
176
     1
290
     0
176
     1
290
     0
176
     1
290
     0
176
     1
290
     0
176
     1
290
     0
176
     1
290
     0
176
     1
 90
       50
176
     1
 40
0.0
176
     1
 40
1.0
176
     1
 90
        0
176
     1
 62
    18
420
        0
176
     1
 90
       50
176
     1
 90
        3
176
     1
 62
     5
420
      255
176
     1
290
     0
176
     1
 90
       50
176
     1
 90
       50
176
     1
 90
       50
176
     1
290
     0
176
     1
 90
       50
176
     1
 62
   256
176
     0
 40
1.0
176
     0
 90
        2
176
     1
  1
strokes_ogs.tif
176
     1
290
     0
176
     1
 40
1.0
176
     1
 40
1.0
176
     1
  0
VISUALSTYLE
  5
F6
102
{ACAD_REACTORS
330
EF
102
}
330
EF
100
AcDbVisualStyle
  2
Wireframe
 70
     5
177
     3
291
     0
 70
    58
 90
        0
176
     1
 90
        2
176
     1
 90
        0
176
     1
 90
        0
176
     1
 40
0.6
176
     1
 40
30.0
176
     1
 62
     7
420
 16777215
176
     1
 90
        1
176
     1
 90
        4
176
     1
 62
     7
176
     1
 62
   257
176
     1
 90
        1
176
     1
 90
        1
176
     1
 40
1.0
176
     1
 90
        0
176
     1
 62
   257
176
     1
 40
1.0
176
     1
 90
        1
176
     1
 90
        6
176
     1
 90
        2
176
     1
 62
     7
176
     1
 90
        3
176
     1
 90
        0
176
     1
 90
        0
176
     1
290
     0
176
     1
 90
        1
176
     1
 40
0.0
176
     1
 90
        0
176
     1
290
     0
176
     1
290
     1
176
     1
290
     1
176
     1
290
     0
176
     1
290
     0
176
     1
290
     0
176
     1
290
     0
176
     1
290
     0
176
     1
290
     0
176
     1
 90
       50
176
     1
 40
0.0
176
     1
 40
1.0
176
     1
 90
        0
176
     1
 62
    18
420
        0
176
     1
 90
       50
176
     1
 90
        3
176
     1
 62
     5
420
      255
176
     1
290
     0
176
     1
 90
       50
176
     1
 90
       50
176
     1
 90
       50
176
     1
290
     0
176
     1
 90
       50
176
     1
 62
   256
176
     0
 40
1.0
176
     0
 90
        2
176
     1
  1
strokes_ogs.tif
176
     1
290
     0
176
     1
 40
1.0
176
     1
 40
1.0
176
     1
  0
VISUALSTYLE
  5
1F1
102
{ACAD_REACTORS
330
EF
102
}
330
EF
100
AcDbVisualStyle
  2
X-Ray
 70
    25
177
     3
291
     0
 70
    58
 90
        2
176
     1
 90
        2
176
     1
 90
        1
176
     1
 90
        1
176
     1
 40
0.5
176
     1
 40
30.0
176
     1
 62
     7
420
 16777215
176
     1
 90
        1
176
     1
 90
        0
176
     1
 62
     7
176
     1
 62
   257
176
     1
 90
        1
176
     1
 90
        1
176
     1
 40
1.0
176
     1
 90
        8
176
     1
 62
     7
176
     1
 40
1.0
176
     1
 90
        1
176
     1
 90
        6
176
     1
 90
        2
176
     1
 62
     7
176
     1
 90
        3
176
     1
 90
        0
176
     1
 90
        0
176
     1
290
     0
176
     1
 90
       13
176
     1
 40
0.0
176
     1
 90
        0
176
     1
290
     0
176
     1
290
     1
176
     1
290
     1
176
     1
290
     0
176
     1
290
     0
176
     1
290
     0
176
     1
290
     0
176
     1
290
     0
176
     1
290
     0
176
     1
 90
       50
176
     1
 40
0.0
176
     1
 40
1.0
176
     1
 90
        0
176
     1
 62
    18
420
        0
176
     1
 90
       50
176
     1
 90
        3
176
     1
 62
     5
420
      255
176
     1
290
     0
176
     1
 90
       50
176
     1
 90
       50
176
     1
 90
       50
176
     1
290
     0
176
     1
 90
       50
176
     1
 62
   256
176
     0
 40
1.0
176
     0
 90
        2
176
     1
  1
strokes_ogs.tif
176
     1
290
     0
176
     1
 40
1.0
176
     1
 40
1.0
176
     1
  0
DICTIONARYVAR
  5
146
102
{ACAD_REACTORS
330
5E
102
}
330
5E
100
DictionaryVariables
280
     0
  1
1:1
  0
DICTIONARYVAR
  5
259
102
{ACAD_REACTORS
330
5E
102
}
330
5E
100
DictionaryVariables
280
     0
  1
3.500000
  0
DICTIONARYVAR
  5
25A
102
{ACAD_REACTORS
330
5E
102
}
330
5E
100
DictionaryVariables
280
     0
  1
acadiso.lin
  0
DICTIONARYVAR
  5
145
102
{ACAD_REACTORS
330
5E
102
}
330
5E
100
DictionaryVariables
280
     0
  1
STANDARD
  0
DICTIONARYVAR
  5
84
102
{ACAD_REACTORS
330
5E
102
}
330
5E
100
DictionaryVariables
280
     0
  1
STANDARD
  0
DICTIONARYVAR
  5
227
102
{ACAD_REACTORS
330
5E
102
}
330
5E
100
DictionaryVariables
280
     0
  1
Metric50
  0
DICTIONARYVAR
  5
228
102
{ACAD_REACTORS
330
5E
102
}
330
5E
100
DictionaryVariables
280
     0
  1
Metric50
  0
DICTIONARYVAR
  5
5F
102
{ACAD_REACTORS
330
5E
102
}
330
5E
100
DictionaryVariables
280
     0
  1
2
  0
DICTIONARYVAR
  5
63
102
{ACAD_REACTORS
330
5E
102
}
330
5E
100
DictionaryVariables
280
     0
  1
1
  0
DICTIONARYVAR
  5
1AE
102
{ACAD_REACTORS
330
5E
102
}
330
5E
100
DictionaryVariables
280
     0
  1
0
  0
DICTIONARYVAR
  5
1AF
102
{ACAD_REACTORS
330
5E
102
}
330
5E
100
DictionaryVariables
280
     0
  1
0
  0
DICTIONARY
  5
205
330
22
100
AcDbDictionary
280
     1
281
     1
  0
DICTIONARY
  5
1F9
330
ED
100
AcDbDictionary
280
     1
281
     1
  3
FBXASSET
360
1FA
  0
DICTIONARY
  5
1F7
330
EC
100
AcDbDictionary
280
     1
281
     1
  3
FBXASSET
360
1F8
  0
DICTIONARY
  5
173
330
EE
100
AcDbDictionary
280
     1
281
     1
  3
BUMPTILE
360
175
  3
DIFFUSETILE
360
174
  3
FBXASSET
360
1FB
  3
OPACITYTILE
360
176
  3
REFLECTIONTILE
360
177
  0
DICTIONARY
  5
162
330
7F
100
AcDbDictionary
280
     1
281
     1
  3
ACAD_ROUNDTRIP_2008_TABLESTYLE_CELLSTYLEMAP
360
4B6
  0
XRECORD
  5
1FA
102
{ACAD_REACTORS
330
1F9
102
}
330
1F9
100
AcDbXrecord
280
     1
 70
     1
 90
429727718
  1
D62C5603-E3A1-4AEA-B7FB-FE5D8D0755AF
310
504B03040A0000080000CC70623B3DEE336E79000000790000001B0000006175746F6465736B2D64657369676E2D7061636B6167652E786D6C3C3F786D6C2076657273696F6E3D22312E302220656E636F64696E673D227574662D3822203F3E3C666F726D6174733E3C666F726D61743E687474703A2F2F736368656D612E
310
6175746F6465736B2E636F6D2F64657369676E2D7061636B6167652F323030393C2F666F726D61743E3C2F666F726D6174733E504B0304140006080800CC70623BD486FD9CA0000000F4000000130000005B436F6E74656E745F54797065735D2E786D6C7D8EC10E82300C865F65E91D8A1E8C310C0EEA1BF002731658846E
310
D98AC1B77784ABF1D8FE5FBFBF75BBCE937A534CCEB38643598122B6FEE978D0B0485F9C41B54DDD7D022595594E1A469170414C76A4D9A4D207E29CF43ECE46F218070CC6BECC4078ACAA135ACF422C856C0E68EA1BF5669944DDD7BCDE7B1F8E415D77AECB980613C2E4AC91FC167A2B244592486606FC29C8FD7F045B9A
310
EF7053A7E60B504B0304140006080800CC70623B853B8169EB0000007C01000008000000636F72652E786D6C8D90416EC3201045AF62CDB6C206821CC7C244919D9CA01740401C94182C03558F5F9C3852BBEB6A467FFE9B197D7EFC9E1EC5975982F5AE035262288C535E5B377690E21535501C055FBC8FBF6C503839990E
310
5619041F179FE64D52DE45E362569DD7661365082642A11EB9E920A89B99642953CC8E702F67A9EE7234257977194EC9EAE275C4EABCCF5EAD5940D4AC6F0E35A568B8F43562CD7046CD199FD07E60174276A7BE677B5EADB0E0D14EEFFB6A31321A0D82627C4084204C3F096B71DD52F6819B16635EADF63F509AF53FA164
310
5DDCD1EDDD17164090FCC8732078B56691CB33A85CD7DCC40F504B0304140006080800CC70623B55019EA25F0000007C00000007000000636E782E786D6C4DCB3B0E80201045D1AD90E915ED2CF8AC45050C11660C8261F98AB1B07AC9C97D42D718D865D3E909258CFD00CCE24AC6E326A164D74DC0B4128928FF32603847
310
2BA13128B1252AC747C6BAB984FC68F0B87FE8960A5C09FE86CFB69FBA01504B0304140006080800CC70623BDBABAAF470010000D40300000C0000006662782F636F72652E786D6CC553D16E823014FD95A6AF4B694182CC941A83FA05FB810A9511A125A5257EFE2E82712ECEB8A7F100CD39F7F69E734AF9FADC366850B6
310
AF8DCE7018308C942E4C59EB2AC3DE1D498AD15A706B8CFB56869196ADCAF00863C12B6B7C374385D14E6907A836A59A41D9F7CA615434B0C8705F7CAA5606D23BA8E84F41278B93AC54100640439DE0BDB320004D43C63716C7C399D30917DCFBBA9CD9BA8469F5B156168B24CED3F7248AC8769F27244EB73B92EED8862C
310
B7F13E0C179B3C8F979C8ECD82BBBABDAA2BAC924E9558448CBD9330242CFA08E3154B5651FCC6D215639C8EE5774DBE2B5F6CF2B5768B68963BB5F5588420E442FC700B1139D4CB01F450C1E918227C2E09DF070D8140C84E1E9AAB8F1340832A9CB13130A5F1376A908D57309505ECF2A0DF179C4E9D30F5B239B87E3823
310
7A79C6F31DE1A8A5AEC08474B03C7837EAE4938639B44E5932B833D2C6B6B279CDC613877FA26EE21F4A2A4C63EC7F29A2F301D1F9F7A0E37D145F504B0304140006080800CC70623B9C113CC27E0000009D0000000B0000006662782F636E782E786D6C4DCCDF0A83201C86E15B91DFB94BFB330DD428C8FB886521330DA7
310
6397BF1A1DECE883878F57749FCDA1B7892F1BBC047A23808C7F84D9FA55424E0BE6803A256208E9EF06C84F9B91703228B1C690F78B66B34CD9A5439DF5CF0BFBF65E35BCA1B8D6A5C6F540381E886698B5741C695F9503EBA150A2F8958E3DC3EA0B504B0304140006080800CC70623B7DF2F77C2A010000120200003100
310
00006662782F41393633353835312D344632462D344230382D423046372D3739314545314133324237412F636F72652E786D6C8D51DB8EC22014FC15C2939B0D2DB4B45643319AE817EC0F6041255A68B86CFCFC856D4D76DF7CE190393373060EDB3DC707F856CE6B6B7A480A0C81328395DA5C7B18C3057510EC3873D686
310
3F34088C18550F330C39BB3A1BA7051AAC09CA84841A2BD5020AEF55806078A44B0FFD7053A328440C89E1EFC52486BBB8AA8214A99D789CF9E05200300FC927E4FB4D5B375D43103D5527440FB843077C5AA3F5861C8F645F5787F59E95B390B318B55CE45AA638FAA2957BD7248B390B7A7CC51F9C124149C82B8C378810
310
84AB2F42B7B8DD56F413775B8C5999E9FF4471926F8AA236A1AE96B8B3CC434E5839373893369E1FAF30EA395917409EB7F26AF8801C171837A4A6AC9C89E9F9C9B1A58BA30FD6A5EF5DDDCF894B9AD9B6A59C957943A9FCAE2FD5BC4DFE03504B0304140006080800CC70623BAD7543B64E01000033030000300000006662
310
782F41393633353835312D344632462D344230382D423046372D3739314545314133324237412F636E782E786D6CD593CD6EC32010845F0571AD6CE3D48AD20813A9873E410FBD12D82434182C7EAAE6EDBB2424CD25871E7B41D6EC30B3FA84F9E67BB2E40B4234DE8DB46F1925E094D7C6ED479AD3AE5951B2113C789FEE
310
6C943839C1488B4C05DF079FE72A69D8C96C13AAD6B8631503449F83828872B949AC57D26200B826A308D316B4064D6E46FCDA41C05550DC9E483A00797BFD207EFB092A45DE9514C1BBD22178396BD39D891265658C238DEA00936C654E5E433CB65A26D9F6EDB5EBC14EBF49A45CB856E66048291F6939A9A81BB5C89177
310
38143CA680F4AA299D66A042CEB3354A2684DC9D8D178FE0D9B8B41CAAD720F880EE7EF93C0C18769E099ECC04D5A102C8049A8A05632F4DDF376CF1DE0F6BB65C2F8627B65A33C6BB62177CEBBDAD973006829F89F22E814B54F4BC2BE347F8AA8F681390B50FA73F804400B5F542E796F19FF974E7F78DB802FE05E20750
310
4B0304140006080800CC70623BE75B7789680500003C100000340000006662782F41393633353835312D344632462D344230382D423046372D3739314545314133324237412F6F626A656374732E786D6CAD575B8F9B3818FD2B887D06C22499CB8AA1CA655245D5B455A356FB305264C061D8018C6C3393D95FBFC7600890
310
A4CD5EF210B0B1BFEBF98E3F7B1FF6596ABC522E1296DF9BAE3D320D9A872C4AF2F8DE2CE5CEBA358D0FBEC719939D65A691938CDE9B6ADAF4BD98B3B2D05311DD91329583D9D5FC0F438434A7A611A644887B5384CF34233629258BA878B12322891DEFF6B66BD70BFB62634E8AE781D082709A4B588AF91C528CDA28B73F
310
1C998EEF39EABBEFA97FBD6A7C7E9553F9D3D79FE442923C3C523610337627CB87ABE99D359D4CC6D6E4FACAB5E6ABF9D2726FC6A3C5F56271377BB88362213924694B38DD99FE47C48627A1E7D49F5A8BB5E1A74C0A599ED3B0F21F1E56366B89112D681E218F0915D0D6F17AD41FBA2A369DCF6335D62ABBD39779D5DDD1
310
11D4D8DE3CBB96B2E04FB8202E41051754A1AA8E8F76B4C6DFE810B580B1547F4B84911149794252234D024EF8BBE963A95AE27B3D310A9D5C215C7960FAEE415ED75694C6AFB17BCACA5D99A60A9AA65F217B0BFC53292ACB92BF283FAD0D3621576592CB5BED907C2FA8E9DF794E35E97BEA31BED21FEB401ABB94C44839
310
DCACBF0E1C5DA8DA5B2F4DFFD32AD86F543D9E565E7056502E157C00AD2671CD534549AB752FCA9CDA00677A313F04E51B22FF19E57B300579E3C97EB29F682D92935CEC18CF901B7B54FD8C51F362B56FC72FE0B3C1EAE335EDCCBF5AEC39ADB17DC238973F804BA5E6F6BFE7AF1FB32E523BE9F3BD571418E3631DCA4D48
310
5250CF639223210A9446CA30052EDF057BD35F8329C1ECD84552BF0DC8D18BE7BCE23BFE6BD960AB4A7DE79923A103BEBD80F911CBAA2C60DB19B01CF164A5583B772EE6D3FFA56666CBCDA74DC97724A48F9A58967497E489C4D979006FD7A05E227A1EBDD0F737C623387A9C844D3709995625106D157315F8B8392CD4E0
310
A0B9A720C4BE9829CEF37EA1E13111214D53925356365ADA634861B52519DD27A00AEB808EAF0628E6F435519D446F45CF2C9CF5214F0A15B2F6D06B79DA3EE3CBF7F56780D2F4E7EF73A0F5E5B02A38D07DC852C6B7C1FBB6664213E0C39E3EBA7FF4E1AD23EA2829407C85E586727488B751B2DB9502BC7B228A3FD68B6E
310
A65A22397E690AA8D158D7E404EC8CDA235CC3B7D1898680131CEC2CDF2638C65196279577750F15884AEE19F94199155B92B13297978469D4F8D358DF0AEF7631E28DC8F0D9F437D5D39A83B2231A1D52D543813A824EF8D44BCFF2FA6A31BD1E8DAD87F1CCB526B3879935BF59CDADD5C37479BB1CDD4CA7B3556B516589
310
EF352754B706114D9C885EC9131DE6EFEB43D99AFE2391C2F958179413D7CFEF6B1B6DB1E7600F00DE6E5C67454A339A4BA2E0FBA85ED26F045D454F463DBFCE484C2F90F2E5E3666003662ED8F755951A7D1BECD5B30B550B2785C8E7320B7292A4838DDA71BBC863ED7613CAF659337A3354231D4FF4A182A54904C2898C
310
98B28C4AD0CE056CCF332A80986E571EE9DBC305BB5FEB7E509220A58D25CF042D712A806AC0AD0C657FDEF80D2D9CEAA2EE4D1C76F60BFE74219A06527D6F82DF6412526107381E55E353090704D085B52408A8913C4ED159D79BDA71BB4BC506F4831350EB6F975CD22D69BF7AC49B91A2C0A9DDA3D5CA36AD20FC478E37
310
E61844E2352865EBCB61A275A65283CAAA9DD27703B4102F5AF51EF5F573B75CBB5AD38BC845F7A49F82A0966A49C2E3EA5EA0ECD326CD965F1DB402C6FA8B51A4658C5C5E2EC9E214602E55810345408596591009A82E7E7FFACA19EEA299B14A0081A705CB3296EBC14CDF658DCD336EA6D1136881AAEB87B81AB9EE53D5
310
F5EB8BC8362082DA24122F98680A4E7930C01A0079749CEA14382A0783E5EBA5A10F8C098456A03D6A4AEB6BB881E2513747552A5DB22C7EDAF83BD5528081A365F7FF06504B0304140006080000CC70623B000000000000000000000000350000006662782F41393633353835312D344632462D344230382D423046372D37
310
39314545314133324237412F76657274696365732E62696E504B0304140006080800CC70623BF270F1330600000004000000360000006662782F41393633353835312D344632462D344230382D423046372D3739314545314133324237412F747269616E676C65732E62696E636660600000504B0304140006080000CC7062
310
3B000000000000000000000000370000006662782F41393633353835312D344632462D344230382D423046372D3739314545314133324237412F617474726962757465732E62696E504B0304140006080800CC70623B08DA0BD19000000041010000360000006662782F41393633353835312D344632462D344230382D4230
310
46372D3739314545314133324237412F6469726563746F72792E786D6C858F410AC3201045AF22B36F53E9A60B35CBEEBAE80D244E44489C6234F4F835464A48035D0DF398FF9F8AF63D0E6CC63039F212F8F9020C7D47C6792B21C5FE7403D62A1188E2E60C98D7234A5830286103A55745067B9D86B8A3CF9C7F90C11DE6
310
07FB144396D7B6A82D282E9A152AD114D5EF2CB866EEE831B8EEA07A7BB5A8D7D61A2BAAEB7FD5F70921FF497D00504B0304140006080800CC70623BEDD1DC58FD000000A00100003B0000006662782F41393633353835312D344632462D344230382D423046372D3739314545314133324237412F7265736F75726365732F
310
636F72652E786D6C8D504B6E833010BD0A9A6D65B00922041947112427E8052C33A156828DFCA97AFC9A40A576D7CDCCE87D344F8F9FBFE667F689CE6B6B3A6039850C8DB2A336530731DC4903D95970676DF82583CCC8193B5861107C72362E3BA4AC096842428D1D7107A5F7182053CF7474E0D507CE32973124857FE48B
310
540F3961CEF244279DE03EB81420DB9EAC1384436FA353E879B1B182C7A8C75DA3C7F453DF353A1075D537A7BA6464B8F535A99AE14A9A2BBD90E350DD183B5CFABE3AF262350B1EF4FC9351399401471025A527C218A1E53BAB5A5AB765F5469B96525EACF23FA6B88CFF34456DC2A1DCE36E360F82A5202F42F062ED2BAD
310
579969AFDD8A6F504B010214000A0000080000CC70623B3DEE336E79000000790000001B00000000000000000000000000000000006175746F6465736B2D64657369676E2D7061636B6167652E786D6C504B01021400140006080800CC70623BD486FD9CA0000000F40000001300000000000000000000000000B20000005B
310
436F6E74656E745F54797065735D2E786D6C504B01021400140006080800CC70623B853B8169EB0000007C010000080000000000000000000000000083010000636F72652E786D6C504B01021400140006080800CC70623B55019EA25F0000007C000000070000000000000000000000000094020000636E782E786D6C504B
310
01021400140006080800CC70623BDBABAAF470010000D40300000C00000000000000000000000000180300006662782F636F72652E786D6C504B01021400140006080800CC70623B9C113CC27E0000009D0000000B00000000000000000000000000B20400006662782F636E782E786D6C504B01021400140006080800CC70
310
623B7DF2F77C2A010000120200003100000000000000000000000000590500006662782F41393633353835312D344632462D344230382D423046372D3739314545314133324237412F636F72652E786D6C504B01021400140006080800CC70623BAD7543B64E010000330300003000000000000000000000000000D2060000
310
6662782F41393633353835312D344632462D344230382D423046372D3739314545314133324237412F636E782E786D6C504B01021400140006080800CC70623BE75B7789680500003C10000034000000000000000000000000006E0800006662782F41393633353835312D344632462D344230382D423046372D3739314545
310
314133324237412F6F626A656374732E786D6C504B01021400140006080000CC70623B0000000000000000000000003500000000000000000000000000280E00006662782F41393633353835312D344632462D344230382D423046372D3739314545314133324237412F76657274696365732E62696E504B01021400140006
310
080800CC70623BF270F133060000000400000036000000000000000000000000007B0E00006662782F41393633353835312D344632462D344230382D423046372D3739314545314133324237412F747269616E676C65732E62696E504B01021400140006080000CC70623B0000000000000000000000003700000000000000
310
000000000000D50E00006662782F41393633353835312D344632462D344230382D423046372D3739314545314133324237412F617474726962757465732E62696E504B01021400140006080800CC70623B08DA0BD1900000004101000036000000000000000000000000002A0F00006662782F41393633353835312D344632
310
462D344230382D423046372D3739314545314133324237412F6469726563746F72792E786D6C504B01021400140006080800CC70623BEDD1DC58FD000000A00100003B000000000000000000000000000E1000006662782F41393633353835312D344632462D344230382D423046372D3739314545314133324237412F7265
310
736F75726365732F636F72652E786D6C504B0506000000000E000E0080040000641100000000
  0
XRECORD
  5
1F8
102
{ACAD_REACTORS
330
1F7
102
}
330
1F7
100
AcDbXrecord
280
     1
 70
     1
 90
429727718
  1
30362254-06B7-45E0-A893-8CFA70E3D6BC
310
504B03040A0000080000CC70623B3DEE336E79000000790000001B0000006175746F6465736B2D64657369676E2D7061636B6167652E786D6C3C3F786D6C2076657273696F6E3D22312E302220656E636F64696E673D227574662D3822203F3E3C666F726D6174733E3C666F726D61743E687474703A2F2F736368656D612E
310
6175746F6465736B2E636F6D2F64657369676E2D7061636B6167652F323030393C2F666F726D61743E3C2F666F726D6174733E504B0304140006080800CC70623BD486FD9CA0000000F4000000130000005B436F6E74656E745F54797065735D2E786D6C7D8EC10E82300C865F65E91D8A1E8C310C0EEA1BF002731658846E
310
D98AC1B77784ABF1D8FE5FBFBF75BBCE937A534CCEB38643598122B6FEE978D0B0485F9C41B54DDD7D022595594E1A469170414C76A4D9A4D207E29CF43ECE46F218070CC6BECC4078ACAA135ACF422C856C0E68EA1BF5669944DDD7BCDE7B1F8E415D77AECB980613C2E4AC91FC167A2B244592486606FC29C8FD7F045B9A
310
EF7053A7E60B504B0304140006080800CC70623B1EC5D7A3EB0000007C01000008000000636F72652E786D6C8D90416EC3201045AF82665B6103C6756C6122AB4D4ED00B204C5C94182C03558F5F9C3852BBEB6A467FFE9B197D71FC9E6FE8CBACC17AD7032D0820E3B41FAD9B7A48F1820F808E52ACDEC75F36404ECDA687
310
4D0629A6D5A76597B477D1B89855E747B38B2A041301E95B6E7A08FAD3CCAA50296647B8168BD2573599823EBB0CA76447F43862C7BCCF5EAC59410E4DDD9C7973C2755553CCCFA4C603E3040F1565ED3B1FDE4E432BCA0D9622DAF9795FAF464533826484B498524CD807E51D79ED187F21878E10516EF63F505AC67F42C9
310
BA58B1FDDD071640D2FCC87D2045B96591CB3DA85CB7DCE40F504B0304140006080800CC70623B55019EA25F0000007C00000007000000636E782E786D6C4DCB3B0E80201045D1AD90E915ED2CF8AC45050C11660C8261F98AB1B07AC9C97D42D718D865D3E909258CFD00CCE24AC6E326A164D74DC0B4128928FF32603847
310
2BA13128B1252AC747C6BAB984FC68F0B87FE8960A5C09FE86CFB69FBA01504B0304140006080800CC70623B8C9102E971010000D40300000C0000006662782F636F72652E786D6CC5535B6E833010BC8AE5DF0A6C08340F1947A84D4ED00B38C6A128602363A31CBFCB234A53A551FA553EC09AD9F5CE8C31DB9E9B1AF5CA
310
7695D1198E428A91D2D214952E33ECDD315861B4E5CC1AE3BE9561A445A3323CC098B3D21ADFCE9034DA29ED00D5A6503328BA4E398C640D8B0C77F253352214DE4145770A5B214FA2546114020D759C75CE8200340D19DE981F0F6746269C33EFAB6266AB02A655C74A59CCF365BADC27CB5D902ED22848F6340DF238A141
310
BE88E2F57B92BFEDF23523433367AE6A2EEAA455C2A902F398D2751045018D3FA264435F3771F242571B4A1919CA6F9A7C5B3CD9E42BED16F12C776AEB308F40C848FC700B1139D4891EF410CEC810227CC6846F8386402064270EF5C5C709A05E49676C024C61FC95EA45ED154CA5211D1FF4FB8291A913A68E9B83EBBB33
310
E2A7673CDE118E5AE8124C0807CB8377834E366998436B950D7A7746DAD846D4CFD978E0F04FD455FC5D49D2D4C6FE9722321F10997F0F32DC47FE05504B0304140006080800CC70623BFFEA85907E0000009D0000000B0000006662782F636E782E786D6C4DCCD10A83201886E15B91FFDC95D95A811AB6F23E625948A6C3
310
E9D8E5AF46073BFAE0E1E365ED67B3E8ADC3CB78C7815C7240DA3DFC64DCC221C519D7805AC182F7F1EF06C88D9BE6703008B6049F9E274D7A1E938DBB5AE3D6131B2589BA0D3D965551E0B2EA732C9B9A624AAEB41E3A557677029960D9AFB4EF11165F504B0304140006080800CC70623B4FEEA4082C0100001202000031
310
0000006662782F39464131463745442D413632322D343644302D413938332D3331353338454246344243312F636F72652E786D6C8D515B6EC32010BC0AE2AB55850DD871ED0813254D72825EC00192A2C460F1A872FC42ED48ED5F7E00CDCECCCEB26C731F6FE05B39AFADE921293004CA082BB5B9F43086336A21D870E6AC
310
0D7F68109861543DCC30E4ECE26C9C164858139409093556AA051CBC570102714B8F1E7AF1A5C6A11862480C7F2DA6415C878B2A4891CA89C7990F2E050073937C42DE1DB7E4F87ED8A36D4329AA9B3D46DBAEAD504556557BD81DEBDD0761E52CE42C462D17B996298E3E6BE59E35C962CE821E1FF18553435012728A7187
310
0841987E927A8D9B35ADDF70BBC6989599FE4F1427F9A4286A132ABAC49D651EF234CD5CE04CDA78BA3DC2A8FB645D00B9DF8B57E215725C60BCA2A463E54C4CE327C7A65E1C7DB02E7DEFCBF594B864C5CA6CDBD49C957943E9FA5D5FBAF336F90F504B0304140006080800CC70623BAD7543B64E01000033030000300000
310
006662782F39464131463745442D413632322D343644302D413938332D3331353338454246344243312F636E782E786D6CD593CD6EC32010845F0571AD6CE3D48AD20813A9873E410FBD12D82434182C7EAAE6EDBB2424CD25871E7B41D6EC30B3FA84F9E67BB2E40B4234DE8DB46F1925E094D7C6ED479AD3AE5951B2113C
310
789FEE6C943839C1488B4C05DF079FE72A69D8C96C13AAD6B8631503449F83828872B949AC57D26200B826A308D316B4064D6E46FCDA41C05550DC9E483A00797BFD207EFB092A45DE9514C1BBD22178396BD39D891265658C238DEA00936C654E5E433CB65A26D9F6EDB5EBC14EBF49A45CB856E66048291F6939A9A81BB5
310
C8917738143CA680F4AA299D66A042CEB3354A2684DC9D8D178FE0D9B8B41CAAD720F880EE7EF93C0C18769E099ECC04D5A102C8049A8A05632F4DDF376CF1DE0F6BB65C2F8627B65A33C6BB62177CEBBDAD973006829F89F22E814B54F4BC2BE347F8AA8F681390B50FA73F804400B5F542E796F19FF974E7F78DB802FE05
310
E207504B0304140006080800CC70623B16AB87BA640500003C100000340000006662782F39464131463745442D413632322D343644302D413938332D3331353338454246344243312F6F626A656374732E786D6CAD575B6FA33818FD2B887DE6924B3BED8A326A92B68A663B534DD4D13E548A0C38942D60649B369D5FBFC7
310
600890A493BDE42160637FD7F31D7FF63E6FB3D478A55C242CBF3247B66B1A340F5994E4F19559CA8D75611A9F7D8F33263BCB4C232719BD32D5B4E97B316765A1A722BA21652A07B3B7B33F0D11D29C9A46981221AE4C113ED38CD8A4942CA2E2C58E882476BCD9DA23BB5ED8171B73523C0F841684D35CC252CCE79062D4
310
468DFA43D7747CCF51DF7D4FFDEB5593E3AB9CCA9FBEFE241792E4E19EB28198C968BAB8199F5D5A67D3E9C49A9E8F47D6EC76B6B0469F26EEFC7C3EBFBCBEB98462213924694B38DD98FE1D62C393D073EA4FADC5DAF04326852CCF6958F90F0F2B9BB5C48816348F90C7840A68EB78EDF68723159BCEE7891A6B95DDE9D3
310
BCEAEEE8086A6C6F9E5D4B59F0175C10A7A0820BAA5055C7473B5AE3CFDD452D602CD5DF12616444529E90D448938013FE6EFA58AA96F85E4F8C42275708571E98FE6827AF6B2B4AE3D7D83D64E5A64C53054DD3AF90BD06FEA9149565C94FCA0F6B834DC85599E4F2423B24DF0B6AFA979E534DFA9E7A4CC6FA631D486393
310
921829879BF5D781A373557BCB85E97FB90DB62B558F8795179C15944B051F40AB495CF35451D26A4727654E6D8033BD98EF82F21D91FF8AF2DD9982BCF1643BDD4EB516C9492E368C67C88DED563FC36D5EACF66DFF057C3658BDBFA69DF9578B3DA735B64F18C7F20770A9D45CFCF7FCF563D6456A277DBEF78A02637CA2
310
43B90A490AEAB94F72244481D24819A6C0E59B606BFA4B3025981DBB48EAB701D97BF19C577CC77F2D1B6C55A9EF3C732474C0B727303F625995056C3B02963D9EAC146BE78EC5FCEC7FA999EBC5EACBAAE41B12D27B4D2C0BBA49F244E2ECDC81B76B502F113D8F5EE8FB1BE3111CDD4FC2AA9B844CAB1288B68AB90A7CDC
310
1C166AB0D3DC5310625FCC14E779BFD0709F8890A629C9292B1B2DED31A4B0DA928CEE135085754027E3018A397D4D5427D15BD1330B677DC8934285AC3DF45A9EB68FF8F2B8FC0A509AFEECFD0FF2DE25CC6047F7214B195F07EFEB9A094D800F7BFAE8FED187B78EA8A3A400F115961BCAD1215E47C966530AF0EE8128FE
310
58CEBB996A8964FFA529A046635D9353B0336A8F700DDF46271A024E70B0B37C9DE01847591E54DED53D54202AB947E4076556AC49C6CA5C9E1226B7F1A7B1BE15DEED62C41B91E1B3E9AFAAA735036547343A925075041DF0A9979E893B391F8FCFA6967B3EFB644DCF6E5CEBFAE272625DCC6FAF3FB93793C5F90CE1EF57
310
407342756B10D1C489E8953CD1617E5CEECAD6F4EF8914CE5D5D504E5C3F1F9736DA62CFC11E00BCDDB8CC8A9466349744C1F75EBDA4DF09BA8A9E8C7A7E9991989E20E5DBDD6A6003664ED8F7A04A8DBE0DF6EAD9B9AA858342E47399053949D2C146EDB85DE4B176BB0965FBAC19BD19AA918E27FA50C1D22402E144464C
310
59462568E704B6E71915404CB72B8FF4EDE184DDAF753F284990D2C6926782963815403548A70C657FDEF80D2D9CEAA2AE4C1C76F60BFE74219A06527D6582DF6412526107381E55E353090704D085B52408D0933C4ED159D79BDA71BB4BC506F4831350EB6F979CD22D69BF7AC49B91A2C0A9DDA3D5CA36AD20FC478E37E6
310
1844E2352865EBCB6EA275A652E3836BE04EFB400BF1A2556F515F1FBB35B2AB35BD889C744FFA1004B5544B121E57F70215746DD2F5E2C1412B602CBF19455AC6C8E5E9922C4E01E65215385004546899059180EAFCF7A707CE7017CD8CDB0410789AB32C63B91E5CEBBBACB17AC6CD347A022D5075FD106377347AAABA7E
310
7D11590744509B44E205134DC1290F06580320F78E537D3D73540E06CB970B431F185308AD40BBD794D6D77003C5A36E8EAA54BA64597CD8F83BD552A080A365F7FF06504B0304140006080000CC70623B000000000000000000000000350000006662782F39464131463745442D413632322D343644302D413938332D3331
310
353338454246344243312F76657274696365732E62696E504B0304140006080800CC70623BF270F1330600000004000000360000006662782F39464131463745442D413632322D343644302D413938332D3331353338454246344243312F747269616E676C65732E62696E636660600000504B0304140006080000CC70623B
310
000000000000000000000000370000006662782F39464131463745442D413632322D343644302D413938332D3331353338454246344243312F617474726962757465732E62696E504B0304140006080800CC70623B08DA0BD19000000041010000360000006662782F39464131463745442D413632322D343644302D413938
310
332D3331353338454246344243312F6469726563746F72792E786D6C858F410AC3201045AF22B36F53E9A60B35CBEEBAE80D244E44489C6234F4F835464A48035D0DF398FF9F8AF63D0E6CC63039F212F8F9020C7D47C6792B21C5FE7403D62A1188E2E60C98D7234A5830286103A55745067B9D86B8A3CF9C7F90C11DE607
310
FB144396D7B6A82D282E9A152AD114D5EF2CB866EEE831B8EEA07A7BB5A8D7D61A2BAAEB7FD5F70921FF497D00504B0304140006080800CC70623B0D6EF93BFE000000A00100003B0000006662782F39464131463745442D413632322D343644302D413938332D3331353338454246344243312F7265736F75726365732F63
310
6F72652E786D6C8D50596E833010BD0A9ADFCA60B334011947A8694ED00B586642AC041B79A97AFC9A40A5F6AF3F33A3B7689E1E3F7DCD8FEC139DD7D6F4C0720A191A65476DA61E62B892236427C19DB5E1970C322367EC618541F0C9D9B8EC90B226A009093576C41D94DE63804C3DD2D18357379C652E63480A7FCF17A9
310
EE72C29CE5894E3AC17D702940B63D59270887DE46A7D0F36263058F518FBB468FE9A7BE6A7420864373B8D4873369AA8691FA421B3294352543C5CAF65C0F6FEF43CB8BD52C78D0F34F46E550061C419494B6843142CB0F5677F4B52BEB177AEC28E5C52AFF638ACBF84F53D42654E51E77B379102C05791282176B5F693D
310
CB4C7BED567C03504B010214000A0000080000CC70623B3DEE336E79000000790000001B00000000000000000000000000000000006175746F6465736B2D64657369676E2D7061636B6167652E786D6C504B01021400140006080800CC70623BD486FD9CA0000000F40000001300000000000000000000000000B20000005B
310
436F6E74656E745F54797065735D2E786D6C504B01021400140006080800CC70623B1EC5D7A3EB0000007C010000080000000000000000000000000083010000636F72652E786D6C504B01021400140006080800CC70623B55019EA25F0000007C000000070000000000000000000000000094020000636E782E786D6C504B
310
01021400140006080800CC70623B8C9102E971010000D40300000C00000000000000000000000000180300006662782F636F72652E786D6C504B01021400140006080800CC70623BFFEA85907E0000009D0000000B00000000000000000000000000B30400006662782F636E782E786D6C504B01021400140006080800CC70
310
623B4FEEA4082C0100001202000031000000000000000000000000005A0500006662782F39464131463745442D413632322D343644302D413938332D3331353338454246344243312F636F72652E786D6C504B01021400140006080800CC70623BAD7543B64E010000330300003000000000000000000000000000D5060000
310
6662782F39464131463745442D413632322D343644302D413938332D3331353338454246344243312F636E782E786D6C504B01021400140006080800CC70623B16AB87BA640500003C1000003400000000000000000000000000710800006662782F39464131463745442D413632322D343644302D413938332D3331353338
310
454246344243312F6F626A656374732E786D6C504B01021400140006080000CC70623B0000000000000000000000003500000000000000000000000000270E00006662782F39464131463745442D413632322D343644302D413938332D3331353338454246344243312F76657274696365732E62696E504B01021400140006
310
080800CC70623BF270F133060000000400000036000000000000000000000000007A0E00006662782F39464131463745442D413632322D343644302D413938332D3331353338454246344243312F747269616E676C65732E62696E504B01021400140006080000CC70623B0000000000000000000000003700000000000000
310
000000000000D40E00006662782F39464131463745442D413632322D343644302D413938332D3331353338454246344243312F617474726962757465732E62696E504B01021400140006080800CC70623B08DA0BD190000000410100003600000000000000000000000000290F00006662782F39464131463745442D413632
310
322D343644302D413938332D3331353338454246344243312F6469726563746F72792E786D6C504B01021400140006080800CC70623B0D6EF93BFE000000A00100003B000000000000000000000000000D1000006662782F39464131463745442D413632322D343644302D413938332D3331353338454246344243312F7265
310
736F75726365732F636F72652E786D6C504B0506000000000E000E0080040000641100000000
  0
XRECORD
  5
175
102
{ACAD_REACTORS
330
173
102
}
330
173
100
AcDbXrecord
280
     1
270
     1
271
     1
  0
XRECORD
  5
174
102
{ACAD_REACTORS
330
173
102
}
330
173
100
AcDbXrecord
280
     1
270
     1
271
     1
  0
XRECORD
  5
1FB
102
{ACAD_REACTORS
330
173
102
}
330
173
100
AcDbXrecord
280
     1
 70
     0
 90
1673772943
  1
ECE7A1D2-D628-4531-984C-D00F80459256
310
504B03040A0000080000CC70623B3DEE336E79000000790000001B0000006175746F6465736B2D64657369676E2D7061636B6167652E786D6C3C3F786D6C2076657273696F6E3D22312E302220656E636F64696E673D227574662D3822203F3E3C666F726D6174733E3C666F726D61743E687474703A2F2F736368656D612E
310
6175746F6465736B2E636F6D2F64657369676E2D7061636B6167652F323030393C2F666F726D61743E3C2F666F726D6174733E504B0304140006080800CC70623BD486FD9CA0000000F4000000130000005B436F6E74656E745F54797065735D2E786D6C7D8EC10E82300C865F65E91D8A1E8C310C0EEA1BF002731658846E
310
D98AC1B77784ABF1D8FE5FBFBF75BBCE937A534CCEB38643598122B6FEE978D0B0485F9C41B54DDD7D022595594E1A469170414C76A4D9A4D207E29CF43ECE46F218070CC6BECC4078ACAA135ACF422C856C0E68EA1BF5669944DDD7BCDE7B1F8E415D77AECB980613C2E4AC91FC167A2B244592486606FC29C8FD7F045B9A
310
EF7053A7E60B504B0304140006080800CC70623BD9DDAED0EC0000007C01000008000000636F72652E786D6C8D90416EC3201045AF82665B61836D9CD8C2444DD39CA01740405C94182C03558F5F9C3852BBEB6A467FFE9B197D7EF89E6EE8CB2CC17A37002D0820E394D7D68D03A478C17B4007C117EFE32F1B20272733C0
310
2A83E0E3E2D3BC49CABB685CCCAAF3DA6CA20CC14440EA969B0182FA34932C648AD911AEC52CD5558EA6A0CF2EC329598D1E47ACCEFBECC59A050463A7EA5833865FEBDD0E37353BE3EE8DBDE3F6786A48D375FBF6CC78B9C282473B3DEFABC5C86834888A900E538A49F5419B9EB47DD5BC907D4F082F57FB1F28CDFA9F50
310
B22ED6D5F6EE030B20687EE43E10BC5CB3C8E51E54AE6B6EE207504B0304140006080800CC70623B55019EA25F0000007C00000007000000636E782E786D6C4DCB3B0E80201045D1AD90E915ED2CF8AC45050C11660C8261F98AB1B07AC9C97D42D718D865D3E909258CFD00CCE24AC6E326A164D74DC0B4128928FF326038
310
472BA13128B1252AC747C6BAB984FC68F0B87FE8960A5C09FE86CFB69FBA01504B0304140006080800CC70623BA24EB22D72010000D40300000C0000006662782F636F72652E786D6CC5535B6E833010BC8AE5DF0A6C5E49888CA3A6694ED00B38E05014B091B1518EDFE511A5A9D228FD2A1F60CDEC7A67C6986DCE4D8D7A
310
69BA4AAB0C073EC548AA5C17952A33ECECD15B61B4E1CC686DBF9561A44423333CC098B3D268D7CE50AE9595CA02AA74216750749DB418E5352C32DCE59FB211BE70162ABA93DF8AFC244AE9073ED050C759670D0840D390E18DF9F1706664C23973AE2A66B62A605A75ACA4C13C4976E1364A12EF355A2EBD384AF65EFA96
310
BC7B8BED2EA6719AAE16FB8491A199335B351775B991C2CA02F390D2D40B028F861F41BCA68B7518BFD0D59A524686F29B26D7164F36B94AD9289CE54E6D1DE6010819891F6E21228B3AD1831EC219194284CF98F06DD01008846CC5A1BEF83801D4CBDC6A1303536877A57A513B0953A94FC707FDBE6064EA84A9E3E6E0FA
310
EE8CF0E9198F7784A316AA0413C2C2F2E0ECA0934D1AE6D05A69BCDE9E91D2A611F573361E38FC1375157F5752AE6B6DFE4B11990F88CCBF0719EE23FF02504B0304140006080800CC70623B408A7D3B7C0000009D0000000B0000006662782F636E782E786D6C4DCCD10A83201886E15B91FFDC552A92A0064DBC8F581632
310
D3703A76F9ABD1C18E3E78F878E5F0D9027ABBFCF2292AE86E2D20171F69F6715550CB827B40839639A5F2770314A7CD293819B45C73AAFB45B35BA61ACAA1C1C7E7855C58C15BC331339661262CC762340413D68D77DA5B42298546CBE6573AF60CEB2F504B0304140006080800CC70623B449FB9BD290100001202000031
310
0000006662782F36394639363044362D344446342D343946362D394244322D3234314243333846323333332F636F72652E786D6C8D515B6EC32010BC0AE22B55850D98B871848994463E412FE002495162B07854397EA176A4F62F3F2C9A9D991D587EB84F37F0AD7D30CEF6905418026DA553C65E7A98E219ED203808EE9D
310
8B7F6810D871D23D2C3014FCE25D9A57483A1BB58D19B54EE9151C43D0110279CB971E06F9A5A7B11A53CC8C70ADE6515EC78BAE4895DB992778883E0700CB907242D17643D7E2538BD869608875438BBAE38922CAC8F1BDD90DB4691A5E2F42C153326A951B95E398B3D1FE599322163C9AE9115F7A3D46ADA0A018778810
310
84E907617BDCEE297BC5BB3DC6BC2EF47FA234AB2745C9D8D8D035EE220B50105E2F0DC1954B9FB747187D9F9D8FA0CCDB042D5FA0C015C65B42DF78BD10F3F3B363CB56C7109DCFDFBBB97E662ED92EB62D13BC2E1BCAE5777DB9966D8A1F504B0304140006080800CC70623BAD7543B64E01000033030000300000006662
310
782F36394639363044362D344446342D343946362D394244322D3234314243333846323333332F636E782E786D6CD593CD6EC32010845F0571AD6CE3D48AD20813A9873E410FBD12D82434182C7EAAE6EDBB2424CD25871E7B41D6EC30B3FA84F9E67BB2E40B4234DE8DB46F1925E094D7C6ED479AD3AE5951B2113C789FEE
310
6C943839C1488B4C05DF079FE72A69D8C96C13AAD6B8631503449F83828872B949AC57D26200B826A308D316B4064D6E46FCDA41C05550DC9E483A00797BFD207EFB092A45DE9514C1BBD22178396BD39D891265658C238DEA00936C654E5E433CB65A26D9F6EDB5EBC14EBF49A45CB856E66048291F6939A9A81BB5C89177
310
38143CA680F4AA299D66A042CEB3354A2684DC9D8D178FE0D9B8B41CAAD720F880EE7EF93C0C18769E099ECC04D5A102C8049A8A05632F4DDF376CF1DE0F6BB65C2F8627B65A33C6BB62177CEBBDAD973006829F89F22E814B54F4BC2BE347F8AA8F681390B50FA73F804400B5F542E796F19FF974E7F78DB802FE05E20750
310
4B0304140006080800CC70623B8D05915C650500003B100000340000006662782F36394639363044362D344446342D343946362D394244322D3234314243333846323333332F6F626A656374732E786D6CAD575B6FA33814FE2B887D06429276DA1565D4266D158D3A339A6846FB502932E050B66023DB74D2FDF5FB190C01
310
9276B2973C046C8ECFF53B17071F77456EBD502133CEAE6CDF9DD81665314F32965ED995DA3A17B6F5310C04E7AA47665B8C14F4CAD6DB7618A48257A5D94AE89654B91AEDDEDDFC61C998326A5B714EA4BCB265FC440BE2924AF184CA6737218AB8E976E7FA6E4338649B0A523E8D98964450A6A029F619B8588D52FE7039
310
B1BD30F0F4F730D0FF866AF6369557DB33949F31A9088B0F848DD8CCFCF9F2767A76E99CCDE733677E3EF59D9BBB9BA5E37F984D16E78BC5E5F5ED25044B25C0C96822E8D60EEFE11B91C581D77CEA34368A1F5329E68CD1B8B61F16D63A1B8E092D294B10C78C4A48EB593D192E7DED9BDEE7995E1B91FDEDD3ACEA9FE831
310
6A756F9F7D4D79F4274C90A7A04248AA51D5F8C718DAE06FB2F75AC4796EBE65D22A88A22223B995679120E2D50E41AA49C260C046A35368846B0BECD0DFF3EBEB8AD4F835768F69B9ADF25C43D30E6B646F807FAA64AD59F61715C7A54127C4AACA98BA3006A9D792DAE165E0D59B61A01FB3A9F9D838D2DAE62445C86166
310
F37564E842E7DE6A69879FEEA2DD5AE7E371E1A5E025154AC307D06A03D73EB5978C58FFA4C8E9033066E0F3BD53BEC1F39F91BE7B55103791EDE6BBB991A2046172CB4581D8B893FA674DDA17A77B3B7C413D1B511FD2743BFF8A38F03A658705E3ADF8015C3A3417FF3D7E439FF591DA0B5F18BC20C1B8981957AE6392A3
310
F43C640C01D1A0B4728E2DD4F26DB4B3C3152A252A3B4E913CEC1C72F012782FF88EFF8637AA552DBEF76408E8A8DE9E50F9E1CB3A2DA0DB1B6039A893B56063DC5B3E3FFB5F72E67AB9FEB4AEC496C4F4C1149625DD662C53E89D7BF0F6151A046260D1337DFDC94502430F83B0EE07A130A224BCAD7DAE1D9FB6CD422FF6
310
920702629C4BB9AE79C12F243C6432A6794E18E5552BA56B431AAB5D91317302B2B071E86C3A42B1A02F999E24061403B5D0EB639195DA655DD3EBEAB4FB862DDF579F014AD0E73C22F99E28DA57FB98E75C6CA2D74D53086D600F4786E0FE3144B771A8A7B900F03594DB8A633CBC49B2EDB69228BB479CF863B5E807AAAB
310
23872F6DFEB4129B949CA33823F58830E86D65621E10047D9DB34D862E8EAC3C2ABC2F7B2C40D67CDFE01F5545B92105AF983AC54D93D69E56FB8E797F88913F898A9FEC705D3F9D1B54EC8426FB500D40A03BD0119B06E1B95DDC7EB8F6975367793EBD70E66733DFB9BC982F9CE564727731999F5D4ECFCE3B8D6A4DC2A0
310
6D50FD148437D110834A64C6CDDF57FBACB5C307A2A477DFE4939736CFEF2B175371E0E10CF0DD1D5C15654E0BCA14D1E87DD02FF93782A162C0A3D95F1524A52770F972BF1EE9809D13CE7DD599467F8ECE9ADD85CE85A34CD45355448C64F9E8A031DC2D596ACC6E5DD93D9B82DE2EF5CAF81363A8E47996A0DE24564A79
310
4115AACE09C55E14540231FDA13C319787134EBF34E3A022514E5B4D9E0826E25C02D5805B15ABE1BEF51B26383D445DD9E875EE33FE4C22DA16427D65A3BCA92CA6D28DD01DF5DC53330704308475351050232CCD31583787BA75774AFB06E5070DD0C8EF484E19968C5D83BA5B90B244D31E54D55A372320FE4786B7EA58
310
44E135AA5467CB7EA333A61683CC6A8C3257034C10CF46F40EF9F5BE59BE5BD30C3C72D235E95D10345C1D45445A5F0BB47E46A5EBE5570F9380B5FA629579952296A773720405982B9DE04011506178964401AA8BDF1FBF0A8EAB6861DD6580C0E38217056766716DAEB2D6FA0917D3E4116581EADB879C4E7CFFB11EFACD
310
3D641311495D92C8676CB409A72D18610D803CE8A626049E8EC1887CB5B44CC39883690DDA8399B4B9855B481E7D71D4A9D22F96E5BB73BF5793020C02137BF837504B0304140006080000CC70623B000000000000000000000000350000006662782F36394639363044362D344446342D343946362D394244322D32343142
310
43333846323333332F76657274696365732E62696E504B0304140006080800CC70623BF270F1330600000004000000360000006662782F36394639363044362D344446342D343946362D394244322D3234314243333846323333332F747269616E676C65732E62696E636660600000504B0304140006080000CC70623B0000
310
00000000000000000000370000006662782F36394639363044362D344446342D343946362D394244322D3234314243333846323333332F617474726962757465732E62696E504B0304140006080800CC70623B08DA0BD19000000041010000360000006662782F36394639363044362D344446342D343946362D394244322D
310
3234314243333846323333332F6469726563746F72792E786D6C858F410AC3201045AF22B36F53E9A60B35CBEEBAE80D244E44489C6234F4F835464A48035D0DF398FF9F8AF63D0E6CC63039F212F8F9020C7D47C6792B21C5FE7403D62A1188E2E60C98D7234A5830286103A55745067B9D86B8A3CF9C7F90C11DE607FB14
310
4396D7B6A82D282E9A152AD114D5EF2CB866EEE831B8EEA07A7BB5A8D7D61A2BAAEB7FD5F70921FF497D00504B0304140006080800CC70623BCA768048FE000000A00100003B0000006662782F36394639363044362D344446342D343946362D394244322D3234314243333846323333332F7265736F75726365732F636F72
310
652E786D6C8D50596E833010BD0A9ADFCA60D600328E9AA639412F609909B1126CE4A5EAF16B0295DABFFECC8CDEA2797AECF8353F924FB44E193D409E5248504B332A3D0D10FC95B4901C39B3C6F85F3248B49871801506CE266BC2B243D2688FDA47549B11775038871E12F988C7004EDE7016A9083E2ADC3D5D84BC8B09
310
D33C8D74D471E6BC8D0192EDC93A815B742658898E651BCB59086ADC356A8C3FD555A1055ED7E7E254D615792D0F075295F585746FF53B694EE78A565DD736979A65AB9933AFE69F8CD2A2F038022F28ED489E135A7CE4554F9BBEA85E68DB53CAB255FEC71496F19FA6A0B42F8B3DEE6673C0F318E4497096AD7DC5F52C33
310
EEB55BFE0D504B010214000A0000080000CC70623B3DEE336E79000000790000001B00000000000000000000000000000000006175746F6465736B2D64657369676E2D7061636B6167652E786D6C504B01021400140006080800CC70623BD486FD9CA0000000F40000001300000000000000000000000000B20000005B436F
310
6E74656E745F54797065735D2E786D6C504B01021400140006080800CC70623BD9DDAED0EC0000007C010000080000000000000000000000000083010000636F72652E786D6C504B01021400140006080800CC70623B55019EA25F0000007C000000070000000000000000000000000095020000636E782E786D6C504B0102
310
1400140006080800CC70623BA24EB22D72010000D40300000C00000000000000000000000000190300006662782F636F72652E786D6C504B01021400140006080800CC70623B408A7D3B7C0000009D0000000B00000000000000000000000000B50400006662782F636E782E786D6C504B01021400140006080800CC70623B
310
449FB9BD290100001202000031000000000000000000000000005A0500006662782F36394639363044362D344446342D343946362D394244322D3234314243333846323333332F636F72652E786D6C504B01021400140006080800CC70623BAD7543B64E010000330300003000000000000000000000000000D20600006662
310
782F36394639363044362D344446342D343946362D394244322D3234314243333846323333332F636E782E786D6C504B01021400140006080800CC70623B8D05915C650500003B10000034000000000000000000000000006E0800006662782F36394639363044362D344446342D343946362D394244322D32343142433338
310
46323333332F6F626A656374732E786D6C504B01021400140006080000CC70623B0000000000000000000000003500000000000000000000000000250E00006662782F36394639363044362D344446342D343946362D394244322D3234314243333846323333332F76657274696365732E62696E504B010214001400060808
310
00CC70623BF270F13306000000040000003600000000000000000000000000780E00006662782F36394639363044362D344446342D343946362D394244322D3234314243333846323333332F747269616E676C65732E62696E504B01021400140006080000CC70623B00000000000000000000000037000000000000000000
310
00000000D20E00006662782F36394639363044362D344446342D343946362D394244322D3234314243333846323333332F617474726962757465732E62696E504B01021400140006080800CC70623B08DA0BD190000000410100003600000000000000000000000000270F00006662782F36394639363044362D344446342D
310
343946362D394244322D3234314243333846323333332F6469726563746F72792E786D6C504B01021400140006080800CC70623BCA768048FE000000A00100003B000000000000000000000000000B1000006662782F36394639363044362D344446342D343946362D394244322D3234314243333846323333332F7265736F
310
75726365732F636F72652E786D6C504B0506000000000E000E0080040000621100000000
  0
XRECORD
  5
176
102
{ACAD_REACTORS
330
173
102
}
330
173
100
AcDbXrecord
280
     1
270
     1
271
     1
  0
XRECORD
  5
177
102
{ACAD_REACTORS
330
173
102
}
330
173
100
AcDbXrecord
280
     1
270
     1
271
     1
  0
CELLSTYLEMAP
  5
4B6
102
{ACAD_REACTORS
330
162
102
}
330
162
100
AcDbCellStyleMap
 90
        3
300
CELLSTYLE
  1
TABLEFORMAT_BEGIN
 90
        5
170
     1
 91
        0
 92
    32768
 62
   257
 93
        1
300
CONTENTFORMAT
  1
CONTENTFORMAT_BEGIN
 90
        0
 91
        0
 92
      512
 93
        0
300

 40
0.0
140
1.0
 94
        5
 62
     0
340
11
144
6.0
309
CONTENTFORMAT_END
171
     1
301
MARGIN
  1
CELLMARGIN_BEGIN
 40
1.5
 40
1.5
 40
1.5
 40
1.5
 40
4.5
 40
4.5
309
CELLMARGIN_END
 94
        6
 95
        1
302
GRIDFORMAT
  1
GRIDFORMAT_BEGIN
 90
        0
 91
        1
 62
     0
 92
       -2
340
14
 93
        0
 40
1.125
309
GRIDFORMAT_END
 95
        2
302
GRIDFORMAT
  1
GRIDFORMAT_BEGIN
 90
        0
 91
        1
 62
     0
 92
       -2
340
14
 93
        0
 40
1.125
309
GRIDFORMAT_END
 95
        4
302
GRIDFORMAT
  1
GRIDFORMAT_BEGIN
 90
        0
 91
        1
 62
     0
 92
       -2
340
14
 93
        0
 40
1.125
309
GRIDFORMAT_END
 95
        8
302
GRIDFORMAT
  1
GRIDFORMAT_BEGIN
 90
        0
 91
        1
 62
     0
 92
       -2
340
14
 93
        0
 40
1.125
309
GRIDFORMAT_END
 95
       16
302
GRIDFORMAT
  1
GRIDFORMAT_BEGIN
 90
        0
 91
        1
 62
     0
 92
       -2
340
14
 93
        0
 40
1.125
309
GRIDFORMAT_END
 95
       32
302
GRIDFORMAT
  1
GRIDFORMAT_BEGIN
 90
        0
 91
        1
 62
     0
 92
       -2
340
14
 93
        0
 40
1.125
309
GRIDFORMAT_END
309
TABLEFORMAT_END
  1
CELLSTYLE_BEGIN
 90
        1
 91
        1
300
_TITLE
309
CELLSTYLE_END
300
CELLSTYLE
  1
TABLEFORMAT_BEGIN
 90
        5
170
     1
 91
        0
 92
        0
 62
   257
 93
        1
300
CONTENTFORMAT
  1
CONTENTFORMAT_BEGIN
 90
        0
 91
        0
 92
      512
 93
        0
300

 40
0.0
140
1.0
 94
        5
 62
     0
340
11
144
4.5
309
CONTENTFORMAT_END
171
     1
301
MARGIN
  1
CELLMARGIN_BEGIN
 40
1.5
 40
1.5
 40
1.5
 40
1.5
 40
4.5
 40
4.5
309
CELLMARGIN_END
 94
        6
 95
        1
302
GRIDFORMAT
  1
GRIDFORMAT_BEGIN
 90
        0
 91
        1
 62
     0
 92
       -2
340
14
 93
        0
 40
1.125
309
GRIDFORMAT_END
 95
        2
302
GRIDFORMAT
  1
GRIDFORMAT_BEGIN
 90
        0
 91
        1
 62
     0
 92
       -2
340
14
 93
        0
 40
1.125
309
GRIDFORMAT_END
 95
        4
302
GRIDFORMAT
  1
GRIDFORMAT_BEGIN
 90
        0
 91
        1
 62
     0
 92
       -2
340
14
 93
        0
 40
1.125
309
GRIDFORMAT_END
 95
        8
302
GRIDFORMAT
  1
GRIDFORMAT_BEGIN
 90
        0
 91
        1
 62
     0
 92
       -2
340
14
 93
        0
 40
1.125
309
GRIDFORMAT_END
 95
       16
302
GRIDFORMAT
  1
GRIDFORMAT_BEGIN
 90
        0
 91
        1
 62
     0
 92
       -2
340
14
 93
        0
 40
1.125
309
GRIDFORMAT_END
 95
       32
302
GRIDFORMAT
  1
GRIDFORMAT_BEGIN
 90
        0
 91
        1
 62
     0
 92
       -2
340
14
 93
        0
 40
1.125
309
GRIDFORMAT_END
309
TABLEFORMAT_END
  1
CELLSTYLE_BEGIN
 90
        2
 91
        1
300
_HEADER
309
CELLSTYLE_END
300
CELLSTYLE
  1
TABLEFORMAT_BEGIN
 90
        5
170
     1
 91
        0
 92
        0
 62
   257
 93
        1
300
CONTENTFORMAT
  1
CONTENTFORMAT_BEGIN
 90
        0
 91
        0
 92
      512
 93
        0
300

 40
0.0
140
1.0
 94
        2
 62
     0
340
11
144
4.5
309
CONTENTFORMAT_END
171
     1
301
MARGIN
  1
CELLMARGIN_BEGIN
 40
1.5
 40
1.5
 40
1.5
 40
1.5
 40
4.5
 40
4.5
309
CELLMARGIN_END
 94
        6
 95
        1
302
GRIDFORMAT
  1
GRIDFORMAT_BEGIN
 90
        0
 91
        1
 62
     0
 92
       -2
340
14
 93
        0
 40
1.125
309
GRIDFORMAT_END
 95
        2
302
GRIDFORMAT
  1
GRIDFORMAT_BEGIN
 90
        0
 91
        1
 62
     0
 92
       -2
340
14
 93
        0
 40
1.125
309
GRIDFORMAT_END
 95
        4
302
GRIDFORMAT
  1
GRIDFORMAT_BEGIN
 90
        0
 91
        1
 62
     0
 92
       -2
340
14
 93
        0
 40
1.125
309
GRIDFORMAT_END
 95
        8
302
GRIDFORMAT
  1
GRIDFORMAT_BEGIN
 90
        0
 91
        1
 62
     0
 92
       -2
340
14
 93
        0
 40
1.125
309
GRIDFORMAT_END
 95
       16
302
GRIDFORMAT
  1
GRIDFORMAT_BEGIN
 90
        0
 91
        1
 62
     0
 92
       -2
340
14
 93
        0
 40
1.125
309
GRIDFORMAT_END
 95
       32
302
GRIDFORMAT
  1
GRIDFORMAT_BEGIN
 90
        0
 91
        1
 62
     0
 92
       -2
340
14
 93
        0
 40
1.125
309
GRIDFORMAT_END
309
TABLEFORMAT_END
  1
CELLSTYLE_BEGIN
 90
        3
 91
        2
300
_DATA
309
CELLSTYLE_END
  0
ENDSEC
  0
SECTION
  2
ACDSDATA
 70
     2
 71
     8
  0
ACDSSCHEMA
 90
        0
  1
AcDb_Thumbnail_Schema
  2
AcDbDs::ID
280
    10
 91
        8
  2
Thumbnail_Data
280
    15
 91
        0
101
ACDSRECORD
 95
        0
 90
        1
  2
AcDbDs::TreatedAsObjectData
280
     1
291
     1
101
ACDSRECORD
 95
        0
 90
        2
  2
AcDbDs::Legacy
280
     1
291
     1
101
ACDSRECORD
  1
AcDbDs::ID
 90
        3
  2
AcDs:Indexable
280
     1
291
     1
101
ACDSRECORD
  1
AcDbDs::ID
 90
        4
  2
AcDbDs::HandleAttribute
280
     7
282
     1
  0
ACDSSCHEMA
 90
        1
  1
AcDbDs::TreatedAsObjectDataSchema
  2
AcDbDs::TreatedAsObjectData
280
     1
 91
        0
  0
ACDSSCHEMA
 90
        2
  1
AcDbDs::LegacySchema
  2
AcDbDs::Legacy
280
     1
 91
        0
  0
ACDSSCHEMA
 90
        3
  1
AcDbDs::IndexedPropertySchema
  2
AcDs:Indexable
280
     1
 91
        0
  0
ACDSSCHEMA
 90
        4
  1
AcDbDs::HandleAttributeSchema
  2
AcDbDs::HandleAttribute
280
     7
 91
        1
284
     1
  0
ACDSRECORD
 90
        0
  2
AcDbDs::ID
280
    10
320
22
  2
Thumbnail_Data
280
    15
 94
      896
310
89504E470D0A1A0A0000000D49484452000001000000009108030000001BE1960600000300504C5445212830FFFFFF2128300000000000000000000000000000000000000000000000000000330000660000990000CC0000FF0033000033330033660033990033CC0033FF0066000066330066660066990066CC0066FF0099
310
000099330099660099990099CC0099FF00CC0000CC3300CC6600CC9900CCCC00CCFF00FF0000FF3300FF6600FF9900FFCC00FFFF3300003300333300663300993300CC3300FF3333003333333333663333993333CC3333FF3366003366333366663366993366CC3366FF3399003399333399663399993399CC3399FF33CC00
310
33CC3333CC6633CC9933CCCC33CCFF33FF0033FF3333FF6633FF9933FFCC33FFFF6600006600336600666600996600CC6600FF6633006633336633666633996633CC6633FF6666006666336666666666996666CC6666FF6699006699336699666699996699CC6699FF66CC0066CC3366CC6666CC9966CCCC66CCFF66FF0066
310
FF3366FF6666FF9966FFCC66FFFF9900009900339900669900999900CC9900FF9933009933339933669933999933CC9933FF9966009966339966669966999966CC9966FF9999009999339999669999999999CC9999FF99CC0099CC3399CC6699CC9999CCCC99CCFF99FF0099FF3399FF6699FF9999FFCC99FFFFCC0000CC00
310
33CC0066CC0099CC00CCCC00FFCC3300CC3333CC3366CC3399CC33CCCC33FFCC6600CC6633CC6666CC6699CC66CCCC66FFCC9900CC9933CC9966CC9999CC99CCCC99FFCCCC00CCCC33CCCC66CCCC99CCCCCCCCCCFFCCFF00CCFF33CCFF66CCFF99CCFFCCCCFFFFFF0000FF0033FF0066FF0099FF00CCFF00FFFF3300FF3333
310
FF3366FF3399FF33CCFF33FFFF6600FF6633FF6666FF6699FF66CCFF66FFFF9900FF9933FF9966FF9999FF99CCFF99FFFFCC00FFCC33FFCC66FFCC99FFCCCCFFCCFFFFFF00FFFF33FFFF66FFFF99FFFFCCFFFFFF0000000D0D0D1A1A1A2828283535354343435050505D5D5D6B6B6B787878868686939393A1A1A1AEAEAEBB
310
BBBBC9C9C9D6D6D6E4E4E4F1F1F1FFFFFF0000000000000000000000000000000000000000000000000000000000002E4550F10000003B4944415478DAEDC13101000000C2A0F54F6D0B2FA0000000000000000000000000000000000000000000000000000000000000000000000000CE06919100016C9A5B1B0000000049
310
454E44AE426082
  0
ENDSEC
  0
EOF
