  0
SECTION
  2
HEADER
  9
$ACADVER
  1
AC1032
  9
$ACADMAINTVER
 90
      174
  9
$DWGCODEPAGE
  3
ANSI_932
  9
$REQUIREDVERSIONS
160
                 0
  9
$INSBASE
 10
0.0
 20
0.0
 30
0.0
  9
$EXTMIN
 10
412.162171867865
 20
248.5408182415888
 30
-0.0015258207003583
  9
$EXTMAX
 10
462.2140513200011
 20
276.5703742028801
 30
0.0000000349246037
  9
$LIMMIN
 10
391.5647446115782
 20
226.0668009054088
  9
$LIMMAX
 10
486.7543987534154
 20
302.3078640834147
  9
$ORTHOMODE
 70
     0
  9
$REGENMODE
 70
     1
  9
$FILLMODE
 70
     1
  9
$QTEXTMODE
 70
     0
  9
$MIRRTEXT
 70
     0
  9
$LTSCALE
 40
1.0
  9
$ATTMODE
 70
     1
  9
$TEXTSIZE
 40
2.5
  9
$TRACEWID
 40
1.0
  9
$TEXTSTYLE
  7
Standard
  9
$CLAYER
  8
0
  9
$CELTYPE
  6
ByLayer
  9
$CECOLOR
 62
   256
  9
$CELTSCALE
 40
1.0
  9
$DISPSILH
 70
     0
  9
$DIMSCALE
 40
1.0
  9
$DIMASZ
 40
2.5
  9
$DIMEXO
 40
0.625
  9
$DIMDLI
 40
3.75
  9
$DIMRND
 40
0.0
  9
$DIMDLE
 40
0.0
  9
$DIMEXE
 40
1.25
  9
$DIMTP
 40
0.0
  9
$DIMTM
 40
0.0
  9
$DIMTXT
 40
2.5
  9
$DIMCEN
 40
2.5
  9
$DIMTSZ
 40
0.0
  9
$DIMTOL
 70
     0
  9
$DIMLIM
 70
     0
  9
$DIMTIH
 70
     0
  9
$DIMTOH
 70
     0
  9
$DIMSE1
 70
     0
  9
$DIMSE2
 70
     0
  9
$DIMTAD
 70
     1
  9
$DIMZIN
 70
     8
  9
$DIMBLK
  1

  9
$DIMASO
 70
     1
  9
$DIMSHO
 70
     1
  9
$DIMPOST
  1

  9
$DIMAPOST
  1

  9
$DIMALT
 70
     0
  9
$DIMALTD
 70
     3
  9
$DIMALTF
 40
0.03937007874016
  9
$DIMLFAC
 40
1.0
  9
$DIMTOFL
 70
     1
  9
$DIMTVP
 40
0.0
  9
$DIMTIX
 70
     0
  9
$DIMSOXD
 70
     0
  9
$DIMSAH
 70
     0
  9
$DIMBLK1
  1

  9
$DIMBLK2
  1

  9
$DIMSTYLE
  2
ISO-25
  9
$DIMCLRD
 70
     0
  9
$DIMCLRE
 70
     0
  9
$DIMCLRT
 70
     0
  9
$DIMTFAC
 40
1.0
  9
$DIMGAP
 40
0.625
  9
$DIMJUST
 70
     0
  9
$DIMSD1
 70
     0
  9
$DIMSD2
 70
     0
  9
$DIMTOLJ
 70
     0
  9
$DIMTZIN
 70
     8
  9
$DIMALTZ
 70
     0
  9
$DIMALTTZ
 70
     0
  9
$DIMUPT
 70
     0
  9
$DIMDEC
 70
     2
  9
$DIMTDEC
 70
     2
  9
$DIMALTU
 70
     2
  9
$DIMALTTD
 70
     3
  9
$DIMTXSTY
  7
Standard
  9
$DIMAUNIT
 70
     0
  9
$DIMADEC
 70
     0
  9
$DIMALTRND
 40
0.0
  9
$DIMAZIN
 70
     0
  9
$DIMDSEP
 70
    44
  9
$DIMATFIT
 70
     3
  9
$DIMFRAC
 70
     0
  9
$DIMLDRBLK
  1

  9
$DIMLUNIT
 70
     2
  9
$DIMLWD
 70
    -2
  9
$DIMLWE
 70
    -2
  9
$DIMTMOVE
 70
     0
  9
$DIMFXL
 40
1.0
  9
$DIMFXLON
 70
     0
  9
$DIMJOGANG
 40
0.7853981633974483
  9
$DIMTFILL
 70
     0
  9
$DIMTFILLCLR
 70
     0
  9
$DIMARCSYM
 70
     0
  9
$DIMLTYPE
  6

  9
$DIMLTEX1
  6

  9
$DIMLTEX2
  6

  9
$DIMTXTDIRECTION
 70
     0
  9
$LUNITS
 70
     2
  9
$LUPREC
 70
     4
  9
$SKETCHINC
 40
1.0
  9
$FILLETRAD
 40
0.0
  9
$AUNITS
 70
     0
  9
$AUPREC
 70
     0
  9
$MENU
  1
.
  9
$ELEVATION
 40
0.0
  9
$PELEVATION
 40
0.0
  9
$THICKNESS
 40
0.0
  9
$LIMCHECK
 70
     0
  9
$CHAMFERA
 40
0.0
  9
$CHAMFERB
 40
0.0
  9
$CHAMFERC
 40
0.0
  9
$CHAMFERD
 40
0.0
  9
$SKPOLY
 70
     0
  9
$TDCREATE
 40
2459816.391898149
  9
$TDUCREATE
 40
2459816.058564815
  9
$TDUPDATE
 40
2459816.391898149
  9
$TDUUPDATE
 40
2459816.058564815
  9
$TDINDWG
 40
0.0002662037
  9
$TDUSRTIMER
 40
0.0002662037
  9
$USRTIMER
 70
     1
  9
$ANGBASE
 50
0.0
  9
$ANGDIR
 70
     0
  9
$PDMODE
 70
     0
  9
$PDSIZE
 40
0.0
  9
$PLINEWID
 40
0.0
  9
$SPLFRAME
 70
     0
  9
$SPLINETYPE
 70
     6
  9
$SPLINESEGS
 70
     8
  9
$HANDSEED
  5
1AD
  9
$SURFTAB1
 70
     6
  9
$SURFTAB2
 70
     6
  9
$SURFTYPE
 70
     6
  9
$SURFU
 70
     6
  9
$SURFV
 70
     6
  9
$UCSBASE
  2

  9
$UCSNAME
  2

  9
$UCSORG
 10
0.0
 20
0.0
 30
0.0
  9
$UCSXDIR
 10
1.0
 20
0.0
 30
0.0
  9
$UCSYDIR
 10
0.0
 20
1.0
 30
0.0
  9
$UCSORTHOREF
  2

  9
$UCSORTHOVIEW
 70
     0
  9
$UCSORGTOP
 10
0.0
 20
0.0
 30
0.0
  9
$UCSORGBOTTOM
 10
0.0
 20
0.0
 30
0.0
  9
$UCSORGLEFT
 10
0.0
 20
0.0
 30
0.0
  9
$UCSORGRIGHT
 10
0.0
 20
0.0
 30
0.0
  9
$UCSORGFRONT
 10
0.0
 20
0.0
 30
0.0
  9
$UCSORGBACK
 10
0.0
 20
0.0
 30
0.0
  9
$PUCSBASE
  2

  9
$PUCSNAME
  2

  9
$PUCSORG
 10
0.0
 20
0.0
 30
0.0
  9
$PUCSXDIR
 10
1.0
 20
0.0
 30
0.0
  9
$PUCSYDIR
 10
0.0
 20
1.0
 30
0.0
  9
$PUCSORTHOREF
  2

  9
$PUCSORTHOVIEW
 70
     0
  9
$PUCSORGTOP
 10
0.0
 20
0.0
 30
0.0
  9
$PUCSORGBOTTOM
 10
0.0
 20
0.0
 30
0.0
  9
$PUCSORGLEFT
 10
0.0
 20
0.0
 30
0.0
  9
$PUCSORGRIGHT
 10
0.0
 20
0.0
 30
0.0
  9
$PUCSORGFRONT
 10
0.0
 20
0.0
 30
0.0
  9
$PUCSORGBACK
 10
0.0
 20
0.0
 30
0.0
  9
$USERI1
 70
     0
  9
$USERI2
 70
     0
  9
$USERI3
 70
     0
  9
$USERI4
 70
     0
  9
$USERI5
 70
     0
  9
$USERR1
 40
0.0
  9
$USERR2
 40
0.0
  9
$USERR3
 40
0.0
  9
$USERR4
 40
0.0
  9
$USERR5
 40
0.0
  9
$WORLDVIEW
 70
     1
  9
$SHADEDGE
 70
     3
  9
$SHADEDIF
 70
    70
  9
$TILEMODE
 70
     1
  9
$MAXACTVP
 70
    64
  9
$PINSBASE
 10
0.0
 20
0.0
 30
0.0
  9
$PLIMCHECK
 70
     0
  9
$PEXTMIN
 10
0.0
 20
0.0
 30
0.0
  9
$PEXTMAX
 10
0.0
 20
0.0
 30
0.0
  9
$PLIMMIN
 10
0.0
 20
0.0
  9
$PLIMMAX
 10
12.0
 20
9.0
  9
$UNITMODE
 70
     0
  9
$VISRETAIN
 70
     1
  9
$PLINEGEN
 70
     0
  9
$PSLTSCALE
 70
     1
  9
$TREEDEPTH
 70
  3020
  9
$CMLSTYLE
  2
Standard
  9
$CMLJUST
 70
     0
  9
$CMLSCALE
 40
20.0
  9
$PROXYGRAPHICS
 70
     1
  9
$MEASUREMENT
 70
     1
  9
$CELWEIGHT
370
    -1
  9
$ENDCAPS
280
     0
  9
$JOINSTYLE
280
     0
  9
$LWDISPLAY
290
     0
  9
$INSUNITS
 70
     4
  9
$HYPERLINKBASE
  1

  9
$STYLESHEET
  1

  9
$XEDIT
290
     1
  9
$CEPSNTYPE
380
     0
  9
$PSTYLEMODE
290
     1
  9
$FINGERPRINTGUID
  2
{B3F0984E-87D2-7047-8AC3-24295A9C7378}
  9
$VERSIONGUID
  2
{BC0A5024-7272-AD41-B992-0ED4D259C05F}
  9
$EXTNAMES
290
     1
  9
$PSVPSCALE
 40
0.0
  9
$OLESTARTUP
290
     0
  9
$SORTENTS
280
   127
  9
$INDEXCTL
280
     0
  9
$HIDETEXT
280
     1
  9
$XCLIPFRAME
280
     2
  9
$HALOGAP
280
     0
  9
$OBSCOLOR
 70
   257
  9
$OBSLTYPE
280
     0
  9
$INTERSECTIONDISPLAY
280
     0
  9
$INTERSECTIONCOLOR
 70
   257
  9
$DIMASSOC
280
     2
  9
$PROJECTNAME
  1

  9
$CAMERADISPLAY
290
     0
  9
$LENSLENGTH
 40
50.0
  9
$CAMERAHEIGHT
 40
0.0
  9
$STEPSPERSEC
 40
2.0
  9
$STEPSIZE
 40
6.0
  9
$3DDWFPREC
 40
2.0
  9
$PSOLWIDTH
 40
5.0
  9
$PSOLHEIGHT
 40
80.0
  9
$LOFTANG1
 40
1.570796326794896
  9
$LOFTANG2
 40
1.570796326794896
  9
$LOFTMAG1
 40
0.0
  9
$LOFTMAG2
 40
0.0
  9
$LOFTPARAM
 70
     7
  9
$LOFTNORMALS
280
     1
  9
$LATITUDE
 40
37.795
  9
$LONGITUDE
 40
-122.394
  9
$NORTHDIRECTION
 40
0.0
  9
$TIMEZONE
 70
 -8000
  9
$LIGHTGLYPHDISPLAY
280
     1
  9
$TILEMODELIGHTSYNCH
280
     1
  9
$CMATERIAL
347
38
  9
$SOLIDHIST
280
     0
  9
$SHOWHIST
280
     1
  9
$DWFFRAME
280
     2
  9
$DGNFRAME
280
     0
  9
$REALWORLDSCALE
290
     1
  9
$INTERFERECOLOR
 62
     1
  9
$INTERFEREOBJVS
345
51
  9
$INTERFEREVPVS
346
52
  9
$CSHADOW
280
     0
  9
$SHADOWPLANELOCATION
 40
0.0
  0
ENDSEC
  0
SECTION
  2
CLASSES
  0
CLASS
  1
ACDBDICTIONARYWDFLT
  2
AcDbDictionaryWithDefault
  3
ObjectDBX Classes
 90
        0
 91
        1
280
     0
281
     0
  0
CLASS
  1
DICTIONARYVAR
  2
AcDbDictionaryVar
  3
ObjectDBX Classes
 90
        0
 91
       11
280
     0
281
     0
  0
CLASS
  1
TABLESTYLE
  2
AcDbTableStyle
  3
ObjectDBX Classes
 90
     4095
 91
        1
280
     0
281
     0
  0
CLASS
  1
MATERIAL
  2
AcDbMaterial
  3
ObjectDBX Classes
 90
     1153
 91
        3
280
     0
281
     0
  0
CLASS
  1
VISUALSTYLE
  2
AcDbVisualStyle
  3
ObjectDBX Classes
 90
     4095
 91
        3
280
     0
281
     0
  0
CLASS
  1
SCALE
  2
AcDbScale
  3
ObjectDBX Classes
 90
     1153
 91
       17
280
     0
281
     0
  0
CLASS
  1
MLEADERSTYLE
  2
AcDbMLeaderStyle
  3
ACDB_MLEADERSTYLE_CLASS
 90
     4095
 91
        0
280
     0
281
     0
  0
CLASS
  1
CELLSTYLEMAP
  2
AcDbCellStyleMap
  3
ObjectDBX Classes
 90
     1152
 91
        1
280
     0
281
     0
  0
CLASS
  1
EXACXREFPANELOBJECT
  2
ExAcXREFPanelObject
  3
EXAC_ESW
 90
     1025
 91
        0
280
     1
281
     0
  0
CLASS
  1
NPOCOLLECTION
  2
AcDbImpNonPersistentObjectsCollection
  3
ObjectDBX Classes
 90
     1153
 91
        0
280
     0
281
     0
  0
CLASS
  1
LAYER_INDEX
  2
AcDbLayerIndex
  3
ObjectDBX Classes
 90
        0
 91
        0
280
     0
281
     0
  0
CLASS
  1
SPATIAL_INDEX
  2
AcDbSpatialIndex
  3
ObjectDBX Classes
 90
        0
 91
        0
280
     0
281
     0
  0
CLASS
  1
IDBUFFER
  2
AcDbIdBuffer
  3
ObjectDBX Classes
 90
        0
 91
        0
280
     0
281
     0
  0
CLASS
  1
ACDBSECTIONVIEWSTYLE
  2
AcDbSectionViewStyle
  3
ObjectDBX Classes
 90
     1025
 91
        0
280
     0
281
     0
  0
CLASS
  1
ACDBDETAILVIEWSTYLE
  2
AcDbDetailViewStyle
  3
ObjectDBX Classes
 90
     1025
 91
        0
280
     0
281
     0
  0
ENDSEC
  0
SECTION
  2
TABLES
  0
TABLE
  2
VPORT
  5
28
330
0
100
AcDbSymbolTable
 70
     1
  0
VPORT
  5
29
330
28
100
AcDbSymbolTableRecord
100
AcDbViewportTableRecord
  2
*Active
 70
     0
 10
0.0
 20
0.0
 11
1.0
 21
1.0
 12
432.9180103893145
 22
260.7324111652852
 13
0.0
 23
0.0
 14
10.0
 24
10.0
 15
10.0
 25
10.0
 16
0.0
 26
0.0
 36
1.0
 17
0.0
 27
0.0
 37
0.0
 40
47.9856367793891
 41
1.78062678062678
 42
50.0
 43
0.0
 44
0.0
 50
0.0
 51
0.0
 71
     0
 72
  1000
 73
     1
 74
     3
 75
     0
 76
     1
 77
     0
 78
     0
281
     0
 65
     1
110
0.0
120
0.0
130
0.0
111
1.0
121
0.0
131
0.0
112
0.0
122
1.0
132
0.0
 79
     0
146
0.0
348
2A
 60
     3
 61
     5
292
     1
282
     1
141
0.0
142
0.0
 63
   250
421
  3355443
1001
ACAD_NAV_VCDISPLAY
1070
     3
  0
ENDTAB
  0
TABLE
  2
LTYPE
  5
23
330
0
100
AcDbSymbolTable
 70
     1
  0
LTYPE
  5
24
330
23
100
AcDbSymbolTableRecord
100
AcDbLinetypeTableRecord
  2
ByBlock
 70
     0
  3

 72
    65
 73
     0
 40
0.0
  0
LTYPE
  5
25
330
23
100
AcDbSymbolTableRecord
100
AcDbLinetypeTableRecord
  2
ByLayer
 70
     0
  3

 72
    65
 73
     0
 40
0.0
  0
LTYPE
  5
13
330
23
100
AcDbSymbolTableRecord
100
AcDbLinetypeTableRecord
  2
Continuous
 70
     0
  3
Solid line
 72
    65
 73
     0
 40
0.0
  0
ENDTAB
  0
TABLE
  2
LAYER
  5
1D
102
{ACAD_XDICTIONARY
360
1E
102
}
330
0
100
AcDbSymbolTable
 70
     1
  0
LAYER
  5
5
102
{ACAD_XDICTIONARY
360
6
102
}
330
1D
100
AcDbSymbolTableRecord
100
AcDbLayerTableRecord
  2
0
 70
     0
 62
     7
  6
Continuous
370
    -3
390
7
347
A
348
0
  0
ENDTAB
  0
TABLE
  2
STYLE
  5
20
330
0
100
AcDbSymbolTable
 70
     1
  0
STYLE
  5
21
330
20
100
AcDbSymbolTableRecord
100
AcDbTextStyleTableRecord
  2
Standard
 70
     0
 40
0.0
 41
1.0
 50
0.0
 71
     0
 42
2.5
  3
arial.ttf
  4

1001
ACAD
1000
Arial
1071
       34
  0
ENDTAB
  0
TABLE
  2
VIEW
  5
26
330
0
100
AcDbSymbolTable
 70
     0
  0
ENDTAB
  0
TABLE
  2
UCS
  5
27
330
0
100
AcDbSymbolTable
 70
     0
  0
ENDTAB
  0
TABLE
  2
APPID
  5
2D
330
0
100
AcDbSymbolTable
 70
     6
  0
APPID
  5
12
330
2D
100
AcDbSymbolTableRecord
100
AcDbRegAppTableRecord
  2
ACAD
 70
     0
  0
APPID
  5
18
330
2D
100
AcDbSymbolTableRecord
100
AcDbRegAppTableRecord
  2
ACAD_PSEXT
 70
     0
  0
APPID
  5
31
330
2D
100
AcDbSymbolTableRecord
100
AcDbRegAppTableRecord
  2
AcadAnnotative
 70
     0
  0
APPID
  5
32
330
2D
100
AcDbSymbolTableRecord
100
AcDbRegAppTableRecord
  2
ACAD_DSTYLE_DIMJAG
 70
     0
  0
APPID
  5
33
330
2D
100
AcDbSymbolTableRecord
100
AcDbRegAppTableRecord
  2
ACAD_DSTYLE_DIMTALN
 70
     0
  0
APPID
  5
2C
330
2D
100
AcDbSymbolTableRecord
100
AcDbRegAppTableRecord
  2
ACAD_NAV_VCDISPLAY
 70
     0
  0
ENDTAB
  0
TABLE
  2
DIMSTYLE
  5
2E
330
0
100
AcDbSymbolTable
 70
     2
100
AcDbDimStyleTable
 71
     2
340
2F
340
30
  0
DIMSTYLE
105
30
330
2E
100
AcDbSymbolTableRecord
100
AcDbDimStyleTableRecord
  2
Annotative
 70
     0
 40
0.0
 41
2.5
 42
0.625
 43
3.75
 44
1.25
 73
     0
 74
     0
 77
     1
 78
     8
140
2.5
141
2.5
143
0.03937007874016
147
0.625
171
     3
172
     1
271
     2
272
     2
274
     3
278
    44
283
     0
284
     8
340
21
1001
AcadAnnotative
1000
AnnotativeData
1002
{
1070
     1
1070
     1
1002
}
1001
ACAD_DSTYLE_DIMJAG
1070
   388
1040
1.5
1001
ACAD_DSTYLE_DIMTALN
1070
   392
1070
     0
  0
DIMSTYLE
105
2F
330
2E
100
AcDbSymbolTableRecord
100
AcDbDimStyleTableRecord
  2
ISO-25
 70
     0
 41
2.5
 42
0.625
 43
3.75
 44
1.25
 73
     0
 74
     0
 77
     1
 78
     8
140
2.5
141
2.5
143
0.03937007874016
147
0.625
171
     3
172
     1
271
     2
272
     2
274
     3
278
    44
283
     0
284
     8
340
21
  0
ENDTAB
  0
TABLE
  2
BLOCK_RECORD
  5
1
330
0
100
AcDbSymbolTable
 70
     0
  0
BLOCK_RECORD
  5
2
102
{ACAD_XDICTIONARY
360
3
102
}
330
1
100
AcDbSymbolTableRecord
100
AcDbBlockTableRecord
  2
*Model_Space
340
15
 70
     0
280
     1
281
     0
  0
BLOCK_RECORD
  5
19
330
1
100
AcDbSymbolTableRecord
100
AcDbBlockTableRecord
  2
*Paper_Space
340
1C
 70
     0
280
     1
281
     0
  0
ENDTAB
  0
ENDSEC
  0
SECTION
  2
BLOCKS
  0
BLOCK
  5
4
330
2
100
AcDbEntity
  8
0
100
AcDbBlockBegin
  2
*Model_Space
 70
     0
 10
0.0
 20
0.0
 30
0.0
  3
*Model_Space
  1

  0
ENDBLK
  5
14
330
2
100
AcDbEntity
  8
0
100
AcDbBlockEnd
  0
BLOCK
  5
1A
330
19
100
AcDbEntity
 67
     1
  8
0
100
AcDbBlockBegin
  2
*Paper_Space
 70
     0
 10
0.0
 20
0.0
 30
0.0
  3
*Paper_Space
  1

  0
ENDBLK
  5
1B
330
19
100
AcDbEntity
 67
     1
  8
0
100
AcDbBlockEnd
  0
ENDSEC
  0
SECTION
  2
ENTITIES
  0
LINE
  5
64
330
2
100
AcDbEntity
  8
0
100
AcDbLine
 10
418.630374512022
 20
263.8957131732109
 30
0.0
 11
418.6657845291578
 21
263.8780081646932
 31
0.0
  0
LINE
  5
65
330
2
100
AcDbEntity
  8
0
100
AcDbLine
 10
418.7300980228753
 20
263.74771850178
 30
0.0
 11
430.5288675041434
 21
257.8483337611459
 31
0.0
  0
LINE
  5
66
330
2
100
AcDbEntity
  8
0
100
AcDbLine
 10
433.4459799796122
 20
259.4111464359791
 30
0.0
 11
433.4459799796122
 21
260.3702091958382
 31
0.0
  0
LINE
  5
67
330
2
100
AcDbEntity
  8
0
100
AcDbLine
 10
430.7022853956124
 20
257.8483336621919
 30
0.0
 11
433.3874593700891
 21
259.1909206494301
 31
0.0
  0
LINE
  5
68
330
2
100
AcDbEntity
  8
0
100
AcDbLine
 10
435.2018460656294
 20
259.1272315473877
 30
0.0
 11
435.2372564784813
 21
259.1095263409618
 31
0.0
  0
LINE
  5
69
330
2
100
AcDbEntity
  8
0
100
AcDbLine
 10
432.7243167946124
 20
257.7871234185205
 30
0.0
 11
450.670345027824
 21
248.8141093019148
 31
0.0
  0
LINE
  5
6A
330
2
100
AcDbEntity
  8
0
100
AcDbLine
 10
432.629677260588
 20
258.8120296188172
 30
0.0
 11
432.629677260588
 21
257.9892897428689
 31
0.0
  0
LINE
  5
6B
330
2
100
AcDbEntity
  8
0
100
AcDbLine
 10
453.3249257035735
 20
250.0656917284657
 30
0.0
 11
453.3603357207093
 21
250.0479867198477
 31
0.0
  0
SPLINE
  5
6C
330
2
100
AcDbEntity
  8
0
100
AcDbSpline
210
0.0
220
0.0
230
1.0
 70
     8
 71
     3
 72
    17
 73
    13
 74
     0
 42
0.000000001
 43
0.0000000001
 40
0.0
 40
0.0
 40
0.0
 40
0.0
 40
0.0596117984224757
 40
0.1481302177817946
 40
0.2463240586171572
 40
0.3571147556384651
 40
0.4704662919136137
 40
0.5831273975237701
 40
0.6968099992829645
 40
0.8137393618834726
 40
0.9130387119334724
 40
1.0
 40
1.0
 40
1.0
 40
1.0
 10
430.0031044952866
 20
259.5111354433138
 30
0.0
 10
430.0031876548399
 20
259.4989646240168
 30
0.0
 10
430.003394299214
 20
259.4687211795856
 30
0.0
 10
430.0337167022561
 20
259.4259583410052
 30
0.0
 10
430.0847758911022
 20
259.3874874584821
 30
0.0
 10
430.1592428728487
 20
259.3593653380701
 30
0.0
 10
430.2499501099666
 20
259.3460443016769
 30
0.0
 10
430.3445173081182
 20
259.35010631962
 30
0.0
 10
430.4320623160435
 20
259.3715421467491
 30
0.0
 10
430.4983129203164
 20
259.407631094636
 30
0.0
 10
430.5422721756688
 20
259.4550185480841
 30
0.0
 10
430.5479731464857
 20
259.4926730327564
 30
0.0
 10
430.5506348133333
 20
259.5102531426588
 30
0.0
  0
LINE
  5
6D
330
2
100
AcDbEntity
  8
0
100
AcDbLine
 10
430.0001749427277
 20
259.6578174298958
 30
0.0
 11
430.0001749427277
 21
259.5110757776099
 31
0.0
  0
LINE
  5
6E
330
2
100
AcDbEntity
  8
0
100
AcDbLine
 10
430.5510326668009
 20
259.5110757776099
 30
0.0
 11
430.5510326668009
 21
259.657891748209
 31
0.0
  0
SPLINE
  5
6F
330
2
100
AcDbEntity
  8
0
100
AcDbSpline
210
0.0
220
0.0
230
1.0
 70
     8
 71
     3
 72
    12
 73
     8
 74
     0
 42
0.000000001
 43
0.0000000001
 40
0.0
 40
0.0
 40
0.0
 40
0.0
 40
0.1272794916844886
 40
0.3798274128076568
 40
0.643268858136638
 40
0.844983226299117
 40
1.0
 40
1.0
 40
1.0
 40
1.0
 10
431.0200425858101
 20
259.0037561116651
 30
0.0
 10
431.0342831730915
 20
259.0033756899241
 30
0.0
 10
431.0767799284788
 20
259.0022404355027
 30
0.0
 10
431.1446591819599
 20
259.0198972860951
 30
0.0
 10
431.2033858908741
 20
259.0520912419831
 30
0.0
 10
431.2391980189601
 20
259.0950657167113
 30
0.0
 10
431.2422129431783
 20
259.1261624224957
 30
0.0
 10
431.2435230722093
 20
259.1396754311393
 30
0.0
  0
SPLINE
  5
70
330
2
100
AcDbEntity
  8
0
100
AcDbSpline
210
0.0
220
0.0
230
1.0
 70
     8
 71
     3
 72
    13
 73
     9
 74
     0
 42
0.000000001
 43
0.0000000001
 40
0.0
 40
0.0
 40
0.0
 40
0.0
 40
0.0505947631595639
 40
0.2245191057182266
 40
0.4028285110193155
 40
0.6276710582189006
 40
0.8775652263023195
 40
1.0
 40
1.0
 40
1.0
 40
1.0
 10
430.7960882632758
 20
259.1400791194261
 30
0.0
 10
430.7954077219519
 20
259.1357029411889
 30
0.0
 10
430.7923877546685
 20
259.1162832312643
 30
0.0
 10
430.8092891511864
 20
259.0825770409306
 30
0.0
 10
430.8439885727619
 20
259.0461048839522
 30
0.0
 10
430.9005717517
 20
259.0179963799876
 30
0.0
 10
430.9642375593725
 20
259.0018816705748
 30
0.0
 10
431.0062330125344
 20
259.0032922604095
 30
0.0
 10
431.0200425858101
 20
259.0037561116651
 30
0.0
  0
LINE
  5
71
330
2
100
AcDbEntity
  8
0
100
AcDbLine
 10
430.7938726308214
 20
259.280541234574
 30
0.0
 11
430.7938726308214
 21
259.1392658490407
 31
0.0
  0
LINE
  5
72
330
2
100
AcDbEntity
  8
0
100
AcDbLine
 10
431.244574297168
 20
259.1392657831381
 30
0.0
 11
431.244574297168
 21
259.2806080550131
 31
0.0
  0
SPLINE
  5
73
330
2
100
AcDbEntity
  8
0
100
AcDbSpline
210
0.0
220
0.0
230
1.0
 70
     8
 71
     3
 72
    10
 73
     6
 74
     0
 42
0.000000001
 43
0.0000000001
 40
0.0
 40
0.0
 40
0.0
 40
0.0
 40
0.2870693959823811
 40
0.6274668076944718
 40
1.0
 40
1.0
 40
1.0
 40
1.0
 10
428.4157840463341
 20
259.7223324245672
 30
0.0
 10
428.4174337815855
 20
259.7110054033402
 30
0.0
 10
428.4210397184292
 20
259.6862471743214
 30
0.0
 10
428.4468300937562
 20
259.6548535597242
 30
0.0
 10
428.47218298876
 20
259.6397183469627
 30
0.0
 10
428.4854308348432
 20
259.6318096261215
 30
0.0
  0
LINE
  5
74
330
2
100
AcDbEntity
  8
0
100
AcDbLine
 10
428.4110346041416
 20
259.8236927658401
 30
0.0
 11
428.4137847533115
 21
259.7272112345343
 31
0.0
  0
LINE
  5
75
330
2
100
AcDbEntity
  8
0
100
AcDbLine
 10
428.4854308348347
 20
259.6318096261636
 30
0.0
 11
430.4904417117965
 21
258.6307919016808
 31
0.0
  0
SPLINE
  5
76
330
2
100
AcDbEntity
  8
0
100
AcDbSpline
210
0.0
220
0.0
230
1.0
 70
     8
 71
     3
 72
    11
 73
     7
 74
     0
 42
0.000000001
 43
0.0000000001
 40
0.0
 40
0.0
 40
0.0
 40
0.0
 40
0.2714848298253029
 40
0.6444410714411038
 40
0.9622613526101206
 40
1.0
 40
1.0
 40
1.0
 40
1.0
 10
431.6409154031581
 20
259.1006526418561
 30
0.0
 10
431.6517558339719
 20
259.106831576069
 30
0.0
 10
431.6774884646055
 20
259.1214989112089
 30
0.0
 10
431.7029199753648
 20
259.1534756026974
 30
0.0
 10
431.7156758622417
 20
259.1854547886455
 30
0.0
 10
431.7118966109969
 20
259.2002993872241
 30
0.0
 10
431.7114954852799
 20
259.2018749771655
 30
0.0
  0
LINE
  5
77
330
2
100
AcDbEntity
  8
0
100
AcDbLine
 10
431.7125618804085
 20
259.1960540523152
 30
0.0
 11
431.7153118976729
 21
259.2925356496238
 31
0.0
  0
LINE
  5
78
330
2
100
AcDbEntity
  8
0
100
AcDbLine
 10
430.7028721907065
 20
258.6307919016808
 30
0.0
 11
431.6409154031689
 21
259.1006526418525
 31
0.0
  0
SPLINE
  5
79
330
2
100
AcDbEntity
  8
0
100
AcDbSpline
210
0.0
220
0.0
230
1.0
 70
     8
 71
     3
 72
     9
 73
     5
 74
     0
 42
0.000000001
 43
0.0000000001
 40
0.0
 40
0.0
 40
0.0
 40
0.0
 40
0.2754253344295287
 40
1.0
 40
1.0
 40
1.0
 40
1.0
 10
423.3449453858145
 20
263.2864022599761
 30
0.0
 10
423.3644886706363
 20
263.3023197259686
 30
0.0
 10
423.435445414185
 20
263.3601120348185
 30
0.0
 10
423.4680896147129
 20
263.4305069074374
 30
0.0
 10
423.4917427753932
 20
263.4815132487231
 30
0.0
  0
SPLINE
  5
7A
330
2
100
AcDbEntity
  8
0
100
AcDbSpline
210
0.0
220
0.0
230
1.0
 70
     8
 71
     3
 72
     9
 73
     5
 74
     0
 42
0.000000001
 43
0.0000000001
 40
0.0
 40
0.0
 40
0.0
 40
0.0
 40
0.4970062626103133
 40
1.0
 40
1.0
 40
1.0
 40
1.0
 10
423.1247070888728
 20
263.1328281768375
 30
0.0
 10
423.1592828307019
 20
263.1511009555002
 30
0.0
 10
423.2288508511278
 20
263.1878666464733
 30
0.0
 10
423.2856998713615
 20
263.2310387837814
 30
0.0
 10
423.3142945725159
 20
263.2527540984771
 30
0.0
  0
SPLINE
  5
7B
330
2
100
AcDbEntity
  8
0
100
AcDbSpline
210
0.0
220
0.0
230
1.0
 70
     8
 71
     3
 72
    15
 73
    11
 74
     0
 42
0.000000001
 43
0.0000000001
 40
0.0
 40
0.0
 40
0.0
 40
0.0
 40
0.0844987080901367
 40
0.2065018650566221
 40
0.3226515311463077
 40
0.4347822749834078
 40
0.5554809015078043
 40
0.689266423538712
 40
0.8370743694132761
 40
1.0
 40
1.0
 40
1.0
 40
1.0
 10
421.5129529471826
 20
263.1630834928179
 30
0.0
 10
421.5498604781991
 20
263.1423709158426
 30
0.0
 10
421.6400568156561
 20
263.0917525588028
 30
0.0
 10
421.8078100375
 20
263.0357615140237
 30
0.0
 10
422.0007207746602
 20
262.9919061239282
 30
0.0
 10
422.2024584476231
 20
262.9684076851757
 30
0.0
 10
422.4186378394623
 20
262.9642592072358
 30
0.0
 10
422.6532961393472
 20
262.9854553528778
 30
0.0
 10
422.9020873212027
 20
263.0370561854213
 30
0.0
 10
423.0481320630125
 20
263.0998852679657
 30
0.0
 10
423.1247070888728
 20
263.1328281768375
 30
0.0
  0
SPLINE
  5
7C
330
2
100
AcDbEntity
  8
0
100
AcDbSpline
210
0.0
220
0.0
230
1.0
 70
     8
 71
     3
 72
     9
 73
     5
 74
     0
 42
0.000000001
 43
0.0000000001
 40
0.0
 40
0.0
 40
0.0
 40
0.0
 40
0.7713738917207232
 40
1.0
 40
1.0
 40
1.0
 40
1.0
 10
421.1956405060616
 20
263.4815048062085
 30
0.0
 10
421.2204900502905
 20
263.4272741683572
 30
0.0
 10
421.2527047058495
 20
263.3569702101431
 30
0.0
 10
421.3253497105628
 20
263.3000021213888
 30
0.0
 10
421.3419582552763
 20
263.2869777289609
 30
0.0
  0
SPLINE
  5
7D
330
2
100
AcDbEntity
  8
0
100
AcDbSpline
210
0.0
220
0.0
230
1.0
 70
     8
 71
     3
 72
     9
 73
     5
 74
     0
 42
0.000000001
 43
0.0000000001
 40
0.0
 40
0.0
 40
0.0
 40
0.0
 40
0.4287884015428116
 40
1.0
 40
1.0
 40
1.0
 40
1.0
 10
425.4158995082731
 20
262.1772437822813
 30
0.0
 10
425.4554237889169
 20
262.2082128611241
 30
0.0
 10
425.5476004441193
 20
262.2804374799134
 30
0.0
 10
425.5913672026076
 20
262.368746508864
 30
0.0
 10
425.6163672826828
 20
262.419189650449
 30
0.0
  0
SPLINE
  5
7E
330
2
100
AcDbEntity
  8
0
100
AcDbSpline
210
0.0
220
0.0
230
1.0
 70
     8
 71
     3
 72
     9
 73
     5
 74
     0
 42
0.000000001
 43
0.0000000001
 40
0.0
 40
0.0
 40
0.0
 40
0.0
 40
0.4969560333871354
 40
1.0
 40
1.0
 40
1.0
 40
1.0
 10
425.2495497824008
 20
262.0706145979721
 30
0.0
 10
425.2844145129454
 20
262.0890541523319
 30
0.0
 10
425.3545710825455
 20
262.126159153823
 30
0.0
 10
425.4118104821638
 20
262.1697788870589
 30
0.0
 10
425.4406044167944
 20
262.1917215306885
 30
0.0
  0
SPLINE
  5
7F
330
2
100
AcDbEntity
  8
0
100
AcDbSpline
210
0.0
220
0.0
230
1.0
 70
     8
 71
     3
 72
    15
 73
    11
 74
     0
 42
0.000000001
 43
0.0000000001
 40
0.0
 40
0.0
 40
0.0
 40
0.0
 40
0.102498584989069
 40
0.2219108912762096
 40
0.3358650149534688
 40
0.4461271341551238
 40
0.5646877432965165
 40
0.6958779429386994
 40
0.8406219531903468
 40
1.0
 40
1.0
 40
1.0
 40
1.0
 10
423.6067931439107
 20
262.1171751655518
 30
0.0
 10
423.652316147785
 20
262.0912223471688
 30
0.0
 10
423.7508740972866
 20
262.0350341270183
 30
0.0
 10
423.92848667032
 20
261.9744014706236
 30
0.0
 10
424.1220592973142
 20
261.9301646305296
 30
0.0
 10
424.3246602169909
 20
261.9062214960599
 30
0.0
 10
424.5418588128837
 20
261.9018739911794
 30
0.0
 10
424.7773085134972
 20
261.923032572737
 30
0.0
 10
425.0266143065231
 20
261.9746960636368
 30
0.0
 10
425.172892064439
 20
262.0376321050587
 30
0.0
 10
425.2495503100581
 20
262.0706143341435
 30
0.0
  0
LINE
  5
80
330
2
100
AcDbEntity
  8
0
100
AcDbLine
 10
423.5749305659296
 20
262.1340420067097
 30
0.0
 11
423.6067931439188
 21
262.1171751655147
 31
0.0
  0
SPLINE
  5
81
330
2
100
AcDbEntity
  8
0
100
AcDbSpline
210
0.0
220
0.0
230
1.0
 70
     8
 71
     3
 72
     9
 73
     5
 74
     0
 42
0.000000001
 43
0.0000000001
 40
0.0
 40
0.0
 40
0.0
 40
0.0
 40
0.7714189881229088
 40
1.0
 40
1.0
 40
1.0
 40
1.0
 10
423.3202705537514
 20
262.4191860887632
 30
0.0
 10
423.345060581506
 20
262.3650411065044
 30
0.0
 10
423.3771962018836
 20
262.2948522945975
 30
0.0
 10
423.449634533054
 20
262.238030160934
 30
0.0
 10
423.4661925600916
 20
262.2250417001243
 30
0.0
  0
LINE
  5
82
330
2
100
AcDbEntity
  8
0
100
AcDbLine
 10
423.5330746889194
 20
262.1692739073189
 30
0.0
 11
423.5766681410261
 21
262.1329243115635
 31
0.0
  0
SPLINE
  5
83
330
2
100
AcDbEntity
  8
0
100
AcDbSpline
210
0.0
220
0.0
230
1.0
 70
     8
 71
     3
 72
    10
 73
     6
 74
     0
 42
0.000000001
 43
0.0000000001
 40
0.0
 40
0.0
 40
0.0
 40
0.0
 40
0.4545687365022061
 40
0.7798914671432207
 40
1.0
 40
1.0
 40
1.0
 40
1.0
 10
461.8382316396322
 20
253.2896517146756
 30
0.0
 10
461.8331024081633
 20
253.2914319240271
 30
0.0
 10
461.8243023224239
 20
253.2944861817696
 30
0.0
 10
461.8119268261337
 20
253.2928859215281
 30
0.0
 10
461.8065647597987
 20
253.2889765870486
 30
0.0
 10
461.8044009004216
 20
253.2873989769366
 30
0.0
  0
LINE
  5
84
330
2
100
AcDbEntity
  8
0
100
AcDbLine
 10
461.8038640092868
 20
253.2875562781292
 30
0.0
 11
461.7799685268292
 21
253.2688519603915
 31
0.0
  0
LINE
  5
85
330
2
100
AcDbEntity
  8
0
100
AcDbLine
 10
461.9465804983117
 20
253.2396184683773
 30
0.0
 11
461.8382316396311
 21
253.2896517147145
 31
0.0
  0
SPLINE
  5
86
330
2
100
AcDbEntity
  8
0
100
AcDbSpline
210
0.0
220
0.0
230
1.0
 70
     8
 71
     3
 72
    11
 73
     7
 74
     0
 42
0.000000001
 43
0.0000000001
 40
0.0
 40
0.0
 40
0.0
 40
0.0
 40
0.0610530752370464
 40
0.3569251031586071
 40
0.6338662929693104
 40
1.0
 40
1.0
 40
1.0
 40
1.0
 10
417.3429809920527
 20
275.2127577959179
 30
0.0
 10
417.3436440767075
 20
275.2131198227463
 30
0.0
 10
417.3475205654496
 20
275.2152362839166
 30
0.0
 10
417.3517634784031
 20
275.2224010348556
 30
0.0
 10
417.3550320785412
 20
275.2332577147285
 30
0.0
 10
417.35399335367
 20
275.2410756684884
 30
0.0
 10
417.3534019572564
 20
275.2455268084809
 30
0.0
  0
LINE
  5
87
330
2
100
AcDbEntity
  8
0
100
AcDbLine
 10
417.3062637043113
 20
275.1835556079893
 30
0.0
 11
417.343516036423
 21
275.2127150895697
 31
0.0
  0
LINE
  5
88
330
2
100
AcDbEntity
  8
0
100
AcDbLine
 10
417.3534019572568
 20
275.2455268084669
 30
0.0
 11
417.2936999233614
 21
275.5323925072563
 31
0.0
  0
LINE
  5
89
330
2
100
AcDbEntity
  8
0
100
AcDbLine
 10
417.2582972934274
 20
275.5796189249742
 30
0.0
 11
417.1527487113648
 21
275.6365343990086
 31
0.0
  0
SPLINE
  5
8A
330
2
100
AcDbEntity
  8
0
100
AcDbSpline
210
0.0
220
0.0
230
1.0
 70
     8
 71
     3
 72
    10
 73
     6
 74
     0
 42
0.000000001
 43
0.0000000001
 40
0.0
 40
0.0
 40
0.0
 40
0.0
 40
0.1132855646340104
 40
0.7154308686118554
 40
1.0
 40
1.0
 40
1.0
 40
1.0
 10
417.2802523166495
 20
275.5596923993842
 30
0.0
 10
417.2796353575482
 20
275.5606803754997
 30
0.0
 10
417.2757390836743
 20
275.5669197283491
 30
0.0
 10
417.2677111805046
 20
275.5738729849702
 30
0.0
 10
417.2605844438361
 20
275.5782229204424
 30
0.0
 10
417.2582972934498
 20
275.5796189249616
 30
0.0
  0
SPLINE
  5
8B
330
2
100
AcDbEntity
  8
0
100
AcDbSpline
210
0.0
220
0.0
230
1.0
 70
     8
 71
     3
 72
     9
 73
     5
 74
     0
 42
0.000000001
 43
0.0000000001
 40
0.0
 40
0.0
 40
0.0
 40
0.0
 40
0.5056642592642671
 40
1.0
 40
1.0
 40
1.0
 40
1.0
 10
417.2936999233587
 20
275.532392507219
 30
0.0
 10
417.2923614877491
 20
275.5371824961602
 30
0.0
 10
417.2897146018267
 20
275.5466551627635
 30
0.0
 10
417.2833825005999
 20
275.5553795988225
 30
0.0
 10
417.2802523166495
 20
275.5596923993842
 30
0.0
  0
LINE
  5
8C
330
2
100
AcDbEntity
  8
0
100
AcDbLine
 10
416.95419699204
 20
276.520464536416
 30
0.0
 11
416.8714075826057
 21
276.5618592411831
 31
0.0
  0
LINE
  5
8D
330
2
100
AcDbEntity
  8
0
100
AcDbLine
 10
412.3446653792648
 20
272.8337676365955
 30
0.0
 11
412.3991111562922
 21
272.8085156070001
 31
0.0
  0
LINE
  5
8E
330
2
100
AcDbEntity
  8
0
100
AcDbLine
 10
417.6059521322317
 20
273.8856724803572
 30
0.0
 11
461.8336312606619
 21
251.7718329161422
 31
0.0
  0
LINE
  5
8F
330
2
100
AcDbEntity
  8
0
100
AcDbLine
 10
461.5785669311599
 20
254.2248493335574
 30
0.0
 11
417.0676034446715
 21
276.4803310768017
 31
0.0
  0
LINE
  5
90
330
2
100
AcDbEntity
  8
0
100
AcDbLine
 10
412.662366967494
 20
274.3269633373163
 30
0.0
 11
412.6529802103559
 21
274.3249241289783
 31
0.0
  0
LINE
  5
91
330
2
100
AcDbEntity
  8
0
100
AcDbLine
 10
461.9152680028987
 20
251.1011551772503
 30
0.0
 11
462.0203095064423
 21
251.2761113221729
 31
0.0
  0
SPLINE
  5
92
330
2
100
AcDbEntity
  8
0
100
AcDbSpline
210
0.0
220
0.0
230
1.0
 70
     8
 71
     3
 72
    11
 73
     7
 74
     0
 42
0.000000001
 43
0.0000000001
 40
0.0
 40
0.0
 40
0.0
 40
0.0
 40
0.2068091205743521
 40
0.4748832436518464
 40
0.7485632115665845
 40
1.0
 40
1.0
 40
1.0
 40
1.0
 10
461.8804460597281
 20
250.9540422260147
 30
0.0
 10
461.8862409085961
 20
250.9614150675418
 30
0.0
 10
461.8995472686798
 20
250.9783448764866
 30
0.0
 10
461.9128466928155
 20
251.0111275024827
 30
0.0
 10
461.9181693684153
 20
251.0463423309692
 30
0.0
 10
461.9124912529362
 20
251.0661122578609
 30
0.0
 10
461.9097724535394
 20
251.0755785086806
 30
0.0
  0
SPLINE
  5
93
330
2
100
AcDbEntity
  8
0
100
AcDbSpline
210
0.0
220
0.0
230
1.0
 70
     8
 71
     3
 72
     9
 73
     5
 74
     0
 42
0.000000001
 43
0.0000000001
 40
0.0
 40
0.0
 40
0.0
 40
0.0
 40
0.4735532498027851
 40
1.0
 40
1.0
 40
1.0
 40
1.0
 10
462.0203095064859
 20
251.2761113222153
 30
0.0
 10
462.0227852643387
 20
251.2808670762203
 30
0.0
 10
462.0280133096619
 20
251.2909097778742
 30
0.0
 10
462.0289355696554
 20
251.3017194512665
 30
0.0
 10
462.0294210904317
 20
251.3074101686944
 30
0.0
  0
SPLINE
  5
94
330
2
100
AcDbEntity
  8
0
100
AcDbSpline
210
0.0
220
0.0
230
1.0
 70
     8
 71
     3
 72
    12
 73
     8
 74
     0
 42
0.000000001
 43
0.0000000001
 40
0.0
 40
0.0
 40
0.0
 40
0.0
 40
0.2084357189116072
 40
0.4175331649953128
 40
0.6329485057782294
 40
0.8650880217176137
 40
1.0
 40
1.0
 40
1.0
 40
1.0
 10
461.9097724535394
 20
251.0755785086806
 30
0.0
 10
461.9095341268248
 20
251.0762559626841
 30
0.0
 10
461.9090567167728
 20
251.0776130214246
 30
0.0
 10
461.9088530023043
 20
251.0828598876416
 30
0.0
 10
461.9100568483175
 20
251.0895620342748
 30
0.0
 10
461.9123937790902
 20
251.0960332765782
 30
0.0
 10
461.9144955020466
 20
251.0997785716117
 30
0.0
 10
461.9152680029253
 20
251.1011551772655
 30
0.0
  0
LINE
  5
95
330
2
100
AcDbEntity
  8
0
100
AcDbLine
 10
462.0294210904372
 20
251.3074101687347
 30
0.0
 11
462.0294210904372
 21
251.4483498297465
 31
0.0
  0
LINE
  5
96
330
2
100
AcDbEntity
  8
0
100
AcDbLine
 10
462.0294210904372
 20
251.4483498297465
 30
0.0
 11
462.0269482250972
 21
251.4697899897783
 31
0.0
  0
LINE
  5
97
330
2
100
AcDbEntity
  8
0
100
AcDbLine
 10
462.0269482250972
 20
251.4697899897783
 30
0.0
 11
461.9360513633965
 21
251.8398143474217
 31
0.0
  0
LINE
  5
98
330
2
100
AcDbEntity
  8
0
100
AcDbLine
 10
456.9380317662951
 20
248.6241857032347
 30
0.0
 11
457.066332661506
 21
248.561795978016
 31
0.0
  0
SPLINE
  5
99
330
2
100
AcDbEntity
  8
0
100
AcDbSpline
210
0.0
220
0.0
230
1.0
 70
     8
 71
     3
 72
    10
 73
     6
 74
     0
 42
0.000000001
 43
0.0000000001
 40
0.0
 40
0.0
 40
0.0
 40
0.0
 40
0.2825210759215765
 40
0.8393127391333374
 40
1.0
 40
1.0
 40
1.0
 40
1.0
 10
417.2088114937753
 20
274.5614196495306
 30
0.0
 10
417.2043042980901
 20
274.5630089876247
 30
0.0
 10
417.1909143350792
 20
274.5677305883226
 30
0.0
 10
417.1729423431769
 20
274.5630006590592
 30
0.0
 10
417.160956786947
 20
274.5574980547736
 30
0.0
 10
417.158272490397
 20
274.5562656862948
 30
0.0
  0
LINE
  5
9A
330
2
100
AcDbEntity
  8
0
100
AcDbLine
 10
417.1582724903636
 20
274.5562656863317
 30
0.0
 11
412.5962979584472
 21
272.2752784203235
 31
0.0
  0
SPLINE
  5
9B
330
2
100
AcDbEntity
  8
0
100
AcDbSpline
210
0.0
220
0.0
230
1.0
 70
     8
 71
     3
 72
    11
 73
     7
 74
     0
 42
0.000000001
 43
0.0000000001
 40
0.0
 40
0.0
 40
0.0
 40
0.0
 40
0.2389717013473636
 40
0.5586931481027655
 40
0.823795938021888
 40
1.0
 40
1.0
 40
1.0
 40
1.0
 10
412.4508236692078
 20
270.9516799294085
 30
0.0
 10
412.4486909168464
 20
270.9425556147818
 30
0.0
 10
412.4437047443239
 20
270.921223833511
 30
0.0
 10
412.447146849817
 20
270.8918970532184
 30
0.0
 10
412.4584736670128
 20
270.8685857747146
 30
0.0
 10
412.4706682549258
 20
270.8612968471629
 30
0.0
 10
412.4755372840723
 20
270.8583865396601
 30
0.0
  0
LINE
  5
9C
330
2
100
AcDbEntity
  8
0
100
AcDbLine
 10
412.4764868031228
 20
270.8567191508869
 30
0.0
 11
412.6033788537691
 21
270.7915121040112
 31
0.0
  0
SPLINE
  5
9D
330
2
100
AcDbEntity
  8
0
100
AcDbSpline
210
0.0
220
0.0
230
1.0
 70
     8
 71
     3
 72
    12
 73
     8
 74
     0
 42
0.000000001
 43
0.0000000001
 40
0.0
 40
0.0
 40
0.0
 40
0.0
 40
0.1470689703640829
 40
0.4122541895546278
 40
0.6768353044377739
 40
0.9539964613492811
 40
1.0
 40
1.0
 40
1.0
 40
1.0
 10
412.4517552479347
 20
270.9665072613776
 30
0.0
 10
412.4516490042315
 20
270.9666280717971
 30
0.0
 10
412.4513511887808
 20
270.9669667197221
 30
0.0
 10
412.4523601228679
 20
270.9645472125901
 30
0.0
 10
412.4524931140065
 20
270.959609350998
 30
0.0
 10
412.451727285687
 20
270.9547909453498
 30
0.0
 10
412.450936272492
 20
270.952067605619
 30
0.0
 10
412.4508236692078
 20
270.9516799294085
 30
0.0
  0
LINE
  5
9E
330
2
100
AcDbEntity
  8
0
100
AcDbLine
 10
412.3471229424796
 20
271.0361572389747
 30
0.0
 11
412.4521641822125
 21
270.9662421424872
 31
0.0
  0
LINE
  5
9F
330
2
100
AcDbEntity
  8
0
100
AcDbLine
 10
412.5182717103335
 20
272.164293047302
 30
0.0
 11
412.3342072142494
 21
271.2309360362771
 31
0.0
  0
SPLINE
  5
A0
330
2
100
AcDbEntity
  8
0
100
AcDbSpline
210
0.0
220
0.0
230
1.0
 70
     8
 71
     3
 72
    10
 73
     6
 74
     0
 42
0.000000001
 43
0.0000000001
 40
0.0
 40
0.0
 40
0.0
 40
0.0
 40
0.4481919838623991
 40
0.8120958986305954
 40
1.0
 40
1.0
 40
1.0
 40
1.0
 10
412.3319353862919
 20
271.0675681944318
 30
0.0
 10
412.3324739217998
 20
271.0620576605996
 30
0.0
 10
412.3334497145246
 20
271.0520729172632
 30
0.0
 10
412.3400784635536
 20
271.0415713825176
 30
0.0
 10
412.3453334808283
 20
271.0375325574764
 30
0.0
 10
412.3471229425065
 20
271.0361572389456
 30
0.0
  0
LINE
  5
A1
330
2
100
AcDbEntity
  8
0
100
AcDbLine
 10
412.3319353863236
 20
271.2085078555016
 30
0.0
 11
412.3319353863236
 21
271.0675681943896
 31
0.0
  0
LINE
  5
A2
330
2
100
AcDbEntity
  8
0
100
AcDbLine
 10
412.3342072142494
 20
271.2309360362771
 30
0.0
 11
412.3319353863236
 21
271.2085078555016
 31
0.0
  0
SPLINE
  5
A3
330
2
100
AcDbEntity
  8
0
100
AcDbSpline
210
0.0
220
0.0
230
1.0
 70
     8
 71
     3
 72
    11
 73
     7
 74
     0
 42
0.000000001
 43
0.0000000001
 40
0.0
 40
0.0
 40
0.0
 40
0.0
 40
0.2212074216664946
 40
0.5275084590655052
 40
0.836774230901179
 40
1.0
 40
1.0
 40
1.0
 40
1.0
 10
412.5962979584423
 20
272.2752784203175
 30
0.0
 10
412.588248779078
 20
272.2704245069968
 30
0.0
 10
412.5690540785966
 20
272.2588494869684
 30
0.0
 10
412.5430192237365
 20
272.2280829185353
 30
0.0
 10
412.5253399755271
 20
272.1934583539594
 30
0.0
 10
412.5200865468825
 20
272.171781485231
 30
0.0
 10
412.5182717103053
 20
272.1642930473155
 30
0.0
  0
LINE
  5
A4
330
2
100
AcDbEntity
  8
0
100
AcDbLine
 10
412.674568775654
 20
270.7559147933604
 30
0.0
 11
456.8668399975345
 21
248.6597791824201
 31
0.0
  0
LINE
  5
A5
330
2
100
AcDbEntity
  8
0
100
AcDbLine
 10
421.5019811079431
 20
265.3987030519224
 30
0.0
 11
421.5019811079431
 21
266.3422084228977
 31
0.0
  0
ARC
  5
A6
330
2
100
AcDbEntity
  8
0
100
AcDbCircle
 10
421.3570101457137
 20
265.4011518809381
 30
0.0
 40
0.1449916433061074
100
AcDbArc
 50
300.7577765207976
 51
359.0322598259003
  0
LINE
  5
A7
330
2
100
AcDbEntity
  8
0
100
AcDbLine
 10
421.3957497373819
 20
265.2588499236372
 30
0.0
 11
421.4311602822394
 21
265.2765551959657
 31
0.0
  0
LINE
  5
A8
330
2
100
AcDbEntity
  8
0
100
AcDbLine
 10
421.3957497373819
 20
265.2588499236372
 30
0.0
 11
421.3957497373819
 21
265.2371654820602
 31
0.0
  0
LINE
  5
A9
330
2
100
AcDbEntity
  8
0
100
AcDbLine
 10
418.7105757630053
 20
263.8945784948218
 30
0.0
 11
418.7105757630053
 21
263.9162629363988
 31
0.0
  0
LINE
  5
AA
330
2
100
AcDbEntity
  8
0
100
AcDbLine
 10
418.6751657458696
 20
263.898557927881
 30
0.0
 11
418.7105757630053
 21
263.9162629363988
 31
0.0
  0
LWPOLYLINE
  5
AB
330
2
100
AcDbEntity
  8
0
100
AcDbPolyline
 90
        9
 70
   128
 43
0.0
 10
418.604344656355
 20
263.9498848261284
 10
418.6057054841577
 20
263.9336436271553
 10
418.6097357296317
 20
263.9193872598562
 10
418.6162802614379
 20
263.9076637242646
 10
418.6250873871927
 20
263.8989236248696
 10
418.6358194062976
 20
263.8935025061122
 10
418.6480636908931
 20
263.8916092665469
 10
418.661349043026
 20
263.8933162433019
 10
418.6751657458696
 20
263.898557927881
  0
LINE
  5
AC
330
2
100
AcDbEntity
  8
0
100
AcDbLine
 10
418.604344656355
 20
267.7910269334351
 30
0.0
 11
418.604344656355
 21
263.9498848261284
 31
0.0
  0
LINE
  5
AD
330
2
100
AcDbEntity
  8
0
100
AcDbLine
 10
430.5624607976487
 20
257.8504670995441
 30
0.0
 11
430.615576351024
 21
257.8770248761816
 31
0.0
  0
LINE
  5
AE
330
2
100
AcDbEntity
  8
0
100
AcDbLine
 10
418.7636913162804
 20
263.7498518401782
 30
0.0
 11
418.8168068696557
 21
263.7764096169159
 31
0.0
  0
LINE
  5
AF
330
2
100
AcDbEntity
  8
0
100
AcDbLine
 10
418.8168068696557
 20
263.7764096169159
 30
0.0
 11
418.7636907886589
 21
263.8029676573641
 31
0.0
  0
LINE
  5
B0
330
2
100
AcDbEntity
  8
0
100
AcDbLine
 10
421.4488647631356
 20
265.1455546446025
 30
0.0
 11
418.7636907886589
 21
263.8029676573641
 31
0.0
  0
LINE
  5
B1
330
2
100
AcDbEntity
  8
0
100
AcDbLine
 10
421.5019808440322
 20
265.118996604054
 30
0.0
 11
421.4488647631356
 21
265.1455546446025
 31
0.0
  0
LINE
  5
B2
330
2
100
AcDbEntity
  8
0
100
AcDbLine
 10
421.5019808440322
 20
265.118996604054
 30
0.0
 11
421.5550963974074
 21
265.1455543807917
 31
0.0
  0
LINE
  5
B3
330
2
100
AcDbEntity
  8
0
100
AcDbLine
 10
433.3538658786756
 20
259.2461696400575
 30
0.0
 11
421.5550963974074
 21
265.1455543807917
 31
0.0
  0
LINE
  5
B4
330
2
100
AcDbEntity
  8
0
100
AcDbLine
 10
433.3007503254005
 20
259.21961186342
 30
0.0
 11
433.3538658786756
 21
259.2461696400575
 31
0.0
  0
LINE
  5
B5
330
2
100
AcDbEntity
  8
0
100
AcDbLine
 10
433.3007503254005
 20
259.21961186342
 30
0.0
 11
433.3538660106811
 21
259.1930540207796
 31
0.0
  0
LINE
  5
B6
330
2
100
AcDbEntity
  8
0
100
AcDbLine
 10
430.615576351024
 20
257.8770248761816
 30
0.0
 11
430.6686920362044
 21
257.8504670336415
 31
0.0
  0
LINE
  5
B7
330
2
100
AcDbEntity
  8
0
100
AcDbLine
 10
431.6991370948784
 20
259.318231317562
 30
0.0
 11
429.7161505454317
 21
260.3097245922853
 31
0.0
  0
ARC
  5
B8
330
2
100
AcDbEntity
  8
0
100
AcDbCircle
 10
429.5390983661932
 20
259.91014621657
 30
0.0
 40
0.4370473115291452
100
AcDbArc
 50
66.10198770379854
 51
113.8980549848992
  0
LINE
  5
B9
330
2
100
AcDbEntity
  8
0
100
AcDbLine
 10
429.362045889191
 20
260.3097244603799
 30
0.0
 11
428.4413735720768
 21
259.8493883018729
 31
0.0
  0
LWPOLYLINE
  5
BA
330
2
100
AcDbEntity
  8
0
100
AcDbPolyline
 90
        9
 70
   128
 43
0.0
 10
428.4413735720768
 20
259.8493883018729
 10
428.4102346759572
 20
259.8304167842061
 10
428.3870958538162
 20
259.8087722872227
 10
428.3728475274367
 20
259.7852865306063
 10
428.3680358217329
 20
259.7608620718351
 10
428.3728472636259
 20
259.7364377450692
 10
428.3870955900054
 20
259.7129519883528
 10
428.4102341482355
 20
259.6913076233748
 10
428.4278126849807
 20
259.6805979993908
  0
LINE
  5
BB
330
2
100
AcDbEntity
  8
0
100
AcDbLine
 10
431.6820209517214
 20
259.1326207860077
 30
0.0
 11
431.6991370948784
 21
259.1411788575863
 31
0.0
  0
LWPOLYLINE
  5
BC
330
2
100
AcDbEntity
  8
0
100
AcDbPolyline
 90
        9
 70
   128
 43
0.0
 10
431.6991370948784
 20
259.1411788575863
 10
431.7302762549091
 20
259.1601505071585
 10
431.7534145492282
 20
259.1817950041419
 10
431.7676634034294
 20
259.2052807607582
 10
431.7724744495063
 20
259.2297050216215
 10
431.7676634034294
 20
259.25412941439
 10
431.7534146812337
 20
259.2776151051037
 10
431.7302762549091
 20
259.2992596679898
 10
431.6991370948784
 20
259.318231317562
  0
LINE
  5
BD
330
2
100
AcDbEntity
  8
0
100
AcDbLine
 10
423.6829438346982
 20
264.0211107595831
 30
0.0
 11
425.8075717717418
 21
262.9587967910612
 31
0.0
  0
ARC
  5
BE
330
2
100
AcDbEntity
  8
0
100
AcDbCircle
 10
422.3525534411009
 20
260.8620328395165
 30
0.0
 40
3.438877691383335
100
AcDbArc
 50
72.38406261509929
 51
108.7997776472007
  0
LINE
  5
BF
330
2
100
AcDbEntity
  8
0
100
AcDbLine
 10
423.1432289107141
 20
261.6266253605975
 30
0.0
 11
421.0186009736705
 21
262.6889393291193
 31
0.0
  0
LWPOLYLINE
  5
C0
330
2
100
AcDbEntity
  8
0
100
AcDbPolyline
 90
       24
 70
   128
 43
0.0
 10
425.8075717717418
 20
262.9587967910612
 10
425.9765613663728
 20
262.8618941354669
 10
426.1175869780092
 20
262.7543886048442
 10
426.2280216655159
 20
262.6382830539289
 10
426.3058083573416
 20
262.5157402174894
 10
426.3494986345046
 20
262.3890424765826
 10
426.3582772667952
 20
262.2605503056564
 10
426.331981471862
 20
262.1326575531218
 10
426.2711011795234
 20
262.0077461956058
 10
426.1767705888224
 20
261.8881430691814
 10
426.050746534142
 20
261.7760763380903
 10
425.8953770901236
 20
261.6736334141232
 10
425.7135556645902
 20
261.5827227013566
 10
425.5086698167562
 20
261.5050379793975
 10
425.284536618485
 20
261.4420260839626
 10
425.0453301017253
 20
261.3948606567067
 10
424.7955071227823
 20
261.3644203786321
 10
424.5397216178133
 20
261.3512724811154
 10
424.2827378034822
 20
261.3556620611715
 10
424.0293420579578
 20
261.3775070678477
 10
423.7842563849786
 20
261.4164004137105
 10
423.5520450193376
 20
261.4716176255584
 10
423.337034221903
 20
261.5421305632821
 10
423.1432289107141
 20
261.6266253605975
  0
ARC
  5
C1
330
2
100
AcDbEntity
  8
0
100
AcDbCircle
 10
421.5044765813839
 20
265.2390010002537
 30
0.0
 40
0.1087423363758078
100
AcDbArc
 50
180.9671710581
 51
239.2422664431012
  0
ARC
  5
C2
330
2
100
AcDbEntity
  8
0
100
AcDbCircle
 10
418.8193026069073
 20
263.8964140130152
 30
0.0
 40
0.1087423363756114
100
AcDbArc
 50
180.9671710581
 51
239.2422664431012
  0
ARC
  5
C3
330
2
100
AcDbEntity
  8
0
100
AcDbCircle
 10
421.4994833192975
 20
265.2390023983304
 30
0.0
 40
0.1087444088038834
100
AcDbArc
 50
300.7578561810007
 51
359.0321801656996
  0
ARC
  5
C4
330
2
100
AcDbEntity
  8
0
100
AcDbCircle
 10
433.2982528005657
 20
259.3396176576963
 30
0.0
 40
0.1087444088036201
100
AcDbArc
 50
300.7578561810007
 51
359.0321801658005
  0
LINE
  5
C5
330
2
100
AcDbEntity
  8
0
100
AcDbLine
 10
433.4069816958616
 20
259.3377808733314
 30
0.0
 11
433.4069816958616
 21
259.4462027579131
 31
0.0
  0
LINE
  5
C6
330
2
100
AcDbEntity
  8
0
100
AcDbLine
 10
421.6082122144933
 20
265.2371656139655
 30
0.0
 11
421.6082122144933
 21
265.3455874985472
 31
0.0
  0
LINE
  5
C7
330
2
100
AcDbEntity
  8
0
100
AcDbLine
 10
421.5912153219088
 20
265.3540859448895
 30
0.0
 11
421.6082122144933
 21
265.3455874985472
 31
0.0
  0
LINE
  5
C8
330
2
100
AcDbEntity
  8
0
100
AcDbLine
 10
433.4239787204516
 20
259.4377042456681
 30
0.0
 11
433.4069816958616
 21
259.4462027579131
 31
0.0
  0
LINE
  5
C9
330
2
100
AcDbEntity
  8
0
100
AcDbLine
 10
421.1505168481878
 20
263.2935773374508
 30
0.0
 11
421.2991583995077
 21
263.2068518694912
 31
0.0
  0
LWPOLYLINE
  5
CA
330
2
100
AcDbEntity
  8
0
100
AcDbPolyline
 90
        9
 70
   128
 43
0.0
 10
421.0383633175502
 20
264.0123586441792
 10
420.9700127187785
 20
263.9262935391016
 10
420.9168306806868
 20
263.815532759471
 10
420.8989557665267
 20
263.7019756607844
 10
420.9168306806868
 20
263.5884185619976
 10
420.9700132465002
 20
263.4776575186564
 10
421.0571948740982
 20
263.3724205181248
 10
421.1762279989326
 20
263.2752978294399
 10
421.324183596025
 20
263.1886810588215
  0
LINE
  5
CB
330
2
100
AcDbEntity
  8
0
100
AcDbLine
 10
421.2991583995077
 20
263.2068518694912
 30
0.0
 11
421.324183596025
 21
263.1886810588215
 31
0.0
  0
LINE
  5
CC
330
2
100
AcDbEntity
  8
0
100
AcDbLine
 10
418.7105757630053
 20
263.880852919263
 30
0.0
 11
418.7115983625883
 21
263.8813642190545
 31
0.0
  0
ARC
  5
CD
330
2
100
AcDbEntity
  8
0
100
AcDbCircle
 10
418.6854187610676
 20
263.9229091054537
 30
0.0
 40
0.0490060969645566
100
AcDbArc
 50
246.3812582547003
 51
300.8868517310997
  0
LWPOLYLINE
  5
CE
330
2
100
AcDbEntity
  8
0
100
AcDbPolyline
 90
        9
 70
   128
 43
0.0
 10
418.7636913162804
 20
263.7498518401782
 10
418.753329184889
 20
263.7459209362787
 10
418.7433649069535
 20
263.7446404910312
 10
418.7341820893482
 20
263.7460607801149
 10
418.7261326792532
 20
263.7501264212997
 10
418.7195274668676
 20
263.7566816425494
 10
418.7146186721966
 20
263.7654741771859
 10
418.7115962520021
 20
263.7761663422383
 10
418.7105757630053
 20
263.7883473881715
  0
ARC
  5
CF
330
2
100
AcDbEntity
  8
0
100
AcDbCircle
 10
430.5435931288742
 20
257.8820124392947
 30
0.0
 40
0.0367572766360658
100
AcDbArc
 50
246.3831850311003
 51
300.8841804378009
  0
LINE
  5
D0
330
2
100
AcDbEntity
  8
0
100
AcDbLine
 10
418.7105757630053
 20
263.8808525715216
 30
0.0
 11
418.7105757630053
 21
263.7883473881715
 31
0.0
  0
ARC
  5
D1
330
2
100
AcDbEntity
  8
0
100
AcDbCircle
 10
424.7112150367874
 20
263.7577127849334
 30
0.0
 40
1.805601034213045
100
AcDbArc
 50
280.3138156424001
 51
302.2854892570986
  0
ARC
  5
D2
330
2
100
AcDbEntity
  8
0
100
AcDbCircle
 10
424.3162129541397
 20
263.9339238360393
 30
0.0
 40
2.004905637320415
100
AcDbArc
 50
244.3648120177991
 51
260.1144352075017
  0
LWPOLYLINE
  5
D3
330
2
100
AcDbEntity
  8
0
100
AcDbPolyline
 90
       13
 70
   128
 43
0.0
 10
424.9011451427993
 20
261.9456674639026
 10
424.9240359659069
 20
261.9492819154873
 10
425.1345110223134
 20
261.9928727293865
 10
425.3287561357725
 20
262.0523896875198
 10
425.5019888855766
 20
262.1263670902998
 10
425.6499439549474
 20
262.2129835971073
 10
425.7689778712141
 20
262.3101061537867
 10
425.8561592351015
 20
262.4153435501346
 10
425.9093423285363
 20
262.526104329665
 10
425.9272161873533
 20
262.6396614284518
 10
425.9093420646254
 20
262.7532183952332
 10
425.8561592351015
 20
262.8639793067691
 10
425.7878099554837
 20
262.950044543752
  0
LINE
  5
D4
330
2
100
AcDbEntity
  8
0
100
AcDbLine
 10
421.324183596025
 20
263.1886810588215
 30
0.0
 11
423.4488115330686
 21
262.1263670902998
 31
0.0
  0
LINE
  5
D5
330
2
100
AcDbEntity
  8
0
100
AcDbLine
 10
423.4237863366514
 20
262.1445379009695
 30
0.0
 11
423.4488115330686
 21
262.1263670902998
 31
0.0
  0
ARC
  5
D6
330
2
100
AcDbEntity
  8
0
100
AcDbCircle
 10
433.3682421041934
 20
259.3955359016481
 30
0.0
 40
0.144991643306396
100
AcDbArc
 50
300.7577765208998
 51
359.0322598259003
  0
LWPOLYLINE
  5
D7
330
2
100
AcDbEntity
  8
0
100
AcDbPolyline
 90
        9
 70
   128
 43
0.0
 10
433.4239787204516
 20
259.4377042456681
 10
433.4333205607546
 20
259.43201283657
 10
433.4402620226793
 20
259.4255194214522
 10
433.4445365074325
 20
259.4184736483154
 10
433.4459799796122
 20
259.4111464359791
 10
433.4445367712433
 20
259.4038191577401
 10
433.440262088682
 20
259.3967734175548
 10
433.4333203628465
 20
259.3902800025371
 10
433.4239785885463
 20
259.3845884944849
  0
LWPOLYLINE
  5
D8
330
2
100
AcDbEntity
  8
0
100
AcDbPolyline
 90
        9
 70
   128
 43
0.0
 10
433.4069816958616
 20
259.2315495028704
 10
433.4059611409623
 20
259.2193684898885
 10
433.4029385228596
 20
259.2086764237901
 10
433.3980301240049
 20
259.1998836912456
 10
433.3914245158029
 20
259.1933286678038
 10
433.3833755015243
 20
259.1892628287109
 10
433.3741925519135
 20
259.1878426056299
 10
433.3642284058834
 20
259.1891229849748
 10
433.3538660106811
 20
259.1930540207796
  0
ARC
  5
D9
330
2
100
AcDbEntity
  8
0
100
AcDbCircle
 10
430.6875596865503
 20
257.8820111062191
 30
0.0
 40
0.0367561796919576
100
AcDbArc
 50
239.1148304235011
 51
293.6177062954982
  0
LINE
  5
DA
330
2
100
AcDbEntity
  8
0
100
AcDbLine
 10
433.5132130663226
 20
259.3930870727326
 30
0.0
 11
433.5132130663226
 21
260.3365924437079
 31
0.0
  0
LINE
  5
DB
330
2
100
AcDbEntity
  8
0
100
AcDbLine
 10
433.4069816958616
 20
259.2532339443472
 30
0.0
 11
433.4423922406188
 21
259.2709392167759
 31
0.0
  0
LINE
  5
DC
330
2
100
AcDbEntity
  8
0
100
AcDbLine
 10
433.4069816958616
 20
259.3760900481425
 30
0.0
 11
433.4239785885463
 21
259.3845884944849
 31
0.0
  0
LINE
  5
DD
330
2
100
AcDbEntity
  8
0
100
AcDbLine
 10
433.4069816958616
 20
259.2532339443472
 30
0.0
 11
433.4069816958616
 21
259.2315495028704
 31
0.0
  0
LINE
  5
DE
330
2
100
AcDbEntity
  8
0
100
AcDbLine
 10
432.7047942709318
 20
257.9990365449955
 30
0.0
 11
432.7047942709318
 21
257.9782196879437
 31
0.0
  0
LWPOLYLINE
  5
DF
330
2
100
AcDbEntity
  8
0
100
AcDbPolyline
 90
        9
 70
   128
 43
0.0
 10
432.6693842537959
 20
258.0247004195316
 10
432.6762923414571
 20
258.0273211299658
 10
432.6829350174734
 20
258.0281744567918
 10
432.6890568959104
 20
258.0272277051038
 10
432.6944231693738
 20
258.0245172775804
 10
432.6988269960118
 20
258.0201475213899
 10
432.7020989981043
 20
258.0142854600871
 10
432.7041141208411
 20
258.007157437989
 10
432.7047942709318
 20
257.9990365449955
  0
LINE
  5
E0
330
2
100
AcDbEntity
  8
0
100
AcDbLine
 10
432.6516787176567
 20
258.015847651512
 30
0.0
 11
432.6693842537959
 21
258.0247004195316
 31
0.0
  0
LINE
  5
E1
330
2
100
AcDbEntity
  8
0
100
AcDbLine
 10
435.4035543620303
 20
259.2687296849449
 30
0.0
 11
435.4230140945455
 21
259.3816920851888
 31
0.0
  0
ARC
  5
E2
330
2
100
AcDbEntity
  8
0
100
AcDbCircle
 10
435.2964471317595
 20
259.2856822387942
 30
0.0
 40
0.1084405268721841
100
AcDbArc
 50
300.6935417191001
 51
351.0060352103994
  0
LINE
  5
E3
330
2
100
AcDbEntity
  8
0
100
AcDbLine
 10
435.2242416826032
 20
259.1286539247227
 30
0.0
 11
435.3518001642796
 21
259.1924331655108
 31
0.0
  0
LWPOLYLINE
  5
E4
330
2
100
AcDbEntity
  8
0
100
AcDbPolyline
 90
        9
 70
   128
 43
0.0
 10
435.188831137846
 20
259.154317535448
 10
435.1895115517474
 20
259.1461967743599
 10
435.1915266744843
 20
259.1390687522619
 10
435.1947989403874
 20
259.1332068228644
 10
435.1992025032147
 20
259.1288366116655
 10
435.2045685127672
 20
259.1261263753398
 10
435.210690655115
 20
259.1251797556573
 10
435.2173333311314
 20
259.1260330823832
 10
435.2242416826032
 20
259.1286539247227
  0
LINE
  5
E5
330
2
100
AcDbEntity
  8
0
100
AcDbLine
 10
435.188831137846
 20
259.2410549784527
 30
0.0
 11
435.188831137846
 21
259.154317535448
 31
0.0
  0
LWPOLYLINE
  5
E6
330
2
100
AcDbEntity
  8
0
100
AcDbPolyline
 90
        9
 70
   128
 43
0.0
 10
435.1534205930887
 20
259.2667185891779
 10
435.1603289445606
 20
259.2693394314174
 10
435.1669716205769
 20
259.2701927582434
 10
435.1730937628246
 20
259.2692461385608
 10
435.1784597723771
 20
259.2665355791321
 10
435.1828633353045
 20
259.2621656910362
 10
435.1861356012078
 20
259.2563037616388
 10
435.1881507239446
 20
259.2491757395408
 10
435.188831137846
 20
259.2410549784527
  0
LINE
  5
E7
330
2
100
AcDbEntity
  8
0
100
AcDbLine
 10
435.1180103121421
 20
259.2490134487547
 30
0.0
 11
435.1534205930887
 21
259.2667185891779
 31
0.0
  0
ARC
  5
E8
330
2
100
AcDbEntity
  8
0
100
AcDbCircle
 10
435.155086036777
 20
259.1867145736893
 30
0.0
 40
0.0724966150315028
100
AcDbArc
 50
120.7580070708992
 51
179.0320292760006
  0
LINE
  5
E9
330
2
100
AcDbEntity
  8
0
100
AcDbLine
 10
435.0825997673849
 20
259.1671224361202
 30
0.0
 11
435.0825997673849
 21
259.1879392932721
 31
0.0
  0
LINE
  5
EA
330
2
100
AcDbEntity
  8
0
100
AcDbLine
 10
435.4460469234554
 20
259.2474834042824
 30
0.0
 11
435.4627446345157
 21
259.3444115022906
 31
0.0
  0
LINE
  5
EB
330
2
100
AcDbEntity
  8
0
100
AcDbLine
 10
435.466579250996
 20
259.3599095069134
 30
0.0
 11
435.4627446345157
 21
259.3444115022906
 31
0.0
  0
ARC
  5
EC
330
2
100
AcDbEntity
  8
0
100
AcDbCircle
 10
435.3389396930843
 20
259.2644359581318
 30
0.0
 40
0.1084405268725106
100
AcDbArc
 50
300.6935417191987
 51
351.0060352103009
  0
LINE
  5
ED
330
2
100
AcDbEntity
  8
0
100
AcDbLine
 10
453.4677986429909
 20
250.1344339261551
 30
0.0
 11
435.3942927256045
 21
259.1711868848483
 31
0.0
  0
LINE
  5
EE
330
2
100
AcDbEntity
  8
0
100
AcDbLine
 10
435.2667342439281
 20
259.1074076440603
 30
0.0
 11
435.3942927256045
 21
259.1711868848483
 31
0.0
  0
LINE
  5
EF
330
2
100
AcDbEntity
  8
0
100
AcDbLine
 10
453.2765012862759
 20
250.1025241228364
 30
0.0
 11
453.3126262788626
 21
250.0844615621336
 31
0.0
  0
LINE
  5
F0
330
2
100
AcDbEntity
  8
0
100
AcDbLine
 10
450.7039383213293
 20
248.816242640313
 30
0.0
 11
453.2765012862759
 21
250.1025241228364
 31
0.0
  0
LINE
  5
F1
330
2
100
AcDbEntity
  8
0
100
AcDbLine
 10
432.7579100881178
 20
257.7892567570189
 30
0.0
 11
435.3304730530644
 21
259.0755382394421
 31
0.0
  0
LINE
  5
F2
330
2
100
AcDbEntity
  8
0
100
AcDbLine
 10
435.3304730530644
 20
259.0755382394421
 30
0.0
 11
435.2667342439281
 21
259.1074076440603
 31
0.0
  0
ARC
  5
F3
330
2
100
AcDbEntity
  8
0
100
AcDbCircle
 10
435.2582413795601
 20
259.1953688352325
 30
0.0
 40
0.0883702432813671
100
AcDbArc
 50
256.2629883905099
 51
275.5149501212079
  0
LINE
  5
F4
330
2
100
AcDbEntity
  8
0
100
AcDbLine
 10
432.8118929027649
 20
257.8596170473963
 30
0.0
 11
435.1896985402876
 21
259.048519725038
 31
0.0
  0
ARC
  5
F5
330
2
100
AcDbEntity
  8
0
100
AcDbCircle
 10
435.1913280441177
 20
259.1689588491068
 30
0.0
 40
0.1087437841437837
100
AcDbArc
 50
180.9676296860005
 51
239.2422462756988
  0
ARC
  5
F6
330
2
100
AcDbEntity
  8
0
100
AcDbCircle
 10
432.8135225477647
 20
257.9800561009303
 30
0.0
 40
0.1087437841438993
100
AcDbArc
 50
180.9676296860999
 51
239.2422462756988
  0
LINE
  5
F7
330
2
100
AcDbEntity
  8
0
100
AcDbLine
 10
435.1896985402876
 20
259.048519725038
 30
0.0
 11
435.1357154525654
 21
259.075511268849
 31
0.0
  0
LINE
  5
F8
330
2
100
AcDbEntity
  8
0
100
AcDbLine
 10
432.8118930438344
 20
257.8596169768615
 30
0.0
 11
432.7579099562123
 21
257.8866085206726
 31
0.0
  0
ARC
  5
F9
330
2
100
AcDbEntity
  8
0
100
AcDbCircle
 10
450.6850707330801
 20
248.8477867111881
 30
0.0
 40
0.0367561463139761
100
AcDbArc
 50
246.3822775413013
 51
300.885087927402
  0
LWPOLYLINE
  5
FA
330
2
100
AcDbEntity
  8
0
100
AcDbPolyline
 90
        9
 70
   128
 43
0.0
 10
432.7579100881178
 20
257.7892567570189
 10
432.7475479566261
 20
257.7853255299162
 10
432.7375836786907
 20
257.7840454077718
 10
432.7284008610854
 20
257.7854656968554
 10
432.7203514509904
 20
257.7895310149372
 10
432.7137462386047
 20
257.79608655929
 10
432.7088374439338
 20
257.8048787708234
 10
432.7058150237392
 20
257.8155712589789
 10
432.7047945347425
 20
257.827752304912
  0
LWPOLYLINE
  5
FB
330
2
100
AcDbEntity
  8
0
100
AcDbPolyline
 90
        9
 70
   128
 43
0.0
 10
432.651678849562
 20
257.9627320322341
 10
432.6423369432564
 20
257.9684234742836
 10
432.6353952174208
 20
257.9749167573958
 10
432.631121062481
 20
257.9819626294867
 10
432.629677260588
 20
257.9892897428689
 10
432.631121062481
 20
257.9966172519673
 10
432.6353954813317
 20
258.0036628602473
 10
432.6423371410644
 20
258.0101563083165
 10
432.6516787176567
 20
258.015847651512
  0
LINE
  5
FC
330
2
100
AcDbEntity
  8
0
100
AcDbLine
 10
432.7047945347425
 20
257.8928053064398
 30
0.0
 11
432.7047945347425
 21
257.827752304912
 31
0.0
  0
ARC
  5
FD
330
2
100
AcDbEntity
  8
0
100
AcDbCircle
 10
432.6323082931939
 20
257.8915806094923
 30
0.0
 40
0.0724965867761337
100
AcDbArc
 50
0.9679532660996331
 51
59.24194461850227
  0
LINE
  5
FE
330
2
100
AcDbEntity
  8
0
100
AcDbLine
 10
432.669384055988
 20
257.953879428971
 30
0.0
 11
432.651678849562
 21
257.9627320322341
 31
0.0
  0
ARC
  5
FF
330
2
100
AcDbEntity
  8
0
100
AcDbCircle
 10
453.3442939102052
 20
250.0925370897819
 30
0.0
 40
0.032681080484601
100
AcDbArc
 50
194.3060303281455
 51
244.7133040176463
  0
LINE
  5
100
330
2
100
AcDbEntity
  8
0
100
AcDbLine
 10
453.5620440171101
 20
250.189484857405
 30
0.0
 11
453.5815037495252
 21
250.3024472576488
 31
0.0
  0
LINE
  5
101
330
2
100
AcDbEntity
  8
0
100
AcDbLine
 10
453.4677986424767
 20
250.1344339258981
 30
0.0
 11
453.5102898192594
 21
250.1131883379708
 31
0.0
  0
ARC
  5
102
330
2
100
AcDbEntity
  8
0
100
AcDbCircle
 10
453.4549367867393
 20
250.2064374112542
 30
0.0
 40
0.1084405268722981
100
AcDbArc
 50
300.6935417191987
 51
351.0060352103009
  0
LINE
  5
103
330
2
100
AcDbEntity
  8
0
100
AcDbLine
 10
453.382731337583
 20
250.0494090971828
 30
0.0
 11
453.5102898192594
 21
250.1131883379708
 31
0.0
  0
ARC
  5
104
330
2
100
AcDbEntity
  8
0
100
AcDbCircle
 10
453.3701527467743
 20
250.0704386048306
 30
0.0
 40
0.0245043085483826
100
AcDbArc
 50
246.3827758581997
 51
300.8853341271986
  0
ELLIPSE
  5
105
330
2
100
AcDbEntity
  8
0
100
AcDbEllipse
 10
431.514959405553
 20
259.2939625277665
 30
0.0
 11
0.2003729062827814
 21
0.0
 31
0.0
210
0.0
220
0.0
230
1.0
 40
0.4998477299000001
 41
6.268938610606423
 42
6.454813683860358
  0
ELLIPSE
  5
106
330
2
100
AcDbEntity
  8
0
100
AcDbEllipse
 10
429.5320160692891
 20
260.1452942485873
 30
0.0
 11
0.1502339135206588
 21
0.0
 31
0.0
210
0.0
220
0.0
230
1.0
 40
0.5001523164
 41
0.7855504566447639
 42
2.356042196945029
  0
ELLIPSE
  5
107
330
2
100
AcDbEntity
  8
0
100
AcDbEllipse
 10
430.5966569512515
 20
258.6839318829874
 30
0.0
 11
0.1502339135206873
 21
0.0
 31
0.0
210
0.0
220
0.0
230
1.0
 40
0.5001523163999999
 41
3.927143110234858
 42
5.497634850534557
  0
ELLIPSE
  5
108
330
2
100
AcDbEntity
  8
0
100
AcDbEllipse
 10
428.6004229505856
 20
259.6804915316828
 30
0.0
 11
0.150279679712086
 21
0.0
 31
0.0
210
0.0
220
0.0
230
1.0
 40
0.4998477299000001
 41
2.356346783440324
 42
3.926838523739548
  0
LINE
  5
109
330
2
100
AcDbEntity
  8
0
100
AcDbLine
 10
429.4258008577874
 20
260.1984341602884
 30
0.0
 11
428.4941429879627
 21
259.733599151406
 31
0.0
  0
LINE
  5
10A
330
2
100
AcDbEntity
  8
0
100
AcDbLine
 10
431.6319302573464
 20
259.2020785679392
 30
0.0
 11
429.6382314116946
 21
260.1984341602884
 31
0.0
  0
ELLIPSE
  5
10B
330
2
100
AcDbEntity
  8
0
100
AcDbEllipse
 10
431.5256502947235
 20
259.1489709482161
 30
0.0
 11
0.150279679712086
 21
0.0
 31
0.0
210
0.0
220
0.0
230
1.0
 40
0.4998477299000001
 41
5.497939437029943
 42
7.068431177329244
  0
LWPOLYLINE
  5
10C
330
2
100
AcDbEntity
  8
0
100
AcDbPolyline
 90
       17
 70
   128
 43
0.0
 10
430.7713825632885
 20
258.9604246021319
 10
430.706396570493
 20
258.9821357157372
 10
430.6297406480702
 20
258.9897595703441
 10
430.5530847255471
 20
258.9821357157372
 10
430.4880987327516
 20
258.9604246021319
 10
430.4446767692517
 20
258.9279317376896
 10
430.4294290601379
 20
258.8896037764281
 10
430.444676505441
 20
258.8512756832612
 10
430.4880989966625
 20
258.8187828188189
 10
430.5530845936417
 20
258.7970716391108
 10
430.6297409118808
 20
258.7894478505066
 10
430.7063968343037
 20
258.7970717051135
 10
430.7713825632885
 20
258.8187826869135
 10
430.8148047905991
 20
258.8512756832612
 10
430.8300524997129
 20
258.8896036445227
 10
430.8148046586937
 20
258.9279316716869
 10
430.7713825632885
 20
258.9604246021319
  0
LWPOLYLINE
  5
10D
330
2
100
AcDbEntity
  8
0
100
AcDbPolyline
 90
       17
 70
   128
 43
0.0
 10
430.2756359918294
 20
259.2082978878114
 10
430.2106499991341
 20
259.2300090015168
 10
430.1339940766111
 20
259.2376328560235
 10
430.0573381541881
 20
259.2300090015168
 10
429.9923521613927
 20
259.2082978878114
 10
429.9489301978928
 20
259.1758050233691
 10
429.9336824887791
 20
259.1374770621076
 10
429.948929934082
 20
259.0991489689407
 10
429.9923524252035
 20
259.0666561044984
 10
430.0573378902773
 20
259.044944990793
 10
430.1339943404218
 20
259.0373211362861
 10
430.2106502629449
 20
259.044944990793
 10
430.2756359918294
 20
259.066655972593
 10
430.3190582192402
 20
259.0991489689407
 10
430.334305928354
 20
259.1374769302022
 10
430.3190579553293
 20
259.1758050233691
 10
430.2756359918294
 20
259.2082978878114
  0
LWPOLYLINE
  5
10E
330
2
100
AcDbEntity
  8
0
100
AcDbPolyline
 90
       17
 70
   128
 43
0.0
 10
429.7798894204706
 20
259.4561711734908
 10
429.714903427675
 20
259.4778822871962
 10
429.6382475052522
 20
259.4855061418032
 10
429.5615915827291
 20
259.4778822871962
 10
429.4966055899336
 20
259.4561711734908
 10
429.4531836264337
 20
259.4236783090486
 10
429.4379359173199
 20
259.385350347787
 10
429.453183362623
 20
259.3470222546201
 10
429.4966058538445
 20
259.3145293901778
 10
429.5615913189183
 20
259.2928182765726
 10
429.6382477690628
 20
259.2851944219656
 10
429.7149036914857
 20
259.2928182765726
 10
429.7798891566598
 20
259.3145293901778
 10
429.8233116477811
 20
259.3470222546201
 10
429.838559356895
 20
259.3853502158816
 10
429.8233113839704
 20
259.4236783090486
 10
429.7798894204706
 20
259.4561711734908
  0
LWPOLYLINE
  5
10F
330
2
100
AcDbEntity
  8
0
100
AcDbPolyline
 90
        9
 70
   128
 43
0.0
 10
431.1963083089436
 20
259.3145293901778
 10
431.1150760159325
 20
259.3416681174529
 10
431.0192561127787
 20
259.3511981334445
 10
430.9234359459143
 20
259.3416682493582
 10
430.8422033889923
 20
259.3145293901778
 10
430.7879259345424
 20
259.2739132436222
 10
430.7688661662698
 20
259.2260031602401
 10
430.7879259345424
 20
259.1780930767578
 10
430.7938726308214
 20
259.1714654388557
  0
LWPOLYLINE
  5
110
330
2
100
AcDbEntity
  8
0
100
AcDbPolyline
 90
        5
 70
   128
 43
0.0
 10
431.2445744290733
 20
259.171398558323
 10
431.2505860272042
 20
259.1780932086632
 10
431.2696459274825
 20
259.2260032261427
 10
431.2505860272042
 20
259.2739131117168
 10
431.1963083089436
 20
259.3145293901778
  0
LWPOLYLINE
  5
111
330
2
100
AcDbEntity
  8
0
100
AcDbPolyline
 90
        9
 70
   128
 43
0.0
 10
430.4880989966625
 20
259.7040445911758
 10
430.4026193272056
 20
259.7339713268673
 10
430.3018236170428
 20
259.7474753929368
 10
430.1978690872124
 20
259.7429279115289
 10
430.1032947188505
 20
259.7208775143607
 10
430.0295071407266
 20
259.6839837252988
 10
429.9854063462901
 20
259.6366965410678
 10
429.9763116473853
 20
259.584719408108
 10
430.000174678917
 20
259.5378089711709
  0
LWPOLYLINE
  5
112
330
2
100
AcDbEntity
  8
0
100
AcDbPolyline
 90
        5
 70
   128
 43
0.0
 10
430.5510324029902
 20
259.5377345714307
 10
430.5658656374689
 20
259.5589296364507
 10
430.5749606001845
 20
259.6109069013159
 10
430.5479524681457
 20
259.6613047564474
 10
430.4880989966625
 20
259.7040445911758
  0
LWPOLYLINE
  5
113
330
2
100
AcDbEntity
  8
0
100
AcDbPolyline
 90
       17
 70
   128
 43
0.0
 10
429.1991575943561
 20
259.7677834662146
 10
429.1179253012449
 20
259.7949221933895
 10
429.0221053981913
 20
259.8044522094813
 10
428.9262852312267
 20
259.7949223252949
 10
428.8450529382155
 20
259.7677833343092
 10
428.7907749561441
 20
259.7271671877536
 10
428.7717154515822
 20
259.6792572361767
 10
428.7907752199549
 20
259.6313471526944
 10
428.8450526743047
 20
259.590731006239
 10
428.9262852312267
 20
259.5635921470586
 10
429.0221053981913
 20
259.5540622628722
 10
429.1179250374342
 20
259.5635921470586
 10
429.1991575943561
 20
259.590731006239
 10
429.2534353126168
 20
259.6313472845998
 10
429.2724953447002
 20
259.6792572361767
 10
429.2534353126168
 20
259.7271671877536
 10
429.1991575943561
 20
259.7677834662146
  0
SPLINE
  5
114
330
2
100
AcDbEntity
  8
0
100
AcDbSpline
210
0.0
220
0.0
230
1.0
 70
     8
 71
     3
 72
    19
 73
    15
 74
     0
 42
0.000000001
 43
0.0000000001
 40
0.0
 40
0.0
 40
0.0
 40
0.0
 40
0.0833349290309415
 40
0.1666651794783744
 40
0.2500001333874339
 40
0.3333347235815637
 40
0.4166653578595778
 40
0.4999998772533713
 40
0.5833348792072268
 40
0.6666650637996768
 40
0.7500000402023752
 40
0.8333346978776976
 40
0.9166651345915171
 40
1.0
 40
1.0
 40
1.0
 40
1.0
 10
423.0358295711132
 20
263.118106399828
 30
0.0
 10
423.0916224041409
 20
263.1506070611044
 30
0.0
 10
423.2032049378792
 20
263.2156065590075
 30
0.0
 10
423.2993967829685
 20
263.3363434150217
 30
0.0
 10
423.3339523967607
 20
263.4640996890985
 30
0.0
 10
423.2999288000321
 20
263.5923162134006
 30
0.0
 10
423.2010791487055
 20
263.7116728846919
 30
0.0
 10
423.0438034941865
 20
263.8142331806371
 30
0.0
 10
422.8386833613598
 20
263.8928711745397
 30
0.0
 10
422.5999692652279
 20
263.9422952948996
 30
0.0
 10
422.3435366966665
 20
263.9593083312188
 30
0.0
 10
422.0880243949833
 20
263.94202892309
 30
0.0
 10
421.8465495899779
 20
263.8939346291144
 30
0.0
 10
421.7165513777125
 20
263.8381426460037
 30
0.0
 10
421.6515505443986
 20
263.8102459131853
 30
0.0
  0
SPLINE
  5
115
330
2
100
AcDbEntity
  8
0
100
AcDbSpline
210
0.0
220
0.0
230
1.0
 70
     8
 71
     3
 72
    19
 73
    15
 74
     0
 42
0.000000001
 43
0.0000000001
 40
0.0
 40
0.0
 40
0.0
 40
0.0
 40
0.0833347694636071
 40
0.1666653432925374
 40
0.2499999291105376
 40
0.3333348561500427
 40
0.4166651120029036
 40
0.5000001227466653
 40
0.5833346509301299
 40
0.6666653564684366
 40
0.7499998972989155
 40
0.8333347793510835
 40
0.916665166913823
 40
1.0
 40
1.0
 40
1.0
 40
1.0
 10
421.6515505443986
 20
263.8102459131853
 30
0.0
 10
421.595757200549
 20
263.7777455315578
 30
0.0
 10
421.4841733218629
 20
263.7127464045911
 30
0.0
 10
421.3879844907059
 20
263.5920091114428
 30
0.0
 10
421.3534259242867
 20
263.4642529316036
 30
0.0
 10
421.3874525791388
 20
263.3360368068114
 30
0.0
 10
421.486299981757
 20
263.2166795771647
 30
0.0
 10
421.6435767777288
 20
263.1141198224086
 30
0.0
 10
421.8486967463048
 20
263.0354815910655
 30
0.0
 10
422.0874104520488
 20
262.9860571844528
 30
0.0
 10
422.3438431816781
 20
262.9690450949807
 30
0.0
 10
422.5993557878249
 20
262.9863227769587
 30
0.0
 10
422.8408292811446
 20
263.0344188211061
 30
0.0
 10
422.9708283186194
 20
263.0902100442074
 30
0.0
 10
423.0358295711132
 20
263.118106399828
 30
0.0
  0
SPLINE
  5
116
330
2
100
AcDbEntity
  8
0
100
AcDbSpline
210
0.0
220
0.0
230
1.0
 70
     8
 71
     3
 72
    11
 73
     7
 74
     0
 42
0.000000001
 43
0.0000000001
 40
0.0
 40
0.0
 40
0.0
 40
0.0
 40
0.2802909899930726
 40
0.5589139756755778
 40
0.7800096499395188
 40
1.0
 40
1.0
 40
1.0
 40
1.0
 10
423.5222619382288
 20
263.1634374339014
 30
0.0
 10
423.4358782618278
 20
263.1114462632542
 30
0.0
 10
423.2636249760125
 20
263.0077733200492
 30
0.0
 10
423.132918513003
 20
262.8512075910109
 30
0.0
 10
423.0713384312674
 20
262.7147989322139
 30
0.0
 10
423.0937948166609
 20
262.6274176132689
 30
0.0
 10
423.1049948724582
 20
262.583836438887
 30
0.0
  0
SPLINE
  5
117
330
2
100
AcDbEntity
  8
0
100
AcDbSpline
210
0.0
220
0.0
230
1.0
 70
     8
 71
     3
 72
    11
 73
     7
 74
     0
 42
0.000000001
 43
0.0000000001
 40
0.0
 40
0.0
 40
0.0
 40
0.0
 40
0.2797745132400775
 40
0.5590702213541591
 40
0.7772074056015392
 40
1.0
 40
1.0
 40
1.0
 40
1.0
 10
424.7293257227049
 20
263.4634835785119
 30
0.0
 10
424.6060376337729
 20
263.4502430156567
 30
0.0
 10
424.3596724507143
 20
263.4237845497994
 30
0.0
 10
424.0288187178487
 20
263.3452244408384
 30
0.0
 10
423.7432641315454
 20
263.2606938991484
 30
0.0
 10
423.5964460459467
 20
263.1960836442664
 30
0.0
 10
423.5222619382288
 20
263.1634374339014
 30
0.0
  0
SPLINE
  5
118
330
2
100
AcDbEntity
  8
0
100
AcDbSpline
210
0.0
220
0.0
230
1.0
 70
     8
 71
     3
 72
    19
 73
    15
 74
     0
 42
0.000000001
 43
0.0000000001
 40
0.0
 40
0.0
 40
0.0
 40
0.0
 40
0.0833348578304538
 40
0.1666652869666474
 40
0.24999993706396
 40
0.3333349058886192
 40
0.4166650829034663
 40
0.5000000772792804
 40
0.5833348303750796
 40
0.666665232232636
 40
0.750000007952897
 40
0.8333348061668408
 40
0.9166651421695462
 40
1.0
 40
1.0
 40
1.0
 40
1.0
 10
423.7761790091171
 20
262.747931680826
 30
0.0
 10
423.8411798424709
 20
262.7758284136549
 30
0.0
 10
423.9711780548157
 20
262.8316203967865
 30
0.0
 10
424.2126528592243
 20
262.8797146906054
 30
0.0
 10
424.4681651631755
 20
262.8969940993296
 30
0.0
 10
424.7245977232617
 20
262.8799810607858
 30
0.0
 10
424.963311851025
 20
262.8305569487285
 30
0.0
 10
425.1684320637616
 20
262.7519188479433
 30
0.0
 10
425.3257080999462
 20
262.6493586262697
 30
0.0
 10
425.4245570254111
 20
262.5300017523038
 30
0.0
 10
425.4585818790991
 20
262.4017853466763
 30
0.0
 10
425.4240246086168
 20
262.2740291538494
 30
0.0
 10
425.3278346071551
 20
262.1532919627636
 30
0.0
 10
425.2162508836351
 20
262.0882928629541
 30
0.0
 10
425.1604575081745
 20
262.0557924312973
 30
0.0
  0
SPLINE
  5
119
330
2
100
AcDbEntity
  8
0
100
AcDbSpline
210
0.0
220
0.0
230
1.0
 70
     8
 71
     3
 72
    19
 73
    15
 74
     0
 42
0.000000001
 43
0.0000000001
 40
0.0
 40
0.0
 40
0.0
 40
0.0
 40
0.0833347618855885
 40
0.1666652350034917
 40
0.2499999613603368
 40
0.3333346877171819
 40
0.4166651608350851
 40
0.4999999227206737
 40
0.5833349258863949
 40
0.6666651741616478
 40
0.75000009362312
 40
0.8333346718631181
 40
0.9166652381144116
 40
1.0
 40
1.0
 40
1.0
 40
1.0
 10
425.1604575081745
 20
262.0557924312973
 30
0.0
 10
425.0954567149198
 20
262.0278958044604
 30
0.0
 10
424.9654584736329
 20
261.9721039864679
 30
0.0
 10
424.7239843101698
 20
261.9240088641345
 30
0.0
 10
424.4684718665216
 20
261.906730353812
 30
0.0
 10
424.2120393742427
 20
261.9237430717633
 30
0.0
 10
423.9733252631493
 20
261.9731671154451
 30
0.0
 10
423.7682054431168
 20
262.0518055376211
 30
0.0
 10
423.6109284333793
 20
262.154365332332
 30
0.0
 10
423.5120810473664
 20
262.2737225777944
 30
0.0
 10
423.4780543880651
 20
262.4019386983491
 30
0.0
 10
423.5126129556751
 20
262.5296948793222
 30
0.0
 10
423.6088017865188
 20
262.6504321721722
 30
0.0
 10
423.7203856652465
 20
262.7154312991786
 30
0.0
 10
423.7761790091171
 20
262.747931680826
 30
0.0
  0
SPLINE
  5
11A
330
2
100
AcDbEntity
  8
0
100
AcDbSpline
210
0.0
220
0.0
230
1.0
 70
     8
 71
     3
 72
    20
 73
    16
 74
     0
 42
0.000000001
 43
0.0000000001
 40
0.0
 40
0.0
 40
0.0
 40
0.0
 40
0.0599411458138689
 40
0.1057005147587077
 40
0.185513748849193
 40
0.3248404373526419
 40
0.569399963680117
 40
0.8104609661355844
 40
0.9164838627520664
 40
0.9632204178778367
 40
0.98380871417788
 40
0.9928732164437917
 40
0.9968621675590824
 40
0.9986177435559255
 40
1.0
 40
1.0
 40
1.0
 40
1.0
 10
423.1049969830869
 20
262.5838353835728
 30
0.0
 10
423.1057827670426
 20
262.5786835494592
 30
0.0
 10
423.1071684223797
 20
262.5695987795508
 30
0.0
 10
423.1130227169946
 20
262.5523550348128
 30
0.0
 10
423.1250243809737
 20
262.5268945016588
 30
0.0
 10
423.1560468729768
 20
262.4813389770297
 30
0.0
 10
423.2142277725091
 20
262.4220368809566
 30
0.0
 10
423.2817585688303
 20
262.3702423111741
 30
0.0
 10
423.3313749024968
 20
262.3376933309266
 30
0.0
 10
423.3540905082315
 20
262.3237373834137
 30
0.0
 10
423.3642455623492
 20
262.3176504025784
 30
0.0
 10
423.3687719475923
 20
262.3149925153022
 30
0.0
 10
423.370742613783
 20
262.3138141008463
 30
0.0
 10
423.3717284937615
 20
262.3132617435397
 30
0.0
 10
423.3721096118413
 20
262.3129978186435
 30
0.0
 10
423.3722774993662
 20
262.3128815562568
 30
0.0
  0
ELLIPSE
  5
11B
330
2
100
AcDbEntity
  8
0
100
AcDbEllipse
 10
461.8946919628979
 20
252.9614585005714
 30
0.0
 11
-0.0312066643060472
 21
0.0391674454059735
 31
0.0
210
0.0
220
0.0
230
0.9999999999999998
 40
0.4905875661000001
 41
0.7710135985773661
 42
2.324356632852228
  0
LINE
  5
11C
330
2
100
AcDbEntity
  8
0
100
AcDbLine
 10
461.9516328156469
 20
253.2324044162308
 30
0.0
 11
462.0217312787353
 21
252.8955845717636
 31
0.0
  0
LINE
  5
11D
330
2
100
AcDbEntity
  8
0
100
AcDbLine
 10
462.0111179824814
 20
252.8694759302273
 30
0.0
 11
461.902032778214
 21
252.9234935360942
 31
0.0
  0
ELLIPSE
  5
11E
330
2
100
AcDbEntity
  8
0
100
AcDbEllipse
 10
462.0079273566915
 20
252.8847846206888
 30
0.0
 11
0.0089595993348913
 21
0.0179158579741072
 31
0.0
210
0.0
220
0.0
230
0.9999999999999998
 40
0.6125530678
 41
4.053440680662561
 42
5.623932420965496
  0
LINE
  5
11F
330
2
100
AcDbEntity
  8
0
100
AcDbLine
 10
462.0111179824814
 20
252.8694759302273
 30
0.0
 11
461.9789253549065
 21
252.8442769267935
 31
0.0
  0
LINE
  5
120
330
2
100
AcDbEntity
  8
0
100
AcDbLine
 10
461.8589194941265
 20
252.9788811565676
 30
0.0
 11
461.7992174602311
 21
253.2657467745312
 31
0.0
  0
ELLIPSE
  5
121
330
2
100
AcDbEntity
  8
0
100
AcDbEllipse
 10
461.9378308428379
 20
253.2215950652205
 30
0.0
 11
0.0089595706022191
 21
0.0179224785518253
 31
0.0
210
0.0
220
0.0
230
1.0
 40
0.6121918491000001
 41
5.624069648700968
 42
6.302146519380571
  0
LINE
  5
122
330
2
100
AcDbEntity
  8
0
100
AcDbLine
 10
417.1616634792178
 20
275.2233864653533
 30
0.0
 11
417.2255268813447
 21
275.1911343279218
 31
0.0
  0
LINE
  5
123
330
2
100
AcDbEntity
  8
0
100
AcDbLine
 10
417.0851935558947
 20
275.5908212340184
 30
0.0
 11
416.9267191132076
 21
276.3522829677778
 31
0.0
  0
ARC
  5
124
330
2
100
AcDbEntity
  8
0
100
AcDbCircle
 10
414.1732237045683
 20
275.6625016476968
 30
0.0
 40
1.468604366837193
100
AcDbArc
 50
274.8874930025994
 51
318.2426093516004
  0
LINE
  5
125
330
2
100
AcDbEntity
  8
0
100
AcDbLine
 10
412.3983977638435
 20
272.2870168724401
 30
0.0
 11
417.1687108682704
 21
274.6721734246537
 31
0.0
  0
ELLIPSE
  5
126
330
2
100
AcDbEntity
  8
0
100
AcDbEllipse
 10
412.3984043914626
 20
272.2523201944702
 30
0.0
 11
0.0179130159487808
 21
0.0358350929390186
 31
0.0
210
0.0
220
0.0
230
1.0
 40
0.6125110711000001
 41
0.6847268694734189
 42
2.028977736453398
  0
LINE
  5
127
330
2
100
AcDbEntity
  8
0
100
AcDbLine
 10
412.3091735752873
 20
271.8877129859032
 30
0.0
 11
412.3707960174498
 21
272.246309894861
 31
0.0
  0
LINE
  5
128
330
2
100
AcDbEntity
  8
0
100
AcDbLine
 10
412.4054451528961
 20
272.8452773021925
 30
0.0
 11
412.3941543482322
 21
272.7797346863196
 31
0.0
  0
LINE
  5
129
330
2
100
AcDbEntity
  8
0
100
AcDbLine
 10
412.3502384942796
 20
272.8332840307233
 30
0.0
 11
412.4054451528961
 21
272.8452773021925
 31
0.0
  0
ELLIPSE
  5
12A
330
2
100
AcDbEntity
  8
0
100
AcDbEllipse
 10
412.3534291200694
 20
272.8517838535635
 30
0.0
 11
0.008963923117327
 21
0.0179197041086138
 31
0.0
210
0.0
220
0.0
230
1.0
 40
0.6122245271
 41
2.02897905704533
 42
3.599470797348341
  0
LINE
  5
12B
330
2
100
AcDbEntity
  8
0
100
AcDbLine
 10
412.4097236610139
 20
273.2556976835613
 30
0.0
 11
412.3396251980255
 21
272.8487793760055
 31
0.0
  0
ELLIPSE
  5
12C
330
2
100
AcDbEntity
  8
0
100
AcDbEllipse
 10
412.4235256338229
 20
273.2586908118484
 30
0.0
 11
0.0089552427766676
 21
0.0179186343682666
 31
0.0
210
0.0
220
0.0
230
0.9999999999999998
 40
0.6125203336000001
 41
0.4577744622061101
 42
2.028266202506309
  0
LINE
  5
12D
330
2
100
AcDbEntity
  8
0
100
AcDbLine
 10
412.4267084176027
 20
273.277188641986
 30
0.0
 11
412.4819150762193
 21
273.2891819942809
 31
0.0
  0
LINE
  5
12E
330
2
100
AcDbEntity
  8
0
100
AcDbLine
 10
412.6403895189065
 20
274.2091181706272
 30
0.0
 11
412.4819150762193
 21
273.2891819942809
 31
0.0
  0
LINE
  5
12F
330
2
100
AcDbEntity
  8
0
100
AcDbLine
 10
413.7920610413337
 20
274.7849539318909
 30
0.0
 11
413.7920610413337
 21
274.4106235494864
 31
0.0
  0
SPLINE
  5
130
330
2
100
AcDbEntity
  8
0
100
AcDbSpline
210
0.0
220
0.0
230
1.0
 70
     8
 71
     3
 72
     9
 73
     5
 74
     0
 42
0.000000001
 43
0.0000000001
 40
0.0
 40
0.0
 40
0.0
 40
0.0
 40
0.4968401845859566
 40
1.0
 40
1.0
 40
1.0
 40
1.0
 10
413.80065453187
 20
274.3866010131361
 30
0.0
 10
413.7981967212779
 20
274.3895895902731
 30
0.0
 10
413.7932498376153
 20
274.3956047581877
 30
0.0
 10
413.7924589727326
 20
274.4055962382042
 30
0.0
 10
413.7920610413043
 20
274.410623549445
 30
0.0
  0
ARC
  5
131
330
2
100
AcDbEntity
  8
0
100
AcDbCircle
 10
414.281713248196
 20
274.9097427012922
 30
0.0
 40
0.710700157940026
100
AcDbArc
 50
227.3996870077015
 51
271.3411926794622
  0
ARC
  5
132
330
2
100
AcDbEntity
  8
0
100
AcDbCircle
 10
413.2822659778788
 20
276.6509456980368
 30
0.0
 40
2.79522658484643
100
AcDbArc
 50
315.289775530361
 51
332.7134824603508
  0
SPLINE
  5
133
330
2
100
AcDbEntity
  8
0
100
AcDbSpline
210
0.0
220
0.0
230
1.0
 70
     8
 71
     3
 72
     9
 73
     5
 74
     0
 42
0.000000001
 43
0.0000000001
 40
0.0
 40
0.0
 40
0.0
 40
0.0
 40
0.5039064609452002
 40
1.0
 40
1.0
 40
1.0
 40
1.0
 10
415.7750475907863
 20
275.4021168241861
 30
0.0
 10
415.7746484463507
 20
275.396683112768
 30
0.0
 10
415.7738563460967
 20
275.3858999380334
 30
0.0
 10
415.7689086301397
 20
275.37493863094
 30
0.0
 10
415.7664541002204
 20
275.3695007973113
 30
0.0
  0
LINE
  5
134
330
2
100
AcDbEntity
  8
0
100
AcDbLine
 10
415.7750475907803
 20
275.4021168242098
 30
0.0
 11
415.7750475907803
 21
275.7764472066143
 31
0.0
  0
LINE
  5
135
330
2
100
AcDbEntity
  8
0
100
AcDbLine
 10
417.1404002145113
 20
275.6340345404402
 30
0.0
 11
417.0851935558947
 21
275.5908212340184
 31
0.0
  0
ELLIPSE
  5
136
330
2
100
AcDbEntity
  8
0
100
AcDbEllipse
 10
417.1435824917024
 20
275.6187192407882
 30
0.0
 11
0.0089595706022191
 21
0.0179224785518253
 31
0.0
210
0.0
220
0.0
230
1.0
 40
0.6121918491000001
 41
5.624069648702467
 42
7.194561389001946
  0
LINE
  5
137
330
2
100
AcDbEntity
  8
0
100
AcDbLine
 10
417.1573849709999
 20
275.6295283386044
 30
0.0
 11
417.2274834340885
 21
275.2927084941372
 31
0.0
  0
ELLIPSE
  5
138
330
2
100
AcDbEntity
  8
0
100
AcDbEllipse
 10
417.2136790054558
 20
275.2819087962565
 30
0.0
 11
0.0089595993349198
 21
0.0179158579741072
 31
0.0
210
0.0
220
0.0
230
0.9999999999999998
 40
0.6125530677999999
 41
4.053440680667546
 42
5.623932420963518
  0
LINE
  5
139
330
2
100
AcDbEntity
  8
0
100
AcDbLine
 10
417.2168701378344
 20
275.2665998525007
 30
0.0
 11
417.1616634792178
 21
275.2233864653533
 31
0.0
  0
LINE
  5
13A
330
2
100
AcDbEntity
  8
0
100
AcDbLine
 10
417.1963126146643
 20
274.6590681934682
 30
0.0
 11
417.2579350568267
 21
274.3620937266729
 31
0.0
  0
ELLIPSE
  5
13B
330
2
100
AcDbEntity
  8
0
100
AcDbEllipse
 10
417.1687037340626
 20
274.6374698657701
 30
0.0
 11
0.017920678998979
 21
0.0358419024856363
 31
0.0
210
0.0
220
0.0
230
1.0
 40
0.6122201544000001
 41
5.623525604516652
 42
6.967776471496201
  0
LINE
  5
13C
330
2
100
AcDbEntity
  8
0
100
AcDbLine
 10
417.3214818646177
 20
275.2137689928923
 30
0.0
 11
417.2168701378344
 21
275.2665998525007
 31
0.0
  0
LINE
  5
13D
330
2
100
AcDbEntity
  8
0
100
AcDbLine
 10
416.8964900298621
 20
276.5081720488687
 30
0.0
 11
416.9267191132076
 21
276.3522829677778
 31
0.0
  0
LINE
  5
13E
330
2
100
AcDbEntity
  8
0
100
AcDbLine
 10
415.7750475907803
 20
275.7764472066143
 30
0.0
 11
413.7920610413337
 21
274.7849539318909
 31
0.0
  0
LINE
  5
13F
330
2
100
AcDbEntity
  8
0
100
AcDbLine
 10
412.6755616945241
 20
274.3977078811496
 30
0.0
 11
412.6403895189065
 21
274.2091181706272
 31
0.0
  0
LINE
  5
140
330
2
100
AcDbEntity
  8
0
100
AcDbLine
 10
412.6756043028651
 20
274.3992218685211
 30
0.0
 11
412.6755616945241
 21
274.3977078811496
 31
0.0
  0
ELLIPSE
  5
141
330
2
100
AcDbEntity
  8
0
100
AcDbEllipse
 10
412.7463939741617
 20
274.4331234542359
 30
0.0
 11
0.0462950496215728
 21
0.0888244569094027
 31
0.0
210
0.0
220
0.0
230
1.0
 40
0.6035364256
 41
0.6948673858779788
 42
2.248210420153688
  0
LINE
  5
142
330
2
100
AcDbEntity
  8
0
100
AcDbLine
 10
416.8268950836471
 20
276.5588753317497
 30
0.0
 11
412.7476302975115
 21
274.5192429386818
 31
0.0
  0
ELLIPSE
  5
143
330
2
100
AcDbEntity
  8
0
100
AcDbEllipse
 10
416.8256588882965
 20
276.4727559113035
 30
0.0
 11
0.0462950496215728
 21
0.0888244569094027
 31
0.0
210
0.0
220
0.0
230
1.0
 40
0.6035364256
 41
5.424709658783366
 42
6.978052693058071
  0
LINE
  5
144
330
2
100
AcDbEntity
  8
0
100
AcDbLine
 10
416.896489634146
 20
276.5096645341615
 30
0.0
 11
416.8964900298621
 21
276.5081720488687
 31
0.0
  0
ELLIPSE
  5
145
330
2
100
AcDbEntity
  8
0
100
AcDbEllipse
 10
412.3810090532
 20
271.8528100919559
 30
0.0
 11
-0.0256784690524631
 21
0.0979522907055697
 31
0.0
210
0.0
220
0.0
230
1.0
 40
0.6977472175
 41
1.031762628915901
 42
2.623102700395806
  0
LINE
  5
146
330
2
100
AcDbEntity
  8
0
100
AcDbLine
 10
417.4917069685309
 20
274.2425452780817
 30
0.0
 11
417.7197490512175
 21
274.0292692850296
 31
0.0
  0
ARC
  5
147
330
2
100
AcDbEntity
  8
0
100
AcDbCircle
 10
417.7341072255297
 20
274.5099923348337
 30
0.0
 40
0.3609512609597047
100
AcDbArc
 50
194.6621089696006
 51
227.8124559923992
  0
LINE
  5
148
330
2
100
AcDbEntity
  8
0
100
AcDbLine
 10
417.3849102134686
 20
274.4186289969318
 30
0.0
 11
417.2243248783315
 21
275.1902333440942
 31
0.0
  0
LINE
  5
149
330
2
100
AcDbEntity
  8
0
100
AcDbLine
 10
417.2517693828003
 20
275.2108027586792
 30
0.0
 11
417.2243248783315
 21
275.1902333440942
 31
0.0
  0
LINE
  5
14A
330
2
100
AcDbEntity
  8
0
100
AcDbLine
 10
417.2517693828003
 20
275.2108027586792
 30
0.0
 11
417.3721659737453
 21
275.1506044632066
 31
0.0
  0
LINE
  5
14B
330
2
100
AcDbEntity
  8
0
100
AcDbLine
 10
417.3721659737453
 20
275.1506044632066
 30
0.0
 11
417.3537481004001
 21
275.2391007234818
 31
0.0
  0
LINE
  5
14C
330
2
100
AcDbEntity
  8
0
100
AcDbLine
 10
417.29125027497
 20
275.53940082798
 30
0.0
 11
417.2845440162555
 21
275.5716233466951
 31
0.0
  0
LINE
  5
14D
330
2
100
AcDbEntity
  8
0
100
AcDbLine
 10
417.2845440162555
 20
275.5716233466951
 30
0.0
 11
417.1641474253106
 21
275.6318216421675
 31
0.0
  0
LINE
  5
14E
330
2
100
AcDbEntity
  8
0
100
AcDbLine
 10
417.1207718956079
 20
275.6878011547143
 30
0.0
 11
417.1641474253106
 21
275.6318216421675
 31
0.0
  0
LINE
  5
14F
330
2
100
AcDbEntity
  8
0
100
AcDbLine
 10
417.1207718956079
 20
275.6878011547143
 30
0.0
 11
416.9636857189447
 21
276.4425924491298
 31
0.0
  0
LWPOLYLINE
  5
150
330
2
100
AcDbEntity
  8
0
100
AcDbPolyline
 90
        9
 70
   128
 43
0.0
 10
417.0185745960769
 20
276.4837313537173
 10
417.0050644619595
 20
276.489168527973
 10
416.992686812115
 20
276.4914546415414
 10
416.9819131081069
 20
276.4905036802991
 10
416.9731638927181
 20
276.4863490541651
 10
416.9667704026832
 20
276.4791529135067
 10
416.9629797135976
 20
276.4691911813351
 10
416.9619390417762
 20
276.4568456968718
 10
416.9636857189447
 20
276.4425924491298
  0
LINE
  5
151
330
2
100
AcDbEntity
  8
0
100
AcDbLine
 10
417.0185745960769
 20
276.4837313537173
 30
0.0
 11
417.0893967409346
 21
276.4483202813386
 31
0.0
  0
LINE
  5
152
330
2
100
AcDbEntity
  8
0
100
AcDbLine
 10
461.6003602274232
 20
254.1928385380943
 30
0.0
 11
461.6711823722808
 21
254.1574274656154
 31
0.0
  0
ARC
  5
153
330
2
100
AcDbEntity
  8
0
100
AcDbCircle
 10
461.5838028336363
 20
254.0001326051324
 30
0.0
 40
0.1799357021590022
100
AcDbArc
 50
14.59330221660058
 51
60.94720378080102
  0
LINE
  5
154
330
2
100
AcDbEntity
  8
0
100
AcDbLine
 10
461.9150197402548
 20
253.2906772323407
 30
0.0
 11
461.7579335635916
 21
254.0454685268565
 31
0.0
  0
LINE
  5
155
330
2
100
AcDbEntity
  8
0
100
AcDbLine
 10
461.8875752356859
 20
253.27010773703
 30
0.0
 11
461.9150197402548
 21
253.2906772323407
 31
0.0
  0
LINE
  5
156
330
2
100
AcDbEntity
  8
0
100
AcDbLine
 10
461.7671786447409
 20
253.3303060325025
 30
0.0
 11
461.8875752356859
 21
253.27010773703
 31
0.0
  0
LINE
  5
157
330
2
100
AcDbEntity
  8
0
100
AcDbLine
 10
461.8548006023307
 20
252.9092871489139
 30
0.0
 11
461.7671786447409
 21
253.3303060325025
 31
0.0
  0
LINE
  5
158
330
2
100
AcDbEntity
  8
0
100
AcDbLine
 10
461.9751971932758
 20
252.8490888534414
 30
0.0
 11
461.8548006023307
 21
252.9092871489139
 31
0.0
  0
LINE
  5
159
330
2
100
AcDbEntity
  8
0
100
AcDbLine
 10
462.0185727228783
 20
252.7931094217206
 30
0.0
 11
461.9751971932758
 21
252.8490888534414
 31
0.0
  0
LINE
  5
15A
330
2
100
AcDbEntity
  8
0
100
AcDbLine
 10
462.1791580581155
 20
252.0215050745583
 30
0.0
 11
462.0185727228783
 21
252.7931094217206
 31
0.0
  0
LWPOLYLINE
  5
15B
330
2
100
AcDbEntity
  8
0
100
AcDbPolyline
 90
        9
 70
   128
 43
0.0
 10
462.1293588300437
 20
251.9237193473253
 10
462.1439928738834
 20
251.9260374705326
 10
462.1565883143269
 20
251.9315369764383
 10
462.1669103437799
 20
251.9401091365526
 10
462.1747542313772
 20
251.951594240307
 10
462.179977245787
 20
251.9657686334728
 10
462.1824743834189
 20
251.9823638769915
 10
462.182198418643
 20
252.0010622901358
 10
462.1791580581155
 20
252.0215050745583
  0
LINE
  5
15C
330
2
100
AcDbEntity
  8
0
100
AcDbLine
 10
462.1293588300437
 20
251.9237193473253
 30
0.0
 11
461.9474281795476
 21
251.9154297208145
 31
0.0
  0
LWPOLYLINE
  5
15D
330
2
100
AcDbEntity
  8
0
100
AcDbPolyline
 90
        9
 70
   128
 43
0.0
 10
417.7197490512175
 20
274.0292692850296
 10
417.7205930388023
 20
273.9958638860752
 10
417.7108028877816
 20
273.9593205572784
 10
417.6918692294616
 20
273.9252033433313
 10
417.6666746551239
 20
273.8987059636315
 10
417.6390544407757
 20
273.8838621869386
 10
417.6132140140486
 20
273.8829324107815
 10
417.5930867952605
 20
273.8960577023006
 10
417.5817374172305
 20
273.9212402621319
  0
LWPOLYLINE
  5
15E
330
2
100
AcDbEntity
  8
0
100
AcDbPolyline
 90
        8
 70
   128
 43
0.0
 10
461.8336312606619
 20
251.7718329161422
 10
461.8408931423788
 20
251.7690928466664
 10
461.8667335691058
 20
251.7700226227235
 10
461.894353783454
 20
251.7848663994163
 10
461.9195483578919
 20
251.8113637791162
 10
461.9384820161117
 20
251.8454809930632
 10
461.9482721672325
 20
251.8820243218601
 10
461.9474281795476
 20
251.9154297208145
  0
LINE
  5
15F
330
2
100
AcDbEntity
  8
0
100
AcDbLine
 10
417.322534013008
 20
275.1962911103086
 30
0.0
 11
417.3273821270995
 21
275.172996377215
 31
0.0
  0
LINE
  5
160
330
2
100
AcDbEntity
  8
0
100
AcDbLine
 10
417.1630628259944
 20
275.6309726183414
 30
0.0
 11
417.1641474253106
 21
275.6318216421675
 31
0.0
  0
ARC
  5
161
330
2
100
AcDbEntity
  8
0
100
AcDbCircle
 10
417.049376643625
 20
276.4438774060019
 30
0.0
 40
0.0402659574029042
100
AcDbArc
 50
6.334814548800857
 51
120.5352455807982
  0
ARC
  5
162
330
2
100
AcDbEntity
  8
0
100
AcDbCircle
 10
461.5567920303384
 20
254.1866007914511
 30
0.0
 40
0.044012467372184
100
AcDbArc
 50
8.147781656098976
 51
60.34713412290231
  0
LINE
  5
163
330
2
100
AcDbEntity
  8
0
100
AcDbLine
 10
412.3427837537825
 20
272.7494627818196
 30
0.0
 11
412.1821984186454
 21
271.8172730995202
 31
0.0
  0
ARC
  5
164
330
2
100
AcDbEntity
  8
0
100
AcDbCircle
 10
412.4487843665549
 20
271.7738128623283
 30
0.0
 40
0.2701052754775618
100
AcDbArc
 50
170.7407965993002
 51
216.6208134220989
  0
LINE
  5
165
330
2
100
AcDbEntity
  8
0
100
AcDbLine
 10
412.2319976467172
 20
271.6126906171248
 30
0.0
 11
412.3732957932894
 21
271.4291414189572
 31
0.0
  0
LINE
  5
166
330
2
100
AcDbEntity
  8
0
100
AcDbLine
 10
412.3941538172378
 20
272.7797345709578
 30
0.0
 11
412.3861592834851
 21
272.7779977089715
 31
0.0
  0
LINE
  5
167
330
2
100
AcDbEntity
  8
0
100
AcDbLine
 10
412.3427837537825
 20
272.7494627818196
 30
0.0
 11
412.3861592834851
 21
272.7779977089715
 31
0.0
  0
LINE
  5
168
330
2
100
AcDbEntity
  8
0
100
AcDbLine
 10
412.6034229131693
 20
274.2624610462422
 30
0.0
 11
412.4463367365061
 21
273.3505835751633
 31
0.0
  0
LINE
  5
169
330
2
100
AcDbEntity
  8
0
100
AcDbLine
 10
412.4734770466456
 20
273.2873485270808
 30
0.0
 11
412.4463367365061
 21
273.3505835751633
 31
0.0
  0
ARC
  5
16A
330
2
100
AcDbEntity
  8
0
100
AcDbCircle
 10
412.6738276872827
 20
274.2574934862739
 30
0.0
 40
0.0705798049511487
100
AcDbArc
 50
107.1799973162003
 51
175.9640618160003
  0
LINE
  5
16B
330
2
100
AcDbEntity
  8
0
100
AcDbLine
 10
461.8849704560559
 20
253.2680687889972
 30
0.0
 11
461.8875752356859
 21
253.27010773703
 31
0.0
  0
LINE
  5
16C
330
2
100
AcDbEntity
  8
0
100
AcDbLine
 10
461.8857038995241
 20
253.2677300837347
 30
0.0
 11
461.9150197402548
 21
253.2906772323407
 31
0.0
  0
ARC
  5
16D
330
2
100
AcDbEntity
  8
0
100
AcDbCircle
 10
456.957664833191
 20
248.6637817768414
 30
0.0
 40
0.0438122620680296
100
AcDbArc
 50
193.3364866442008
 51
260.365069622201
  0
SPLINE
  5
16E
330
2
100
AcDbEntity
  8
0
100
AcDbSpline
210
0.0
220
0.0
230
1.0
 70
     8
 71
     3
 72
    18
 73
    14
 74
     0
 42
0.000000001
 43
0.0000000001
 40
0.0
 40
0.0
 40
0.0
 40
0.0
 40
0.0682014340242022
 40
0.1599163117121618
 40
0.251723346838822
 40
0.3433228621840738
 40
0.4359190404818156
 40
0.5288032696955288
 40
0.6214060412991313
 40
0.6811475167844954
 40
0.8013823704802248
 40
0.9217055711819352
 40
1.0
 40
1.0
 40
1.0
 40
1.0
 10
457.0784394913849
 20
248.5582542642702
 30
0.0
 10
457.1806533017136
 20
248.5476412241048
 30
0.0
 10
457.4203206311135
 20
248.5227561426755
 30
0.0
 10
457.8091984333932
 20
248.519742065956
 30
0.0
 10
458.2452924332375
 20
248.5583490975995
 30
0.0
 10
458.694057995279
 20
248.6490116605505
 30
0.0
 10
459.1539491581232
 20
248.8044149433406
 30
0.0
 10
459.6193476757443
 20
249.0255369165933
 30
0.0
 10
460.0283958572414
 20
249.2739951814356
 30
0.0
 10
460.4766149148004
 20
249.5991180197152
 30
0.0
 10
460.9600398074476
 20
250.0102709407185
 30
0.0
 10
461.4566114456398
 20
250.4977040597739
 30
0.0
 10
461.7545761175902
 20
250.8257401608111
 30
0.0
 10
461.8720328300416
 20
250.9550509335985
 30
0.0
  0
LWPOLYLINE
  5
16F
330
2
100
AcDbEntity
  8
0
100
AcDbPolyline
 90
        6
 70
   128
 43
0.0
 10
461.8804455320698
 20
250.9540405184951
 10
461.880066410379
 20
250.9537087353101
 10
461.8787404078992
 20
250.9532475876053
 10
461.8769099652083
 20
250.9533229856998
 10
461.8746457882951
 20
250.9539316994644
 10
461.872032830031
 20
250.9550509336068
  0
LWPOLYLINE
  5
170
330
2
100
AcDbEntity
  8
0
100
AcDbPolyline
 90
        3
 70
   128
 43
0.0
 10
457.066332661506
 20
248.561795978016
 10
457.0673750482974
 20
248.5613090285379
 10
457.078439491385
 20
248.5582542642839
  0
SPLINE
  5
171
330
2
100
AcDbEntity
  8
0
100
AcDbSpline
210
0.0
220
0.0
230
1.0
 70
     8
 71
     3
 72
    19
 73
    15
 74
     0
 42
0.000000001
 43
0.0000000001
 40
0.0
 40
0.0
 40
0.0
 40
0.0
 40
0.0935664942119711
 40
0.1871138207304103
 40
0.2829319823280834
 40
0.3786791607455126
 40
0.4472122112808437
 40
0.5157527720901446
 40
0.5861822413088174
 40
0.6566064242674175
 40
0.7248765484790523
 40
0.7931648803020187
 40
0.9317450338615728
 40
1.0
 40
1.0
 40
1.0
 40
1.0
 10
412.4817071793166
 20
270.8785043068397
 30
0.0
 10
412.6218696997031
 20
270.8648021975788
 30
0.0
 10
412.902166027289
 20
270.8374007860218
 30
0.0
 10
413.3420064578618
 20
270.8475864561292
 30
0.0
 10
413.7962605463783
 20
270.9024133156475
 30
0.0
 10
414.2216115612761
 20
271.0072682822574
 30
0.0
 10
414.6080210106029
 20
271.1523612753773
 30
0.0
 10
414.9540646590407
 20
271.3164816458813
 30
0.0
 10
415.3027836571572
 20
271.5159294189766
 30
0.0
 10
415.6480772458262
 20
271.7499227694255
 30
0.0
 10
415.9844445019774
 20
272.0133440352781
 30
0.0
 10
416.42352765962
 20
272.395209443384
 30
0.0
 10
416.851276148668
 20
272.815044856865
 30
0.0
 10
417.1604328644723
 20
273.1562732126455
 30
0.0
 10
417.2624536489481
 20
273.2688775416554
 30
0.0
  0
ARC
  5
172
330
2
100
AcDbEntity
  8
0
100
AcDbCircle
 10
412.5012489091093
 20
270.8703224650854
 30
0.0
 40
0.0211854132710938
100
AcDbArc
 50
157.2816390607997
 51
235.7434318179003
  0
ARC
  5
173
330
2
100
AcDbEntity
  8
0
100
AcDbCircle
 10
417.3363247657473
 20
273.7503477648902
 30
0.0
 40
0.0700342563313639
100
AcDbArc
 50
359.6060488113003
 51
13.35665330059951
  0
LINE
  5
174
330
2
100
AcDbEntity
  8
0
100
AcDbLine
 10
417.4063573665885
 20
273.6089265699324
 30
0.0
 11
417.4063573665885
 21
273.749866230944
 31
0.0
  0
ARC
  5
175
330
2
100
AcDbEntity
  8
0
100
AcDbCircle
 10
417.3643883989967
 20
273.6100051913409
 30
0.0
 40
0.041982825881777
100
AcDbArc
 50
328.289571452599
 51
358.5277966419994
  0
LINE
  5
176
330
2
100
AcDbEntity
  8
0
100
AcDbLine
 10
417.2950623341288
 20
273.4129817605544
 30
0.0
 11
417.4001038376724
 21
273.5879379054771
 31
0.0
  0
ARC
  5
177
330
2
100
AcDbEntity
  8
0
100
AcDbCircle
 10
417.3377532543975
 20
273.3840004874439
 30
0.0
 40
0.0515987293078651
100
AcDbArc
 50
145.8288802952011
 51
196.5974254734991
  0
ARC
  5
178
330
2
100
AcDbEntity
  8
0
100
AcDbCircle
 10
417.187333908159
 20
273.3417427679667
 30
0.0
 40
0.1046533165042567
100
AcDbArc
 50
315.8728195283995
 51
15.24528767530035
  0
LWPOLYLINE
  5
179
330
2
100
AcDbEntity
  8
0
100
AcDbPolyline
 90
        3
 70
   128
 43
0.0
 10
412.48932364673
 20
270.8528121866613
 10
412.4782592035422
 20
270.8558669509155
 10
412.4754019399959
 20
270.8572995706981
  0
LWPOLYLINE
  5
17A
330
2
100
AcDbEntity
  8
0
100
AcDbPolyline
 90
        3
 70
   128
 43
0.0
 10
412.616420692152
 20
270.7875431676955
 10
412.6051797476527
 20
270.7906466853584
 10
412.6033788537691
 20
270.7915121040112
  0
LINE
  5
17B
330
2
100
AcDbEntity
  8
0
100
AcDbLine
 10
417.4916402310361
 20
274.2426057806286
 30
0.0
 11
417.6316835978067
 21
273.6725164063185
 31
0.0
  0
ARC
  5
17C
330
2
100
AcDbEntity
  8
0
100
AcDbCircle
 10
417.5448368807629
 20
273.6518930158934
 30
0.0
 40
0.0892618423275578
100
AcDbArc
 50
359.6024171656008
 51
13.35852917570085
  0
LINE
  5
17D
330
2
100
AcDbEntity
  8
0
100
AcDbLine
 10
417.6340965739997
 20
273.651273621399
 30
0.0
 11
417.6340965739997
 21
273.5103339602871
 31
0.0
  0
ARC
  5
17E
330
2
100
AcDbEntity
  8
0
100
AcDbCircle
 10
417.5602885396255
 20
273.5122285987305
 30
0.0
 40
0.0738323479318769
100
AcDbArc
 50
328.2884333979006
 51
358.5295510343998
  0
LINE
  5
17F
330
2
100
AcDbEntity
  8
0
100
AcDbLine
 10
417.6230980880069
 20
273.4734191124366
 30
0.0
 11
417.5180565844632
 21
273.298462967514
 31
0.0
  0
ARC
  5
180
330
2
100
AcDbEntity
  8
0
100
AcDbCircle
 10
417.5385960487157
 20
273.2845201133535
 30
0.0
 40
0.02482484183433
100
AcDbArc
 50
145.8300678468995
 51
196.5966265309003
  0
ARC
  5
181
330
2
100
AcDbEntity
  8
0
100
AcDbCircle
 10
417.3860641899047
 20
273.242341426029
 30
0.0
 40
0.1334371300365033
100
AcDbArc
 50
315.8726278614004
 51
15.24545564720098
  0
SPLINE
  5
182
330
2
100
AcDbEntity
  8
0
100
AcDbSpline
210
0.0
220
0.0
230
1.0
 70
     8
 71
     3
 72
    16
 73
    12
 74
     0
 42
0.000000001
 43
0.0000000001
 40
0.0
 40
0.0
 40
0.0
 40
0.0
 40
0.1175305359154031
 40
0.235011615687246
 40
0.3233372728470285
 40
0.4118386039242786
 40
0.5000787625675752
 40
0.6140731777795308
 40
0.7286396048153302
 40
0.8429271455149233
 40
1.0
 40
1.0
 40
1.0
 40
1.0
 10
417.4818445284804
 20
273.1494350516264
 30
0.0
 10
417.3049169872814
 20
272.9564628887363
 30
0.0
 10
416.9511363549299
 20
272.5705997644833
 30
0.0
 10
416.4416574950679
 20
272.091886159314
 30
0.0
 10
415.9653606798669
 20
271.7018219853882
 30
0.0
 10
415.5273458696703
 20
271.397285798653
 30
0.0
 10
415.041546117229
 20
271.1203262983836
 30
0.0
 10
414.5118882251279
 20
270.904145563095
 30
0.0
 10
413.9500089987346
 20
270.7659613038562
 30
0.0
 10
413.334347682388
 20
270.6988336086831
 30
0.0
 10
412.9244840701393
 20
270.7325923908468
 30
0.0
 10
412.6872407263505
 20
270.7521331505614
 30
0.0
  0
ARC
  5
183
330
2
100
AcDbEntity
  8
0
100
AcDbCircle
 10
412.6951497403224
 20
270.7959381754845
 30
0.0
 40
0.0445132869360322
100
AcDbArc
 50
194.0068989697988
 51
259.7654842891981
  0
LINE
  5
184
330
2
100
AcDbEntity
  8
0
100
AcDbLine
 10
461.6741157503373
 20
251.0532994406859
 30
0.0
 11
417.4818445284565
 21
273.1494350516263
 31
0.0
  0
SPLINE
  5
185
330
2
100
AcDbEntity
  8
0
100
AcDbSpline
210
0.0
220
0.0
230
1.0
 70
     8
 71
     3
 72
    16
 73
    12
 74
     0
 42
0.000000001
 43
0.0000000001
 40
0.0
 40
0.0
 40
0.0
 40
0.0
 40
0.1175305359154031
 40
0.235011615687246
 40
0.3233372728470285
 40
0.4118386039242786
 40
0.5000787625675751
 40
0.6140731777795308
 40
0.7286396048153302
 40
0.8429271455149233
 40
1.0
 40
1.0
 40
1.0
 40
1.0
 10
461.6741157503732
 20
251.0532994406794
 30
0.0
 10
461.4971882091741
 20
250.8603272777893
 30
0.0
 10
461.1434075768224
 20
250.4744641535361
 30
0.0
 10
460.6339287169604
 20
249.995750548367
 30
0.0
 10
460.1576319017596
 20
249.6056863744412
 30
0.0
 10
459.719617091563
 20
249.3011501877059
 30
0.0
 10
459.2338173391216
 20
249.0241906874365
 30
0.0
 10
458.7041594470205
 20
248.808009952148
 30
0.0
 10
458.1422802206272
 20
248.6698256929092
 30
0.0
 10
457.5266189042807
 20
248.6026979977362
 30
0.0
 10
457.1167552920321
 20
248.6364567798998
 30
0.0
 10
456.8795119482431
 20
248.6559975396144
 30
0.0
  0
LINE
  5
186
330
2
100
AcDbEntity
  8
0
100
AcDbLine
 10
461.8153693098876
 20
251.3772835014964
 30
0.0
 11
461.7103278063439
 21
251.2023273565737
 31
0.0
  0
ARC
  5
187
330
2
100
AcDbEntity
  8
0
100
AcDbCircle
 10
461.5783354117852
 20
251.1462058150887
 30
0.0
 40
0.1334371300365348
100
AcDbArc
 50
315.8726278614004
 51
15.24545564720098
  0
ARC
  5
188
330
2
100
AcDbEntity
  8
0
100
AcDbCircle
 10
461.7525597615062
 20
251.4160929877902
 30
0.0
 40
0.073832347931953
100
AcDbArc
 50
328.2884333980001
 51
358.5295510343998
  0
LINE
  5
189
330
2
100
AcDbEntity
  8
0
100
AcDbLine
 10
461.8263677958803
 20
251.5551380104586
 30
0.0
 11
461.8263677958803
 21
251.4141983493467
 31
0.0
  0
ARC
  5
18A
330
2
100
AcDbEntity
  8
0
100
AcDbCircle
 10
461.7308672705964
 20
251.1883845024132
 30
0.0
 40
0.0248248418344326
100
AcDbArc
 50
145.8300678468995
 51
196.5966265307999
  0
ARC
  5
18B
330
2
100
AcDbEntity
  8
0
100
AcDbCircle
 10
461.7371081026436
 20
251.5557574049531
 30
0.0
 40
0.0892618423252249
100
AcDbArc
 50
359.6024171654998
 51
13.35852917589992
  0
LINE
  5
18C
330
2
100
AcDbEntity
  8
0
100
AcDbLine
 10
461.7678635438257
 20
251.804716866904
 30
0.0
 11
461.8239548196873
 21
251.5763807953782
 31
0.0
  0
LWPOLYLINE
  5
18D
330
2
100
AcDbEntity
  8
0
100
AcDbPolyline
 90
        3
 70
   128
 43
0.0
 10
456.8668399975345
 20
248.6597791824201
 10
456.8682710038048
 20
248.6591010572823
 10
456.8795119482042
 20
248.6559975396194
  0
LWPOLYLINE
  5
18E
330
2
100
AcDbEntity
  8
0
100
AcDbPolyline
 90
       14
 70
   128
 43
0.0
 10
421.0186009736705
 20
262.6889393291193
 10
420.849610851318
 20
262.7858422485244
 10
420.7085855034923
 20
262.893347383431
 10
420.5981510798965
 20
263.0094530662516
 10
420.5203638604492
 20
263.131996166602
 10
420.47667490234
 20
263.2586935116925
 10
420.4678952148064
 20
263.387185682719
 10
420.494190482018
 20
263.5150786989641
 10
420.555071565889
 20
263.6399899245748
 10
420.6494024204008
 20
263.7595931830047
 10
420.7754256835488
 20
263.8716600460011
 10
420.9307956552888
 20
263.9741027060574
 10
421.112617080722
 20
264.065013418824
 10
421.2443337647004
 20
264.1174481624816
  0
LWPOLYLINE
  5
18F
330
2
100
AcDbEntity
  8
0
100
AcDbPolyline
 90
        3
 70
   128
 43
0.0
 10
423.3932782546063
 20
264.1396496016215
 10
423.4891379957877
 20
264.1056058208095
 10
423.6829438346982
 20
264.0211107595831
  0
LINE
  5
190
330
2
100
AcDbEntity
  8
0
100
AcDbLine
 10
421.5912153219088
 20
266.2975913158648
 30
0.0
 11
421.5912153219088
 21
265.3540859448895
 31
0.0
  0
LWPOLYLINE
  5
191
330
2
100
AcDbEntity
  8
0
100
AcDbPolyline
 90
        4
 70
   128
 43
0.0
 10
430.4703612733078
 20
259.608454643762
 10
430.5275643228961
 20
259.5667015279505
 10
430.5507387617922
 20
259.5174358932811
 10
430.551030292404
 20
259.5105342694842
  0
LWPOLYLINE
  5
192
330
2
100
AcDbEntity
  8
0
100
AcDbPolyline
 90
        8
 70
   128
 43
0.0
 10
430.0001749427277
 20
259.5109383228936
 10
430.0028161306453
 20
259.5301019078082
 10
430.0349829029636
 20
259.5780882377058
 10
430.0996467609967
 20
259.6170240600042
 10
430.1880747149191
 20
259.6416511390544
 10
430.2883240360566
 20
259.6486432561489
 10
430.3868553054955
 20
259.6370560367009
 10
430.4703612733078
 20
259.608454643762
  0
LWPOLYLINE
  5
193
330
2
100
AcDbEntity
  8
0
100
AcDbPolyline
 90
        3
 70
   128
 43
0.0
 10
431.1785708494999
 20
259.2189393109588
 10
431.2274208222855
 20
259.18238480546
 10
431.2445739014518
 20
259.1395342946092
  0
LWPOLYLINE
  5
194
330
2
100
AcDbEntity
  8
0
100
AcDbPolyline
 90
        7
 70
   128
 43
0.0
 10
430.7938747415077
 20
259.1397446979062
 10
430.8110265015202
 20
259.18238480546
 10
430.8598764743058
 20
259.2189393109588
 10
430.9329854853038
 20
259.2433642973517
 10
431.019223398042
 20
259.251941232701
 10
431.1054615746912
 20
259.2433644292571
 10
431.1785708494999
 20
259.2189393109588
  0
SPLINE
  5
195
330
2
100
AcDbEntity
  8
0
100
AcDbSpline
210
0.0
220
0.0
230
1.0
 70
     8
 71
     3
 72
     9
 73
     5
 74
     0
 42
0.000000001
 43
0.0000000001
 40
0.0
 40
0.0
 40
0.0
 40
0.0
 40
0.7117757129585475
 40
1.0
 40
1.0
 40
1.0
 40
1.0
 10
421.473842998024
 20
264.1269906977352
 30
0.0
 10
421.5538099788743
 20
264.1638680083387
 30
0.0
 10
421.6661585451352
 20
264.2156783046611
 30
0.0
 10
421.8079256856616
 20
264.2420060508094
 30
0.0
 10
421.8487864186655
 20
264.2495943466725
 30
0.0
  0
SPLINE
  5
196
330
2
100
AcDbEntity
  8
0
100
AcDbSpline
210
0.0
220
0.0
230
1.0
 70
     8
 71
     3
 72
    14
 73
    10
 74
     0
 42
0.000000001
 43
0.0000000001
 40
0.0
 40
0.0
 40
0.0
 40
0.0
 40
0.1087281219283759
 40
0.2725130986736602
 40
0.4362980754189448
 40
0.6000746189361534
 40
0.7638600532315984
 40
0.9276449539034782
 40
1.0
 40
1.0
 40
1.0
 40
1.0
 10
422.7617800048773
 20
264.2655026825761
 30
0.0
 10
422.8288672056285
 20
264.2533287621216
 30
0.0
 10
422.9970126737355
 20
264.2228163911986
 30
0.0
 10
423.2228781510952
 20
264.13103399313
 30
0.0
 10
423.4211977779363
 20
264.0034126995047
 30
0.0
 10
423.546195235812
 20
263.8528596108955
 30
0.0
 10
423.5852165216634
 20
263.6926564120184
 30
0.0
 10
423.5614205021522
 20
263.5593837283118
 30
0.0
 10
423.49724043358
 20
263.4889340506629
 30
0.0
 10
423.4775751804809
 20
263.4673477424438
 30
0.0
  0
LINE
  5
197
330
2
100
AcDbEntity
  8
0
100
AcDbLine
 10
421.4738429980338
 20
264.1269906977657
 30
0.0
 11
421.4486125429299
 21
264.1753041984667
 31
0.0
  0
SPLINE
  5
198
330
2
100
AcDbEntity
  8
0
100
AcDbSpline
210
0.0
220
0.0
230
1.0
 70
     8
 71
     3
 72
    12
 73
     8
 74
     0
 42
0.000000001
 43
0.0000000001
 40
0.0
 40
0.0
 40
0.0
 40
0.0
 40
0.0921706960962281
 40
0.3191314244125836
 40
0.54609141327617
 40
0.773039678752205
 40
1.0
 40
1.0
 40
1.0
 40
1.0
 10
421.2054227422657
 20
263.4726372417063
 30
0.0
 10
421.1874278119373
 20
263.4924926348252
 30
0.0
 10
421.125122242042
 20
263.5612398631379
 30
0.0
 10
421.102160421228
 20
263.692766030345
 30
0.0
 10
421.1418090558693
 20
263.8525608152152
 30
0.0
 10
421.2636909688386
 20
264.0044981255756
 30
0.0
 10
421.4037910812801
 20
264.0861591173791
 30
0.0
 10
421.473842998024
 20
264.1269906977352
 30
0.0
  0
SPLINE
  5
199
330
2
100
AcDbEntity
  8
0
100
AcDbSpline
210
0.0
220
0.0
230
1.0
 70
     8
 71
     3
 72
    12
 73
     8
 74
     0
 42
0.000000001
 43
0.0000000001
 40
0.0
 40
0.0
 40
0.0
 40
0.0
 40
0.1005614813413205
 40
0.414178721538155
 40
0.6609293562024763
 40
0.9076542174375678
 40
1.0
 40
1.0
 40
1.0
 40
1.0
 10
421.0509569110906
 20
264.0085663177924
 30
0.0
 10
421.0352681851259
 20
263.9887150691469
 30
0.0
 10
420.9706516303978
 20
263.9069544916849
 30
0.0
 10
420.971928009878
 20
263.7619786885977
 30
0.0
 10
421.0419998890772
 20
263.595468485584
 30
0.0
 10
421.1409955756638
 20
263.478781012584
 30
0.0
 10
421.2332995972944
 20
263.4236550318195
 30
0.0
 10
421.2584385683821
 20
263.4086414883992
 30
0.0
  0
SPLINE
  5
19A
330
2
100
AcDbEntity
  8
0
100
AcDbSpline
210
0.0
220
0.0
230
1.0
 70
     8
 71
     3
 72
    11
 73
     7
 74
     0
 42
0.000000001
 43
0.0000000001
 40
0.0
 40
0.0
 40
0.0
 40
0.0
 40
0.2970823743417856
 40
0.5938020422340685
 40
0.8880787895373133
 40
1.0
 40
1.0
 40
1.0
 40
1.0
 10
423.7316457996045
 20
263.9623240677192
 30
0.0
 10
423.7321196512722
 20
263.8956061751549
 30
0.0
 10
423.7330667760842
 20
263.7622518455819
 30
0.0
 10
423.6457201243799
 20
263.5747996085201
 30
0.0
 10
423.5420915499872
 20
263.4392177474682
 30
0.0
 10
423.4454103953983
 20
263.3804142409228
 30
0.0
 10
423.4187714829085
 20
263.3642118954747
 30
0.0
  0
SPLINE
  5
19B
330
2
100
AcDbEntity
  8
0
100
AcDbSpline
210
0.0
220
0.0
230
1.0
 70
     8
 71
     3
 72
     9
 73
     5
 74
     0
 42
0.000000001
 43
0.0000000001
 40
0.0
 40
0.0
 40
0.0
 40
0.0
 40
0.0499447572953929
 40
1.0
 40
1.0
 40
1.0
 40
1.0
 10
424.7557072618718
 20
263.4657988490557
 30
0.0
 10
424.755267804521
 20
263.4657730088769
 30
0.0
 10
424.7464689360405
 20
263.4652556336773
 30
0.0
 10
424.7376783348073
 20
263.4643466425965
 30
0.0
 10
424.7293267780192
 20
263.4634830508547
 30
0.0
  0
SPLINE
  5
19C
330
2
100
AcDbEntity
  8
0
100
AcDbSpline
210
0.0
220
0.0
230
1.0
 70
     8
 71
     3
 72
    18
 73
    14
 74
     0
 42
0.000000001
 43
0.0000000001
 40
0.0
 40
0.0
 40
0.0
 40
0.0
 40
0.0437319910259782
 40
0.1393603034037604
 40
0.2349886157815426
 40
0.3306119134708864
 40
0.4262401350221058
 40
0.5218685768822505
 40
0.6174916692713256
 40
0.713120157969807
 40
0.8087483351044717
 40
0.9043715726628393
 40
1.0
 40
1.0
 40
1.0
 40
1.0
 10
425.6002935262577
 20
262.4027276482682
 30
0.0
 10
425.6206884441541
 20
262.4250678016324
 30
0.0
 10
425.6856807273603
 20
262.4962589474705
 30
0.0
 10
425.7099054621598
 20
262.6303110121243
 30
0.0
 10
425.6708566417329
 20
262.7906174832285
 30
0.0
 10
425.5456337032252
 20
262.9408417185585
 30
0.0
 10
425.3482436501615
 20
263.0696749006864
 30
0.0
 10
425.0903869690897
 20
263.1685192424614
 30
0.0
 10
424.7904018259286
 20
263.230628721451
 30
0.0
 10
424.4681247795932
 20
263.2520111484698
 30
0.0
 10
424.1470105200884
 20
263.2302953890356
 30
0.0
 10
423.8435369986775
 20
263.1698521380769
 30
0.0
 10
423.6801614524996
 20
263.0997356571665
 30
0.0
 10
423.5984714627425
 20
263.0646764653759
 30
0.0
  0
SPLINE
  5
19D
330
2
100
AcDbEntity
  8
0
100
AcDbSpline
210
0.0
220
0.0
230
1.0
 70
     8
 71
     3
 72
    12
 73
     8
 74
     0
 42
0.000000001
 43
0.0000000001
 40
0.0
 40
0.0
 40
0.0
 40
0.0
 40
0.2269706802722067
 40
0.4539293042223985
 40
0.6808996520952258
 40
0.9078707394545723
 40
1.0
 40
1.0
 40
1.0
 40
1.0
 10
423.5984714627425
 20
263.0646764653759
 30
0.0
 10
423.528419568763
 20
263.0238448887782
 30
0.0
 10
423.388319501849
 20
262.9421839044912
 30
0.0
 10
423.266437247431
 20
262.7902465377582
 30
0.0
 10
423.2267899103462
 20
262.6304519671124
 30
0.0
 10
423.2497459234799
 20
262.4989361503874
 30
0.0
 10
423.3120408792076
 20
262.4301984662969
 30
0.0
 10
423.3300264070973
 20
262.4103528219769
 30
0.0
  0
LINE
  5
19E
330
2
100
AcDbEntity
  8
0
100
AcDbLine
 10
423.3722774993258
 20
262.3128815562758
 30
0.0
 11
423.3967745109616
 21
262.2990236101166
 31
0.0
  0
ELLIPSE
  5
19F
330
2
100
AcDbEntity
  8
0
100
AcDbEllipse
 10
461.8349898959509
 20
253.2483241183347
 30
0.0
 11
-0.0312066643060472
 21
0.0391674454059735
 31
0.0
210
0.0
220
0.0
230
0.9999999999999998
 40
0.4905875661000001
 41
6.272573005216067
 42
7.054198905756097
  0
LINE
  5
1A0
330
2
100
AcDbEntity
  8
0
100
AcDbLine
 10
417.2919963821555
 20
275.1906892012617
 30
0.0
 11
417.3214818646177
 21
275.2137689928923
 31
0.0
  0
ELLIPSE
  5
1A1
330
2
100
AcDbEntity
  8
0
100
AcDbEllipse
 10
417.3129064497357
 20
275.2523512572026
 30
0.0
 11
-0.0305323490776116
 21
0.0396953153343234
 31
0.0
210
0.0
220
0.0
230
1.0
 40
0.4777619227000001
 41
2.36754375050549
 42
3.138137395970348
  0
ELLIPSE
  5
1A2
330
2
100
AcDbEntity
  8
0
100
AcDbEllipse
 10
416.9103636248865
 20
276.4304035430584
 30
0.0
 11
0.0432293507476327
 21
0.0903565319808489
 31
0.0
210
0.0
220
0.0
230
1.0
 40
0.6209870598000001
 41
5.745089119070757
 42
6.272377135607265
  0
LINE
  5
1A3
330
2
100
AcDbEntity
  8
0
100
AcDbLine
 10
416.97796478138
 20
276.4874178951457
 30
0.0
 11
416.9762406616334
 21
276.4942333958493
 31
0.0
  0
LINE
  5
1A4
330
2
100
AcDbEntity
  8
0
100
AcDbLine
 10
412.4322226988135
 20
271.7279478896744
 30
0.0
 11
412.3694520746369
 21
271.7588561962673
 31
0.0
  0
ARC
  5
1A5
330
2
100
AcDbEntity
  8
0
100
AcDbCircle
 10
461.8997260686777
 20
251.0711226458353
 30
0.0
 40
0.0109897988143297
100
AcDbArc
 50
23.87996771530017
 51
64.3929078978997
  0
LINE
  5
1A6
330
2
100
AcDbEntity
  8
0
100
AcDbLine
 10
417.4044646603535
 20
273.7665265109242
 30
0.0
 11
417.2705326078563
 21
274.3117397123013
 31
0.0
  0
LINE
  5
1A7
330
2
100
AcDbEntity
  8
0
100
AcDbLine
 10
417.5825196689929
 20
273.9178655575321
 30
0.0
 11
417.5698580076437
 21
273.9241963882067
 31
0.0
  0
ELLIPSE
  5
1A8
330
2
100
AcDbEntity
  8
0
100
AcDbEllipse
 10
417.8543439730492
 20
275.0979471430484
 30
0.0
 11
-0.1481615152559925
 21
0.1892823926752953
 31
0.0
210
0.0
220
0.0
230
0.9999999999999998
 40
0.5624611279472217
 41
0.0
 42
6.283185307179586
  0
ELLIPSE
  5
1A9
330
2
100
AcDbEntity
  8
0
100
AcDbEllipse
 10
461.3038288215033
 20
253.371194855095
 30
0.0
 11
-0.1481615152559925
 21
0.1892823926752953
 31
0.0
210
0.0
220
0.0
230
0.9999999999999998
 40
0.5624611279472215
 41
0.0
 42
6.283185307179586
  0
LINE
  5
1AA
330
2
100
AcDbEntity
  8
0
100
AcDbLine
 10
417.2088114937753
 20
274.5614196495306
 30
0.0
 11
417.3705718986336
 21
274.4875238686098
 31
0.0
  0
ENDSEC
  0
SECTION
  2
OBJECTS
  0
DICTIONARY
  5
9
330
0
100
AcDbDictionary
281
     1
  3
ACAD_COLOR
350
3E
  3
ACAD_GROUP
350
35
  3
ACAD_LAYOUT
350
16
  3
ACAD_MATERIAL
350
B
  3
ACAD_MLEADERSTYLE
350
41
  3
ACAD_MLINESTYLE
350
36
  3
ACAD_PLOTSETTINGS
350
37
  3
ACAD_PLOTSTYLENAME
350
8
  3
ACAD_SCALELIST
350
3F
  3
ACAD_TABLESTYLE
350
40
  3
ACAD_VISUALSTYLE
350
2B
  3
ACDB_RECOMPOSE_DATA
350
1AC
  3
AcDbVariableDictionary
350
42
  0
DICTIONARY
  5
1E
330
1D
100
AcDbDictionary
280
     1
281
     1
  3
ACAD_LAYERSTATES
360
1F
  0
DICTIONARY
  5
6
330
5
100
AcDbDictionary
280
     1
281
     1
  0
DICTIONARY
  5
3
330
2
100
AcDbDictionary
280
     1
281
     1
  0
DICTIONARY
  5
3E
102
{ACAD_REACTORS
330
9
102
}
330
9
100
AcDbDictionary
281
     1
  0
DICTIONARY
  5
35
102
{ACAD_REACTORS
330
9
102
}
330
9
100
AcDbDictionary
281
     1
  0
DICTIONARY
  5
16
102
{ACAD_REACTORS
330
9
102
}
330
9
100
AcDbDictionary
281
     1
  3
Model
350
15
  3
布局1
350
1C
  0
DICTIONARY
  5
B
102
{ACAD_REACTORS
330
9
102
}
330
9
100
AcDbDictionary
281
     1
  3
ByBlock
350
3B
  3
ByLayer
350
38
  3
Global
350
A
  0
DICTIONARY
  5
41
102
{ACAD_REACTORS
330
9
102
}
330
9
100
AcDbDictionary
281
     1
  0
DICTIONARY
  5
36
102
{ACAD_REACTORS
330
9
102
}
330
9
100
AcDbDictionary
281
     1
  3
Standard
350
4E
  0
DICTIONARY
  5
37
102
{ACAD_REACTORS
330
9
102
}
330
9
100
AcDbDictionary
281
     1
  0
ACDBDICTIONARYWDFLT
  5
8
102
{ACAD_REACTORS
330
9
102
}
330
9
100
AcDbDictionary
281
     1
  3
Normal
350
7
100
AcDbDictionaryWithDefault
340
7
  0
DICTIONARY
  5
3F
102
{ACAD_REACTORS
330
9
102
}
330
9
100
AcDbDictionary
281
     1
  3
A0
350
53
  3
A1
350
54
  3
A2
350
55
  3
A3
350
56
  3
A4
350
57
  3
A5
350
58
  3
A6
350
59
  3
A7
350
5A
  3
A8
350
5B
  3
A9
350
5C
  3
B0
350
5D
  3
B1
350
5E
  3
B2
350
5F
  3
B3
350
60
  3
B4
350
61
  3
B5
350
62
  3
B6
350
63
  0
DICTIONARY
  5
40
102
{ACAD_REACTORS
330
9
102
}
330
9
100
AcDbDictionary
281
     1
  3
Standard
350
4F
  0
DICTIONARY
  5
2B
102
{ACAD_REACTORS
330
9
102
}
330
9
100
AcDbDictionary
281
     1
  3
2dWireframe
350
2A
  3
Realistic
350
51
  3
Wireframe
350
52
  0
XRECORD
  5
1AC
102
{ACAD_REACTORS
330
9
102
}
330
9
100
AcDbXrecord
280
     1
 90
        1
330
4F
  0
DICTIONARY
  5
42
102
{ACAD_REACTORS
330
9
102
}
330
9
100
AcDbDictionary
281
     1
  3
CANNOSCALE
350
43
  3
CENTEREXE
350
44
  3
CENTERLTYPEFILE
350
45
  3
CMLEADERSTYLE
350
46
  3
CTABLESTYLE
350
47
  3
CVIEWDETAILSTYLE
350
48
  3
CVIEWSECTIONSTYLE
350
49
  3
DIMASSOC
350
4A
  3
HIDETEXT
350
4B
  3
LAYEREVAL
350
4C
  3
LAYERNOTIFY
350
4D
  0
DICTIONARY
  5
1F
102
{ACAD_REACTORS
330
1E
102
}
330
1E
100
AcDbDictionary
281
     1
  0
LAYOUT
  5
15
102
{ACAD_XDICTIONARY
360
17
102
}
102
{ACAD_REACTORS
330
16
102
}
330
16
100
AcDbPlotSettings
  1

  2
none_device
  4
ISO_A4_(210.00_x_297.00_MM)
  6

 40
7.5
 41
20.0
 42
7.5
 43
20.0
 44
210.0
 45
297.0
 46
11.54999923706054
 47
-13.65000009536743
 48
0.0
 49
0.0
140
0.0
141
0.0
142
1.0
143
8.704084754739808
 70
 11952
 72
     1
 73
     0
 74
     0
  7

 75
     0
147
0.1148885871608098
 76
     0
 77
     2
 78
   300
148
0.0
149
0.0
100
AcDbLayout
  1
Model
 70
     1
 71
     0
 10
0.0
 20
0.0
 11
12.0
 21
9.0
 12
0.0
 22
0.0
 32
0.0
 14
0.0
 24
0.0
 34
0.0
 15
0.0
 25
0.0
 35
0.0
146
0.0
 13
0.0
 23
0.0
 33
0.0
 16
1.0
 26
0.0
 36
0.0
 17
0.0
 27
1.0
 37
0.0
 76
     0
330
2
331
29
1001
ACAD_PSEXT
1000
None
1000
None
1000
Not applicable
1000
The layout will not be plotted unless a new plotter configuration name is selected.
1070
     0
  0
LAYOUT
  5
1C
102
{ACAD_REACTORS
330
16
102
}
330
16
100
AcDbPlotSettings
  1

  2
C:\Documents and Settings\basas\Application Data\Autodesk\AutoCAD 2005\R16.1\enu\plotters\Default Windows System Printer.pc3
  4

  6

 40
0.0
 41
0.0
 42
0.0
 43
0.0
 44
0.0
 45
0.0
 46
0.0
 47
0.0
 48
0.0
 49
0.0
140
0.0
141
0.0
142
1.0
143
1.0
 70
   688
 72
     0
 73
     0
 74
     5
  7

 75
    16
147
1.0
 76
     0
 77
     2
 78
   300
148
0.0
149
0.0
100
AcDbLayout
  1
布局1
 70
     1
 71
     1
 10
0.0
 20
0.0
 11
12.0
 21
9.0
 12
0.0
 22
0.0
 32
0.0
 14
0.0
 24
0.0
 34
0.0
 15
0.0
 25
0.0
 35
0.0
146
0.0
 13
0.0
 23
0.0
 33
0.0
 16
1.0
 26
0.0
 36
0.0
 17
0.0
 27
1.0
 37
0.0
 76
     0
330
19
  0
MATERIAL
  5
3B
102
{ACAD_XDICTIONARY
360
3C
102
}
102
{ACAD_REACTORS
330
B
102
}
330
B
100
AcDbMaterial
  1
ByBlock
 94
       63
  0
MATERIAL
  5
38
102
{ACAD_XDICTIONARY
360
39
102
}
102
{ACAD_REACTORS
330
B
102
}
330
B
100
AcDbMaterial
  1
ByLayer
 94
       63
  0
MATERIAL
  5
A
102
{ACAD_XDICTIONARY
360
C
102
}
102
{ACAD_REACTORS
330
B
102
}
330
B
100
AcDbMaterial
  1
Global
 43
0.0007999999797903
 43
0.0
 43
0.0
 43
0.0
 43
0.0
 43
0.0007999999797903
 43
0.0
 43
0.0
 43
0.0
 43
0.0
 43
1.0
 43
0.0
 43
0.0
 43
0.0
 43
0.0
 43
1.0
 49
0.0007999999797903
 49
0.0
 49
0.0
 49
0.0
 49
0.0
 49
0.0007999999797903
 49
0.0
 49
0.0
 49
0.0
 49
0.0
 49
1.0
 49
0.0
 49
0.0
 49
0.0
 49
0.0
 49
1.0
142
0.0007999999797903
142
0.0
142
0.0
142
0.0
142
0.0
142
0.0007999999797903
142
0.0
142
0.0
142
0.0
142
0.0
142
1.0
142
0.0
142
0.0
142
0.0
142
0.0
142
1.0
144
0.0007999999797903
144
0.0
144
0.0
144
0.0
144
0.0
144
0.0007999999797903
144
0.0
144
0.0
144
0.0
144
0.0
144
1.0
144
0.0
144
0.0
144
0.0
144
0.0
144
1.0
 94
       63
1001
ACAD
1070
    -1
1070
     3
1070
     0
1000

1071
        0
1070
     0
  0
MLINESTYLE
  5
4E
102
{ACAD_REACTORS
330
36
102
}
330
36
100
AcDbMlineStyle
  2
STANDARD
 70
     0
  3

 62
   256
 51
90.0
 52
90.0
 71
     2
 49
0.5
 62
   256
  6
BYLAYER
 49
-0.5
 62
   256
  6
BYLAYER
  0
ACDBPLACEHOLDER
  5
7
102
{ACAD_REACTORS
330
8
102
}
330
8
  0
SCALE
  5
53
102
{ACAD_REACTORS
330
3F
102
}
330
3F
100
AcDbScale
 70
     0
300
1:1
140
1.0
141
1.0
290
     1
  0
SCALE
  5
54
102
{ACAD_REACTORS
330
3F
102
}
330
3F
100
AcDbScale
 70
     0
300
1:2
140
1.0
141
2.0
290
     0
  0
SCALE
  5
55
102
{ACAD_REACTORS
330
3F
102
}
330
3F
100
AcDbScale
 70
     0
300
1:4
140
1.0
141
4.0
290
     0
  0
SCALE
  5
56
102
{ACAD_REACTORS
330
3F
102
}
330
3F
100
AcDbScale
 70
     0
300
1:5
140
1.0
141
5.0
290
     0
  0
SCALE
  5
57
102
{ACAD_REACTORS
330
3F
102
}
330
3F
100
AcDbScale
 70
     0
300
1:8
140
1.0
141
8.0
290
     0
  0
SCALE
  5
58
102
{ACAD_REACTORS
330
3F
102
}
330
3F
100
AcDbScale
 70
     0
300
1:10
140
1.0
141
10.0
290
     0
  0
SCALE
  5
59
102
{ACAD_REACTORS
330
3F
102
}
330
3F
100
AcDbScale
 70
     0
300
1:16
140
1.0
141
16.0
290
     0
  0
SCALE
  5
5A
102
{ACAD_REACTORS
330
3F
102
}
330
3F
100
AcDbScale
 70
     0
300
1:20
140
1.0
141
20.0
290
     0
  0
SCALE
  5
5B
102
{ACAD_REACTORS
330
3F
102
}
330
3F
100
AcDbScale
 70
     0
300
1:30
140
1.0
141
30.0
290
     0
  0
SCALE
  5
5C
102
{ACAD_REACTORS
330
3F
102
}
330
3F
100
AcDbScale
 70
     0
300
1:40
140
1.0
141
40.0
290
     0
  0
SCALE
  5
5D
102
{ACAD_REACTORS
330
3F
102
}
330
3F
100
AcDbScale
 70
     0
300
1:50
140
1.0
141
50.0
290
     0
  0
SCALE
  5
5E
102
{ACAD_REACTORS
330
3F
102
}
330
3F
100
AcDbScale
 70
     0
300
1:100
140
1.0
141
100.0
290
     0
  0
SCALE
  5
5F
102
{ACAD_REACTORS
330
3F
102
}
330
3F
100
AcDbScale
 70
     0
300
2:1
140
2.0
141
1.0
290
     0
  0
SCALE
  5
60
102
{ACAD_REACTORS
330
3F
102
}
330
3F
100
AcDbScale
 70
     0
300
4:1
140
4.0
141
1.0
290
     0
  0
SCALE
  5
61
102
{ACAD_REACTORS
330
3F
102
}
330
3F
100
AcDbScale
 70
     0
300
8:1
140
8.0
141
1.0
290
     0
  0
SCALE
  5
62
102
{ACAD_REACTORS
330
3F
102
}
330
3F
100
AcDbScale
 70
     0
300
10:1
140
10.0
141
1.0
290
     0
  0
SCALE
  5
63
102
{ACAD_REACTORS
330
3F
102
}
330
3F
100
AcDbScale
 70
     0
300
100:1
140
100.0
141
1.0
290
     0
  0
TABLESTYLE
  5
4F
102
{ACAD_XDICTIONARY
360
50
102
}
102
{ACAD_REACTORS
330
40
102
}
330
40
100
AcDbTableStyle
280
     0
  3
Standard
 70
     0
 71
     0
 40
1.5
 41
1.5
280
     0
281
     0
  7
Standard
140
4.5
170
     2
 62
     0
 63
     7
283
     0
 90
      512
 91
        0
  1

274
    -2
284
     1
 64
     0
275
    -2
285
     1
 65
     0
276
    -2
286
     1
 66
     0
277
    -2
287
     1
 67
     0
278
    -2
288
     1
 68
     0
279
    -2
289
     1
 69
     0
  7
Standard
140
6.0
170
     5
 62
     0
 63
     7
283
     0
 90
      512
 91
        0
  1

274
    -2
284
     1
 64
     0
275
    -2
285
     1
 65
     0
276
    -2
286
     1
 66
     0
277
    -2
287
     1
 67
     0
278
    -2
288
     1
 68
     0
279
    -2
289
     1
 69
     0
  7
Standard
140
4.5
170
     5
 62
     0
 63
     7
283
     0
 90
      512
 91
        0
  1

274
    -2
284
     1
 64
     0
275
    -2
285
     1
 65
     0
276
    -2
286
     1
 66
     0
277
    -2
287
     1
 67
     0
278
    -2
288
     1
 68
     0
279
    -2
289
     1
 69
     0
  0
VISUALSTYLE
  5
2A
102
{ACAD_REACTORS
330
2B
102
}
330
2B
100
AcDbVisualStyle
  2
2dWireframe
 70
     4
177
     3
291
     0
 70
    58
 90
        0
176
     1
 90
        2
176
     1
 90
        1
176
     1
 90
        0
176
     1
 40
0.6
176
     1
 40
30.0
176
     1
 62
     7
420
 16777215
176
     1
 90
        1
176
     1
 90
        4
176
     1
 62
     7
176
     1
 62
   257
176
     1
 90
        1
176
     1
 90
        1
176
     1
 40
1.0
176
     1
 90
        0
176
     1
 62
   257
176
     1
 40
1.0
176
     1
 90
        1
176
     1
 90
        6
176
     1
 90
        2
176
     1
 62
     7
176
     1
 90
        5
176
     1
 90
        0
176
     1
 90
        0
176
     1
290
     0
176
     1
 90
        1
176
     1
 40
0.0
176
     1
 90
        0
176
     1
290
     1
176
     1
290
     1
176
     1
290
     0
176
     1
290
     0
176
     1
290
     0
176
     1
290
     0
176
     1
290
     0
176
     1
290
     0
176
     1
290
     0
176
     1
 90
       50
176
     1
 40
0.0
176
     1
 40
1.0
176
     1
 90
        0
176
     1
 62
    18
420
        0
176
     1
 90
       50
176
     1
 90
        3
176
     1
 62
     5
420
      255
176
     1
290
     0
176
     1
 90
       50
176
     1
 90
       50
176
     1
 90
       50
176
     1
290
     0
176
     1
 90
       50
176
     1
 62
   256
176
     0
 40
1.0
176
     0
 90
        2
176
     1
  1
strokes_ogs.tif
176
     1
290
     0
176
     1
 40
1.0
176
     1
 40
1.0
176
     1
  0
VISUALSTYLE
  5
51
102
{ACAD_REACTORS
330
2B
102
}
330
2B
100
AcDbVisualStyle
  2
Realistic
 70
     8
177
     3
291
     0
 70
    58
 90
        2
176
     1
 90
        3
176
     1
 90
        0
176
     1
 90
        2
176
     1
 40
0.6
176
     1
 40
30.0
176
     1
 62
     7
420
 16777215
176
     1
 90
        0
176
     1
 90
        0
176
     1
 62
     7
176
     1
 62
   257
176
     1
 90
        1
176
     1
 90
        1
176
     1
 40
1.0
176
     1
 90
        8
176
     1
 62
   257
176
     1
 40
1.0
176
     1
 90
        1
176
     1
 90
        6
176
     1
 90
        2
176
     1
 62
     7
176
     1
 90
        3
176
     1
 90
        0
176
     1
 90
        0
176
     1
290
     0
176
     1
 90
       13
176
     1
 40
0.0
176
     1
 90
        0
176
     1
290
     0
176
     1
290
     1
176
     1
290
     1
176
     1
290
     0
176
     1
290
     0
176
     1
290
     0
176
     1
290
     0
176
     1
290
     0
176
     1
290
     0
176
     1
 90
       50
176
     1
 40
0.0
176
     1
 40
1.0
176
     1
 90
        0
176
     1
 62
    18
420
        0
176
     1
 90
       50
176
     1
 90
        3
176
     1
 62
     5
420
      255
176
     1
290
     0
176
     1
 90
       50
176
     1
 90
       50
176
     1
 90
       50
176
     1
290
     0
176
     1
 90
       50
176
     1
 62
   256
176
     0
 40
1.0
176
     0
 90
        2
176
     1
  1
strokes_ogs.tif
176
     1
290
     0
176
     1
 40
1.0
176
     1
 40
1.0
176
     1
  0
VISUALSTYLE
  5
52
102
{ACAD_REACTORS
330
2B
102
}
330
2B
100
AcDbVisualStyle
  2
Wireframe
 70
     5
177
     3
291
     0
 70
    58
 90
        0
176
     1
 90
        2
176
     1
 90
        0
176
     1
 90
        0
176
     1
 40
0.6
176
     1
 40
30.0
176
     1
 62
     7
420
 16777215
176
     1
 90
        1
176
     1
 90
        4
176
     1
 62
     7
176
     1
 62
   257
176
     1
 90
        1
176
     1
 90
        1
176
     1
 40
1.0
176
     1
 90
        0
176
     1
 62
   257
176
     1
 40
1.0
176
     1
 90
        1
176
     1
 90
        6
176
     1
 90
        2
176
     1
 62
     7
176
     1
 90
        3
176
     1
 90
        0
176
     1
 90
        0
176
     1
290
     0
176
     1
 90
        1
176
     1
 40
0.0
176
     1
 90
        0
176
     1
290
     0
176
     1
290
     1
176
     1
290
     1
176
     1
290
     0
176
     1
290
     0
176
     1
290
     0
176
     1
290
     0
176
     1
290
     0
176
     1
290
     0
176
     1
 90
       50
176
     1
 40
0.0
176
     1
 40
1.0
176
     1
 90
        0
176
     1
 62
    18
420
        0
176
     1
 90
       50
176
     1
 90
        3
176
     1
 62
     5
420
      255
176
     1
290
     0
176
     1
 90
       50
176
     1
 90
       50
176
     1
 90
       50
176
     1
290
     0
176
     1
 90
       50
176
     1
 62
   256
176
     0
 40
1.0
176
     0
 90
        2
176
     1
  1
strokes_ogs.tif
176
     1
290
     0
176
     1
 40
1.0
176
     1
 40
1.0
176
     1
  0
DICTIONARYVAR
  5
43
102
{ACAD_REACTORS
330
42
102
}
330
42
100
DictionaryVariables
280
     0
  1
1:1
  0
DICTIONARYVAR
  5
44
102
{ACAD_REACTORS
330
42
102
}
330
42
100
DictionaryVariables
280
     0
  1
3.500000
  0
DICTIONARYVAR
  5
45
102
{ACAD_REACTORS
330
42
102
}
330
42
100
DictionaryVariables
280
     0
  1
acadiso.lin
  0
DICTIONARYVAR
  5
46
102
{ACAD_REACTORS
330
42
102
}
330
42
100
DictionaryVariables
280
     0
  1
STANDARD
  0
DICTIONARYVAR
  5
47
102
{ACAD_REACTORS
330
42
102
}
330
42
100
DictionaryVariables
280
     0
  1
STANDARD
  0
DICTIONARYVAR
  5
48
102
{ACAD_REACTORS
330
42
102
}
330
42
100
DictionaryVariables
280
     0
  1

  0
DICTIONARYVAR
  5
49
102
{ACAD_REACTORS
330
42
102
}
330
42
100
DictionaryVariables
280
     0
  1

  0
DICTIONARYVAR
  5
4A
102
{ACAD_REACTORS
330
42
102
}
330
42
100
DictionaryVariables
280
     0
  1
2
  0
DICTIONARYVAR
  5
4B
102
{ACAD_REACTORS
330
42
102
}
330
42
100
DictionaryVariables
280
     0
  1
1
  0
DICTIONARYVAR
  5
4C
102
{ACAD_REACTORS
330
42
102
}
330
42
100
DictionaryVariables
280
     0
  1
0
  0
DICTIONARYVAR
  5
4D
102
{ACAD_REACTORS
330
42
102
}
330
42
100
DictionaryVariables
280
     0
  1
0
  0
DICTIONARY
  5
17
330
15
100
AcDbDictionary
280
     1
281
     1
  0
DICTIONARY
  5
3C
330
3B
100
AcDbDictionary
280
     1
281
     1
  3
FBXASSET
360
3D
  0
DICTIONARY
  5
39
330
38
100
AcDbDictionary
280
     1
281
     1
  3
FBXASSET
360
3A
  0
DICTIONARY
  5
C
330
A
100
AcDbDictionary
280
     1
281
     1
  3
BUMPTILE
360
D
  3
DIFFUSETILE
360
E
  3
FBXASSET
360
F
  3
OPACITYTILE
360
10
  3
REFLECTIONTILE
360
11
  0
DICTIONARY
  5
50
330
4F
100
AcDbDictionary
280
     1
281
     1
  3
ACAD_ROUNDTRIP_2008_TABLESTYLE_CELLSTYLEMAP
360
1AB
  0
XRECORD
  5
3D
102
{ACAD_REACTORS
330
3C
102
}
330
3C
100
AcDbXrecord
280
     1
 70
     1
 90
429727718
  1
D62C5603-E3A1-4AEA-B7FB-FE5D8D0755AF
310
504B03040A0000080000CC70623B3DEE336E79000000790000001B0000006175746F6465736B2D64657369676E2D7061636B6167652E786D6C3C3F786D6C2076657273696F6E3D22312E302220656E636F64696E673D227574662D3822203F3E3C666F726D6174733E3C666F726D61743E687474703A2F2F736368656D612E
310
6175746F6465736B2E636F6D2F64657369676E2D7061636B6167652F323030393C2F666F726D61743E3C2F666F726D6174733E504B0304140006080800CC70623BD486FD9CA0000000F4000000130000005B436F6E74656E745F54797065735D2E786D6C7D8EC10E82300C865F65E91D8A1E8C310C0EEA1BF002731658846E
310
D98AC1B77784ABF1D8FE5FBFBF75BBCE937A534CCEB38643598122B6FEE978D0B0485F9C41B54DDD7D022595594E1A469170414C76A4D9A4D207E29CF43ECE46F218070CC6BECC4078ACAA135ACF422C856C0E68EA1BF5669944DDD7BCDE7B1F8E415D77AECB980613C2E4AC91FC167A2B244592486606FC29C8FD7F045B9A
310
EF7053A7E60B504B0304140006080800CC70623B853B8169EB0000007C01000008000000636F72652E786D6C8D90416EC3201045AF62CDB6C206821CC7C244919D9CA01740401C94182C03558F5F9C3852BBEB6A467FFE9B197D7EFC9E1EC5975982F5AE035262288C535E5B377690E21535501C055FBC8FBF6C503839990E
310
5619041F179FE64D52DE45E362569DD7661365082642A11EB9E920A89B99642953CC8E702F67A9EE7234257977194EC9EAE275C4EABCCF5EAD5940D4AC6F0E35A568B8F43562CD7046CD199FD07E60174276A7BE677B5EADB0E0D14EEFFB6A31321A0D82627C4084204C3F096B71DD52F6819B16635EADF63F509AF53FA164
310
5DDCD1EDDD17164090FCC8732078B56691CB33A85CD7DCC40F504B0304140006080800CC70623B55019EA25F0000007C00000007000000636E782E786D6C4DCB3B0E80201045D1AD90E915ED2CF8AC45050C11660C8261F98AB1B07AC9C97D42D718D865D3E909258CFD00CCE24AC6E326A164D74DC0B4128928FF32603847
310
2BA13128B1252AC747C6BAB984FC68F0B87FE8960A5C09FE86CFB69FBA01504B0304140006080800CC70623BDBABAAF470010000D40300000C0000006662782F636F72652E786D6CC553D16E823014FD95A6AF4B694182CC941A83FA05FB810A9511A125A5257EFE2E82712ECEB8A7F100CD39F7F69E734AF9FADC366850B6
310
AF8DCE7018308C942E4C59EB2AC3DE1D498AD15A706B8CFB56869196ADCAF00863C12B6B7C374385D14E6907A836A59A41D9F7CA615434B0C8705F7CAA5606D23BA8E84F41278B93AC54100640439DE0BDB320004D43C63716C7C399D30917DCFBBA9CD9BA8469F5B156168B24CED3F7248AC8769F27244EB73B92EED8862C
310
B7F13E0C179B3C8F979C8ECD82BBBABDAA2BAC924E9558448CBD9330242CFA08E3154B5651FCC6D215639C8EE5774DBE2B5F6CF2B5768B68963BB5F5588420E442FC700B1139D4CB01F450C1E918227C2E09DF070D8140C84E1E9AAB8F1340832A9CB13130A5F1376A908D57309505ECF2A0DF179C4E9D30F5B239B87E3823
310
7A79C6F31DE1A8A5AEC08474B03C7837EAE4938639B44E5932B833D2C6B6B279CDC613877FA26EE21F4A2A4C63EC7F29A2F301D1F9F7A0E37D145F504B0304140006080800CC70623B9C113CC27E0000009D0000000B0000006662782F636E782E786D6C4DCCDF0A83201C86E15B91DFB94BFB330DD428C8FB886521330DA7
310
6397BF1A1DECE883878F57749FCDA1B7892F1BBC047A23808C7F84D9FA55424E0BE6803A256208E9EF06C84F9B91703228B1C690F78B66B34CD9A5439DF5CF0BFBF65E35BCA1B8D6A5C6F540381E886698B5741C695F9503EBA150A2F8958E3DC3EA0B504B0304140006080800CC70623B7DF2F77C2A010000120200003100
310
00006662782F41393633353835312D344632462D344230382D423046372D3739314545314133324237412F636F72652E786D6C8D51DB8EC22014FC15C2939B0D2DB4B45643319AE817EC0F6041255A68B86CFCFC856D4D76DF7CE190393373060EDB3DC707F856CE6B6B7A480A0C81328395DA5C7B18C3057510EC3873D686
310
3F34088C18550F330C39BB3A1BA7051AAC09CA84841A2BD5020AEF55806078A44B0FFD7053A328440C89E1EFC52486BBB8AA8214A99D789CF9E05200300FC927E4FB4D5B375D43103D5527440FB843077C5AA3F5861C8F645F5787F59E95B390B318B55CE45AA638FAA2957BD7248B390B7A7CC51F9C124149C82B8C378810
310
84AB2F42B7B8DD56F413775B8C5999E9FF4471926F8AA236A1AE96B8B3CC434E5839373893369E1FAF30EA395917409EB7F26AF8801C171837A4A6AC9C89E9F9C9B1A58BA30FD6A5EF5DDDCF894B9AD9B6A59C957943A9FCAE2FD5BC4DFE03504B0304140006080800CC70623BAD7543B64E01000033030000300000006662
310
782F41393633353835312D344632462D344230382D423046372D3739314545314133324237412F636E782E786D6CD593CD6EC32010845F0571AD6CE3D48AD20813A9873E410FBD12D82434182C7EAAE6EDBB2424CD25871E7B41D6EC30B3FA84F9E67BB2E40B4234DE8DB46F1925E094D7C6ED479AD3AE5951B2113C789FEE
310
6C943839C1488B4C05DF079FE72A69D8C96C13AAD6B8631503449F83828872B949AC57D26200B826A308D316B4064D6E46FCDA41C05550DC9E483A00797BFD207EFB092A45DE9514C1BBD22178396BD39D891265658C238DEA00936C654E5E433CB65A26D9F6EDB5EBC14EBF49A45CB856E66048291F6939A9A81BB5C89177
310
38143CA680F4AA299D66A042CEB3354A2684DC9D8D178FE0D9B8B41CAAD720F880EE7EF93C0C18769E099ECC04D5A102C8049A8A05632F4DDF376CF1DE0F6BB65C2F8627B65A33C6BB62177CEBBDAD973006829F89F22E814B54F4BC2BE347F8AA8F681390B50FA73F804400B5F542E796F19FF974E7F78DB802FE05E20750
310
4B0304140006080800CC70623BE75B7789680500003C100000340000006662782F41393633353835312D344632462D344230382D423046372D3739314545314133324237412F6F626A656374732E786D6CAD575B8F9B3818FD2B887D06C22499CB8AA1CA655245D5B455A356FB305264C061D8018C6C3393D95FBFC7600890
310
A4CD5EF210B0B1BFEBF98E3F7B1FF6596ABC522E1296DF9BAE3D320D9A872C4AF2F8DE2CE5CEBA358D0FBEC719939D65A691938CDE9B6ADAF4BD98B3B2D05311DD91329583D9D5FC0F438434A7A611A644887B5384CF34233629258BA878B12322891DEFF6B66BD70BFB62634E8AE781D082709A4B588AF91C528CDA28B73F
310
1C998EEF39EABBEFA97FBD6A7C7E9553F9D3D79FE442923C3C523610337627CB87ABE99D359D4CC6D6E4FACAB5E6ABF9D2726FC6A3C5F56271377BB88362213924694B38DD99FE47C48627A1E7D49F5A8BB5E1A74C0A599ED3B0F21F1E56366B89112D681E218F0915D0D6F17AD41FBA2A369DCF6335D62ABBD39779D5DDD1
310
11D4D8DE3CBB96B2E04FB8202E41051754A1AA8E8F76B4C6DFE810B580B1547F4B84911149794252234D024EF8BBE963A95AE27B3D310A9D5C215C7960FAEE415ED75694C6AFB17BCACA5D99A60A9AA65F217B0BFC53292ACB92BF283FAD0D3621576592CB5BED907C2FA8E9DF794E35E97BEA31BED21FEB401ABB94C44839
310
DCACBF0E1C5DA8DA5B2F4DFFD32AD86F543D9E565E7056502E157C00AD2671CD534549AB752FCA9CDA00677A313F04E51B22FF19E57B300579E3C97EB29F682D92935CEC18CF901B7B54FD8C51F362B56FC72FE0B3C1EAE335EDCCBF5AEC39ADB17DC238973F804BA5E6F6BFE7AF1FB32E523BE9F3BD571418E3631DCA4D48
310
5250CF639223210A9446CA30052EDF057BD35F8329C1ECD84552BF0DC8D18BE7BCE23BFE6BD960AB4A7DE79923A103BEBD80F911CBAA2C60DB19B01CF164A5583B772EE6D3FFA56666CBCDA74DC97724A48F9A58967497E489C4D979006FD7A05E227A1EBDD0F737C623387A9C844D3709995625106D157315F8B8392CD4E0
310
A0B9A720C4BE9829CEF37EA1E13111214D53925356365ADA634861B52519DD27A00AEB808EAF0628E6F435519D446F45CF2C9CF5214F0A15B2F6D06B79DA3EE3CBF7F56780D2F4E7EF73A0F5E5B02A38D07DC852C6B7C1FBB6664213E0C39E3EBA7FF4E1AD23EA2829407C85E586727488B751B2DB9502BC7B228A3FD68B6E
310
A65A22397E690AA8D158D7E404EC8CDA235CC3B7D1898680131CEC2CDF2638C65196279577750F15884AEE19F94199155B92B13297978469D4F8D358DF0AEF7631E28DC8F0D9F437D5D39A83B2231A1D52D543813A824EF8D44BCFF2FA6A31BD1E8DAD87F1CCB526B3879935BF59CDADD5C37479BB1CDD4CA7B3556B516589
310
EF352754B706114D9C885EC9131DE6EFEB43D99AFE2391C2F958179413D7CFEF6B1B6DB1E7600F00DE6E5C67454A339A4BA2E0FBA85ED26F045D454F463DBFCE484C2F90F2E5E3666003662ED8F755951A7D1BECD5B30B550B2785C8E7320B7292A4838DDA71BBC863ED7613CAF659337A3354231D4FF4A182A54904C2898C
310
98B28C4AD0CE056CCF332A80986E571EE9DBC305BB5FEB7E509220A58D25CF042D712A806AC0AD0C657FDEF80D2D9CEAA2EE4D1C76F60BFE74219A06527D6F82DF6412526107381E55E353090704D085B52408A8913C4ED159D79BDA71BB4BC506F4831350EB6F975CD22D69BF7AC49B91A2C0A9DDA3D5CA36AD20FC478E37
310
E61844E2352865EBCB61A275A65283CAAA9DD27703B4102F5AF51EF5F573B75CBB5AD38BC845F7A49F82A0966A49C2E3EA5EA0ECD326CD965F1DB402C6FA8B51A4658C5C5E2EC9E214602E55810345408596591009A82E7E7FFACA19EEA299B14A0081A705CB3296EBC14CDF658DCD336EA6D1136881AAEB87B81AB9EE53D5
310
F5EB8BC8362082DA24122F98680A4E7930C01A0079749CEA14382A0783E5EBA5A10F8C098456A03D6A4AEB6BB881E2513747552A5DB22C7EDAF83BD5528081A365F7FF06504B0304140006080000CC70623B000000000000000000000000350000006662782F41393633353835312D344632462D344230382D423046372D37
310
39314545314133324237412F76657274696365732E62696E504B0304140006080800CC70623BF270F1330600000004000000360000006662782F41393633353835312D344632462D344230382D423046372D3739314545314133324237412F747269616E676C65732E62696E636660600000504B0304140006080000CC7062
310
3B000000000000000000000000370000006662782F41393633353835312D344632462D344230382D423046372D3739314545314133324237412F617474726962757465732E62696E504B0304140006080800CC70623B08DA0BD19000000041010000360000006662782F41393633353835312D344632462D344230382D4230
310
46372D3739314545314133324237412F6469726563746F72792E786D6C858F410AC3201045AF22B36F53E9A60B35CBEEBAE80D244E44489C6234F4F835464A48035D0DF398FF9F8AF63D0E6CC63039F212F8F9020C7D47C6792B21C5FE7403D62A1188E2E60C98D7234A5830286103A55745067B9D86B8A3CF9C7F90C11DE6
310
07FB144396D7B6A82D282E9A152AD114D5EF2CB866EEE831B8EEA07A7BB5A8D7D61A2BAAEB7FD5F70921FF497D00504B0304140006080800CC70623BEDD1DC58FD000000A00100003B0000006662782F41393633353835312D344632462D344230382D423046372D3739314545314133324237412F7265736F75726365732F
310
636F72652E786D6C8D504B6E833010BD0A9A6D65B00922041947112427E8052C33A156828DFCA97AFC9A40A576D7CDCCE87D344F8F9FBFE667F689CE6B6B3A6039850C8DB2A336530731DC4903D95970676DF82583CCC8193B5861107C72362E3BA4AC096842428D1D7107A5F7182053CF7474E0D507CE32973124857FE48B
310
540F3961CEF244279DE03EB81420DB9EAC1384436FA353E879B1B182C7A8C75DA3C7F453DF353A1075D537A7BA6464B8F535A99AE14A9A2BBD90E350DD183B5CFABE3AF262350B1EF4FC9351399401471025A527C218A1E53BAB5A5AB765F5469B96525EACF23FA6B88CFF34456DC2A1DCE36E360F82A5202F42F062ED2BAD
310
579969AFDD8A6F504B010214000A0000080000CC70623B3DEE336E79000000790000001B00000000000000000000000000000000006175746F6465736B2D64657369676E2D7061636B6167652E786D6C504B01021400140006080800CC70623BD486FD9CA0000000F40000001300000000000000000000000000B20000005B
310
436F6E74656E745F54797065735D2E786D6C504B01021400140006080800CC70623B853B8169EB0000007C010000080000000000000000000000000083010000636F72652E786D6C504B01021400140006080800CC70623B55019EA25F0000007C000000070000000000000000000000000094020000636E782E786D6C504B
310
01021400140006080800CC70623BDBABAAF470010000D40300000C00000000000000000000000000180300006662782F636F72652E786D6C504B01021400140006080800CC70623B9C113CC27E0000009D0000000B00000000000000000000000000B20400006662782F636E782E786D6C504B01021400140006080800CC70
310
623B7DF2F77C2A010000120200003100000000000000000000000000590500006662782F41393633353835312D344632462D344230382D423046372D3739314545314133324237412F636F72652E786D6C504B01021400140006080800CC70623BAD7543B64E010000330300003000000000000000000000000000D2060000
310
6662782F41393633353835312D344632462D344230382D423046372D3739314545314133324237412F636E782E786D6C504B01021400140006080800CC70623BE75B7789680500003C10000034000000000000000000000000006E0800006662782F41393633353835312D344632462D344230382D423046372D3739314545
310
314133324237412F6F626A656374732E786D6C504B01021400140006080000CC70623B0000000000000000000000003500000000000000000000000000280E00006662782F41393633353835312D344632462D344230382D423046372D3739314545314133324237412F76657274696365732E62696E504B01021400140006
310
080800CC70623BF270F133060000000400000036000000000000000000000000007B0E00006662782F41393633353835312D344632462D344230382D423046372D3739314545314133324237412F747269616E676C65732E62696E504B01021400140006080000CC70623B0000000000000000000000003700000000000000
310
000000000000D50E00006662782F41393633353835312D344632462D344230382D423046372D3739314545314133324237412F617474726962757465732E62696E504B01021400140006080800CC70623B08DA0BD1900000004101000036000000000000000000000000002A0F00006662782F41393633353835312D344632
310
462D344230382D423046372D3739314545314133324237412F6469726563746F72792E786D6C504B01021400140006080800CC70623BEDD1DC58FD000000A00100003B000000000000000000000000000E1000006662782F41393633353835312D344632462D344230382D423046372D3739314545314133324237412F7265
310
736F75726365732F636F72652E786D6C504B0506000000000E000E0080040000641100000000
  0
XRECORD
  5
3A
102
{ACAD_REACTORS
330
39
102
}
330
39
100
AcDbXrecord
280
     1
 70
     1
 90
429727718
  1
30362254-06B7-45E0-A893-8CFA70E3D6BC
310
504B03040A0000080000CC70623B3DEE336E79000000790000001B0000006175746F6465736B2D64657369676E2D7061636B6167652E786D6C3C3F786D6C2076657273696F6E3D22312E302220656E636F64696E673D227574662D3822203F3E3C666F726D6174733E3C666F726D61743E687474703A2F2F736368656D612E
310
6175746F6465736B2E636F6D2F64657369676E2D7061636B6167652F323030393C2F666F726D61743E3C2F666F726D6174733E504B0304140006080800CC70623BD486FD9CA0000000F4000000130000005B436F6E74656E745F54797065735D2E786D6C7D8EC10E82300C865F65E91D8A1E8C310C0EEA1BF002731658846E
310
D98AC1B77784ABF1D8FE5FBFBF75BBCE937A534CCEB38643598122B6FEE978D0B0485F9C41B54DDD7D022595594E1A469170414C76A4D9A4D207E29CF43ECE46F218070CC6BECC4078ACAA135ACF422C856C0E68EA1BF5669944DDD7BCDE7B1F8E415D77AECB980613C2E4AC91FC167A2B244592486606FC29C8FD7F045B9A
310
EF7053A7E60B504B0304140006080800CC70623B1EC5D7A3EB0000007C01000008000000636F72652E786D6C8D90416EC3201045AF82665B6103C6756C6122AB4D4ED00B204C5C94182C03558F5F9C3852BBEB6A467FFE9B197D71FC9E6FE8CBACC17AD7032D0820E3B41FAD9B7A48F1820F808E52ACDEC75F36404ECDA687
310
4D0629A6D5A76597B477D1B89855E747B38B2A041301E95B6E7A08FAD3CCAA50296647B8168BD2573599823EBB0CA76447F43862C7BCCF5EAC59410E4DDD9C7973C2755553CCCFA4C603E3040F1565ED3B1FDE4E432BCA0D9622DAF9795FAF464533826484B498524CD807E51D79ED187F21878E10516EF63F505AC67F42C9
310
BA58B1FDDD071640D2FCC87D2045B96591CB3DA85CB7DCE40F504B0304140006080800CC70623B55019EA25F0000007C00000007000000636E782E786D6C4DCB3B0E80201045D1AD90E915ED2CF8AC45050C11660C8261F98AB1B07AC9C97D42D718D865D3E909258CFD00CCE24AC6E326A164D74DC0B4128928FF32603847
310
2BA13128B1252AC747C6BAB984FC68F0B87FE8960A5C09FE86CFB69FBA01504B0304140006080800CC70623B8C9102E971010000D40300000C0000006662782F636F72652E786D6CC5535B6E833010BC8AE5DF0A6C08340F1947A84D4ED00B38C6A128602363A31CBFCB234A53A551FA553EC09AD9F5CE8C31DB9E9B1AF5CA
310
7695D1198E428A91D2D214952E33ECDD315861B4E5CC1AE3BE9561A445A3323CC098B3D21ADFCE9034DA29ED00D5A6503328BA4E398C640D8B0C77F253352214DE4145770A5B214FA2546114020D759C75CE8200340D19DE981F0F6746269C33EFAB6266AB02A655C74A59CCF365BADC27CB5D902ED22848F6340DF238A141
310
BE88E2F57B92BFEDF23523433367AE6A2EEAA455C2A902F398D2751045018D3FA264435F3771F242571B4A1919CA6F9A7C5B3CD9E42BED16F12C776AEB308F40C848FC700B1139D4891EF410CEC810227CC6846F8386402064270EF5C5C709A05E49676C024C61FC95EA45ED154CA5211D1FF4FB8291A913A68E9B83EBBB33
310
E2A7673CDE118E5AE8124C0807CB8377834E366998436B950D7A7746DAD846D4CFD978E0F04FD455FC5D49D2D4C6FE9722321F10997F0F32DC47FE05504B0304140006080800CC70623BFFEA85907E0000009D0000000B0000006662782F636E782E786D6C4DCCD10A83201886E15B91FFDC95D95A811AB6F23E625948A6C3
310
E9D8E5AF46073BFAE0E1E365ED67B3E8ADC3CB78C7815C7240DA3DFC64DCC221C519D7805AC182F7F1EF06C88D9BE6703008B6049F9E274D7A1E938DBB5AE3D6131B2589BA0D3D965551E0B2EA732C9B9A624AAEB41E3A557677029960D9AFB4EF11165F504B0304140006080800CC70623B4FEEA4082C0100001202000031
310
0000006662782F39464131463745442D413632322D343644302D413938332D3331353338454246344243312F636F72652E786D6C8D515B6EC32010BC0AE2AB55850DD871ED0813254D72825EC00192A2C460F1A872FC42ED48ED5F7E00CDCECCCEB26C731F6FE05B39AFADE921293004CA082BB5B9F43086336A21D870E6AC
310
0D7F68109861543DCC30E4ECE26C9C164858139409093556AA051CBC570102714B8F1E7AF1A5C6A11862480C7F2DA6415C878B2A4891CA89C7990F2E050073937C42DE1DB7E4F87ED8A36D4329AA9B3D46DBAEAD504556557BD81DEBDD0761E52CE42C462D17B996298E3E6BE59E35C962CE821E1FF18553435012728A7187
310
0841987E927A8D9B35ADDF70BBC6989599FE4F1427F9A4286A132ABAC49D651EF234CD5CE04CDA78BA3DC2A8FB645D00B9DF8B57E215725C60BCA2A463E54C4CE327C7A65E1C7DB02E7DEFCBF594B864C5CA6CDBD49C957943E9FA5D5FBAF336F90F504B0304140006080800CC70623BAD7543B64E01000033030000300000
310
006662782F39464131463745442D413632322D343644302D413938332D3331353338454246344243312F636E782E786D6CD593CD6EC32010845F0571AD6CE3D48AD20813A9873E410FBD12D82434182C7EAAE6EDBB2424CD25871E7B41D6EC30B3FA84F9E67BB2E40B4234DE8DB46F1925E094D7C6ED479AD3AE5951B2113C
310
789FEE6C943839C1488B4C05DF079FE72A69D8C96C13AAD6B8631503449F83828872B949AC57D26200B826A308D316B4064D6E46FCDA41C05550DC9E483A00797BFD207EFB092A45DE9514C1BBD22178396BD39D891265658C238DEA00936C654E5E433CB65A26D9F6EDB5EBC14EBF49A45CB856E66048291F6939A9A81BB5
310
C8917738143CA680F4AA299D66A042CEB3354A2684DC9D8D178FE0D9B8B41CAAD720F880EE7EF93C0C18769E099ECC04D5A102C8049A8A05632F4DDF376CF1DE0F6BB65C2F8627B65A33C6BB62177CEBBDAD973006829F89F22E814B54F4BC2BE347F8AA8F681390B50FA73F804400B5F542E796F19FF974E7F78DB802FE05
310
E207504B0304140006080800CC70623B16AB87BA640500003C100000340000006662782F39464131463745442D413632322D343644302D413938332D3331353338454246344243312F6F626A656374732E786D6CAD575B6FA33818FD2B887DE6924B3BED8A326A92B68A663B534DD4D13E548A0C38942D60649B369D5FBFC7
310
600890A493BDE42160637FD7F31D7FF63E6FB3D478A55C242CBF3247B66B1A340F5994E4F19559CA8D75611A9F7D8F33263BCB4C232719BD32D5B4E97B316765A1A722BA21652A07B3B7B33F0D11D29C9A46981221AE4C113ED38CD8A4942CA2E2C58E882476BCD9DA23BB5ED8171B73523C0F841684D35CC252CCE79062D4
310
468DFA43D7747CCF51DF7D4FFDEB5593E3AB9CCA9FBEFE241792E4E19EB28198C968BAB8199F5D5A67D3E9C49A9E8F47D6EC76B6B0469F26EEFC7C3EBFBCBEB98462213924694B38DD98FE1D62C393D073EA4FADC5DAF04326852CCF6958F90F0F2B9BB5C48816348F90C7840A68EB78EDF68723159BCEE7891A6B95DDE9D3
310
BCEAEEE8086A6C6F9E5D4B59F0175C10A7A0820BAA5055C7473B5AE3CFDD452D602CD5DF12616444529E90D448938013FE6EFA58AA96F85E4F8C42275708571E98FE6827AF6B2B4AE3D7D83D64E5A64C53054DD3AF90BD06FEA9149565C94FCA0F6B834DC85599E4F2423B24DF0B6AFA979E534DFA9E7A4CC6FA631D486393
310
921829879BF5D781A373557BCB85E97FB90DB62B558F8795179C15944B051F40AB495CF35451D26A4727654E6D8033BD98EF82F21D91FF8AF2DD9982BCF1643BDD4EB516C9492E368C67C88DED563FC36D5EACF66DFF057C3658BDBFA69DF9578B3DA735B64F18C7F20770A9D45CFCF7FCF563D6456A277DBEF78A02637CA2
310
43B90A490AEAB94F72244481D24819A6C0E59B606BFA4B3025981DBB48EAB701D97BF19C577CC77F2D1B6C55A9EF3C732474C0B727303F625995056C3B02963D9EAC146BE78EC5FCEC7FA999EBC5EACBAAE41B12D27B4D2C0BBA49F244E2ECDC81B76B502F113D8F5EE8FB1BE3111CDD4FC2AA9B844CAB1288B68AB90A7CDC
310
1C166AB0D3DC5310625FCC14E779BFD0709F8890A629C9292B1B2DED31A4B0DA928CEE135085754027E3018A397D4D5427D15BD1330B677DC8934285AC3DF45A9EB68FF8F2B8FC0A509AFEECFD0FF2DE25CC6047F7214B195F07EFEB9A094D800F7BFAE8FED187B78EA8A3A400F115961BCAD1215E47C966530AF0EE8128FE
310
58CEBB996A8964FFA529A046635D9353B0336A8F700DDF46271A024E70B0B37C9DE01847591E54DED53D54202AB947E4076556AC49C6CA5C9E1226B7F1A7B1BE15DEED62C41B91E1B3E9AFAAA735036547343A925075041DF0A9979E893B391F8FCFA6967B3EFB644DCF6E5CEBFAE272625DCC6FAF3FB93793C5F90CE1EF57
310
407342756B10D1C489E8953CD1617E5CEECAD6F4EF8914CE5D5D504E5C3F1F9736DA62CFC11E00BCDDB8CC8A9466349744C1F75EBDA4DF09BA8A9E8C7A7E9991989E20E5DBDD6A6003664ED8F7A04A8DBE0DF6EAD9B9AA858342E47399053949D2C146EDB85DE4B176BB0965FBAC19BD19AA918E27FA50C1D22402E144464C
310
59462568E704B6E71915404CB72B8FF4EDE184DDAF753F284990D2C6926782963815403548A70C657FDEF80D2D9CEAA2AE4C1C76F60BFE74219A06527D6582DF6412526107381E55E353090704D085B52408D0933C4ED159D79BDA71BB4BC506F4831350EB6F979CD22D69BF7AC49B91A2C0A9DDA3D5CA36AD20FC478E37E6
310
1844E2352865EBCB6EA275A652E3836BE04EFB400BF1A2556F515F1FBB35B2AB35BD889C744FFA1004B5544B121E57F70215746DD2F5E2C1412B602CBF19455AC6C8E5E9922C4E01E65215385004546899059180EAFCF7A707CE7017CD8CDB0410789AB32C63B91E5CEBBBACB17AC6CD347A022D5075FD106377347AAABA7E
310
7D11590744509B44E205134DC1290F06580320F78E537D3D73540E06CB970B431F185308AD40BBD794D6D77003C5A36E8EAA54BA64597CD8F83BD552A080A365F7FF06504B0304140006080000CC70623B000000000000000000000000350000006662782F39464131463745442D413632322D343644302D413938332D3331
310
353338454246344243312F76657274696365732E62696E504B0304140006080800CC70623BF270F1330600000004000000360000006662782F39464131463745442D413632322D343644302D413938332D3331353338454246344243312F747269616E676C65732E62696E636660600000504B0304140006080000CC70623B
310
000000000000000000000000370000006662782F39464131463745442D413632322D343644302D413938332D3331353338454246344243312F617474726962757465732E62696E504B0304140006080800CC70623B08DA0BD19000000041010000360000006662782F39464131463745442D413632322D343644302D413938
310
332D3331353338454246344243312F6469726563746F72792E786D6C858F410AC3201045AF22B36F53E9A60B35CBEEBAE80D244E44489C6234F4F835464A48035D0DF398FF9F8AF63D0E6CC63039F212F8F9020C7D47C6792B21C5FE7403D62A1188E2E60C98D7234A5830286103A55745067B9D86B8A3CF9C7F90C11DE607
310
FB144396D7B6A82D282E9A152AD114D5EF2CB866EEE831B8EEA07A7BB5A8D7D61A2BAAEB7FD5F70921FF497D00504B0304140006080800CC70623B0D6EF93BFE000000A00100003B0000006662782F39464131463745442D413632322D343644302D413938332D3331353338454246344243312F7265736F75726365732F63
310
6F72652E786D6C8D50596E833010BD0A9ADFCA60B334011947A8694ED00B586642AC041B79A97AFC9A40A5F6AF3F33A3B7689E1E3F7DCD8FEC139DD7D6F4C0720A191A65476DA61E62B892236427C19DB5E1970C322367EC618541F0C9D9B8EC90B226A009093576C41D94DE63804C3DD2D18357379C652E63480A7FCF17A9
310
EE72C29CE5894E3AC17D702940B63D59270887DE46A7D0F36263058F518FBB468FE9A7BE6A7420864373B8D4873369AA8691FA421B3294352543C5CAF65C0F6FEF43CB8BD52C78D0F34F46E550061C419494B6843142CB0F5677F4B52BEB177AEC28E5C52AFF638ACBF84F53D42654E51E77B379102C05791282176B5F693D
310
CB4C7BED567C03504B010214000A0000080000CC70623B3DEE336E79000000790000001B00000000000000000000000000000000006175746F6465736B2D64657369676E2D7061636B6167652E786D6C504B01021400140006080800CC70623BD486FD9CA0000000F40000001300000000000000000000000000B20000005B
310
436F6E74656E745F54797065735D2E786D6C504B01021400140006080800CC70623B1EC5D7A3EB0000007C010000080000000000000000000000000083010000636F72652E786D6C504B01021400140006080800CC70623B55019EA25F0000007C000000070000000000000000000000000094020000636E782E786D6C504B
310
01021400140006080800CC70623B8C9102E971010000D40300000C00000000000000000000000000180300006662782F636F72652E786D6C504B01021400140006080800CC70623BFFEA85907E0000009D0000000B00000000000000000000000000B30400006662782F636E782E786D6C504B01021400140006080800CC70
310
623B4FEEA4082C0100001202000031000000000000000000000000005A0500006662782F39464131463745442D413632322D343644302D413938332D3331353338454246344243312F636F72652E786D6C504B01021400140006080800CC70623BAD7543B64E010000330300003000000000000000000000000000D5060000
310
6662782F39464131463745442D413632322D343644302D413938332D3331353338454246344243312F636E782E786D6C504B01021400140006080800CC70623B16AB87BA640500003C1000003400000000000000000000000000710800006662782F39464131463745442D413632322D343644302D413938332D3331353338
310
454246344243312F6F626A656374732E786D6C504B01021400140006080000CC70623B0000000000000000000000003500000000000000000000000000270E00006662782F39464131463745442D413632322D343644302D413938332D3331353338454246344243312F76657274696365732E62696E504B01021400140006
310
080800CC70623BF270F133060000000400000036000000000000000000000000007A0E00006662782F39464131463745442D413632322D343644302D413938332D3331353338454246344243312F747269616E676C65732E62696E504B01021400140006080000CC70623B0000000000000000000000003700000000000000
310
000000000000D40E00006662782F39464131463745442D413632322D343644302D413938332D3331353338454246344243312F617474726962757465732E62696E504B01021400140006080800CC70623B08DA0BD190000000410100003600000000000000000000000000290F00006662782F39464131463745442D413632
310
322D343644302D413938332D3331353338454246344243312F6469726563746F72792E786D6C504B01021400140006080800CC70623B0D6EF93BFE000000A00100003B000000000000000000000000000D1000006662782F39464131463745442D413632322D343644302D413938332D3331353338454246344243312F7265
310
736F75726365732F636F72652E786D6C504B0506000000000E000E0080040000641100000000
  0
XRECORD
  5
D
102
{ACAD_REACTORS
330
C
102
}
330
C
100
AcDbXrecord
280
     1
270
     1
271
     1
  0
XRECORD
  5
E
102
{ACAD_REACTORS
330
C
102
}
330
C
100
AcDbXrecord
280
     1
270
     1
271
     1
  0
XRECORD
  5
F
102
{ACAD_REACTORS
330
C
102
}
330
C
100
AcDbXrecord
280
     1
 70
     0
 90
1673772943
  1
ECE7A1D2-D628-4531-984C-D00F80459256
310
504B03040A0000080000CC70623B3DEE336E79000000790000001B0000006175746F6465736B2D64657369676E2D7061636B6167652E786D6C3C3F786D6C2076657273696F6E3D22312E302220656E636F64696E673D227574662D3822203F3E3C666F726D6174733E3C666F726D61743E687474703A2F2F736368656D612E
310
6175746F6465736B2E636F6D2F64657369676E2D7061636B6167652F323030393C2F666F726D61743E3C2F666F726D6174733E504B0304140006080800CC70623BD486FD9CA0000000F4000000130000005B436F6E74656E745F54797065735D2E786D6C7D8EC10E82300C865F65E91D8A1E8C310C0EEA1BF002731658846E
310
D98AC1B77784ABF1D8FE5FBFBF75BBCE937A534CCEB38643598122B6FEE978D0B0485F9C41B54DDD7D022595594E1A469170414C76A4D9A4D207E29CF43ECE46F218070CC6BECC4078ACAA135ACF422C856C0E68EA1BF5669944DDD7BCDE7B1F8E415D77AECB980613C2E4AC91FC167A2B244592486606FC29C8FD7F045B9A
310
EF7053A7E60B504B0304140006080800CC70623BD9DDAED0EC0000007C01000008000000636F72652E786D6C8D90416EC3201045AF82665B61836D9CD8C2444DD39CA01740405C94182C03558F5F9C3852BBEB6A467FFE9B197D7EF89E6EE8CB2CC17A37002D0820E394D7D68D03A478C17B4007C117EFE32F1B20272733C0
310
2A83E0E3E2D3BC49CABB685CCCAAF3DA6CA20CC14440EA969B0182FA34932C648AD911AEC52CD5558EA6A0CF2EC329598D1E47ACCEFBECC59A050463A7EA5833865FEBDD0E37353BE3EE8DBDE3F6786A48D375FBF6CC78B9C282473B3DEFABC5C86834888A900E538A49F5419B9EB47DD5BC907D4F082F57FB1F28CDFA9F50
310
B22ED6D5F6EE030B20687EE43E10BC5CB3C8E51E54AE6B6EE207504B0304140006080800CC70623B55019EA25F0000007C00000007000000636E782E786D6C4DCB3B0E80201045D1AD90E915ED2CF8AC45050C11660C8261F98AB1B07AC9C97D42D718D865D3E909258CFD00CCE24AC6E326A164D74DC0B4128928FF326038
310
472BA13128B1252AC747C6BAB984FC68F0B87FE8960A5C09FE86CFB69FBA01504B0304140006080800CC70623BA24EB22D72010000D40300000C0000006662782F636F72652E786D6CC5535B6E833010BC8AE5DF0A6C5E49888CA3A6694ED00B38E05014B091B1518EDFE511A5A9D228FD2A1F60CDEC7A67C6986DCE4D8D7A
310
69BA4AAB0C073EC548AA5C17952A33ECECD15B61B4E1CC686DBF9561A44423333CC098B3D268D7CE50AE9595CA02AA74216750749DB418E5352C32DCE59FB211BE70162ABA93DF8AFC244AE9073ED050C759670D0840D390E18DF9F1706664C23973AE2A66B62A605A75ACA4C13C4976E1364A12EF355A2EBD384AF65EFA96
310
BC7B8BED2EA6719AAE16FB8491A199335B351775B991C2CA02F390D2D40B028F861F41BCA68B7518BFD0D59A524686F29B26D7164F36B94AD9289CE54E6D1DE6010819891F6E21228B3AD1831EC219194284CF98F06DD01008846CC5A1BEF83801D4CBDC6A1303536877A57A513B0953A94FC707FDBE6064EA84A9E3E6E0FA
310
EE8CF0E9198F7784A316AA0413C2C2F2E0ECA0934D1AE6D05A69BCDE9E91D2A611F573361E38FC1375157F5752AE6B6DFE4B11990F88CCBF0719EE23FF02504B0304140006080800CC70623B408A7D3B7C0000009D0000000B0000006662782F636E782E786D6C4DCCD10A83201886E15B91FFDC552A92A0064DBC8F581632
310
D3703A76F9ABD1C18E3E78F878E5F0D9027ABBFCF2292AE86E2D20171F69F6715550CB827B40839639A5F2770314A7CD293819B45C73AAFB45B35BA61ACAA1C1C7E7855C58C15BC331339661262CC762340413D68D77DA5B42298546CBE6573AF60CEB2F504B0304140006080800CC70623B449FB9BD290100001202000031
310
0000006662782F36394639363044362D344446342D343946362D394244322D3234314243333846323333332F636F72652E786D6C8D515B6EC32010BC0AE22B55850D98B871848994463E412FE002495162B07854397EA176A4F62F3F2C9A9D991D587EB84F37F0AD7D30CEF6905418026DA553C65E7A98E219ED203808EE9D
310
8B7F6810D871D23D2C3014FCE25D9A57483A1BB58D19B54EE9151C43D0110279CB971E06F9A5A7B11A53CC8C70ADE6515EC78BAE4895DB992778883E0700CB907242D17643D7E2538BD869608875438BBAE38922CAC8F1BDD90DB4691A5E2F42C153326A951B95E398B3D1FE599322163C9AE9115F7A3D46ADA0A018778810
310
84E907617BDCEE297BC5BB3DC6BC2EF47FA234AB2745C9D8D8D035EE220B50105E2F0DC1954B9FB747187D9F9D8FA0CCDB042D5FA0C015C65B42DF78BD10F3F3B363CB56C7109DCFDFBBB97E662ED92EB62D13BC2E1BCAE5777DB9966D8A1F504B0304140006080800CC70623BAD7543B64E01000033030000300000006662
310
782F36394639363044362D344446342D343946362D394244322D3234314243333846323333332F636E782E786D6CD593CD6EC32010845F0571AD6CE3D48AD20813A9873E410FBD12D82434182C7EAAE6EDBB2424CD25871E7B41D6EC30B3FA84F9E67BB2E40B4234DE8DB46F1925E094D7C6ED479AD3AE5951B2113C789FEE
310
6C943839C1488B4C05DF079FE72A69D8C96C13AAD6B8631503449F83828872B949AC57D26200B826A308D316B4064D6E46FCDA41C05550DC9E483A00797BFD207EFB092A45DE9514C1BBD22178396BD39D891265658C238DEA00936C654E5E433CB65A26D9F6EDB5EBC14EBF49A45CB856E66048291F6939A9A81BB5C89177
310
38143CA680F4AA299D66A042CEB3354A2684DC9D8D178FE0D9B8B41CAAD720F880EE7EF93C0C18769E099ECC04D5A102C8049A8A05632F4DDF376CF1DE0F6BB65C2F8627B65A33C6BB62177CEBBDAD973006829F89F22E814B54F4BC2BE347F8AA8F681390B50FA73F804400B5F542E796F19FF974E7F78DB802FE05E20750
310
4B0304140006080800CC70623B8D05915C650500003B100000340000006662782F36394639363044362D344446342D343946362D394244322D3234314243333846323333332F6F626A656374732E786D6CAD575B6FA33814FE2B887D06429276DA1565D4266D158D3A339A6846FB502932E050B66023DB74D2FDF5FB190C01
310
9276B2973C046C8ECFF53B17071F77456EBD502133CEAE6CDF9DD81665314F32965ED995DA3A17B6F5310C04E7AA47665B8C14F4CAD6DB7618A48257A5D94AE89654B91AEDDEDDFC61C998326A5B714EA4BCB265FC440BE2924AF184CA6737218AB8E976E7FA6E4338649B0A523E8D98964450A6A029F619B8588D52FE7039
310
B1BD30F0F4F730D0FF866AF6369557DB33949F31A9088B0F848DD8CCFCF9F2767A76E99CCDE733677E3EF59D9BBB9BA5E37F984D16E78BC5E5F5ED25044B25C0C96822E8D60EEFE11B91C581D77CEA34368A1F5329E68CD1B8B61F16D63A1B8E092D294B10C78C4A48EB593D192E7DED9BDEE7995E1B91FDEDD3ACEA9FE831
310
6A756F9F7D4D79F4274C90A7A04248AA51D5F8C718DAE06FB2F75AC4796EBE65D22A88A22223B995679120E2D50E41AA49C260C046A35368846B0BECD0DFF3EBEB8AD4F835768F69B9ADF25C43D30E6B646F807FAA64AD59F61715C7A54127C4AACA98BA3006A9D792DAE165E0D59B61A01FB3A9F9D838D2DAE62445C86166
310
F37564E842E7DE6A69879FEEA2DD5AE7E371E1A5E025154AC307D06A03D73EB5978C58FFA4C8E9033066E0F3BD53BEC1F39F91BE7B55103791EDE6BBB991A2046172CB4581D8B893FA674DDA17A77B3B7C413D1B511FD2743BFF8A38F03A658705E3ADF8015C3A3417FF3D7E439FF591DA0B5F18BC20C1B8981957AE6392A3
310
F43C640C01D1A0B4728E2DD4F26DB4B3C3152A252A3B4E913CEC1C72F012782FF88EFF8637AA552DBEF76408E8A8DE9E50F9E1CB3A2DA0DB1B6039A893B56063DC5B3E3FFB5F72E67AB9FEB4AEC496C4F4C1149625DD662C53E89D7BF0F6151A046260D1337DFDC94502430F83B0EE07A130A224BCAD7DAE1D9FB6CD422FF6
310
920702629C4BB9AE79C12F243C6432A6794E18E5552BA56B431AAB5D91317302B2B071E86C3A42B1A02F999E24061403B5D0EB639195DA655DD3EBEAB4FB862DDF579F014AD0E73C22F99E28DA57FB98E75C6CA2D74D53086D600F4786E0FE3144B771A8A7B900F03594DB8A633CBC49B2EDB69228BB479CF863B5E807AAAB
310
23872F6DFEB4129B949CA33823F58830E86D65621E10047D9DB34D862E8EAC3C2ABC2F7B2C40D67CDFE01F5545B92105AF983AC54D93D69E56FB8E797F88913F898A9FEC705D3F9D1B54EC8426FB500D40A03BD0119B06E1B95DDC7EB8F6975367793EBD70E66733DFB9BC982F9CE564727731999F5D4ECFCE3B8D6A4DC2A0
310
6D50FD148437D110834A64C6CDDF57FBACB5C307A2A477DFE4939736CFEF2B175371E0E10CF0DD1D5C15654E0BCA14D1E87DD02FF93782A162C0A3D95F1524A52770F972BF1EE9809D13CE7DD599467F8ECE9ADD85CE85A34CD45355448C64F9E8A031DC2D596ACC6E5DD93D9B82DE2EF5CAF81363A8E47996A0DE24564A79
310
4115AACE09C55E14540231FDA13C319787134EBF34E3A022514E5B4D9E0826E25C02D5805B15ABE1BEF51B26383D445DD9E875EE33FE4C22DA16427D65A3BCA92CA6D28DD01DF5DC53330704308475351050232CCD31583787BA75774AFB06E5070DD0C8EF484E19968C5D83BA5B90B244D31E54D55A372320FE4786B7EA58
310
44E135AA5467CB7EA333A61683CC6A8C3257034C10CF46F40EF9F5BE59BE5BD30C3C72D235E95D10345C1D45445A5F0BB47E46A5EBE5570F9380B5FA629579952296A773720405982B9DE04011506178964401AA8BDF1FBF0A8EAB6861DD6580C0E38217056766716DAEB2D6FA0917D3E4116581EADB879C4E7CFFB11EFACD
310
3D641311495D92C8676CB409A72D18610D803CE8A626049E8EC1887CB5B44CC39883690DDA8399B4B9855B481E7D71D4A9D22F96E5BB73BF5793020C02137BF837504B0304140006080000CC70623B000000000000000000000000350000006662782F36394639363044362D344446342D343946362D394244322D32343142
310
43333846323333332F76657274696365732E62696E504B0304140006080800CC70623BF270F1330600000004000000360000006662782F36394639363044362D344446342D343946362D394244322D3234314243333846323333332F747269616E676C65732E62696E636660600000504B0304140006080000CC70623B0000
310
00000000000000000000370000006662782F36394639363044362D344446342D343946362D394244322D3234314243333846323333332F617474726962757465732E62696E504B0304140006080800CC70623B08DA0BD19000000041010000360000006662782F36394639363044362D344446342D343946362D394244322D
310
3234314243333846323333332F6469726563746F72792E786D6C858F410AC3201045AF22B36F53E9A60B35CBEEBAE80D244E44489C6234F4F835464A48035D0DF398FF9F8AF63D0E6CC63039F212F8F9020C7D47C6792B21C5FE7403D62A1188E2E60C98D7234A5830286103A55745067B9D86B8A3CF9C7F90C11DE607FB14
310
4396D7B6A82D282E9A152AD114D5EF2CB866EEE831B8EEA07A7BB5A8D7D61A2BAAEB7FD5F70921FF497D00504B0304140006080800CC70623BCA768048FE000000A00100003B0000006662782F36394639363044362D344446342D343946362D394244322D3234314243333846323333332F7265736F75726365732F636F72
310
652E786D6C8D50596E833010BD0A9ADFCA60D600328E9AA639412F609909B1126CE4A5EAF16B0295DABFFECC8CDEA2797AECF8353F924FB44E193D409E5248504B332A3D0D10FC95B4901C39B3C6F85F3248B49871801506CE266BC2B243D2688FDA47549B11775038871E12F988C7004EDE7016A9083E2ADC3D5D84BC8B09
310
D33C8D74D471E6BC8D0192EDC93A815B742658898E651BCB59086ADC356A8C3FD555A1055ED7E7E254D615792D0F075295F585746FF53B694EE78A565DD736979A65AB9933AFE69F8CD2A2F038022F28ED489E135A7CE4554F9BBEA85E68DB53CAB255FEC71496F19FA6A0B42F8B3DEE6673C0F318E4497096AD7DC5F52C33
310
EEB55BFE0D504B010214000A0000080000CC70623B3DEE336E79000000790000001B00000000000000000000000000000000006175746F6465736B2D64657369676E2D7061636B6167652E786D6C504B01021400140006080800CC70623BD486FD9CA0000000F40000001300000000000000000000000000B20000005B436F
310
6E74656E745F54797065735D2E786D6C504B01021400140006080800CC70623BD9DDAED0EC0000007C010000080000000000000000000000000083010000636F72652E786D6C504B01021400140006080800CC70623B55019EA25F0000007C000000070000000000000000000000000095020000636E782E786D6C504B0102
310
1400140006080800CC70623BA24EB22D72010000D40300000C00000000000000000000000000190300006662782F636F72652E786D6C504B01021400140006080800CC70623B408A7D3B7C0000009D0000000B00000000000000000000000000B50400006662782F636E782E786D6C504B01021400140006080800CC70623B
310
449FB9BD290100001202000031000000000000000000000000005A0500006662782F36394639363044362D344446342D343946362D394244322D3234314243333846323333332F636F72652E786D6C504B01021400140006080800CC70623BAD7543B64E010000330300003000000000000000000000000000D20600006662
310
782F36394639363044362D344446342D343946362D394244322D3234314243333846323333332F636E782E786D6C504B01021400140006080800CC70623B8D05915C650500003B10000034000000000000000000000000006E0800006662782F36394639363044362D344446342D343946362D394244322D32343142433338
310
46323333332F6F626A656374732E786D6C504B01021400140006080000CC70623B0000000000000000000000003500000000000000000000000000250E00006662782F36394639363044362D344446342D343946362D394244322D3234314243333846323333332F76657274696365732E62696E504B010214001400060808
310
00CC70623BF270F13306000000040000003600000000000000000000000000780E00006662782F36394639363044362D344446342D343946362D394244322D3234314243333846323333332F747269616E676C65732E62696E504B01021400140006080000CC70623B00000000000000000000000037000000000000000000
310
00000000D20E00006662782F36394639363044362D344446342D343946362D394244322D3234314243333846323333332F617474726962757465732E62696E504B01021400140006080800CC70623B08DA0BD190000000410100003600000000000000000000000000270F00006662782F36394639363044362D344446342D
310
343946362D394244322D3234314243333846323333332F6469726563746F72792E786D6C504B01021400140006080800CC70623BCA768048FE000000A00100003B000000000000000000000000000B1000006662782F36394639363044362D344446342D343946362D394244322D3234314243333846323333332F7265736F
310
75726365732F636F72652E786D6C504B0506000000000E000E0080040000621100000000
  0
XRECORD
  5
10
102
{ACAD_REACTORS
330
C
102
}
330
C
100
AcDbXrecord
280
     1
270
     1
271
     1
  0
XRECORD
  5
11
102
{ACAD_REACTORS
330
C
102
}
330
C
100
AcDbXrecord
280
     1
270
     1
271
     1
  0
CELLSTYLEMAP
  5
1AB
102
{ACAD_REACTORS
330
50
102
}
330
50
100
AcDbCellStyleMap
 90
        3
300
CELLSTYLE
  1
TABLEFORMAT_BEGIN
 90
        5
170
     1
 91
        0
 92
    32768
 62
   257
 93
        1
300
CONTENTFORMAT
  1
CONTENTFORMAT_BEGIN
 90
        0
 91
        0
 92
      512
 93
        0
300

 40
0.0
140
1.0
 94
        5
 62
     0
340
21
144
6.0
309
CONTENTFORMAT_END
171
     1
301
MARGIN
  1
CELLMARGIN_BEGIN
 40
1.5
 40
1.5
 40
1.5
 40
1.5
 40
4.5
 40
4.5
309
CELLMARGIN_END
 94
        6
 95
        1
302
GRIDFORMAT
  1
GRIDFORMAT_BEGIN
 90
        0
 91
        1
 62
     0
 92
       -2
340
24
 93
        0
 40
1.125
309
GRIDFORMAT_END
 95
        2
302
GRIDFORMAT
  1
GRIDFORMAT_BEGIN
 90
        0
 91
        1
 62
     0
 92
       -2
340
24
 93
        0
 40
1.125
309
GRIDFORMAT_END
 95
        4
302
GRIDFORMAT
  1
GRIDFORMAT_BEGIN
 90
        0
 91
        1
 62
     0
 92
       -2
340
24
 93
        0
 40
1.125
309
GRIDFORMAT_END
 95
        8
302
GRIDFORMAT
  1
GRIDFORMAT_BEGIN
 90
        0
 91
        1
 62
     0
 92
       -2
340
24
 93
        0
 40
1.125
309
GRIDFORMAT_END
 95
       16
302
GRIDFORMAT
  1
GRIDFORMAT_BEGIN
 90
        0
 91
        1
 62
     0
 92
       -2
340
24
 93
        0
 40
1.125
309
GRIDFORMAT_END
 95
       32
302
GRIDFORMAT
  1
GRIDFORMAT_BEGIN
 90
        0
 91
        1
 62
     0
 92
       -2
340
24
 93
        0
 40
1.125
309
GRIDFORMAT_END
309
TABLEFORMAT_END
  1
CELLSTYLE_BEGIN
 90
        1
 91
        1
300
_TITLE
309
CELLSTYLE_END
300
CELLSTYLE
  1
TABLEFORMAT_BEGIN
 90
        5
170
     1
 91
        0
 92
        0
 62
   257
 93
        1
300
CONTENTFORMAT
  1
CONTENTFORMAT_BEGIN
 90
        0
 91
        0
 92
      512
 93
        0
300

 40
0.0
140
1.0
 94
        5
 62
     0
340
21
144
4.5
309
CONTENTFORMAT_END
171
     1
301
MARGIN
  1
CELLMARGIN_BEGIN
 40
1.5
 40
1.5
 40
1.5
 40
1.5
 40
4.5
 40
4.5
309
CELLMARGIN_END
 94
        6
 95
        1
302
GRIDFORMAT
  1
GRIDFORMAT_BEGIN
 90
        0
 91
        1
 62
     0
 92
       -2
340
24
 93
        0
 40
1.125
309
GRIDFORMAT_END
 95
        2
302
GRIDFORMAT
  1
GRIDFORMAT_BEGIN
 90
        0
 91
        1
 62
     0
 92
       -2
340
24
 93
        0
 40
1.125
309
GRIDFORMAT_END
 95
        4
302
GRIDFORMAT
  1
GRIDFORMAT_BEGIN
 90
        0
 91
        1
 62
     0
 92
       -2
340
24
 93
        0
 40
1.125
309
GRIDFORMAT_END
 95
        8
302
GRIDFORMAT
  1
GRIDFORMAT_BEGIN
 90
        0
 91
        1
 62
     0
 92
       -2
340
24
 93
        0
 40
1.125
309
GRIDFORMAT_END
 95
       16
302
GRIDFORMAT
  1
GRIDFORMAT_BEGIN
 90
        0
 91
        1
 62
     0
 92
       -2
340
24
 93
        0
 40
1.125
309
GRIDFORMAT_END
 95
       32
302
GRIDFORMAT
  1
GRIDFORMAT_BEGIN
 90
        0
 91
        1
 62
     0
 92
       -2
340
24
 93
        0
 40
1.125
309
GRIDFORMAT_END
309
TABLEFORMAT_END
  1
CELLSTYLE_BEGIN
 90
        2
 91
        1
300
_HEADER
309
CELLSTYLE_END
300
CELLSTYLE
  1
TABLEFORMAT_BEGIN
 90
        5
170
     1
 91
        0
 92
        0
 62
   257
 93
        1
300
CONTENTFORMAT
  1
CONTENTFORMAT_BEGIN
 90
        0
 91
        0
 92
      512
 93
        0
300

 40
0.0
140
1.0
 94
        2
 62
     0
340
21
144
4.5
309
CONTENTFORMAT_END
171
     1
301
MARGIN
  1
CELLMARGIN_BEGIN
 40
1.5
 40
1.5
 40
1.5
 40
1.5
 40
4.5
 40
4.5
309
CELLMARGIN_END
 94
        6
 95
        1
302
GRIDFORMAT
  1
GRIDFORMAT_BEGIN
 90
        0
 91
        1
 62
     0
 92
       -2
340
24
 93
        0
 40
1.125
309
GRIDFORMAT_END
 95
        2
302
GRIDFORMAT
  1
GRIDFORMAT_BEGIN
 90
        0
 91
        1
 62
     0
 92
       -2
340
24
 93
        0
 40
1.125
309
GRIDFORMAT_END
 95
        4
302
GRIDFORMAT
  1
GRIDFORMAT_BEGIN
 90
        0
 91
        1
 62
     0
 92
       -2
340
24
 93
        0
 40
1.125
309
GRIDFORMAT_END
 95
        8
302
GRIDFORMAT
  1
GRIDFORMAT_BEGIN
 90
        0
 91
        1
 62
     0
 92
       -2
340
24
 93
        0
 40
1.125
309
GRIDFORMAT_END
 95
       16
302
GRIDFORMAT
  1
GRIDFORMAT_BEGIN
 90
        0
 91
        1
 62
     0
 92
       -2
340
24
 93
        0
 40
1.125
309
GRIDFORMAT_END
 95
       32
302
GRIDFORMAT
  1
GRIDFORMAT_BEGIN
 90
        0
 91
        1
 62
     0
 92
       -2
340
24
 93
        0
 40
1.125
309
GRIDFORMAT_END
309
TABLEFORMAT_END
  1
CELLSTYLE_BEGIN
 90
        3
 91
        2
300
_DATA
309
CELLSTYLE_END
  0
ENDSEC
  0
SECTION
  2
ACDSDATA
 70
     2
 71
     8
  0
ACDSSCHEMA
 90
        0
  1
AcDb_Thumbnail_Schema
  2
AcDbDs::ID
280
    10
 91
        8
  2
Thumbnail_Data
280
    15
 91
        0
101
ACDSRECORD
 95
        0
 90
        1
  2
AcDbDs::TreatedAsObjectData
280
     1
291
     1
101
ACDSRECORD
 95
        0
 90
        2
  2
AcDbDs::Legacy
280
     1
291
     1
101
ACDSRECORD
  1
AcDbDs::ID
 90
        3
  2
AcDs:Indexable
280
     1
291
     1
101
ACDSRECORD
  1
AcDbDs::ID
 90
        4
  2
AcDbDs::HandleAttribute
280
     7
282
     1
  0
ACDSSCHEMA
 90
        1
  1
AcDbDs::TreatedAsObjectDataSchema
  2
AcDbDs::TreatedAsObjectData
280
     1
 91
        0
  0
ACDSSCHEMA
 90
        2
  1
AcDbDs::LegacySchema
  2
AcDbDs::Legacy
280
     1
 91
        0
  0
ACDSSCHEMA
 90
        3
  1
AcDbDs::IndexedPropertySchema
  2
AcDs:Indexable
280
     1
 91
        0
  0
ACDSSCHEMA
 90
        4
  1
AcDbDs::HandleAttributeSchema
  2
AcDbDs::HandleAttribute
280
     7
 91
        1
284
     1
  0
ACDSRECORD
 90
        0
  2
AcDbDs::ID
280
    10
320
15
  2
Thumbnail_Data
280
    15
 94
      896
310
89504E470D0A1A0A0000000D49484452000001000000009108030000001BE1960600000300504C5445212830FFFFFF2128300000000000000000000000000000000000000000000000000000330000660000990000CC0000FF0033000033330033660033990033CC0033FF0066000066330066660066990066CC0066FF0099
310
000099330099660099990099CC0099FF00CC0000CC3300CC6600CC9900CCCC00CCFF00FF0000FF3300FF6600FF9900FFCC00FFFF3300003300333300663300993300CC3300FF3333003333333333663333993333CC3333FF3366003366333366663366993366CC3366FF3399003399333399663399993399CC3399FF33CC00
310
33CC3333CC6633CC9933CCCC33CCFF33FF0033FF3333FF6633FF9933FFCC33FFFF6600006600336600666600996600CC6600FF6633006633336633666633996633CC6633FF6666006666336666666666996666CC6666FF6699006699336699666699996699CC6699FF66CC0066CC3366CC6666CC9966CCCC66CCFF66FF0066
310
FF3366FF6666FF9966FFCC66FFFF9900009900339900669900999900CC9900FF9933009933339933669933999933CC9933FF9966009966339966669966999966CC9966FF9999009999339999669999999999CC9999FF99CC0099CC3399CC6699CC9999CCCC99CCFF99FF0099FF3399FF6699FF9999FFCC99FFFFCC0000CC00
310
33CC0066CC0099CC00CCCC00FFCC3300CC3333CC3366CC3399CC33CCCC33FFCC6600CC6633CC6666CC6699CC66CCCC66FFCC9900CC9933CC9966CC9999CC99CCCC99FFCCCC00CCCC33CCCC66CCCC99CCCCCCCCCCFFCCFF00CCFF33CCFF66CCFF99CCFFCCCCFFFFFF0000FF0033FF0066FF0099FF00CCFF00FFFF3300FF3333
310
FF3366FF3399FF33CCFF33FFFF6600FF6633FF6666FF6699FF66CCFF66FFFF9900FF9933FF9966FF9999FF99CCFF99FFFFCC00FFCC33FFCC66FFCC99FFCCCCFFCCFFFFFF00FFFF33FFFF66FFFF99FFFFCCFFFFFF0000000D0D0D1A1A1A2828283535354343435050505D5D5D6B6B6B787878868686939393A1A1A1AEAEAEBB
310
BBBBC9C9C9D6D6D6E4E4E4F1F1F1FFFFFF0000000000000000000000000000000000000000000000000000000000002E4550F10000003B4944415478DAEDC13101000000C2A0F54F6D0B2FA0000000000000000000000000000000000000000000000000000000000000000000000000CE06919100016C9A5B1B0000000049
310
454E44AE426082
  0
ENDSEC
  0
EOF
