  0
SECTION
  2
HEADER
  9
$ACADVER
  1
AC1024
  9
$ACADMAINTVER
 70
   226
  9
$DWGCODEPAGE
  3
ANSI_932
  9
$LASTSAVEDBY
  1
c23053
  9
$INSBASE
 10
0.0
 20
0.0
 30
0.0
  9
$EXTMIN
 10
86.29808206257044
 20
33.2085616704976
 30
0.0
  9
$EXTMAX
 10
136.3029962314303
 20
46.37265072688879
 30
0.0
  9
$LIMMIN
 10
78.60378746271749
 20
26.67054474048953
  9
$LIMMAX
 10
144.8587531693112
 20
55.5908612521063
  9
$ORTHOMODE
 70
     0
  9
$REGENMODE
 70
     1
  9
$FILLMODE
 70
     1
  9
$QTEXTMODE
 70
     0
  9
$MIRRTEXT
 70
     0
  9
$LTSCALE
 40
1.0
  9
$ATTMODE
 70
     1
  9
$TEXTSIZE
 40
0.2
  9
$TRACEWID
 40
0.05
  9
$TEXTSTYLE
  7
Standard
  9
$CLAYER
  8
0
  9
$CELTYPE
  6
ByLayer
  9
$CECOLOR
 62
   256
  9
$CELTSCALE
 40
1.0
  9
$DISPSILH
 70
     0
  9
$DIMSCALE
 40
1.0
  9
$DIMASZ
 40
0.18
  9
$DIMEXO
 40
0.0625
  9
$DIMDLI
 40
0.38
  9
$DIMRND
 40
0.0
  9
$DIMDLE
 40
0.0
  9
$DIMEXE
 40
0.18
  9
$DIMTP
 40
0.0
  9
$DIMTM
 40
0.0
  9
$DIMTXT
 40
0.18
  9
$DIMCEN
 40
0.09
  9
$DIMTSZ
 40
0.0
  9
$DIMTOL
 70
     0
  9
$DIMLIM
 70
     0
  9
$DIMTIH
 70
     1
  9
$DIMTOH
 70
     1
  9
$DIMSE1
 70
     0
  9
$DIMSE2
 70
     0
  9
$DIMTAD
 70
     0
  9
$DIMZIN
 70
     0
  9
$DIMBLK
  1

  9
$DIMASO
 70
     1
  9
$DIMSHO
 70
     1
  9
$DIMPOST
  1

  9
$DIMAPOST
  1

  9
$DIMALT
 70
     0
  9
$DIMALTD
 70
     2
  9
$DIMALTF
 40
25.4
  9
$DIMLFAC
 40
1.0
  9
$DIMTOFL
 70
     0
  9
$DIMTVP
 40
0.0
  9
$DIMTIX
 70
     0
  9
$DIMSOXD
 70
     0
  9
$DIMSAH
 70
     0
  9
$DIMBLK1
  1

  9
$DIMBLK2
  1

  9
$DIMSTYLE
  2
Standard
  9
$DIMCLRD
 70
     0
  9
$DIMCLRE
 70
     0
  9
$DIMCLRT
 70
     0
  9
$DIMTFAC
 40
1.0
  9
$DIMGAP
 40
0.09
  9
$DIMJUST
 70
     0
  9
$DIMSD1
 70
     0
  9
$DIMSD2
 70
     0
  9
$DIMTOLJ
 70
     1
  9
$DIMTZIN
 70
     0
  9
$DIMALTZ
 70
     0
  9
$DIMALTTZ
 70
     0
  9
$DIMUPT
 70
     0
  9
$DIMDEC
 70
     4
  9
$DIMTDEC
 70
     4
  9
$DIMALTU
 70
     2
  9
$DIMALTTD
 70
     2
  9
$DIMTXSTY
  7
Standard
  9
$DIMAUNIT
 70
     0
  9
$DIMADEC
 70
     0
  9
$DIMALTRND
 40
0.0
  9
$DIMAZIN
 70
     0
  9
$DIMDSEP
 70
    46
  9
$DIMATFIT
 70
     3
  9
$DIMFRAC
 70
     0
  9
$DIMLDRBLK
  1

  9
$DIMLUNIT
 70
     2
  9
$DIMLWD
 70
    -2
  9
$DIMLWE
 70
    -2
  9
$DIMTMOVE
 70
     0
  9
$DIMFXL
 40
1.0
  9
$DIMFXLON
 70
     0
  9
$DIMJOGANG
 40
0.7853981633974483
  9
$DIMTFILL
 70
     0
  9
$DIMTFILLCLR
 70
     0
  9
$DIMARCSYM
 70
     0
  9
$DIMLTYPE
  6

  9
$DIMLTEX1
  6

  9
$DIMLTEX2
  6

  9
$DIMTXTDIRECTION
 70
     0
  9
$LUNITS
 70
     2
  9
$LUPREC
 70
     4
  9
$SKETCHINC
 40
0.1
  9
$FILLETRAD
 40
0.0
  9
$AUNITS
 70
     0
  9
$AUPREC
 70
     0
  9
$MENU
  1
.
  9
$ELEVATION
 40
0.0
  9
$PELEVATION
 40
0.0
  9
$THICKNESS
 40
0.0
  9
$LIMCHECK
 70
     0
  9
$CHAMFERA
 40
0.0
  9
$CHAMFERB
 40
0.0
  9
$CHAMFERC
 40
0.0
  9
$CHAMFERD
 40
0.0
  9
$SKPOLY
 70
     0
  9
$TDCREATE
 40
2460699.623750000
  9
$TDUCREATE
 40
2460699.290416667
  9
$TDUPDATE
 40
2460700.352418982
  9
$TDUUPDATE
 40
2460700.019085648
  9
$TDINDWG
 40
0.0083680556
  9
$TDUSRTIMER
 40
0.0083680556
  9
$USRTIMER
 70
     1
  9
$ANGBASE
 50
0.0
  9
$ANGDIR
 70
     0
  9
$PDMODE
 70
     0
  9
$PDSIZE
 40
0.0
  9
$PLINEWID
 40
0.0
  9
$SPLFRAME
 70
     0
  9
$SPLINETYPE
 70
     6
  9
$SPLINESEGS
 70
     8
  9
$HANDSEED
  5
775
  9
$SURFTAB1
 70
     6
  9
$SURFTAB2
 70
     6
  9
$SURFTYPE
 70
     6
  9
$SURFU
 70
     6
  9
$SURFV
 70
     6
  9
$UCSBASE
  2

  9
$UCSNAME
  2

  9
$UCSORG
 10
0.0
 20
0.0
 30
0.0
  9
$UCSXDIR
 10
1.0
 20
0.0
 30
0.0
  9
$UCSYDIR
 10
0.0
 20
1.0
 30
0.0
  9
$UCSORTHOREF
  2

  9
$UCSORTHOVIEW
 70
     0
  9
$UCSORGTOP
 10
0.0
 20
0.0
 30
0.0
  9
$UCSORGBOTTOM
 10
0.0
 20
0.0
 30
0.0
  9
$UCSORGLEFT
 10
0.0
 20
0.0
 30
0.0
  9
$UCSORGRIGHT
 10
0.0
 20
0.0
 30
0.0
  9
$UCSORGFRONT
 10
0.0
 20
0.0
 30
0.0
  9
$UCSORGBACK
 10
0.0
 20
0.0
 30
0.0
  9
$PUCSBASE
  2

  9
$PUCSNAME
  2

  9
$PUCSORG
 10
0.0
 20
0.0
 30
0.0
  9
$PUCSXDIR
 10
1.0
 20
0.0
 30
0.0
  9
$PUCSYDIR
 10
0.0
 20
1.0
 30
0.0
  9
$PUCSORTHOREF
  2

  9
$PUCSORTHOVIEW
 70
     0
  9
$PUCSORGTOP
 10
0.0
 20
0.0
 30
0.0
  9
$PUCSORGBOTTOM
 10
0.0
 20
0.0
 30
0.0
  9
$PUCSORGLEFT
 10
0.0
 20
0.0
 30
0.0
  9
$PUCSORGRIGHT
 10
0.0
 20
0.0
 30
0.0
  9
$PUCSORGFRONT
 10
0.0
 20
0.0
 30
0.0
  9
$PUCSORGBACK
 10
0.0
 20
0.0
 30
0.0
  9
$USERI1
 70
     0
  9
$USERI2
 70
     0
  9
$USERI3
 70
     0
  9
$USERI4
 70
     0
  9
$USERI5
 70
     0
  9
$USERR1
 40
0.0
  9
$USERR2
 40
0.0
  9
$USERR3
 40
0.0
  9
$USERR4
 40
0.0
  9
$USERR5
 40
0.0
  9
$WORLDVIEW
 70
     1
  9
$SHADEDGE
 70
     3
  9
$SHADEDIF
 70
    70
  9
$TILEMODE
 70
     1
  9
$MAXACTVP
 70
    64
  9
$PINSBASE
 10
0.0
 20
0.0
 30
0.0
  9
$PLIMCHECK
 70
     0
  9
$PEXTMIN
 10
0.0
 20
0.0
 30
0.0
  9
$PEXTMAX
 10
0.0
 20
0.0
 30
0.0
  9
$PLIMMIN
 10
0.0
 20
0.0
  9
$PLIMMAX
 10
12.0
 20
9.0
  9
$UNITMODE
 70
     0
  9
$VISRETAIN
 70
     1
  9
$PLINEGEN
 70
     0
  9
$PSLTSCALE
 70
     1
  9
$TREEDEPTH
 70
  3020
  9
$CMLSTYLE
  2
Standard
  9
$CMLJUST
 70
     0
  9
$CMLSCALE
 40
1.0
  9
$PROXYGRAPHICS
 70
     1
  9
$MEASUREMENT
 70
     0
  9
$CELWEIGHT
370
    -1
  9
$ENDCAPS
280
     0
  9
$JOINSTYLE
280
     0
  9
$LWDISPLAY
290
     0
  9
$INSUNITS
 70
     1
  9
$HYPERLINKBASE
  1

  9
$STYLESHEET
  1

  9
$XEDIT
290
     1
  9
$CEPSNTYPE
380
     0
  9
$PSTYLEMODE
290
     0
  9
$FINGERPRINTGUID
  2
{30C0E4C9-0825-1B46-9809-8C2142BBB0DC}
  9
$VERSIONGUID
  2
{A4E298DB-3D7A-C54A-93AF-B97DF9F50B41}
  9
$EXTNAMES
290
     1
  9
$PSVPSCALE
 40
0.0
  9
$OLESTARTUP
290
     0
  9
$SORTENTS
280
   127
  9
$INDEXCTL
280
     0
  9
$HIDETEXT
280
     1
  9
$XCLIPFRAME
280
     2
  9
$HALOGAP
280
     0
  9
$OBSCOLOR
 70
   257
  9
$OBSLTYPE
280
     0
  9
$INTERSECTIONDISPLAY
280
     0
  9
$INTERSECTIONCOLOR
 70
   257
  9
$DIMASSOC
280
     2
  9
$PROJECTNAME
  1

  9
$CAMERADISPLAY
290
     0
  9
$LENSLENGTH
 40
50.0
  9
$CAMERAHEIGHT
 40
60.0
  9
$STEPSPERSEC
 40
2.0
  9
$STEPSIZE
 40
6.0
  9
$3DDWFPREC
 40
2.0
  9
$PSOLWIDTH
 40
0.25
  9
$PSOLHEIGHT
 40
4.0
  9
$LOFTANG1
 40
1.570796326794896
  9
$LOFTANG2
 40
1.570796326794896
  9
$LOFTMAG1
 40
0.0
  9
$LOFTMAG2
 40
0.0
  9
$LOFTPARAM
 70
     7
  9
$LOFTNORMALS
280
     1
  9
$LATITUDE
 40
37.795
  9
$LONGITUDE
 40
-122.394
  9
$NORTHDIRECTION
 40
0.0
  9
$TIMEZONE
 70
 -8000
  9
$LIGHTGLYPHDISPLAY
280
     1
  9
$TILEMODELIGHTSYNCH
280
     1
  9
$CMATERIAL
347
92
  9
$SOLIDHIST
280
     0
  9
$SHOWHIST
280
     1
  9
$DWFFRAME
280
     2
  9
$DGNFRAME
280
     0
  9
$REALWORLDSCALE
290
     1
  9
$INTERFERECOLOR
 62
     1
  9
$INTERFEREOBJVS
345
9F
  9
$INTERFEREVPVS
346
9C
  9
$CSHADOW
280
     0
  9
$SHADOWPLANELOCATION
 40
0.0
  0
ENDSEC
  0
SECTION
  2
CLASSES
  0
CLASS
  1
ACDBDICTIONARYWDFLT
  2
AcDbDictionaryWithDefault
  3
ObjectDBX Classes
 90
        0
 91
        1
280
     0
281
     0
  0
CLASS
  1
DICTIONARYVAR
  2
AcDbDictionaryVar
  3
ObjectDBX Classes
 90
        0
 91
        9
280
     0
281
     0
  0
CLASS
  1
MATERIAL
  2
AcDbMaterial
  3
ObjectDBX Classes
 90
     1153
 91
        3
280
     0
281
     0
  0
CLASS
  1
VISUALSTYLE
  2
AcDbVisualStyle
  3
ObjectDBX Classes
 90
     4095
 91
       24
280
     0
281
     0
  0
CLASS
  1
TABLESTYLE
  2
AcDbTableStyle
  3
ObjectDBX Classes
 90
     4095
 91
        1
280
     0
281
     0
  0
CLASS
  1
SCALE
  2
AcDbScale
  3
ObjectDBX Classes
 90
     1153
 91
       33
280
     0
281
     0
  0
CLASS
  1
MLEADERSTYLE
  2
AcDbMLeaderStyle
  3
ACDB_MLEADERSTYLE_CLASS
 90
     4095
 91
        2
280
     0
281
     0
  0
CLASS
  1
CELLSTYLEMAP
  2
AcDbCellStyleMap
  3
ObjectDBX Classes
 90
     1152
 91
        2
280
     0
281
     0
  0
CLASS
  1
EXACXREFPANELOBJECT
  2
ExAcXREFPanelObject
  3
EXAC_ESW
 90
     1025
 91
        0
280
     0
281
     0
  0
CLASS
  1
NPOCOLLECTION
  2
AcDbImpNonPersistentObjectsCollection
  3
ObjectDBX Classes
 90
     1153
 91
        0
280
     0
281
     0
  0
CLASS
  1
LAYER_INDEX
  2
AcDbLayerIndex
  3
ObjectDBX Classes
 90
        0
 91
        0
280
     0
281
     0
  0
CLASS
  1
SPATIAL_INDEX
  2
AcDbSpatialIndex
  3
ObjectDBX Classes
 90
        0
 91
        0
280
     0
281
     0
  0
CLASS
  1
IDBUFFER
  2
AcDbIdBuffer
  3
ObjectDBX Classes
 90
        0
 91
        0
280
     0
281
     0
  0
CLASS
  1
ACDBSECTIONVIEWSTYLE
  2
AcDbSectionViewStyle
  3
ObjectDBX Classes
 90
     1025
 91
        2
280
     0
281
     0
  0
CLASS
  1
ACDBDETAILVIEWSTYLE
  2
AcDbDetailViewStyle
  3
ObjectDBX Classes
 90
     1025
 91
        2
280
     0
281
     0
  0
CLASS
  1
RAPIDRTRENDERSETTINGS
  2
AcDbRapidRTRenderSettings
  3
ObjectDBX Classes
 90
     1024
 91
        7
280
     0
281
     0
  0
CLASS
  1
MENTALRAYRENDERSETTINGS
  2
AcDbMentalRayRenderSettings
  3
SCENEOE
 90
     1024
 91
        1
280
     0
281
     0
  0
ENDSEC
  0
SECTION
  2
TABLES
  0
TABLE
  2
VPORT
  5
8
330
0
100
AcDbSymbolTable
 70
     1
  0
VPORT
  5
90
330
8
100
AcDbSymbolTableRecord
100
AcDbViewportTableRecord
  2
*Active
 70
     0
 10
0.0
 20
0.0
 11
1.0
 21
1.0
 12
134.2123434018492
 22
35.09449716499572
 13
0.0
 23
0.0
 14
0.5
 24
0.5
 15
0.5
 25
0.5
 16
0.0
 26
0.0
 36
1.0
 17
0.0
 27
0.0
 37
0.0
 40
13.26563757384748
 41
2.762675296655879
 42
50.0
 43
0.0
 44
0.0
 50
0.0
 51
0.0
 71
     0
 72
  1000
 73
     1
 74
     3
 75
     0
 76
     1
 77
     0
 78
     0
281
     0
 65
     1
110
0.0
120
0.0
130
0.0
111
1.0
121
0.0
131
0.0
112
0.0
122
1.0
132
0.0
 79
     0
146
0.0
348
9B
 60
     3
 61
     5
292
     1
282
     1
141
0.0
142
0.0
 63
   250
421
  3355443
1001
ACAD_NAV_VCDISPLAY
1070
     3
  0
ENDTAB
  0
TABLE
  2
LTYPE
  5
5
330
0
100
AcDbSymbolTable
 70
     1
  0
LTYPE
  5
14
330
5
100
AcDbSymbolTableRecord
100
AcDbLinetypeTableRecord
  2
ByBlock
 70
     0
  3

 72
    65
 73
     0
 40
0.0
  0
LTYPE
  5
15
330
5
100
AcDbSymbolTableRecord
100
AcDbLinetypeTableRecord
  2
ByLayer
 70
     0
  3

 72
    65
 73
     0
 40
0.0
  0
LTYPE
  5
16
330
5
100
AcDbSymbolTableRecord
100
AcDbLinetypeTableRecord
  2
Continuous
 70
     0
  3
Solid line
 72
    65
 73
     0
 40
0.0
  0
ENDTAB
  0
TABLE
  2
LAYER
  5
2
102
{ACAD_XDICTIONARY
360
18B
102
}
330
0
100
AcDbSymbolTable
 70
     2
  0
LAYER
  5
10
102
{ACAD_XDICTIONARY
360
E1
102
}
330
2
100
AcDbSymbolTableRecord
100
AcDbLayerTableRecord
  2
0
 70
     0
 62
     7
  6
Continuous
370
    -3
390
F
347
94
  0
LAYER
  5
22A
102
{ACAD_XDICTIONARY
360
22B
102
}
330
2
100
AcDbSymbolTableRecord
100
AcDbLayerTableRecord
  2
ﾚｲﾔｰ2
 70
     0
 62
     7
  6
Continuous
370
    -3
390
F
347
94
  0
ENDTAB
  0
TABLE
  2
STYLE
  5
3
330
0
100
AcDbSymbolTable
 70
     2
  0
STYLE
  5
11
330
3
100
AcDbSymbolTableRecord
100
AcDbTextStyleTableRecord
  2
Standard
 70
     0
 40
0.0
 41
1.0
 50
0.0
 71
     0
 42
0.2
  3
arial.ttf
  4

1001
ACAD
1000
Arial
1071
       34
  0
STYLE
  5
D7
330
3
100
AcDbSymbolTableRecord
100
AcDbTextStyleTableRecord
  2
Annotative
 70
     0
 40
0.0
 41
1.0
 50
0.0
 71
     0
 42
0.2
  3
arial.ttf
  4

1001
AcadAnnotative
1000
AnnotativeData
1002
{
1070
     1
1070
     1
1002
}
1001
ACAD
1000
Arial
1071
       34
  0
ENDTAB
  0
TABLE
  2
VIEW
  5
6
330
0
100
AcDbSymbolTable
 70
     0
  0
ENDTAB
  0
TABLE
  2
UCS
  5
7
330
0
100
AcDbSymbolTable
 70
     0
  0
ENDTAB
  0
TABLE
  2
APPID
  5
9
330
0
100
AcDbSymbolTable
 70
     7
  0
APPID
  5
12
330
9
100
AcDbSymbolTableRecord
100
AcDbRegAppTableRecord
  2
ACAD
 70
     0
  0
APPID
  5
D8
330
9
100
AcDbSymbolTableRecord
100
AcDbRegAppTableRecord
  2
AcadAnnoPO
 70
     0
  0
APPID
  5
D9
330
9
100
AcDbSymbolTableRecord
100
AcDbRegAppTableRecord
  2
AcadAnnotative
 70
     0
  0
APPID
  5
DA
330
9
100
AcDbSymbolTableRecord
100
AcDbRegAppTableRecord
  2
ACAD_DSTYLE_DIMJAG
 70
     0
  0
APPID
  5
DB
330
9
100
AcDbSymbolTableRecord
100
AcDbRegAppTableRecord
  2
ACAD_DSTYLE_DIMTALN
 70
     0
  0
APPID
  5
102
330
9
100
AcDbSymbolTableRecord
100
AcDbRegAppTableRecord
  2
ACAD_MLEADERVER
 70
     0
  0
APPID
  5
1A3
330
9
100
AcDbSymbolTableRecord
100
AcDbRegAppTableRecord
  2
ACAD_NAV_VCDISPLAY
 70
     0
  0
ENDTAB
  0
TABLE
  2
DIMSTYLE
  5
A
330
0
100
AcDbSymbolTable
 70
     3
100
AcDbDimStyleTable
 71
     2
340
27
340
DC
  0
DIMSTYLE
105
27
330
A
100
AcDbSymbolTableRecord
100
AcDbDimStyleTableRecord
  2
Standard
 70
     0
340
11
  0
DIMSTYLE
105
DC
330
A
100
AcDbSymbolTableRecord
100
AcDbDimStyleTableRecord
  2
Annotative
 70
     0
 40
0.0
340
11
1001
AcadAnnotative
1000
AnnotativeData
1002
{
1070
     1
1070
     1
1002
}
1001
ACAD_DSTYLE_DIMJAG
1070
   388
1040
1.5
1001
ACAD_DSTYLE_DIMTALN
1070
   392
1070
     0
  0
DIMSTYLE
105
22C
330
A
100
AcDbSymbolTableRecord
100
AcDbDimStyleTableRecord
  2
ISO-25
 70
     0
 41
2.5
 42
0.625
 43
3.75
 44
1.25
 73
     0
 74
     0
 77
     1
 78
     8
140
2.5
141
2.5
143
0.0393700787
147
0.625
171
     3
172
     1
271
     2
272
     2
274
     3
278
    44
283
     0
284
     8
340
11
  0
ENDTAB
  0
TABLE
  2
BLOCK_RECORD
  5
1
330
0
100
AcDbSymbolTable
 70
     1
  0
BLOCK_RECORD
  5
1F
102
{ACAD_XDICTIONARY
360
15A
102
}
330
1
100
AcDbSymbolTableRecord
100
AcDbBlockTableRecord
  2
*Model_Space
340
22
 70
     0
280
     1
281
     0
  0
BLOCK_RECORD
  5
73
330
1
100
AcDbSymbolTableRecord
100
AcDbBlockTableRecord
  2
*Paper_Space
340
74
 70
     0
280
     1
281
     0
  0
BLOCK_RECORD
  5
78
330
1
100
AcDbSymbolTableRecord
100
AcDbBlockTableRecord
  2
*Paper_Space0
340
79
 70
     0
280
     1
281
     0
  0
ENDTAB
  0
ENDSEC
  0
SECTION
  2
BLOCKS
  0
BLOCK
  5
20
330
1F
100
AcDbEntity
  8
0
100
AcDbBlockBegin
  2
*Model_Space
 70
     0
 10
0.0
 20
0.0
 30
0.0
  3
*Model_Space
  1

  0
ENDBLK
  5
21
330
1F
100
AcDbEntity
  8
0
100
AcDbBlockEnd
  0
BLOCK
  5
75
330
73
100
AcDbEntity
 67
     1
  8
0
100
AcDbBlockBegin
  2
*Paper_Space
 70
     0
 10
0.0
 20
0.0
 30
0.0
  3
*Paper_Space
  1

  0
ENDBLK
  5
76
330
73
100
AcDbEntity
 67
     1
  8
0
100
AcDbBlockEnd
  0
BLOCK
  5
7A
330
78
100
AcDbEntity
 67
     1
  8
0
100
AcDbBlockBegin
  2
*Paper_Space0
 70
     0
 10
0.0
 20
0.0
 30
0.0
  3
*Paper_Space0
  1

  0
ENDBLK
  5
7B
330
78
100
AcDbEntity
 67
     1
  8
0
100
AcDbBlockEnd
  0
ENDSEC
  0
SECTION
  2
ENTITIES
  0
LINE
  5
44F
330
1F
100
AcDbEntity
  8
0
100
AcDbLine
 10
90.12501817854642
 20
44.98816686232173
 30
0.0
 11
90.0968673424548
 21
44.91840406811642
 31
0.0
  0
SPLINE
  5
450
330
1F
100
AcDbEntity
  8
0
100
AcDbSpline
210
0.0
220
0.0
230
1.0
 70
     8
 71
     3
 72
     9
 73
     5
 74
     0
 42
0.00000001
 43
0.0000000001
 40
0.0
 40
0.0
 40
0.0
 40
0.0
 40
0.7081094781437712
 40
1.0
 40
1.0
 40
1.0
 40
1.0
 10
90.09686734244636
 20
44.91840406811337
 30
0.0
 10
90.09650480502704
 20
44.91759723923638
 30
0.0
 10
90.09599282569269
 20
44.91645782661459
 30
0.0
 10
90.09557782712795
 20
44.91592162585344
 30
0.0
 10
90.09545669298034
 20
44.91576511393343
 30
0.0
  0
SPLINE
  5
451
330
1F
100
AcDbEntity
  8
0
100
AcDbSpline
210
0.0
220
0.0
230
1.0
 70
     8
 71
     3
 72
    10
 73
     6
 74
     0
 42
0.00000001
 43
0.0000000001
 40
0.0
 40
0.0
 40
0.0
 40
0.0
 40
0.4502222242335476
 40
0.8457306647898384
 40
1.0
 40
1.0
 40
1.0
 40
1.0
 10
90.13325950413008
 20
44.99770397877625
 30
0.0
 10
90.13164616496295
 20
44.99668648345852
 30
0.0
 10
90.12861554956257
 20
44.9947751451345
 30
0.0
 10
90.1262836634792
 20
44.99107273798778
 30
0.0
 10
90.12529546896814
 20
44.98880359173688
 30
0.0
 10
90.12501817854827
 20
44.98816686231804
 30
0.0
  0
LINE
  5
452
330
1F
100
AcDbEntity
  8
0
100
AcDbLine
 10
90.16566489367461
 20
45.0122309174788
 30
0.0
 11
90.13325950412941
 21
44.99770397877944
 31
0.0
  0
LINE
  5
453
330
1F
100
AcDbEntity
  8
0
100
AcDbLine
 10
90.17352816717535
 20
45.01369493437731
 30
0.0
 11
90.16566489367461
 21
45.0122309174788
 31
0.0
  0
LINE
  5
454
330
1F
100
AcDbEntity
  8
0
100
AcDbLine
 10
90.08286818251368
 20
42.26490124963691
 30
0.0
 11
90.14501060294156
 21
42.25498124612514
 31
0.0
  0
LINE
  5
455
330
1F
100
AcDbEntity
  8
0
100
AcDbLine
 10
90.10621563914231
 20
42.26117421663921
 30
0.0
 11
90.12567327565657
 21
42.23039996156205
 31
0.0
  0
LINE
  5
456
330
1F
100
AcDbEntity
  8
0
100
AcDbLine
 10
90.13356337626191
 20
42.22496691867291
 30
0.0
 11
90.19570579666984
 21
42.21504691518112
 31
0.0
  0
SPLINE
  5
457
330
1F
100
AcDbEntity
  8
0
100
AcDbSpline
210
0.0
220
0.0
230
1.0
 70
     8
 71
     3
 72
    10
 73
     6
 74
     0
 42
0.00000001
 43
0.0000000001
 40
0.0
 40
0.0
 40
0.0
 40
0.0
 40
0.4792239726480842
 40
0.9126988779105802
 40
1.0
 40
1.0
 40
1.0
 40
1.0
 10
90.12567327566449
 20
42.23039996156864
 30
0.0
 10
90.12663718825304
 20
42.22919181949509
 30
0.0
 10
90.1284729936138
 20
42.22689087050707
 30
0.0
 10
90.1315833383048
 20
42.22508870583067
 30
0.0
 10
90.13331973848513
 20
42.22511276734121
 30
0.0
 10
90.13361082270591
 20
42.22511680093099
 30
0.0
  0
LINE
  5
458
330
1F
100
AcDbEntity
  8
0
100
AcDbLine
 10
132.1048008800024
 20
38.63796921076819
 30
0.0
 11
132.1016616977437
 21
38.6383363805092
 31
0.0
  0
LINE
  5
459
330
1F
100
AcDbEntity
  8
0
100
AcDbLine
 10
132.3316235975637
 20
38.73003395962803
 30
0.0
 11
132.3141046790704
 21
38.73283056347555
 31
0.0
  0
SPLINE
  5
45A
330
1F
100
AcDbEntity
  8
0
100
AcDbSpline
210
0.0
220
0.0
230
1.0
 70
     8
 71
     3
 72
    11
 73
     7
 74
     0
 42
0.00000001
 43
0.0000000001
 40
0.0
 40
0.0
 40
0.0
 40
0.0
 40
0.0838656654363606
 40
0.4489530327071626
 40
0.8193851654544618
 40
1.0
 40
1.0
 40
1.0
 40
1.0
 10
132.0898696353072
 20
35.98816232960564
 30
0.0
 10
132.0904285619908
 20
35.98796907923008
 30
0.0
 10
132.0934206306563
 20
35.98693456359462
 30
0.0
 10
132.0993673389315
 20
35.9888737082681
 30
0.0
 10
132.1046703631629
 20
35.99246941453492
 30
0.0
 10
132.1073611724298
 20
35.9956687740152
 30
0.0
 10
132.1082431300476
 20
35.99671741744754
 30
0.0
  0
LINE
  5
45B
330
1F
100
AcDbEntity
  8
0
100
AcDbLine
 10
132.0278136457538
 20
35.99646559382495
 30
0.0
 11
132.0901414357453
 21
35.98778610772325
 31
0.0
  0
SPLINE
  5
45C
330
1F
100
AcDbEntity
  8
0
100
AcDbSpline
210
0.0
220
0.0
230
1.0
 70
     8
 71
     3
 72
     9
 73
     5
 74
     0
 42
0.00000001
 43
0.0000000001
 40
0.0
 40
0.0
 40
0.0
 40
0.0
 40
0.8386853588159212
 40
1.0
 40
1.0
 40
1.0
 40
1.0
 10
132.1082431300476
 20
35.99671741744754
 30
0.0
 10
132.1085114194825
 20
35.99698499900376
 30
0.0
 10
132.108831312315
 20
35.9973040478024
 30
0.0
 10
132.108689989141
 20
35.99722458552651
 30
0.0
 10
132.1086671916439
 20
35.99721176709795
 30
0.0
  0
SPLINE
  5
45D
330
1F
100
AcDbEntity
  8
0
100
AcDbSpline
210
0.0
220
0.0
230
1.0
 70
     8
 71
     3
 72
     9
 73
     5
 74
     0
 42
0.00000001
 43
0.0000000001
 40
0.0
 40
0.0
 40
0.0
 40
0.0
 40
0.5852010683189967
 40
1.0
 40
1.0
 40
1.0
 40
1.0
 10
132.1407932261548
 20
35.94804303882245
 30
0.0
 10
132.142004974111
 20
35.94791044474897
 30
0.0
 10
132.1440756264419
 20
35.94768386608968
 30
0.0
 10
132.1459716087085
 20
35.94843941987955
 30
0.0
 10
132.1467580601272
 20
35.9487528227844
 30
0.0
  0
LINE
  5
45E
330
1F
100
AcDbEntity
  8
0
100
AcDbLine
 10
132.0784171359579
 20
35.95654496606602
 30
0.0
 11
132.1407449259494
 21
35.94786547994444
 31
0.0
  0
LINE
  5
45F
330
1F
100
AcDbEntity
  8
0
100
AcDbLine
 10
132.1467580601175
 20
35.94875282278464
 30
0.0
 11
132.1791634496628
 21
35.96327976150394
 31
0.0
  0
LINE
  5
460
330
1F
100
AcDbEntity
  8
0
100
AcDbLine
 10
132.1854905757424
 20
35.96766569800105
 30
0.0
 11
132.3316235975637
 21
36.10881920943115
 31
0.0
  0
LINE
  5
461
330
1F
100
AcDbEntity
  8
0
100
AcDbLine
 10
132.1791634496628
 20
35.96327976150394
 30
0.0
 11
132.1854905757424
 21
35.96766569800105
 31
0.0
  0
LINE
  5
462
330
1F
100
AcDbEntity
  8
0
100
AcDbLine
 10
90.17964460681378
 20
42.24980544926791
 30
0.0
 11
131.9931795091407
 21
36.00164048293465
 31
0.0
  0
LINE
  5
463
330
1F
100
AcDbEntity
  8
0
100
AcDbLine
 10
90.2302939810179
 20
42.20987819531273
 30
0.0
 11
132.0438288833448
 21
35.96171322895953
 31
0.0
  0
LINE
  5
464
330
1F
100
AcDbEntity
  8
0
100
AcDbLine
 10
90.12501817854642
 20
44.98816686232173
 30
0.0
 11
90.0968673424548
 21
44.91840406811642
 31
0.0
  0
SPLINE
  5
465
330
1F
100
AcDbEntity
  8
0
100
AcDbSpline
210
0.0
220
0.0
230
1.0
 70
     8
 71
     3
 72
     9
 73
     5
 74
     0
 42
0.00000001
 43
0.0000000001
 40
0.0
 40
0.0
 40
0.0
 40
0.0
 40
0.7081094781443892
 40
1.0
 40
1.0
 40
1.0
 40
1.0
 10
90.09686734244636
 20
44.91840406811337
 30
0.0
 10
90.09650480502704
 20
44.91759723923638
 30
0.0
 10
90.09599282569269
 20
44.91645782661459
 30
0.0
 10
90.09557782712795
 20
44.91592162585344
 30
0.0
 10
90.09545669298034
 20
44.91576511393343
 30
0.0
  0
SPLINE
  5
466
330
1F
100
AcDbEntity
  8
0
100
AcDbSpline
210
0.0
220
0.0
230
1.0
 70
     8
 71
     3
 72
    10
 73
     6
 74
     0
 42
0.00000001
 43
0.0000000001
 40
0.0
 40
0.0
 40
0.0
 40
0.0
 40
0.4502222242335635
 40
0.8457306647898386
 40
1.0
 40
1.0
 40
1.0
 40
1.0
 10
90.13325950413008
 20
44.99770397877625
 30
0.0
 10
90.13164616496295
 20
44.99668648345852
 30
0.0
 10
90.12861554956257
 20
44.9947751451345
 30
0.0
 10
90.12628366347923
 20
44.99107273798778
 30
0.0
 10
90.12529546896814
 20
44.98880359173688
 30
0.0
 10
90.12501817854827
 20
44.98816686231804
 30
0.0
  0
LINE
  5
467
330
1F
100
AcDbEntity
  8
0
100
AcDbLine
 10
90.16566489367461
 20
45.0122309174788
 30
0.0
 11
90.13325950412941
 21
44.99770397877944
 31
0.0
  0
LINE
  5
468
330
1F
100
AcDbEntity
  8
0
100
AcDbLine
 10
90.17352816717535
 20
45.01369493437731
 30
0.0
 11
90.16566489367461
 21
45.0122309174788
 31
0.0
  0
LINE
  5
469
330
1F
100
AcDbEntity
  8
0
100
AcDbLine
 10
90.10621563914231
 20
42.26117421663921
 30
0.0
 11
90.12567327565657
 21
42.23039996156205
 31
0.0
  0
SPLINE
  5
46A
330
1F
100
AcDbEntity
  8
0
100
AcDbSpline
210
0.0
220
0.0
230
1.0
 70
     8
 71
     3
 72
    10
 73
     6
 74
     0
 42
0.00000001
 43
0.0000000001
 40
0.0
 40
0.0
 40
0.0
 40
0.0
 40
0.4792239726480842
 40
0.9126988779105802
 40
1.0
 40
1.0
 40
1.0
 40
1.0
 10
90.12567327566449
 20
42.23039996156864
 30
0.0
 10
90.12663718825304
 20
42.22919181949509
 30
0.0
 10
90.1284729936138
 20
42.22689087050707
 30
0.0
 10
90.1315833383048
 20
42.22508870583067
 30
0.0
 10
90.13331973848513
 20
42.22511276734121
 30
0.0
 10
90.13361082270591
 20
42.22511680093099
 30
0.0
  0
LINE
  5
46B
330
1F
100
AcDbEntity
  8
0
100
AcDbLine
 10
132.1048008800024
 20
38.63796921076819
 30
0.0
 11
132.1016616977437
 21
38.6383363805092
 31
0.0
  0
LINE
  5
46C
330
1F
100
AcDbEntity
  8
0
100
AcDbLine
 10
132.3316235975637
 20
38.73003395962803
 30
0.0
 11
132.3141046790704
 21
38.73283056347555
 31
0.0
  0
SPLINE
  5
46D
330
1F
100
AcDbEntity
  8
0
100
AcDbSpline
210
0.0
220
0.0
230
1.0
 70
     8
 71
     3
 72
    11
 73
     7
 74
     0
 42
0.00000001
 43
0.0000000001
 40
0.0
 40
0.0
 40
0.0
 40
0.0
 40
0.083865665436352
 40
0.4489530327071629
 40
0.8193851654544619
 40
1.0
 40
1.0
 40
1.0
 40
1.0
 10
132.0898696353072
 20
35.98816232960564
 30
0.0
 10
132.0904285619908
 20
35.98796907923008
 30
0.0
 10
132.0934206306562
 20
35.98693456359462
 30
0.0
 10
132.0993673389315
 20
35.9888737082681
 30
0.0
 10
132.1046703631629
 20
35.99246941453492
 30
0.0
 10
132.1073611724298
 20
35.99566877401514
 30
0.0
 10
132.1082431300476
 20
35.99671741744754
 30
0.0
  0
LINE
  5
46E
330
1F
100
AcDbEntity
  8
0
100
AcDbLine
 10
132.0278136457538
 20
35.99646559382495
 30
0.0
 11
132.0901414357453
 21
35.98778610772325
 31
0.0
  0
SPLINE
  5
46F
330
1F
100
AcDbEntity
  8
0
100
AcDbSpline
210
0.0
220
0.0
230
1.0
 70
     8
 71
     3
 72
     9
 73
     5
 74
     0
 42
0.00000001
 43
0.0000000001
 40
0.0
 40
0.0
 40
0.0
 40
0.0
 40
0.8386853588159899
 40
1.0
 40
1.0
 40
1.0
 40
1.0
 10
132.1082431300476
 20
35.99671741744754
 30
0.0
 10
132.1085114194825
 20
35.99698499900376
 30
0.0
 10
132.108831312315
 20
35.9973040478024
 30
0.0
 10
132.108689989141
 20
35.99722458552651
 30
0.0
 10
132.1086671916439
 20
35.99721176709795
 30
0.0
  0
SPLINE
  5
470
330
1F
100
AcDbEntity
  8
0
100
AcDbSpline
210
0.0
220
0.0
230
1.0
 70
     8
 71
     3
 72
     9
 73
     5
 74
     0
 42
0.00000001
 43
0.0000000001
 40
0.0
 40
0.0
 40
0.0
 40
0.0
 40
0.5852010683189967
 40
1.0
 40
1.0
 40
1.0
 40
1.0
 10
132.1407932261547
 20
35.94804303882245
 30
0.0
 10
132.142004974111
 20
35.94791044474897
 30
0.0
 10
132.1440756264419
 20
35.94768386608968
 30
0.0
 10
132.1459716087085
 20
35.94843941987955
 30
0.0
 10
132.1467580601272
 20
35.9487528227844
 30
0.0
  0
LINE
  5
471
330
1F
100
AcDbEntity
  8
0
100
AcDbLine
 10
132.0784171359579
 20
35.95654496606602
 30
0.0
 11
132.1407449259494
 21
35.94786547994444
 31
0.0
  0
LINE
  5
472
330
1F
100
AcDbEntity
  8
0
100
AcDbLine
 10
132.1467580601175
 20
35.94875282278464
 30
0.0
 11
132.1791634496628
 21
35.96327976150394
 31
0.0
  0
LINE
  5
473
330
1F
100
AcDbEntity
  8
0
100
AcDbLine
 10
132.1854905757424
 20
35.96766569800105
 30
0.0
 11
132.3316235975637
 21
36.10881920943115
 31
0.0
  0
LINE
  5
474
330
1F
100
AcDbEntity
  8
0
100
AcDbLine
 10
132.1791634496628
 20
35.96327976150394
 30
0.0
 11
132.1854905757424
 21
35.96766569800105
 31
0.0
  0
LINE
  5
475
330
1F
100
AcDbEntity
  8
0
100
AcDbLine
 10
100.8563298834356
 20
38.42186057204134
 30
0.0
 11
107.0774101278849
 21
37.49224924577976
 31
0.0
  0
LINE
  5
476
330
1F
100
AcDbEntity
  8
0
100
AcDbLine
 10
132.3386477699708
 20
35.97138062243948
 30
0.0
 11
132.3593731899859
 21
35.96828363856646
 31
0.0
  0
LINE
  5
477
330
1F
100
AcDbEntity
  8
0
100
AcDbLine
 10
90.1775572150696
 20
45.03589803229657
 30
0.0
 11
132.3316235975637
 21
38.73684770385637
 31
0.0
  0
LINE
  5
478
330
1F
100
AcDbEntity
  8
0
100
AcDbLine
 10
132.8747903370017
 20
39.52586791115289
 30
0.0
 11
132.8747903370017
 21
39.54898411348001
 31
0.0
  0
LINE
  5
479
330
1F
100
AcDbEntity
  8
0
100
AcDbLine
 10
107.1119524946034
 20
37.48708760599135
 30
0.0
 11
132.3365157845017
 21
33.71780014901424
 31
0.0
  0
LINE
  5
47A
330
1F
100
AcDbEntity
  8
0
100
AcDbLine
 10
90.1775572150696
 20
40.01758151325145
 30
0.0
 11
100.8079705700537
 21
38.42908686774514
 31
0.0
  0
SPLINE
  5
47B
330
1F
100
AcDbEntity
  8
0
100
AcDbSpline
210
0.0
220
0.0
230
1.0
 70
     8
 71
     3
 72
    15
 73
    11
 74
     0
 42
0.00000001
 43
0.0000000001
 40
0.0
 40
0.0
 40
0.0
 40
0.0
 40
0.1129790150854654
 40
0.2068320913082928
 40
0.3446560205342796
 40
0.5196419386038559
 40
0.6938165316867986
 40
0.8201464868805064
 40
0.9027578281368196
 40
1.0
 40
1.0
 40
1.0
 40
1.0
 10
132.5494916464394
 20
39.47499023777186
 30
0.0
 10
132.5451495733084
 20
39.48020830604924
 30
0.0
 10
132.5372004858994
 20
39.48976108869283
 30
0.0
 10
132.516827614406
 20
39.50203163075496
 30
0.0
 10
132.4880510930071
 20
39.51183901787
 30
0.0
 10
132.4508866208951
 20
39.51382989835578
 30
0.0
 10
132.4157527420674
 20
39.51059932874978
 30
0.0
 10
132.389532893765
 20
39.5003475172374
 30
0.0
 10
132.3719494236136
 20
39.48861890359093
 30
0.0
 10
132.364803964185
 20
39.47978626978511
 30
0.0
 10
132.360940597928
 20
39.47501069170687
 30
0.0
  0
LINE
  5
47C
330
1F
100
AcDbEntity
  8
0
100
AcDbLine
 10
132.5509357773472
 20
39.46685020937042
 30
0.0
 11
132.5509357773472
 21
39.47070290975496
 31
0.0
  0
LINE
  5
47D
330
1F
100
AcDbEntity
  8
0
100
AcDbLine
 10
132.3594825480506
 20
39.47070290975496
 30
0.0
 11
132.3594825480506
 21
39.46685020937042
 31
0.0
  0
SPLINE
  5
47E
330
1F
100
AcDbEntity
  8
0
100
AcDbSpline
210
0.0
220
0.0
230
1.0
 70
     8
 71
     3
 72
    15
 73
    11
 74
     0
 42
0.00000001
 43
0.0000000001
 40
0.0
 40
0.0
 40
0.0
 40
0.0
 40
0.1129790150854654
 40
0.2068320913082928
 40
0.3446560205342796
 40
0.5196419386038559
 40
0.6938165316867986
 40
0.8201464868805064
 40
0.9027578281368196
 40
1.0
 40
1.0
 40
1.0
 40
1.0
 10
90.76359063747792
 20
45.71902589228478
 30
0.0
 10
90.7592485643469
 20
45.72424396056216
 30
0.0
 10
90.75129947693787
 20
45.73379674320569
 30
0.0
 10
90.7309266054446
 20
45.74606728526788
 30
0.0
 10
90.70215008404565
 20
45.7558746723829
 30
0.0
 10
90.66498561193368
 20
45.75786555286867
 30
0.0
 10
90.629851733106
 20
45.75463498326263
 30
0.0
 10
90.60363188480366
 20
45.74438317175031
 30
0.0
 10
90.58604841465211
 20
45.73265455810378
 30
0.0
 10
90.57890295522355
 20
45.72382192429802
 30
0.0
 10
90.57503958896651
 20
45.71904634621978
 30
0.0
  0
LINE
  5
47F
330
1F
100
AcDbEntity
  8
0
100
AcDbLine
 10
90.76503476838714
 20
45.71088586389286
 30
0.0
 11
90.76503476838714
 21
45.71473856427741
 31
0.0
  0
LINE
  5
480
330
1F
100
AcDbEntity
  8
0
100
AcDbLine
 10
90.57358153909047
 20
45.71473856427741
 30
0.0
 11
90.57358153909047
 21
45.71088586389286
 31
0.0
  0
SPLINE
  5
481
330
1F
100
AcDbEntity
  8
0
100
AcDbSpline
210
0.0
220
0.0
230
1.0
 70
     8
 71
     3
 72
    13
 73
     9
 74
     0
 42
0.00000001
 43
0.0000000001
 40
0.0
 40
0.0
 40
0.0
 40
0.0
 40
0.0726157127253252
 40
0.2395855477931589
 40
0.4070597649967099
 40
0.5947018882419614
 40
0.8006242436955325
 40
1.0
 40
1.0
 40
1.0
 40
1.0
 10
136.1704261637479
 20
37.86841281181735
 30
0.0
 10
136.1744025673881
 20
37.86748042563454
 30
0.0
 10
136.1875221638034
 20
37.86440414577761
 30
0.0
 10
136.2102130243421
 20
37.87180366150858
 30
0.0
 10
136.2344898043075
 20
37.88809838970212
 30
0.0
 10
136.2560962274482
 20
37.91428498738037
 30
0.0
 10
136.2746843895688
 20
37.94925020234405
 30
0.0
 10
136.2826761098087
 20
37.97765969314799
 30
0.0
 10
136.286607426587
 20
37.99163499564992
 30
0.0
  0
SPLINE
  5
482
330
1F
100
AcDbEntity
  8
0
100
AcDbSpline
210
0.0
220
0.0
230
1.0
 70
     8
 71
     3
 72
    14
 73
    10
 74
     0
 42
0.00000001
 43
0.0000000001
 40
0.0
 40
0.0
 40
0.0
 40
0.0
 40
0.0879577488179047
 40
0.2547224627140737
 40
0.423425859065037
 40
0.5965573545739053
 40
0.7537320636464509
 40
0.8924966353885873
 40
1.0
 40
1.0
 40
1.0
 40
1.0
 10
136.286607426587
 20
37.99163499564992
 30
0.0
 10
136.2882330434812
 20
37.99936448773832
 30
0.0
 10
136.2929407712747
 20
38.02174881756434
 30
0.0
 10
136.2957672125431
 20
38.06016996302992
 30
0.0
 10
136.2923534265478
 20
38.10363441785666
 30
0.0
 10
136.2817915856831
 20
38.14106641063164
 30
0.0
 10
136.2648390706627
 20
38.16924936278782
 30
0.0
 10
136.2437776468899
 20
38.18821901780495
 30
0.0
 10
136.2272001089412
 20
38.19183215016654
 30
0.0
 10
136.2199635147955
 20
38.19340939116439
 30
0.0
  0
LINE
  5
483
330
1F
100
AcDbEntity
  8
0
100
AcDbLine
 10
136.1321998511804
 20
37.87268619695197
 30
0.0
 11
136.1704669252184
 21
37.8669679769593
 31
0.0
  0
LINE
  5
484
330
1F
100
AcDbEntity
  8
0
100
AcDbLine
 10
136.2193929344553
 20
38.1943872122074
 30
0.0
 11
136.1811258604173
 21
38.20010543222003
 31
0.0
  0
SPLINE
  5
485
330
1F
100
AcDbEntity
  8
0
100
AcDbSpline
210
0.0
220
0.0
230
1.0
 70
     8
 71
     3
 72
    15
 73
    11
 74
     0
 42
0.00000001
 43
0.0000000001
 40
0.0
 40
0.0
 40
0.0
 40
0.0
 40
0.0189145433558129
 40
0.1475001530000727
 40
0.2714232915326795
 40
0.4063706692018794
 40
0.5579251988413276
 40
0.7136784430088259
 40
0.8675687319497221
 40
1.0
 40
1.0
 40
1.0
 40
1.0
 10
136.1679676882877
 20
34.01544167002022
 30
0.0
 10
136.1692814147807
 20
34.01494899332488
 30
0.0
 10
136.1795261695739
 20
34.0111069820972
 30
0.0
 10
136.2007776576614
 20
34.01549049616278
 30
0.0
 10
136.2261333503571
 20
34.02835827994358
 30
0.0
 10
136.2487463448352
 20
34.05119667721415
 30
0.0
 10
136.268518689597
 20
34.08336329608375
 30
0.0
 10
136.2838089841226
 20
34.12392255116579
 30
0.0
 10
136.293052755138
 20
34.16687496403501
 30
0.0
 10
136.2941415548544
 20
34.19463854885584
 30
0.0
 10
136.2946451534259
 20
34.20747993873261
 30
0.0
  0
SPLINE
  5
486
330
1F
100
AcDbEntity
  8
0
100
AcDbSpline
210
0.0
220
0.0
230
1.0
 70
     8
 71
     3
 72
    13
 73
     9
 74
     0
 42
0.00000001
 43
0.0000000001
 40
0.0
 40
0.0
 40
0.0
 40
0.0
 40
0.1174702514864256
 40
0.3437903027933896
 40
0.5789270748565773
 40
0.7710484183263691
 40
0.9487339305333771
 40
1.0
 40
1.0
 40
1.0
 40
1.0
 10
136.2946451534259
 20
34.20747993873261
 30
0.0
 10
136.2944498334561
 20
34.2151833181299
 30
0.0
 10
136.2938782069319
 20
34.23772815056219
 30
0.0
 10
136.2872955585132
 20
34.27270022693739
 30
0.0
 10
136.2729328083404
 20
34.30608949761046
 30
0.0
 10
136.2519743017597
 20
34.32878898316717
 30
0.0
 10
136.2323567826396
 20
34.34088231475846
 30
0.0
 10
136.2205542929868
 20
34.34062858680216
 30
0.0
 10
136.2179115191303
 20
34.34057177289009
 30
0.0
  0
LINE
  5
487
330
1F
100
AcDbEntity
  8
0
100
AcDbLine
 10
136.1321998511804
 20
34.01998580729908
 30
0.0
 11
136.1704669252184
 21
34.01426758728644
 31
0.0
  0
LINE
  5
488
330
1F
100
AcDbEntity
  8
0
100
AcDbLine
 10
136.2193929344553
 20
34.3416868225545
 30
0.0
 11
136.1811258604173
 21
34.34740504254718
 31
0.0
  0
LINE
  5
489
330
1F
100
AcDbEntity
  8
0
100
AcDbLine
 10
136.2830915529219
 20
37.87872394420765
 30
0.0
 11
136.2830915529219
 21
37.98053541950078
 31
0.0
  0
LINE
  5
48A
330
1F
100
AcDbEntity
  8
0
100
AcDbLine
 10
136.2830915529219
 20
38.13049450019202
 30
0.0
 11
136.2830915529219
 21
38.34349777432232
 31
0.0
  0
LINE
  5
48B
330
1F
100
AcDbEntity
  8
0
100
AcDbLine
 10
136.2830915529219
 20
34.02602355453485
 30
0.0
 11
136.2830915529219
 21
34.12567452267388
 31
0.0
  0
LINE
  5
48C
330
1F
100
AcDbEntity
  8
0
100
AcDbLine
 10
136.2830915529219
 20
34.27810783006845
 30
0.0
 11
136.2830915529219
 21
34.49079738464951
 31
0.0
  0
LINE
  5
48D
330
1F
100
AcDbEntity
  8
0
100
AcDbLine
 10
90.72833196666849
 20
45.84446199775491
 30
0.0
 11
90.72833196666849
 21
45.8743142643342
 31
0.0
  0
LINE
  5
48E
330
1F
100
AcDbEntity
  8
0
100
AcDbLine
 10
86.79498363273777
 20
40.51597514910173
 30
0.0
 11
90.12832202025483
 21
40.0178769093307
 31
0.0
  0
LINE
  5
48F
330
1F
100
AcDbEntity
  8
0
100
AcDbLine
 10
86.82641607077227
 20
46.02151967998917
 30
0.0
 11
86.82641607077227
 21
42.77754595188935
 31
0.0
  0
LINE
  5
490
330
1F
100
AcDbEntity
  8
0
100
AcDbLine
 10
86.82390657712764
 20
46.11086897602262
 30
0.0
 11
86.82390657712764
 21
46.09160547406006
 31
0.0
  0
LINE
  5
491
330
1F
100
AcDbEntity
  8
0
100
AcDbLine
 10
86.79284851405681
 20
42.67344807947096
 30
0.0
 11
86.4018727982509
 21
42.06210171344401
 31
0.0
  0
SPLINE
  5
492
330
1F
100
AcDbEntity
  8
0
100
AcDbSpline
210
0.0
220
0.0
230
1.0
 70
     8
 71
     3
 72
    15
 73
    11
 74
     0
 42
0.00000001
 43
0.0000000001
 40
0.0
 40
0.0
 40
0.0
 40
0.0
 40
0.1389772806418282
 40
0.2492178944398039
 40
0.4080321930786652
 40
0.4996610764365081
 40
0.6234807039194245
 40
0.7872195497075066
 40
0.8871479408451309
 40
1.0
 40
1.0
 40
1.0
 40
1.0
 10
89.94796179932976
 20
41.68066058672946
 30
0.0
 10
89.95539439673356
 20
41.68590318646619
 30
0.0
 10
89.96872273548538
 20
41.69530436097284
 30
0.0
 10
89.98511200412204
 20
41.71840351601535
 30
0.0
 10
89.9946461609247
 20
41.74173557616518
 30
0.0
 10
89.99959384664814
 20
41.76660113334492
 30
0.0
 10
90.000595364535
 20
41.79337579342063
 30
0.0
 10
89.99557845012303
 20
41.82020607722768
 30
0.0
 10
89.9861457804875
 20
41.84275044136149
 30
0.0
 10
89.97846533370404
 20
41.85235667862417
 30
0.0
 10
89.9743918662706
 20
41.85745152476409
 30
0.0
  0
LINE
  5
493
330
1F
100
AcDbEntity
  8
0
100
AcDbLine
 10
89.92720137554078
 20
41.67734842004063
 30
0.0
 11
89.93065561219669
 21
41.67683225605185
 31
0.0
  0
LINE
  5
494
330
1F
100
AcDbEntity
  8
0
100
AcDbLine
 10
89.95895017176891
 20
41.86618313909287
 30
0.0
 11
89.95549593509304
 21
41.8666993030817
 31
0.0
  0
SPLINE
  5
495
330
1F
100
AcDbEntity
  8
0
100
AcDbSpline
210
0.0
220
0.0
230
1.0
 70
     8
 71
     3
 72
    15
 73
    11
 74
     0
 42
0.00000001
 43
0.0000000001
 40
0.0
 40
0.0
 40
0.0
 40
0.0
 40
0.0893591786891957
 40
0.1663053329045446
 40
0.2868806477847057
 40
0.4610296320454911
 40
0.6367112727767525
 40
0.7801081133782441
 40
0.8793906208360176
 40
1.0
 40
1.0
 40
1.0
 40
1.0
 10
90.4816865665237
 20
45.85596441238556
 30
0.0
 10
90.47806456736685
 20
45.86049710766746
 30
0.0
 10
90.47132370666963
 20
45.8689328543793
 30
0.0
 10
90.45506373186526
 20
45.88034203926582
 30
0.0
 10
90.43011234837699
 20
45.8908022633501
 30
0.0
 10
90.3960476595812
 20
45.89464110042468
 30
0.0
 10
90.35798043423122
 20
45.89328370509115
 30
0.0
 10
90.32794686026518
 20
45.88372056382236
 30
0.0
 10
90.3061280749962
 20
45.8712364878553
 30
0.0
 10
90.2977677302187
 20
45.86136296900234
 30
0.0
 10
90.29318213131958
 20
45.85594740321079
 30
0.0
  0
LINE
  5
496
330
1F
100
AcDbEntity
  8
0
100
AcDbLine
 10
90.48316679835735
 20
45.84777153904378
 30
0.0
 11
90.48316679835735
 21
45.8516242394283
 31
0.0
  0
LINE
  5
497
330
1F
100
AcDbEntity
  8
0
100
AcDbLine
 10
90.29171356906065
 20
45.8516242394283
 30
0.0
 11
90.29171356906065
 21
45.84777153904378
 31
0.0
  0
SPLINE
  5
498
330
1F
100
AcDbEntity
  8
0
100
AcDbSpline
210
0.0
220
0.0
230
1.0
 70
     8
 71
     3
 72
    15
 73
    11
 74
     0
 42
0.00000001
 43
0.0000000001
 40
0.0
 40
0.0
 40
0.0
 40
0.0
 40
0.1390550127035895
 40
0.249342088430221
 40
0.4081767791587724
 40
0.4997924046866459
 40
0.623585750884029
 40
0.7872825146829479
 40
0.8871822074999592
 40
1.0
 40
1.0
 40
1.0
 40
1.0
 10
135.7793717284005
 20
36.80975778123843
 30
0.0
 10
135.7868077066264
 20
36.81500319634979
 30
0.0
 10
135.8001412952855
 20
36.82440884619382
 30
0.0
 10
135.8165329856425
 20
36.84751956657186
 30
0.0
 10
135.8260644775848
 20
36.87085786146179
 30
0.0
 10
135.8310076631604
 20
36.89572477054139
 30
0.0
 10
135.8320047289908
 20
36.92249407327262
 30
0.0
 10
135.8269856691592
 20
36.94931612188657
 30
0.0
 10
135.8175533492823
 20
36.97185295008758
 30
0.0
 10
135.8098744153438
 20
36.98145646104689
 30
0.0
 10
135.8058017817548
 20
36.9865498218727
 30
0.0
  0
LINE
  5
499
330
1F
100
AcDbEntity
  8
0
100
AcDbLine
 10
135.7586119651835
 20
36.8064459950665
 30
0.0
 11
135.7620662018593
 21
36.80592983109761
 31
0.0
  0
LINE
  5
49A
330
1F
100
AcDbEntity
  8
0
100
AcDbLine
 10
135.7903607614115
 20
36.99528071413869
 30
0.0
 11
135.7869065247357
 21
36.99579687810751
 31
0.0
  0
SPLINE
  5
49B
330
1F
100
AcDbEntity
  8
0
100
AcDbSpline
210
0.0
220
0.0
230
1.0
 70
     8
 71
     3
 72
    15
 73
    11
 74
     0
 42
0.00000001
 43
0.0000000001
 40
0.0
 40
0.0
 40
0.0
 40
0.0
 40
0.0892370533475288
 40
0.1660952066667293
 40
0.2865814218981144
 40
0.4607323859055012
 40
0.6364260617823843
 40
0.7799082278359154
 40
0.8792737906450334
 40
1.0
 40
1.0
 40
1.0
 40
1.0
 10
87.58012741151645
 20
46.28954266587192
 30
0.0
 10
87.5765092075772
 20
46.29407146750629
 30
0.0
 10
87.56977471435376
 20
46.30250083866086
 30
0.0
 10
87.55353494387534
 20
46.31390482732712
 30
0.0
 10
87.52860318234153
 20
46.32436826896139
 30
0.0
 10
87.49455515918359
 20
46.32821656363248
 30
0.0
 10
87.45647462767303
 20
46.32686909901742
 30
0.0
 10
87.42642170587762
 20
46.31730990182057
 30
0.0
 10
87.40458021406864
 20
46.30482282707487
 30
0.0
 10
87.39621336391243
 20
46.29494452678982
 30
0.0
 10
87.3916239233638
 20
46.28952601551816
 30
0.0
  0
LINE
  5
49C
330
1F
100
AcDbEntity
  8
0
100
AcDbLine
 10
87.58160799472177
 20
46.28134928142976
 30
0.0
 11
87.58160799472177
 21
46.28520198181422
 31
0.0
  0
LINE
  5
49D
330
1F
100
AcDbEntity
  8
0
100
AcDbLine
 10
87.39015476542506
 20
46.28520198181422
 30
0.0
 11
87.39015476542506
 21
46.28134928142976
 31
0.0
  0
SPLINE
  5
49E
330
1F
100
AcDbEntity
  8
0
100
AcDbSpline
210
0.0
220
0.0
230
1.0
 70
     8
 71
     3
 72
    15
 73
    11
 74
     0
 42
0.00000001
 43
0.0000000001
 40
0.0
 40
0.0
 40
0.0
 40
0.0
 40
0.0893591786891957
 40
0.1663053329045446
 40
0.2868806477847057
 40
0.4610296320454911
 40
0.6367112727767525
 40
0.7801081133782441
 40
0.8793906208360176
 40
1.0
 40
1.0
 40
1.0
 40
1.0
 10
136.0499767302189
 20
39.04672920081793
 30
0.0
 10
136.046354731062
 20
39.05126189609979
 30
0.0
 10
136.0396138703648
 20
39.05969764281162
 30
0.0
 10
136.0233538955603
 20
39.0711068276981
 30
0.0
 10
135.9984025120722
 20
39.08156705178249
 30
0.0
 10
135.9643378232763
 20
39.08540588885705
 30
0.0
 10
135.9262705979263
 20
39.08404849352347
 30
0.0
 10
135.8962370239603
 20
39.07448535225473
 30
0.0
 10
135.8744182386913
 20
39.06200127628762
 30
0.0
 10
135.8660578939138
 20
39.05212775743468
 30
0.0
 10
135.8614722950147
 20
39.04671219164311
 30
0.0
  0
LINE
  5
49F
330
1F
100
AcDbEntity
  8
0
100
AcDbLine
 10
136.0514569620352
 20
39.03853632746109
 30
0.0
 11
136.0514569620352
 21
39.04238902786551
 31
0.0
  0
LINE
  5
4A0
330
1F
100
AcDbEntity
  8
0
100
AcDbLine
 10
135.8600037327386
 20
39.04238902786551
 30
0.0
 11
135.8600037327386
 21
39.03853632746109
 31
0.0
  0
SPLINE
  5
4A1
330
1F
100
AcDbEntity
  8
0
100
AcDbSpline
210
0.0
220
0.0
230
1.0
 70
     8
 71
     3
 72
    15
 73
    11
 74
     0
 42
0.00000001
 43
0.0000000001
 40
0.0
 40
0.0
 40
0.0
 40
0.0
 40
0.1389772806418282
 40
0.2492178944398039
 40
0.4080321930786652
 40
0.4996610764365081
 40
0.6234807039194245
 40
0.7872195497075066
 40
0.8871479408451309
 40
1.0
 40
1.0
 40
1.0
 40
1.0
 10
135.5162519630249
 20
34.87142537516183
 30
0.0
 10
135.5236845604287
 20
34.87666797489851
 30
0.0
 10
135.5370128991805
 20
34.88606914940522
 30
0.0
 10
135.5534021678172
 20
34.90916830444769
 30
0.0
 10
135.5629363246197
 20
34.93250036459745
 30
0.0
 10
135.5678840103432
 20
34.95736592177724
 30
0.0
 10
135.56888552823
 20
34.98414058185296
 30
0.0
 10
135.5638686138181
 20
35.01097086566
 30
0.0
 10
135.5544359441826
 20
35.03351522979381
 30
0.0
 10
135.5467554973992
 20
35.04312146705649
 30
0.0
 10
135.5426820299657
 20
35.04821631319642
 30
0.0
  0
LINE
  5
4A2
330
1F
100
AcDbEntity
  8
0
100
AcDbLine
 10
135.4954915392387
 20
34.86811320847789
 30
0.0
 11
135.4989457758946
 21
34.86759704448913
 31
0.0
  0
LINE
  5
4A3
330
1F
100
AcDbEntity
  8
0
100
AcDbLine
 10
135.5272403354668
 20
35.05694792753013
 30
0.0
 11
135.523786098791
 21
35.05746409151897
 31
0.0
  0
SPLINE
  5
4A4
330
1F
100
AcDbEntity
  8
0
100
AcDbSpline
210
0.0
220
0.0
230
1.0
 70
     8
 71
     3
 72
    15
 73
    11
 74
     0
 42
0.00000001
 43
0.0000000001
 40
0.0
 40
0.0
 40
0.0
 40
0.0
 40
0.0892370533475288
 40
0.1660952066667293
 40
0.2865814218981144
 40
0.4607323859055012
 40
0.6364260617823843
 40
0.7799082278359154
 40
0.8792737906450334
 40
1.0
 40
1.0
 40
1.0
 40
1.0
 10
133.1484175752116
 20
39.48030745430425
 30
0.0
 10
133.1447993712723
 20
39.48483625593861
 30
0.0
 10
133.1380648780488
 20
39.49326562709321
 30
0.0
 10
133.1218251075705
 20
39.50466961575944
 30
0.0
 10
133.0968933460366
 20
39.51513305739366
 30
0.0
 10
133.0628453228787
 20
39.51898135206483
 30
0.0
 10
133.0247647913682
 20
39.51763388744974
 30
0.0
 10
132.9947118695727
 20
39.5080746902529
 30
0.0
 10
132.9728703777638
 20
39.49558761550719
 30
0.0
 10
132.9645035276076
 20
39.48570931522215
 30
0.0
 10
132.9599140870589
 20
39.48029080395047
 30
0.0
  0
LINE
  5
4A5
330
1F
100
AcDbEntity
  8
0
100
AcDbLine
 10
133.1498981584196
 20
39.47211406986696
 30
0.0
 11
133.1498981584196
 21
39.47596677025149
 31
0.0
  0
LINE
  5
4A6
330
1F
100
AcDbEntity
  8
0
100
AcDbLine
 10
132.958444929123
 20
39.47596677025149
 30
0.0
 11
132.958444929123
 21
39.47211406986696
 31
0.0
  0
LINE
  5
4A7
330
1F
100
AcDbEntity
  8
0
100
AcDbLine
 10
136.2980820625704
 20
38.35270733893236
 30
0.0
 11
136.2980820625704
 21
39.04619340908459
 31
0.0
  0
LINE
  5
4A8
330
1F
100
AcDbEntity
  8
0
100
AcDbLine
 10
136.2980820625704
 20
34.50000694927946
 30
0.0
 11
136.2980820625704
 21
37.85185628828565
 31
0.0
  0
LINE
  5
4A9
330
1F
100
AcDbEntity
  8
0
100
AcDbLine
 10
136.2980820625704
 20
33.49830484796611
 30
0.0
 11
136.2980820625704
 21
33.9991558986128
 31
0.0
  0
LINE
  5
4AA
330
1F
100
AcDbEntity
  8
0
100
AcDbLine
 10
136.2966221303664
 20
39.04581555082888
 30
0.0
 11
136.2966221303664
 21
39.06507905277147
 31
0.0
  0
LINE
  5
4AB
330
1F
100
AcDbEntity
  8
0
100
AcDbLine
 10
132.3632737964357
 20
33.706739937539
 30
0.0
 11
135.6966121839527
 21
33.20864169774802
 31
0.0
  0
LINE
  5
4AC
330
1F
100
AcDbEntity
  8
0
100
AcDbLine
 10
132.3947062344701
 20
39.21228446842646
 30
0.0
 11
132.3947062344701
 21
35.96831074032664
 31
0.0
  0
LINE
  5
4AD
330
1F
100
AcDbEntity
  8
0
100
AcDbLine
 10
132.3921967408255
 20
39.30163376443994
 30
0.0
 11
132.3921967408255
 21
39.28237026249735
 31
0.0
  0
LINE
  5
4AE
330
1F
100
AcDbEntity
  8
0
100
AcDbLine
 10
132.3611386777547
 20
35.86421286790824
 30
0.0
 11
131.9701629619488
 21
35.25286650188127
 31
0.0
  0
LINE
  5
4AF
330
1F
100
AcDbEntity
  8
0
100
AcDbLine
 10
136.2540641795704
 20
33.45820222313211
 30
0.0
 11
136.2540641795704
 21
33.47608266786365
 31
0.0
  0
SPLINE
  5
4B0
330
1F
100
AcDbEntity
  8
0
100
AcDbSpline
210
0.0
220
0.0
230
1.0
 70
     8
 71
     3
 72
    22
 73
    18
 74
     0
 42
0.00000001
 43
0.0000000001
 40
0.0
 40
0.0
 40
0.0
 40
0.0
 40
0.0460069363708229
 40
0.0936986591232428
 40
0.1470495129769624
 40
0.2107387018969521
 40
0.2799119816316161
 40
0.3401227387824613
 40
0.3993202395384194
 40
0.4716206371418343
 40
0.5374368786269768
 40
0.6294513165495516
 40
0.7292763602136021
 40
0.8092651485591158
 40
0.8734017265952637
 40
0.9494051180827851
 40
1.0
 40
1.0
 40
1.0
 40
1.0
 10
87.03093666594313
 20
41.33040988057092
 30
0.0
 10
87.03058541773106
 20
41.32247360384035
 30
0.0
 10
87.02987005850298
 20
41.30631042179118
 30
0.0
 10
87.02806482434727
 20
41.2697891343754
 30
0.0
 10
87.02713487068633
 20
41.224863781034
 30
0.0
 10
87.02913423193304
 20
41.17240965080167
 30
0.0
 10
87.03538116553088
 20
41.11888333971831
 30
0.0
 10
87.04524681843809
 20
41.06684626081857
 30
0.0
 10
87.05907842439362
 20
41.01528835763303
 30
0.0
 10
87.07727040846329
 20
40.96602136128264
 30
0.0
 10
87.10509809573634
 20
40.90706160517862
 30
0.0
 10
87.14125426071815
 20
40.8462316650922
 30
0.0
 10
87.18694171541875
 20
40.78635513097288
 30
0.0
 10
87.23339575524539
 20
40.73684045747707
 30
0.0
 10
87.27888878920699
 20
40.69553564639885
 30
0.0
 10
87.3208837607685
 20
40.66250044543493
 30
0.0
 10
87.35044066688713
 20
40.6429299554794
 30
0.0
 10
87.36225305685653
 20
40.63510862741753
 30
0.0
  0
SPLINE
  5
4B1
330
1F
100
AcDbEntity
  8
0
100
AcDbSpline
210
0.0
220
0.0
230
1.0
 70
     8
 71
     3
 72
    22
 73
    18
 74
     0
 42
0.00000001
 43
0.0000000001
 40
0.0
 40
0.0
 40
0.0
 40
0.0
 40
0.1140629136286681
 40
0.1608666201160336
 40
0.2386584865171711
 40
0.319912390878518
 40
0.4070548219670143
 40
0.4841084807087963
 40
0.5405839469815517
 40
0.6104757310366276
 40
0.6748008600088408
 40
0.7294459914890165
 40
0.8253553400390648
 40
0.8802065402089166
 40
0.9326221920667268
 40
0.9813318511062727
 40
1.0
 40
1.0
 40
1.0
 40
1.0
 10
87.36225305685653
 20
40.63510862741753
 30
0.0
 10
87.38974283657169
 20
40.61877565703321
 30
0.0
 10
87.42851256294313
 20
40.59574074008617
 30
0.0
 10
87.48941956035793
 20
40.5686064642241
 30
0.0
 10
87.54316826107777
 20
40.54859096872404
 30
0.0
 10
87.60914115465601
 20
40.53063510868411
 30
0.0
 10
87.67567143558791
 20
40.51930866468723
 30
0.0
 10
87.73682271450942
 20
40.51518877700459
 30
0.0
 10
87.7940497658079
 20
40.51584569197212
 30
0.0
 10
87.8444246844826
 20
40.520644675531
 30
0.0
 10
87.89663857407745
 20
40.53052846198347
 30
0.0
 10
87.95474349470275
 20
40.54593689231285
 30
0.0
 10
88.00900186037765
 20
40.56529862202689
 30
0.0
 10
88.06066913978936
 20
40.58896795906901
 30
0.0
 10
88.09702999506345
 20
40.60752625224757
 30
0.0
 10
88.12016194643291
 20
40.61972348742233
 30
0.0
 10
88.12974735540146
 20
40.6246277372676
 30
0.0
 10
88.13240315331656
 20
40.62598654173346
 30
0.0
  0
LINE
  5
4B2
330
1F
100
AcDbEntity
  8
0
100
AcDbLine
 10
87.03129569085978
 20
41.33997313183431
 30
0.0
 11
87.03093666593797
 21
41.3304098805749
 31
0.0
  0
LINE
  5
4B3
330
1F
100
AcDbEntity
  8
0
100
AcDbLine
 10
88.13240315332036
 20
40.62598654173546
 30
0.0
 11
88.1409338979723
 21
40.63032371471615
 31
0.0
  0
SPLINE
  5
4B4
330
1F
100
AcDbEntity
  8
0
100
AcDbSpline
210
0.0
220
0.0
230
1.0
 70
     8
 71
     3
 72
    22
 73
    18
 74
     0
 42
0.00000001
 43
0.0000000001
 40
0.0
 40
0.0
 40
0.0
 40
0.0
 40
0.0460069363708228
 40
0.0936986591232417
 40
0.1470495129769763
 40
0.2107387018969927
 40
0.2799119816317238
 40
0.3401227387825747
 40
0.3993202395385484
 40
0.4716206371417926
 40
0.5374368786267514
 40
0.6294513165491913
 40
0.7292763602132845
 40
0.8092651485588998
 40
0.8734017265950328
 40
0.9494051180823406
 40
1.0
 40
1.0
 40
1.0
 40
1.0
 10
133.7909384811297
 20
34.34309809623255
 30
0.0
 10
133.7905872329176
 20
34.33516181950198
 30
0.0
 10
133.7898718736895
 20
34.31899863745286
 30
0.0
 10
133.7880666395337
 20
34.28247735003703
 30
0.0
 10
133.7871366858729
 20
34.23755199669563
 30
0.0
 10
133.7891360471196
 20
34.18509786646325
 30
0.0
 10
133.7953829807174
 20
34.13157155537988
 30
0.0
 10
133.8052486336247
 20
34.07953447648009
 30
0.0
 10
133.8190802395802
 20
34.02797657329461
 30
0.0
 10
133.8372722236498
 20
33.97870957694431
 30
0.0
 10
133.8650999109228
 20
33.91974982084042
 30
0.0
 10
133.9012560759046
 20
33.85891988075406
 30
0.0
 10
133.9469435306051
 20
33.79904334663468
 30
0.0
 10
133.9933975704318
 20
33.7495286731388
 30
0.0
 10
134.0388906043934
 20
33.70822386206067
 30
0.0
 10
134.0808855759549
 20
33.67518866109674
 30
0.0
 10
134.1104424820735
 20
33.6556181711411
 30
0.0
 10
134.1222548720431
 20
33.64779684307916
 30
0.0
  0
SPLINE
  5
4B5
330
1F
100
AcDbEntity
  8
0
100
AcDbSpline
210
0.0
220
0.0
230
1.0
 70
     8
 71
     3
 72
    22
 73
    18
 74
     0
 42
0.00000001
 43
0.0000000001
 40
0.0
 40
0.0
 40
0.0
 40
0.0
 40
0.1140629136287137
 40
0.1608666201160446
 40
0.2386584865171942
 40
0.3199123908785299
 40
0.4070548219670507
 40
0.4841084807087941
 40
0.5405839469815528
 40
0.6104757310366172
 40
0.6748008600087867
 40
0.729445991488971
 40
0.8253553400389957
 40
0.8802065402088745
 40
0.9326221920666599
 40
0.9813318511062375
 40
1.0
 40
1.0
 40
1.0
 40
1.0
 10
134.1222548720431
 20
33.64779684307916
 30
0.0
 10
134.1497446517583
 20
33.6314638726949
 30
0.0
 10
134.1885143781296
 20
33.6084289557478
 30
0.0
 10
134.2494213755445
 20
33.58129467988573
 30
0.0
 10
134.3031700762644
 20
33.56127918438569
 30
0.0
 10
134.3691429698426
 20
33.54332332434575
 30
0.0
 10
134.4356732507745
 20
33.53199688034891
 30
0.0
 10
134.496824529696
 20
33.52787699266623
 30
0.0
 10
134.5540515809945
 20
33.52853390763375
 30
0.0
 10
134.6044264996691
 20
33.53333289119263
 30
0.0
 10
134.656640389264
 20
33.54321667764509
 30
0.0
 10
134.7147453098893
 20
33.55862510797448
 30
0.0
 10
134.7690036755642
 20
33.57798683768852
 30
0.0
 10
134.8206709549758
 20
33.60165617473064
 30
0.0
 10
134.85703181025
 20
33.62021446790914
 30
0.0
 10
134.8801637616194
 20
33.63241170308396
 30
0.0
 10
134.889749170588
 20
33.63731595292922
 30
0.0
 10
134.8924049685031
 20
33.63867475739517
 30
0.0
  0
LINE
  5
4B6
330
1F
100
AcDbEntity
  8
0
100
AcDbLine
 10
133.7912975060466
 20
34.35266134750162
 30
0.0
 11
133.7909384811247
 21
34.34309809624222
 31
0.0
  0
LINE
  5
4B7
330
1F
100
AcDbEntity
  8
0
100
AcDbLine
 10
134.8924049685072
 20
33.63867475740278
 30
0.0
 11
134.900935713159
 21
33.64301193036352
 31
0.0
  0
SPLINE
  5
4B8
330
1F
100
AcDbEntity
  8
0
100
AcDbSpline
210
0.0
220
0.0
230
1.0
 70
     8
 71
     3
 72
    11
 73
     7
 74
     0
 42
0.00000001
 43
0.0000000001
 40
0.0
 40
0.0
 40
0.0
 40
0.0
 40
0.2232175697527758
 40
0.5263388819952111
 40
0.8155106704587964
 40
1.0
 40
1.0
 40
1.0
 40
1.0
 10
111.7882676399193
 20
36.95077486003845
 30
0.0
 10
111.796201348642
 20
36.95002831281397
 30
0.0
 10
111.8149087442286
 20
36.94826798170789
 30
0.0
 10
111.8429694569057
 20
36.95464300190042
 30
0.0
 10
111.8676808228054
 20
36.96825872225816
 30
0.0
 10
111.8769970244287
 20
36.98223502405665
 30
0.0
 10
111.8806256519982
 20
36.98767874415575
 30
0.0
  0
LINE
  5
4B9
330
1F
100
AcDbEntity
  8
0
100
AcDbLine
 10
111.8815920623877
 20
36.98675830302699
 30
0.0
 11
112.1555512038374
 21
37.38766700401033
 31
0.0
  0
LINE
  5
4BA
330
1F
100
AcDbEntity
  8
0
100
AcDbLine
 10
110.2665946893214
 20
37.17815730072357
 30
0.0
 11
111.7882676399259
 21
36.9507748600339
 31
0.0
  0
SPLINE
  5
4BB
330
1F
100
AcDbEntity
  8
0
100
AcDbSpline
210
0.0
220
0.0
230
1.0
 70
     8
 71
     3
 72
    11
 73
     7
 74
     0
 42
0.00000001
 43
0.0000000001
 40
0.0
 40
0.0
 40
0.0
 40
0.0
 40
0.0795892852621204
 40
0.4845437612427649
 40
0.8636693456631377
 40
1.0
 40
1.0
 40
1.0
 40
1.0
 10
109.9192571208192
 20
38.03743432164004
 30
0.0
 10
109.9179770532581
 20
38.03584404891672
 30
0.0
 10
109.910183934515
 20
38.02616238480567
 30
0.0
 10
109.9060662690847
 20
38.00315690806519
 30
0.0
 10
109.9073058270468
 20
37.97977993254904
 30
0.0
 10
109.9112404835574
 20
37.96721287844952
 30
0.0
 10
109.9122811427955
 20
37.96388907600107
 30
0.0
  0
LINE
  5
4BC
330
1F
100
AcDbEntity
  8
0
100
AcDbLine
 10
110.4363714025154
 20
38.90453036111842
 30
0.0
 11
109.9185518307772
 21
38.03804096205425
 31
0.0
  0
LINE
  5
4BD
330
1F
100
AcDbEntity
  8
0
100
AcDbLine
 10
109.9122811427962
 20
37.96388907600323
 30
0.0
 11
110.1521198394418
 21
37.26888990231879
 31
0.0
  0
SPLINE
  5
4BE
330
1F
100
AcDbEntity
  8
0
100
AcDbSpline
210
0.0
220
0.0
230
1.0
 70
     8
 71
     3
 72
    12
 73
     8
 74
     0
 42
0.00000001
 43
0.0000000001
 40
0.0
 40
0.0
 40
0.0
 40
0.0
 40
0.1626885562772964
 40
0.3944718516263441
 40
0.6395917261738267
 40
0.8944510166034255
 40
1.0
 40
1.0
 40
1.0
 40
1.0
 10
110.152119839433
 20
37.2688899023241
 30
0.0
 10
110.1552289666722
 20
37.2615209628774
 30
0.0
 10
110.1627676848653
 20
37.24365345421803
 30
0.0
 10
110.1837901430822
 20
37.21836965246871
 30
0.0
 10
110.2144104807097
 20
37.19520422109417
 30
0.0
 10
110.2436429361995
 20
37.18247681104634
 30
0.0
 10
110.2613956411906
 20
37.17913575941135
 30
0.0
 10
110.2665946893269
 20
37.17815730073221
 30
0.0
  0
LINE
  5
4BF
330
1F
100
AcDbEntity
  8
0
100
AcDbLine
 10
108.3463018274061
 20
38.12463012388673
 30
0.0
 11
109.3121721500686
 21
37.98030085044582
 31
0.0
  0
LINE
  5
4C0
330
1F
100
AcDbEntity
  8
0
100
AcDbLine
 10
108.2775004740249
 20
38.70926046321415
 30
0.0
 11
108.2775004740249
 21
38.2098771587356
 31
0.0
  0
SPLINE
  5
4C1
330
1F
100
AcDbEntity
  8
0
100
AcDbSpline
210
0.0
220
0.0
230
1.0
 70
     8
 71
     3
 72
    18
 73
    14
 74
     0
 42
0.00000001
 43
0.0000000001
 40
0.0
 40
0.0
 40
0.0
 40
0.0
 40
0.0682014588765639
 40
0.1599163149578647
 40
0.2517233661281482
 40
0.3433228734598625
 40
0.4359190434926385
 40
0.528803269039353
 40
0.6214060339725701
 40
0.6811475053052504
 40
0.8013823458168277
 40
0.9217055403155832
 40
1.0
 40
1.0
 40
1.0
 40
1.0
 10
90.07126574275345
 20
44.8864168981751
 30
0.0
 10
90.0570748389909
 20
44.82445036985547
 30
0.0
 10
90.02380052091892
 20
44.67915349464431
 30
0.0
 10
89.97840137862306
 20
44.4472498020317
 30
0.0
 10
89.93714377316512
 20
44.1915169110635
 30
0.0
 10
89.90639835629542
 20
43.93360301316795
 30
0.0
 10
89.88925932302796
 20
43.67573635168212
 30
0.0
 10
89.88659739741455
 20
43.42136356056175
 30
0.0
 10
89.89669895901519
 20
43.20336740771971
 30
0.0
 10
89.91992422638526
 20
42.9699452226198
 30
0.0
 10
89.95888276080004
 20
42.72442399728578
 30
0.0
 10
90.01386833628107
 20
42.47893541708179
 30
0.0
 10
90.05503713193439
 20
42.33529638793345
 30
0.0
 10
90.07126574275345
 20
42.27867433073003
 30
0.0
  0
LINE
  5
4C2
330
1F
100
AcDbEntity
  8
0
100
AcDbLine
 10
90.19869896425152
 20
42.21550038346243
 30
0.0
 11
90.21879445380319
 21
42.22450894497864
 31
0.0
  0
ARC
  5
4C3
330
1F
100
AcDbEntity
  8
0
100
AcDbCircle
 10
90.19650727146041
 20
42.22060905053547
 30
0.0
 40
0.0055589564263283
100
AcDbArc
 50
205.1607990181014
 51
293.2200391174057
  0
LINE
  5
4C4
330
1F
100
AcDbEntity
  8
0
100
AcDbLine
 10
90.16332492298984
 20
42.26276904898235
 30
0.0
 11
90.19147575908151
 21
42.21824560393553
 31
0.0
  0
LWPOLYLINE
  5
4C5
330
1F
100
AcDbEntity
  8
0
100
AcDbPolyline
 90
        9
 70
   128
 43
0.0
 10
90.15886252378235
 20
42.26253731142093
 10
90.15943542796705
 20
42.26317254621585
 10
90.16003137984984
 20
42.26364623241681
 10
90.16063664702913
 20
42.26394745497621
 10
90.16123728247617
 20
42.26406927287682
 10
90.16181944585753
 20
42.26400887909528
 10
90.16236972252398
 20
42.26376766525715
 10
90.16287543254827
 20
42.26335118964857
 10
90.16332492298984
 20
42.26276904898235
  0
LINE
  5
4C6
330
1F
100
AcDbEntity
  8
0
100
AcDbLine
 10
90.17394827764318
 20
45.0136511634426
 30
0.0
 11
90.17352816717535
 21
45.01369493437731
 31
0.0
  0
ARC
  5
4C7
330
1F
100
AcDbEntity
  8
0
100
AcDbCircle
 10
90.08749828613465
 20
42.28057513425682
 30
0.0
 40
0.0163434549138298
100
AcDbArc
 50
186.6788235052979
 51
253.5427314564033
  0
ARC
  5
4C8
330
1F
100
AcDbEntity
  8
0
100
AcDbCircle
 10
132.1804564491295
 20
38.72598716362064
 30
0.0
 40
0.0105919762096887
100
AcDbArc
 50
86.8363070777986
 51
115.1167403538959
  0
LINE
  5
4C9
330
1F
100
AcDbEntity
  8
0
100
AcDbLine
 10
132.3130853230263
 20
38.73294833912041
 30
0.0
 11
132.2871864406668
 21
38.73481293087838
 31
0.0
  0
LINE
  5
4CA
330
1F
100
AcDbEntity
  8
0
100
AcDbLine
 10
132.2871864406668
 20
38.73481293087838
 30
0.0
 11
132.1188856198761
 21
38.74648448145212
 31
0.0
  0
LINE
  5
4CB
330
1F
100
AcDbEntity
  8
0
100
AcDbLine
 10
132.0531134542067
 20
35.99294245694102
 30
0.0
 11
132.0740953948454
 21
35.95975735802547
 31
0.0
  0
ARC
  5
4CC
330
1F
100
AcDbEntity
  8
0
100
AcDbCircle
 10
132.0796168276421
 20
35.96267224173778
 30
0.0
 40
0.0062436181357894
100
AcDbArc
 50
207.8305417679957
 51
258.9219002520011
  0
LINE
  5
4CD
330
1F
100
AcDbEntity
  8
0
100
AcDbLine
 10
132.0467762332969
 20
35.96217377732086
 30
0.0
 11
132.0668717228486
 21
35.97118233883703
 31
0.0
  0
ARC
  5
4CE
330
1F
100
AcDbEntity
  8
0
100
AcDbCircle
 10
132.0445845405058
 20
35.96728244439385
 30
0.0
 40
0.0055589564263231
100
AcDbArc
 50
205.1607990178996
 51
293.2200391172019
  0
LINE
  5
4CF
330
1F
100
AcDbEntity
  8
0
100
AcDbLine
 10
132.011402191796
 20
36.00944244319976
 30
0.0
 11
132.0395530281269
 21
35.96491899781387
 31
0.0
  0
LWPOLYLINE
  5
4D0
330
1F
100
AcDbEntity
  8
0
100
AcDbPolyline
 90
        9
 70
   128
 43
0.0
 10
132.011402191796
 20
36.00944244319976
 10
132.0109527014142
 20
36.01002458382608
 10
132.0104469914298
 20
36.01044105943464
 10
132.0098967148032
 20
36.01068227327278
 10
132.0093145514817
 20
36.01074266709423
 10
132.0087139160945
 20
36.01062084927338
 10
132.0081086489551
 20
36.01031962683361
 10
132.0075126971121
 20
36.00984594075226
 10
132.0069397929474
 20
36.00921070609707
  0
LWPOLYLINE
  5
4D1
330
1F
100
AcDbEntity
  8
0
100
AcDbPolyline
 90
        9
 70
   128
 43
0.0
 10
132.0069397929474
 20
36.00921070609707
 10
132.003372446681
 20
36.00539388159467
 10
131.9996533293171
 20
36.00283743949001
 10
131.9959137631928
 20
36.00163164794651
 10
131.992285792623
 20
36.00181908354972
 10
131.9888975215164
 20
36.00339312792107
 10
131.9858685899528
 20
36.00629820145031
 10
131.9833059497094
 20
36.01043172581052
 10
131.9813000878244
 20
36.0156477459343
  0
SPLINE
  5
4D2
330
1F
100
AcDbEntity
  8
0
100
AcDbSpline
210
0.0
220
0.0
230
1.0
 70
     8
 71
     3
 72
    16
 73
    12
 74
     0
 42
0.00000001
 43
0.0000000001
 40
0.0
 40
0.0
 40
0.0
 40
0.0
 40
0.1175305238587353
 40
0.2350115954382408
 40
0.3233372564908732
 40
0.4118386013040253
 40
0.500078762352866
 40
0.614073182937641
 40
0.7286396292849946
 40
0.8429271648748052
 40
1.0
 40
1.0
 40
1.0
 40
1.0
 10
131.9813000878157
 20
38.62393978323229
 30
0.0
 10
131.9572711026579
 20
38.51691830428484
 30
0.0
 10
131.909223242806
 20
38.30292037687133
 30
0.0
 10
131.8577263080708
 20
38.00267546710933
 30
0.0
 10
131.8227972065136
 20
37.7279089880596
 30
0.0
 10
131.8031320964597
 20
37.48081076482652
 30
0.0
 10
131.7953009835658
 20
37.21302229570807
 30
0.0
 10
131.8064863690644
 20
36.92989960557611
 30
0.0
 10
131.8393092268992
 20
36.63894814055186
 30
0.0
 10
131.8946525805319
 20
36.32883459287847
 30
0.0
 10
131.9495332465903
 20
36.13046878525444
 30
0.0
 10
131.9813000878157
 20
36.01564774593573
 30
0.0
  0
LWPOLYLINE
  5
4D3
330
1F
100
AcDbEntity
  8
0
100
AcDbPolyline
 90
        9
 70
   128
 43
0.0
 10
131.9813000878244
 20
38.62393978322825
 10
131.9833059497094
 20
38.63095420994797
 10
131.9858685899528
 20
38.63738533467813
 10
131.9888975215164
 20
38.6430060739657
 10
131.992285792623
 20
38.64761795909675
 10
131.9959137631928
 20
38.65105814412266
 10
131.9996533293171
 20
38.6532051558583
 10
132.003372446681
 20
38.65398318313254
 10
132.0069397929474
 20
38.65336475380298
  0
LWPOLYLINE
  5
4D4
330
1F
100
AcDbEntity
  8
0
100
AcDbPolyline
 90
        9
 70
   128
 43
0.0
 10
132.0069397929474
 20
38.65336475380298
 10
132.0075126971121
 20
38.65324317097105
 10
132.0081086489551
 20
38.65330380069878
 10
132.0087139160945
 20
38.65354524591612
 10
132.0093145514817
 20
38.65396194305203
 10
132.0098967148032
 20
38.6545442902484
 10
132.0104469914298
 20
38.65527886860828
 10
132.0109527014142
 20
38.65614875137271
 10
132.011402191796
 20
38.65713389406665
  0
LINE
  5
4D5
330
1F
100
AcDbEntity
  8
0
100
AcDbLine
 10
132.0395530281269
 20
38.72689668883032
 30
0.0
 11
132.011402191796
 21
38.65713389406665
 31
0.0
  0
ARC
  5
4D6
330
1F
100
AcDbEntity
  8
0
100
AcDbCircle
 10
132.0554292457047
 20
38.72190035841538
 30
0.0
 40
0.016643845773556
100
AcDbArc
 50
121.3250482299043
 51
162.5309328989033
  0
LINE
  5
4D7
330
1F
100
AcDbEntity
  8
0
100
AcDbLine
 10
132.0791815813406
 20
38.75064497800247
 30
0.0
 11
132.0467762332969
 21
38.73611805789006
 31
0.0
  0
ARC
  5
4D8
330
1F
100
AcDbEntity
  8
0
100
AcDbCircle
 10
132.0837493140864
 20
38.74090132602896
 30
0.0
 40
0.0107611772742802
100
AcDbArc
 50
86.8362508279994
 51
115.1167433693959
  0
LINE
  5
4D9
330
1F
100
AcDbEntity
  8
0
100
AcDbLine
 10
132.1493180425714
 20
38.74714007512409
 30
0.0
 11
132.084343221129
 21
38.75164610199551
 31
0.0
  0
ARC
  5
4DA
330
1F
100
AcDbEntity
  8
0
100
AcDbCircle
 10
132.1482517140558
 20
38.73597951140459
 30
0.0
 40
0.011211388810625
100
AcDbArc
 50
44.93034648540164
 51
84.54228064420027
  0
SPLINE
  5
4DB
330
1F
100
AcDbEntity
  8
0
100
AcDbSpline
210
0.0
220
0.0
230
1.0
 70
     8
 71
     3
 72
    16
 73
    12
 74
     0
 42
0.00000001
 43
0.0000000001
 40
0.0
 40
0.0
 40
0.0
 40
0.0
 40
0.1175305238587338
 40
0.2350115954382379
 40
0.3233372564908708
 40
0.4118386013040234
 40
0.5000787623528648
 40
0.6140731829376395
 40
0.7286396292849929
 40
0.8429271648748033
 40
1.0
 40
1.0
 40
1.0
 40
1.0
 10
90.16776518548631
 20
44.87210474957755
 30
0.0
 10
90.14373620032854
 20
44.76508327063014
 30
0.0
 10
90.09568834047659
 20
44.55108534321658
 30
0.0
 10
90.04419140574141
 20
44.25084043345463
 30
0.0
 10
90.00926230418427
 20
43.97607395440485
 30
0.0
 10
89.98959719413035
 20
43.72897573117177
 30
0.0
 10
89.98176608123641
 20
43.46118726205332
 30
0.0
 10
89.99295146673498
 20
43.17806457192136
 30
0.0
 10
90.02577432456973
 20
42.88711310689712
 30
0.0
 10
90.08111767820258
 20
42.57699955922372
 30
0.0
 10
90.135998344261
 20
42.37863375159975
 30
0.0
 10
90.16776518548631
 20
42.26381271228103
 30
0.0
  0
LWPOLYLINE
  5
4DC
330
1F
100
AcDbEntity
  8
0
100
AcDbPolyline
 90
        9
 70
   128
 43
0.0
 10
90.19143400664216
 20
44.90204785372009
 10
90.18983754433408
 20
44.90214814948568
 10
90.18611842699016
 20
44.90137012219157
 10
90.18237886086584
 20
44.89922311047584
 10
90.1787508902961
 20
44.89578292544996
 10
90.17536261918941
 20
44.89117104029896
 10
90.17233368762598
 20
44.88555030101139
 10
90.16977104738254
 20
44.87911917628122
 10
90.16776518547755
 20
44.87210474958139
  0
LINE
  5
4DD
330
1F
100
AcDbEntity
  8
0
100
AcDbLine
 10
90.22601812579999
 20
44.97506165516353
 30
0.0
 11
90.19786728946908
 21
44.90529886041978
 31
0.0
  0
ARC
  5
4DE
330
1F
100
AcDbEntity
  8
0
100
AcDbCircle
 10
90.1918575572054
 20
44.90706611083465
 30
0.0
 40
0.006264188380429
100
AcDbArc
 50
298.1510842517025
 51
343.6132491555023
  0
ARC
  5
4DF
330
1F
100
AcDbEntity
  8
0
100
AcDbCircle
 10
90.24189434337783
 20
44.97006532476854
 30
0.0
 40
0.0166438457735309
100
AcDbArc
 50
121.3250482298015
 51
162.5309328989033
  0
LINE
  5
4E0
330
1F
100
AcDbEntity
  8
0
100
AcDbLine
 10
90.26564667901372
 20
44.99880994435566
 30
0.0
 11
90.23324133097004
 21
44.98428302424327
 31
0.0
  0
ARC
  5
4E1
330
1F
100
AcDbEntity
  8
0
100
AcDbCircle
 10
90.2702144117595
 20
44.98906629236214
 30
0.0
 40
0.0107611772740678
100
AcDbArc
 50
86.83625082780364
 51
115.1167433696963
  0
LINE
  5
4E2
330
1F
100
AcDbEntity
  8
0
100
AcDbLine
 10
90.33578314024449
 20
44.99530504145734
 30
0.0
 11
90.27080831880216
 21
44.99981106834865
 31
0.0
  0
LINE
  5
4E3
330
1F
100
AcDbEntity
  8
0
100
AcDbLine
 10
90.33655285336307
 20
44.99522101285434
 30
0.0
 11
90.33578314024449
 21
44.99530504145734
 31
0.0
  0
ARC
  5
4E4
330
1F
100
AcDbEntity
  8
0
100
AcDbCircle
 10
90.18421021482756
 20
42.26571853772628
 30
0.0
 40
0.0165550947125206
100
AcDbArc
 50
186.6105567905022
 51
253.9913391236032
  0
LINE
  5
4E5
330
1F
100
AcDbEntity
  8
0
100
AcDbLine
 10
90.20521623188642
 20
42.2459843006348
 30
0.0
 11
90.22601812579999
 21
42.21308396414713
 31
0.0
  0
ARC
  5
4E6
330
1F
100
AcDbEntity
  8
0
100
AcDbCircle
 10
90.23155089892981
 20
42.21600912544771
 30
0.0
 40
0.0062584460567029
100
AcDbArc
 50
207.865279951698
 51
258.4141811035006
  0
LWPOLYLINE
  5
4E7
330
1F
100
AcDbEntity
  8
0
100
AcDbPolyline
 90
        9
 70
   128
 43
0.0
 10
90.15886252378235
 20
42.26253731142093
 10
90.15943542796705
 20
42.26317254621585
 10
90.16003137984984
 20
42.26364623241681
 10
90.16063664702913
 20
42.26394745497621
 10
90.16123728247617
 20
42.26406927287682
 10
90.16181944585753
 20
42.26400887909528
 10
90.16236972252398
 20
42.26376766525715
 10
90.16287543254827
 20
42.26335118964857
 10
90.16332492298984
 20
42.26276904898235
  0
LINE
  5
4E8
330
1F
100
AcDbEntity
  8
0
100
AcDbLine
 10
90.17394827764318
 20
45.0136511634426
 30
0.0
 11
90.17352816717535
 21
45.01369493437731
 31
0.0
  0
ARC
  5
4E9
330
1F
100
AcDbEntity
  8
0
100
AcDbCircle
 10
132.1804564491295
 20
38.72598716362064
 30
0.0
 40
0.0105919762097606
100
AcDbArc
 50
86.8363070777986
 51
115.1167403536972
  0
LINE
  5
4EA
330
1F
100
AcDbEntity
  8
0
100
AcDbLine
 10
132.3130853230263
 20
38.73294833912041
 30
0.0
 11
132.2871864406668
 21
38.73481293087838
 31
0.0
  0
LINE
  5
4EB
330
1F
100
AcDbEntity
  8
0
100
AcDbLine
 10
132.2871864406668
 20
38.73481293087838
 30
0.0
 11
132.1188856198761
 21
38.74648448145212
 31
0.0
  0
LINE
  5
4EC
330
1F
100
AcDbEntity
  8
0
100
AcDbLine
 10
132.0531134542067
 20
35.99294245694102
 30
0.0
 11
132.0740953948454
 21
35.95975735802547
 31
0.0
  0
ARC
  5
4ED
330
1F
100
AcDbEntity
  8
0
100
AcDbCircle
 10
132.0796168276421
 20
35.96267224173778
 30
0.0
 40
0.0062436181357022
100
AcDbArc
 50
207.8305417676052
 51
258.9219002523994
  0
LINE
  5
4EE
330
1F
100
AcDbEntity
  8
0
100
AcDbLine
 10
132.0467762332969
 20
35.96217377732086
 30
0.0
 11
132.0668717228486
 21
35.97118233883703
 31
0.0
  0
ARC
  5
4EF
330
1F
100
AcDbEntity
  8
0
100
AcDbCircle
 10
132.0445845405058
 20
35.96728244439385
 30
0.0
 40
0.0055589564263231
100
AcDbArc
 50
205.1607990178996
 51
293.2200391172019
  0
LINE
  5
4F0
330
1F
100
AcDbEntity
  8
0
100
AcDbLine
 10
132.011402191796
 20
36.00944244319976
 30
0.0
 11
132.0395530281269
 21
35.96491899781387
 31
0.0
  0
LWPOLYLINE
  5
4F1
330
1F
100
AcDbEntity
  8
0
100
AcDbPolyline
 90
        9
 70
   128
 43
0.0
 10
132.011402191796
 20
36.00944244319976
 10
132.0109527014142
 20
36.01002458382608
 10
132.0104469914298
 20
36.01044105943464
 10
132.0098967148032
 20
36.01068227327278
 10
132.0093145514817
 20
36.01074266709423
 10
132.0087139160945
 20
36.01062084927338
 10
132.0081086489551
 20
36.01031962683361
 10
132.0075126971121
 20
36.00984594075226
 10
132.0069397929474
 20
36.00921070609707
  0
LWPOLYLINE
  5
4F2
330
1F
100
AcDbEntity
  8
0
100
AcDbPolyline
 90
        9
 70
   128
 43
0.0
 10
132.0069397929474
 20
36.00921070609707
 10
132.003372446681
 20
36.00539388159467
 10
131.9996533293171
 20
36.00283743949001
 10
131.9959137631928
 20
36.00163164794651
 10
131.992285792623
 20
36.00181908354972
 10
131.9888975215164
 20
36.00339312792107
 10
131.9858685899528
 20
36.00629820145031
 10
131.9833059497094
 20
36.01043172581052
 10
131.9813000878244
 20
36.0156477459343
  0
SPLINE
  5
4F3
330
1F
100
AcDbEntity
  8
0
100
AcDbSpline
210
0.0
220
0.0
230
1.0
 70
     8
 71
     3
 72
    16
 73
    12
 74
     0
 42
0.00000001
 43
0.0000000001
 40
0.0
 40
0.0
 40
0.0
 40
0.0
 40
0.1175305238587353
 40
0.2350115954382409
 40
0.3233372564908733
 40
0.4118386013040253
 40
0.5000787623528659
 40
0.614073182937641
 40
0.7286396292849946
 40
0.8429271648748052
 40
1.0
 40
1.0
 40
1.0
 40
1.0
 10
131.9813000878157
 20
38.62393978323229
 30
0.0
 10
131.9572711026579
 20
38.51691830428484
 30
0.0
 10
131.909223242806
 20
38.30292037687133
 30
0.0
 10
131.8577263080708
 20
38.00267546710933
 30
0.0
 10
131.8227972065136
 20
37.7279089880596
 30
0.0
 10
131.8031320964597
 20
37.48081076482652
 30
0.0
 10
131.7953009835658
 20
37.21302229570807
 30
0.0
 10
131.8064863690644
 20
36.92989960557611
 30
0.0
 10
131.8393092268992
 20
36.63894814055186
 30
0.0
 10
131.8946525805319
 20
36.32883459287847
 30
0.0
 10
131.9495332465903
 20
36.13046878525444
 30
0.0
 10
131.9813000878157
 20
36.01564774593573
 30
0.0
  0
LWPOLYLINE
  5
4F4
330
1F
100
AcDbEntity
  8
0
100
AcDbPolyline
 90
        9
 70
   128
 43
0.0
 10
131.9813000878244
 20
38.62393978322825
 10
131.9833059497094
 20
38.63095420994797
 10
131.9858685899528
 20
38.63738533467813
 10
131.9888975215164
 20
38.6430060739657
 10
131.992285792623
 20
38.64761795909675
 10
131.9959137631928
 20
38.65105814412266
 10
131.9996533293171
 20
38.6532051558583
 10
132.003372446681
 20
38.65398318313254
 10
132.0069397929474
 20
38.65336475380298
  0
LWPOLYLINE
  5
4F5
330
1F
100
AcDbEntity
  8
0
100
AcDbPolyline
 90
        9
 70
   128
 43
0.0
 10
132.0069397929474
 20
38.65336475380298
 10
132.0075126971121
 20
38.65324317097105
 10
132.0081086489551
 20
38.65330380069878
 10
132.0087139160945
 20
38.65354524591612
 10
132.0093145514817
 20
38.65396194305203
 10
132.0098967148032
 20
38.6545442902484
 10
132.0104469914298
 20
38.65527886860828
 10
132.0109527014142
 20
38.65614875137271
 10
132.011402191796
 20
38.65713389406665
  0
LINE
  5
4F6
330
1F
100
AcDbEntity
  8
0
100
AcDbLine
 10
132.0395530281269
 20
38.72689668883032
 30
0.0
 11
132.011402191796
 21
38.65713389406665
 31
0.0
  0
ARC
  5
4F7
330
1F
100
AcDbEntity
  8
0
100
AcDbCircle
 10
132.0554292457047
 20
38.72190035841538
 30
0.0
 40
0.0166438457735241
100
AcDbArc
 50
121.3250482299043
 51
162.5309328990055
  0
LINE
  5
4F8
330
1F
100
AcDbEntity
  8
0
100
AcDbLine
 10
132.0791815813406
 20
38.75064497800247
 30
0.0
 11
132.0467762332969
 21
38.73611805789006
 31
0.0
  0
ARC
  5
4F9
330
1F
100
AcDbEntity
  8
0
100
AcDbCircle
 10
132.0837493140864
 20
38.74090132602896
 30
0.0
 40
0.0107611772742802
100
AcDbArc
 50
86.8362508279994
 51
115.1167433693959
  0
LINE
  5
4FA
330
1F
100
AcDbEntity
  8
0
100
AcDbLine
 10
132.1493180425714
 20
38.74714007512409
 30
0.0
 11
132.084343221129
 21
38.75164610199551
 31
0.0
  0
ARC
  5
4FB
330
1F
100
AcDbEntity
  8
0
100
AcDbCircle
 10
132.1482517140558
 20
38.73597951140459
 30
0.0
 40
0.0112113888104644
100
AcDbArc
 50
44.93034648520301
 51
84.54228064439654
  0
LWPOLYLINE
  5
4FC
330
1F
100
AcDbEntity
  8
0
100
AcDbPolyline
 90
        9
 70
   128
 43
0.0
 10
90.19143400664216
 20
44.90204785372009
 10
90.18983754433408
 20
44.90214814948568
 10
90.18611842699016
 20
44.90137012219157
 10
90.18237886086584
 20
44.89922311047584
 10
90.1787508902961
 20
44.89578292544996
 10
90.17536261918941
 20
44.89117104029896
 10
90.17233368762598
 20
44.88555030101139
 10
90.16977104738254
 20
44.87911917628122
 10
90.16776518547755
 20
44.87210474958139
  0
LINE
  5
4FD
330
1F
100
AcDbEntity
  8
0
100
AcDbLine
 10
90.22601812579999
 20
44.97506165516353
 30
0.0
 11
90.19786728946908
 21
44.90529886041978
 31
0.0
  0
ARC
  5
4FE
330
1F
100
AcDbEntity
  8
0
100
AcDbCircle
 10
90.1918575572054
 20
44.90706611083465
 30
0.0
 40
0.0062641883805164
100
AcDbArc
 50
298.151084251899
 51
343.6132491550984
  0
ARC
  5
4FF
330
1F
100
AcDbEntity
  8
0
100
AcDbCircle
 10
90.24189434337783
 20
44.97006532476854
 30
0.0
 40
0.0166438457735015
100
AcDbArc
 50
121.3250482298015
 51
162.5309328989033
  0
LINE
  5
500
330
1F
100
AcDbEntity
  8
0
100
AcDbLine
 10
90.26564667901372
 20
44.99880994435566
 30
0.0
 11
90.23324133097004
 21
44.98428302424327
 31
0.0
  0
ARC
  5
501
330
1F
100
AcDbEntity
  8
0
100
AcDbCircle
 10
90.2702144117595
 20
44.98906629236214
 30
0.0
 40
0.0107611772740677
100
AcDbArc
 50
86.83625082769603
 51
115.116743369601
  0
LINE
  5
502
330
1F
100
AcDbEntity
  8
0
100
AcDbLine
 10
90.33578314024449
 20
44.99530504145734
 30
0.0
 11
90.27080831880216
 21
44.99981106834865
 31
0.0
  0
LINE
  5
503
330
1F
100
AcDbEntity
  8
0
100
AcDbLine
 10
90.33655285336307
 20
44.99522101285434
 30
0.0
 11
90.33578314024449
 21
44.99530504145734
 31
0.0
  0
ARC
  5
504
330
1F
100
AcDbEntity
  8
0
100
AcDbCircle
 10
90.18421021482756
 20
42.26571853772628
 30
0.0
 40
0.0165550947125457
100
AcDbArc
 50
186.6105567906006
 51
253.9913391234999
  0
ARC
  5
505
330
1F
100
AcDbEntity
  8
0
100
AcDbCircle
 10
90.23155089892981
 20
42.21600912544771
 30
0.0
 40
0.006258446057854
100
AcDbArc
 50
207.8652799565976
 51
258.4141810985968
  0
LINE
  5
506
330
1F
100
AcDbEntity
  8
0
100
AcDbLine
 10
100.8490305034132
 20
38.50712679160063
 30
0.0
 11
100.8426781033135
 21
38.48302354351455
 31
0.0
  0
LINE
  5
507
330
1F
100
AcDbEntity
  8
0
100
AcDbLine
 10
107.0701107478624
 20
37.57751546533905
 30
0.0
 11
107.0637583477628
 21
37.55341221725297
 31
0.0
  0
LWPOLYLINE
  5
508
330
1F
100
AcDbEntity
  8
0
100
AcDbPolyline
 90
        8
 70
   128
 43
0.0
 10
100.8426781033135
 20
38.48302354351455
 10
100.8402873210016
 20
38.4708014096101
 10
100.8394718696666
 20
38.45847002595173
 10
100.8402873210016
 20
38.446869755948
 10
100.8426781033135
 20
38.43679113884036
 10
100.8464812887477
 20
38.42892101570146
 10
100.8514376964976
 20
38.42379572245107
 10
100.8563298834356
 20
38.42186057204134
  0
LWPOLYLINE
  5
509
330
1F
100
AcDbEntity
  8
0
100
AcDbPolyline
 90
        9
 70
   128
 43
0.0
 10
107.0637583477628
 20
37.55341221725297
 10
107.0613675654508
 20
37.54119008334851
 10
107.0605521141158
 20
37.52885869969011
 10
107.0613675654508
 20
37.51725842968642
 10
107.0637583477628
 20
37.50717981257878
 10
107.0675615331969
 20
37.49930968943989
 10
107.0725179409469
 20
37.4941843961895
 10
107.0782898000318
 20
37.49215321307924
 10
107.0844837677779
 20
37.49335456187083
  0
LINE
  5
50A
330
1F
100
AcDbEntity
  8
0
100
AcDbLine
 10
107.0844837677779
 20
37.49335456187083
 30
0.0
 11
107.0990933726113
 21
37.49990386854552
 31
0.0
  0
LINE
  5
50B
330
1F
100
AcDbEntity
  8
0
100
AcDbLine
 10
132.3676258964663
 20
37.53146617102061
 30
0.0
 11
132.3523490175988
 21
37.52461773357254
 31
0.0
  0
LINE
  5
50C
330
1F
100
AcDbEntity
  8
0
100
AcDbLine
 10
132.3523490175988
 20
38.74977645748766
 30
0.0
 11
132.3523490175988
 21
37.52461773357254
 31
0.0
  0
ARC
  5
50D
330
1F
100
AcDbEntity
  8
0
100
AcDbCircle
 10
132.3796272861734
 20
38.75227721282796
 30
0.0
 40
0.0273926580397854
100
AcDbArc
 50
129.1832235483957
 51
185.237991378198
  0
LINE
  5
50E
330
1F
100
AcDbEntity
  8
0
100
AcDbLine
 10
132.362320539958
 20
38.7735100706131
 30
0.0
 11
132.3676258964663
 21
38.77588839687826
 31
0.0
  0
LINE
  5
50F
330
1F
100
AcDbEntity
  8
0
100
AcDbLine
 10
132.3676258964663
 20
35.97112251319288
 30
0.0
 11
132.362320539958
 21
35.96874418692778
 31
0.0
  0
LWPOLYLINE
  5
510
330
1F
100
AcDbEntity
  8
0
100
AcDbPolyline
 90
        3
 70
   128
 43
0.0
 10
132.9340481702135
 20
39.54730522945983
 10
132.9272476991784
 20
39.55051773457615
 10
132.91916104144
 20
39.552614460443
  0
LINE
  5
511
330
1F
100
AcDbEntity
  8
0
100
AcDbLine
 10
132.8574529609021
 20
39.56183545233989
 30
0.0
 11
132.91916104144
 21
39.552614460443
 31
0.0
  0
ARC
  5
512
330
1F
100
AcDbEntity
  8
0
100
AcDbCircle
 10
132.3589018661582
 20
38.75537419672094
 30
0.0
 40
0.0273926580397811
100
AcDbArc
 50
129.1832235484999
 51
185.237991378198
  0
LINE
  5
513
330
1F
100
AcDbEntity
  8
0
100
AcDbLine
 10
132.3523490175988
 20
37.52461773357254
 30
0.0
 11
132.3316235975637
 21
37.52771471744558
 31
0.0
  0
LINE
  5
514
330
1F
100
AcDbEntity
  8
0
100
AcDbLine
 10
132.3316235975637
 20
38.75287344136064
 30
0.0
 11
132.3316235975637
 21
37.52771471744558
 31
0.0
  0
LINE
  5
515
330
1F
100
AcDbEntity
  8
0
100
AcDbLine
 10
132.3415951199229
 20
38.77660705448614
 30
0.0
 11
132.3635324691132
 21
38.78644129909645
 31
0.0
  0
ARC
  5
516
330
1F
100
AcDbEntity
  8
0
100
AcDbCircle
 10
132.3580539196462
 20
38.79692675062688
 30
0.0
 40
0.0118304352391437
100
AcDbArc
 50
297.5866428770988
 51
324.0078584678925
  0
LINE
  5
517
330
1F
100
AcDbEntity
  8
0
100
AcDbLine
 10
132.3316235975637
 20
37.21949868626462
 30
0.0
 11
132.3316235975637
 21
35.98663456158045
 31
0.0
  0
LINE
  5
518
330
1F
100
AcDbEntity
  8
0
100
AcDbLine
 10
132.3316235975637
 20
37.21949868626462
 30
0.0
 11
132.3676258964663
 21
37.23563807535169
 31
0.0
  0
LWPOLYLINE
  5
519
330
1F
100
AcDbEntity
  8
0
100
AcDbPolyline
 90
        8
 70
   128
 43
0.0
 10
132.3316235975637
 20
35.98663456158045
 10
132.3318151975738
 20
35.98296233071358
 10
132.3323826345124
 20
35.97960300548044
 10
132.3333041020958
 20
35.97668568287332
 10
132.3345441888358
 20
35.9743224739745
 10
132.3360552389324
 20
35.97260419556068
 10
132.3377791835242
 20
35.97159688008992
 10
132.3386477699708
 20
35.97138062243948
  0
ARC
  5
51A
330
1F
100
AcDbEntity
  8
0
100
AcDbCircle
 10
90.22616704591948
 20
45.55414353569778
 30
0.0
 40
0.0657423792954528
100
AcDbArc
 50
129.1832235484999
 51
185.237991378198
  0
ARC
  5
51B
330
1F
100
AcDbEntity
  8
0
100
AcDbCircle
 10
132.3851256153515
 20
39.25436217144056
 30
0.0
 40
0.065742379295483
100
AcDbArc
 50
129.1832235484999
 51
185.237991378198
  0
LINE
  5
51C
330
1F
100
AcDbEntity
  8
0
100
AcDbLine
 10
132.3196577707327
 20
39.24836035859988
 30
0.0
 11
132.3196577707327
 21
38.77272612196964
 31
0.0
  0
LINE
  5
51D
330
1F
100
AcDbEntity
  8
0
100
AcDbLine
 10
90.16069920130055
 20
45.54814172283715
 30
0.0
 11
90.16069920130055
 21
45.07250748620697
 31
0.0
  0
ARC
  5
51E
330
1F
100
AcDbEntity
  8
0
100
AcDbCircle
 10
90.77533642228468
 20
45.61573760071229
 30
0.0
 40
0.2335043225516599
100
AcDbArc
 50
80.44043723440001
 51
107.4938243672004
  0
LINE
  5
51F
330
1F
100
AcDbEntity
  8
0
100
AcDbLine
 10
90.81411514496684
 20
45.8459993633151
 30
0.0
 11
91.09045407865499
 21
45.80470624498786
 31
0.0
  0
LINE
  5
520
330
1F
100
AcDbEntity
  8
0
100
AcDbLine
 10
132.8349042475648
 20
39.56686455821154
 30
0.0
 11
132.5585653138768
 21
39.60815767653873
 31
0.0
  0
LWPOLYLINE
  5
521
330
1F
100
AcDbEntity
  8
0
100
AcDbPolyline
 90
        9
 70
   128
 43
0.0
 10
132.8641028915451
 20
39.53866083390318
 10
132.8705568377994
 20
39.54234749454014
 10
132.874107874943
 20
39.54628919672467
 10
132.8746195386442
 20
39.55033446306071
 10
132.8720721659184
 20
39.55432783621825
 10
132.8665636508898
 20
39.5581158530922
 10
132.8583056826964
 20
39.56155294233936
 10
132.8476156104218
 20
39.56450701854198
 10
132.8349042475648
 20
39.56686455821154
  0
LINE
  5
522
330
1F
100
AcDbEntity
  8
0
100
AcDbLine
 10
132.8641028915451
 20
39.53866083390318
 30
0.0
 11
132.3435894243948
 21
39.30532103010899
 31
0.0
  0
LINE
  5
523
330
1F
100
AcDbEntity
  8
0
100
AcDbLine
 10
90.70514432211302
 20
45.8384421981604
 30
0.0
 11
90.18463085496263
 21
45.6051023943662
 31
0.0
  0
LWPOLYLINE
  5
524
330
1F
100
AcDbEntity
  8
0
100
AcDbPolyline
 90
        9
 70
   128
 43
0.0
 10
90.16069920130055
 20
45.07250748620697
 10
90.16103608296123
 20
45.06492849648092
 10
90.16203724350978
 20
45.05786492279987
 10
90.16367449660362
 20
45.05151563048474
 10
90.16590174760418
 20
45.04605937530754
 10
90.16865629129112
 20
45.04164977074402
 10
90.17186057718069
 20
45.03841096324459
 10
90.17542439296983
 20
45.03643413701673
 10
90.1775572150696
 20
45.03589803229657
  0
ARC
  5
525
330
1F
100
AcDbEntity
  8
0
100
AcDbCircle
 10
132.3624736845927
 20
38.76809974622228
 30
0.0
 40
0.0430651347719841
100
AcDbArc
 50
173.8329620400991
 51
224.2453336395954
  0
ARC
  5
526
330
1F
100
AcDbEntity
  8
0
100
AcDbCircle
 10
132.4045683351065
 20
35.9656589534568
 30
0.0
 40
0.0849318179905128
100
AcDbArc
 50
149.1890823001
 51
181.2818228090957
  0
LINE
  5
527
330
1F
100
AcDbEntity
  8
0
100
AcDbLine
 10
132.3196577707327
 20
35.96375901490558
 30
0.0
 11
132.3196577707327
 21
35.84520030989563
 31
0.0
  0
LINE
  5
528
330
1F
100
AcDbEntity
  8
0
100
AcDbLine
 10
132.3196577707327
 20
33.81260509603038
 30
0.0
 11
132.3196577707327
 21
33.75440960292457
 31
0.0
  0
LINE
  5
529
330
1F
100
AcDbEntity
  8
0
100
AcDbLine
 10
129.1676668084478
 20
36.0284730161635
 30
0.0
 11
128.8913278747797
 21
36.06976613449069
 31
0.0
  0
LINE
  5
52A
330
1F
100
AcDbEntity
  8
0
100
AcDbLine
 10
129.1676668084478
 20
36.14405402785883
 30
0.0
 11
129.1676668084478
 21
36.0284730161635
 31
0.0
  0
LINE
  5
52B
330
1F
100
AcDbEntity
  8
0
100
AcDbLine
 10
129.0294973416137
 20
36.25367489130372
 30
0.0
 11
129.1676668084478
 21
36.14405402785883
 31
0.0
  0
LINE
  5
52C
330
1F
100
AcDbEntity
  8
0
100
AcDbLine
 10
128.8913278747797
 20
36.18534714618608
 30
0.0
 11
129.0294973416137
 21
36.25367489130372
 31
0.0
  0
LINE
  5
52D
330
1F
100
AcDbEntity
  8
0
100
AcDbLine
 10
128.8913278747797
 20
36.06976613449069
 30
0.0
 11
128.8913278747797
 21
36.18534714618608
 31
0.0
  0
ARC
  5
52E
330
1F
100
AcDbEntity
  8
0
100
AcDbCircle
 10
108.2745019885904
 20
38.7820982331255
 30
0.0
 40
0.030983116072055
100
AcDbArc
 50
83.19994756580367
 51
184.8141068254039
  0
LINE
  5
52F
330
1F
100
AcDbEntity
  8
0
100
AcDbLine
 10
108.243628173945
 20
38.77949803125427
 30
0.0
 11
108.243628173945
 21
38.14380246694964
 31
0.0
  0
ARC
  5
530
330
1F
100
AcDbEntity
  8
0
100
AcDbCircle
 10
108.2874746328147
 20
38.14296985055631
 30
0.0
 40
0.0438543635852561
100
AcDbArc
 50
178.9121202896029
 51
257.7511024665035
  0
LINE
  5
531
330
1F
100
AcDbEntity
  8
0
100
AcDbLine
 10
108.2781705406436
 20
38.10011382325615
 30
0.0
 11
109.3662550920169
 21
37.93752216987139
 31
0.0
  0
ARC
  5
532
330
1F
100
AcDbEntity
  8
0
100
AcDbCircle
 10
109.3699236440502
 20
37.96828733209686
 30
0.0
 40
0.0309831160720325
100
AcDbArc
 50
263.1999475658036
 51
4.814106825501998
  0
LINE
  5
533
330
1F
100
AcDbEntity
  8
0
100
AcDbLine
 10
109.4007974587155
 20
37.97088753396816
 30
0.0
 11
109.4007974587155
 21
38.60658309827272
 31
0.0
  0
ARC
  5
534
330
1F
100
AcDbEntity
  8
0
100
AcDbCircle
 10
109.3569509998459
 20
38.60741571466605
 30
0.0
 40
0.0438543635851935
100
AcDbArc
 50
358.9121202895051
 51
77.7511024666019
  0
LINE
  5
535
330
1F
100
AcDbEntity
  8
0
100
AcDbLine
 10
109.3662550920169
 20
38.65027174194631
 30
0.0
 11
108.2781705406436
 21
38.81286339535098
 31
0.0
  0
ARC
  5
536
330
1F
100
AcDbEntity
  8
0
100
AcDbCircle
 10
112.0678582860981
 20
38.57224584576915
 30
0.0
 40
0.0877087271704678
100
AcDbArc
 50
358.912120289603
 51
77.75110246650361
  0
LINE
  5
537
330
1F
100
AcDbEntity
  8
0
100
AcDbLine
 10
112.0864664704203
 20
38.65795790034957
 30
0.0
 11
110.3938905016329
 21
38.91087825008135
 31
0.0
  0
ARC
  5
538
330
1F
100
AcDbEntity
  8
0
100
AcDbCircle
 10
110.3865533975264
 20
38.84934792561046
 30
0.0
 40
0.0619662321441186
100
AcDbArc
 50
83.19994756580367
 51
184.8141068254039
  0
LINE
  5
539
330
1F
100
AcDbEntity
  8
0
100
AcDbLine
 10
110.3248057682158
 20
38.84414752186791
 30
0.0
 11
110.3248057682158
 21
38.71784286471945
 31
0.0
  0
LINE
  5
53A
330
1F
100
AcDbEntity
  8
0
100
AcDbLine
 10
112.0051402154878
 20
37.16755726928153
 30
0.0
 11
112.0864664704203
 21
37.15540474836956
 31
0.0
  0
ARC
  5
53B
330
1F
100
AcDbEntity
  8
0
100
AcDbCircle
 10
112.0938035745067
 20
37.21693507284044
 30
0.0
 40
0.0619662321441258
100
AcDbArc
 50
263.1999475658036
 51
4.814106825403954
  0
LINE
  5
53C
330
1F
100
AcDbEntity
  8
0
100
AcDbLine
 10
112.1555512038374
 20
37.22213547658305
 30
0.0
 11
112.1555512038374
 21
38.57058061296255
 31
0.0
  0
LINE
  5
53D
330
1F
100
AcDbEntity
  8
0
100
AcDbLine
 10
90.16069920130055
 20
42.2206351356989
 30
0.0
 11
90.16069920130055
 21
40.05419096718179
 31
0.0
  0
LINE
  5
53E
330
1F
100
AcDbEntity
  8
0
100
AcDbLine
 10
107.0950944808343
 20
37.57378216498035
 30
0.0
 11
107.0950944808343
 21
37.52369705990175
 31
0.0
  0
LINE
  5
53F
330
1F
100
AcDbEntity
  8
0
100
AcDbLine
 10
107.0950944808343
 20
37.57378216498035
 30
0.0
 11
100.7911125562847
 21
38.51578142673412
 31
0.0
  0
LINE
  5
540
330
1F
100
AcDbEntity
  8
0
100
AcDbLine
 10
100.7911125562847
 20
38.46569632165552
 30
0.0
 11
100.7911125562847
 21
38.51578142673412
 31
0.0
  0
ARC
  5
541
330
1F
100
AcDbEntity
  8
0
100
AcDbCircle
 10
132.8640662849697
 20
39.52787632054253
 30
0.0
 40
0.0109104995329156
100
AcDbArc
 50
296.8721541027978
 51
349.3924760726029
  0
LWPOLYLINE
  5
542
330
1F
100
AcDbEntity
  8
0
100
AcDbPolyline
 90
        9
 70
   128
 43
0.0
 10
132.3435894243948
 20
33.71890546508536
 10
132.3389205903838
 20
33.71770082674834
 10
132.3344311770259
 20
33.71831916737125
 10
132.3302937099856
 20
33.72073672447715
 10
132.3266671898137
 20
33.7248605926743
 10
132.3236909815978
 20
33.73053229405935
 10
132.3214794593975
 20
33.73753386830447
 10
132.3201176107569
 20
33.74559624885603
 10
132.3196577707327
 20
33.75440960292457
  0
LWPOLYLINE
  5
543
330
1F
100
AcDbEntity
  8
0
100
AcDbPolyline
 90
        8
 70
   128
 43
0.0
 10
107.1119524946034
 20
37.48708760599135
 10
107.1098678871276
 20
37.48760662434836
 10
107.1057304200873
 20
37.49002418145426
 10
107.1021038998955
 20
37.49414804965147
 10
107.0991276916995
 20
37.49981975103651
 10
107.0969161694991
 20
37.50682132528164
 10
107.0955543208386
 20
37.5148837058332
 10
107.0950944808343
 20
37.52369705990175
  0
LINE
  5
544
330
1F
100
AcDbEntity
  8
0
100
AcDbLine
 10
132.3435894243948
 20
33.71890546508536
 30
0.0
 11
132.350866934655
 21
33.72216788369383
 31
0.0
  0
LINE
  5
545
330
1F
100
AcDbEntity
  8
0
100
AcDbLine
 10
132.3435894243948
 20
33.74202166743237
 30
0.0
 11
132.3439584613034
 21
33.74218710214791
 31
0.0
  0
LINE
  5
546
330
1F
100
AcDbEntity
  8
0
100
AcDbLine
 10
129.0299268954721
 20
36.25333409195162
 30
0.0
 11
128.9032937016107
 21
36.19071127961354
 31
0.0
  0
LINE
  5
547
330
1F
100
AcDbEntity
  8
0
100
AcDbLine
 10
128.9032937016107
 20
36.19071127961354
 30
0.0
 11
128.8913278747797
 21
36.18534714618608
 31
0.0
  0
ARC
  5
548
330
1F
100
AcDbEntity
  8
0
100
AcDbCircle
 10
112.1075330493806
 20
37.21857899046109
 30
0.0
 40
0.0585220672333553
100
AcDbArc
 50
261.0536386369959
 51
287.2871286144004
  0
LINE
  5
549
330
1F
100
AcDbEntity
  8
0
100
AcDbLine
 10
112.0984322972513
 20
37.16076888179703
 30
0.0
 11
112.0095748003701
 21
37.17404679049736
 31
0.0
  0
LINE
  5
54A
330
1F
100
AcDbEntity
  8
0
100
AcDbLine
 10
110.8241361754634
 20
41.93377689774036
 30
0.0
 11
110.8241361754634
 21
41.95069531895192
 31
0.0
  0
LINE
  5
54B
330
1F
100
AcDbEntity
  8
0
100
AcDbLine
 10
110.8121703486324
 20
41.93556494222946
 30
0.0
 11
110.8121703486324
 21
41.9524833634211
 31
0.0
  0
LINE
  5
54C
330
1F
100
AcDbEntity
  8
0
100
AcDbLine
 10
102.8674260053531
 20
43.13966051523403
 30
0.0
 11
102.8674260053531
 21
43.12274209402242
 31
0.0
  0
LWPOLYLINE
  5
54E
330
1F
100
AcDbEntity
  8
0
100
AcDbPolyline
 90
        9
 70
   128
 43
0.0
 10
100.7911125562847
 20
38.46569632165552
 10
100.7915723962889
 20
38.45688296758692
 10
100.7929342449495
 20
38.44882058703536
 10
100.7951457671498
 20
38.44181901279024
 10
100.7981219753458
 20
38.43614731140525
 10
100.8017484955376
 20
38.43202344320804
 10
100.8058859625779
 20
38.42960588610214
 10
100.8103753759158
 20
38.42898754547923
 10
100.8150442099467
 20
38.4301921838362
  0
LINE
  5
54F
330
1F
100
AcDbEntity
  8
0
100
AcDbLine
 10
100.8150442099467
 20
38.4301921838362
 30
0.0
 11
100.8412162080359
 21
38.44192476959971
 31
0.0
  0
LWPOLYLINE
  5
550
330
1F
100
AcDbEntity
  8
0
100
AcDbPolyline
 90
        8
 70
   128
 43
0.0
 10
90.16069920130055
 20
40.05419096718179
 10
90.16115904132481
 20
40.04537761309332
 10
90.16252088996536
 20
40.0373152325617
 10
90.16473241216571
 20
40.03031365831657
 10
90.16770862038162
 20
40.02464195693153
 10
90.17133514057347
 20
40.02051808871442
 10
90.17547260759384
 20
40.01810053162841
 10
90.1775572150696
 20
40.01758151325145
  0
LWPOLYLINE
  5
551
330
1F
100
AcDbEntity
  8
0
100
AcDbPolyline
 90
        8
 70
   128
 43
0.0
 10
132.5381108427993
 20
39.45446227387821
 10
132.5134838334216
 20
39.44719418935898
 10
132.4799850337032
 20
39.44291855570833
 10
132.4427143321879
 20
39.4422862993872
 10
132.4073458553748
 20
39.44539367570053
 10
132.3792641332208
 20
39.45176761474716
 10
132.3627443533506
 20
39.46043774209647
 10
132.3594825480506
 20
39.46685020937042
  0
LWPOLYLINE
  5
552
330
1F
100
AcDbEntity
  8
0
100
AcDbPolyline
 90
        3
 70
   128
 43
0.0
 10
132.5509357773472
 20
39.46685020937042
 10
132.5501168228968
 20
39.46361630927595
 10
132.5381108427993
 20
39.45446227387821
  0
LWPOLYLINE
  5
553
330
1F
100
AcDbEntity
  8
0
100
AcDbPolyline
 90
        8
 70
   128
 43
0.0
 10
90.75220983383928
 20
45.69849792838073
 10
90.72758282446148
 20
45.69122984388142
 10
90.69408402474312
 20
45.68695421023078
 10
90.65681332322776
 20
45.68632195390967
 10
90.62144484641464
 20
45.68942933020304
 10
90.59336312426069
 20
45.69580326924966
 10
90.5768433443905
 20
45.70447339661888
 10
90.57358153909047
 20
45.71088586389286
  0
LWPOLYLINE
  5
554
330
1F
100
AcDbEntity
  8
0
100
AcDbPolyline
 90
        3
 70
   128
 43
0.0
 10
90.76503476838714
 20
45.71088586389286
 10
90.76421581393672
 20
45.70765196377849
 10
90.75220983383928
 20
45.69849792838073
  0
LWPOLYLINE
  5
555
330
1F
100
AcDbEntity
  8
0
100
AcDbPolyline
 90
       13
 70
   128
 43
0.0
 10
136.1321998511804
 20
37.87268619695197
 10
136.1247973019186
 20
37.87454970697928
 10
136.1036986313087
 20
37.88979214839657
 10
136.0873060644712
 20
37.91806096891679
 10
136.0770761529049
 20
37.95684435976722
 10
136.073917869158
 20
38.00269624648149
 10
136.0781118405876
 20
38.0515424877276
 10
136.0892854144315
 20
38.09904288057811
 10
136.1064457696246
 20
38.14097680670426
 10
136.1280681333011
 20
38.17361825273645
 10
136.1522312635698
 20
38.19406688293481
 10
136.1767881602423
 20
38.20050574678282
 10
136.1811258604173
 20
38.20010543222003
  0
LINE
  5
556
330
1F
100
AcDbEntity
  8
0
100
AcDbLine
 10
136.1704669252184
 20
34.01426758728644
 30
0.0
 11
136.1688525142697
 21
34.01454394226511
 31
0.0
  0
LWPOLYLINE
  5
557
330
1F
100
AcDbEntity
  8
0
100
AcDbPolyline
 90
       12
 70
   128
 43
0.0
 10
136.1321998511804
 20
34.01998580729908
 10
136.1152810380081
 20
34.02667820246779
 10
136.0959928178183
 20
34.04774696740521
 10
136.0820953967414
 20
34.08089534940046
 10
136.0748236216422
 20
34.12317796923332
 10
136.0748236216422
 20
34.17083783059819
 10
136.0820953967414
 20
34.21964014561314
 10
136.0959928178183
 20
34.26524861446377
 10
136.1152810380081
 20
34.30361072454861
 10
136.13824621431
 20
34.33131783399779
 10
136.1628477900237
 20
34.34590804457918
 10
136.1811258604173
 20
34.34740504254718
  0
LINE
  5
558
330
1F
100
AcDbEntity
  8
0
100
AcDbLine
 10
136.2745415965566
 20
37.87046532052631
 30
0.0
 11
136.2713353629297
 21
37.86902800531051
 31
0.0
  0
ARC
  5
559
330
1F
100
AcDbEntity
  8
0
100
AcDbCircle
 10
136.2722901291557
 20
37.8813513060329
 30
0.0
 40
0.0111163746667893
100
AcDbArc
 50
281.6853038370986
 51
346.3287505540947
  0
LINE
  5
55A
330
1F
100
AcDbEntity
  8
0
100
AcDbLine
 10
136.2745415965566
 20
34.0177649308734
 30
0.0
 11
136.2713353629297
 21
34.0163276156377
 31
0.0
  0
LWPOLYLINE
  5
55B
330
1F
100
AcDbEntity
  8
0
100
AcDbPolyline
 90
        3
 70
   128
 43
0.0
 10
136.3029962314303
 20
34.64901751297754
 10
136.301668787653
 20
34.63418338071136
 10
136.2980820625704
 20
34.62121009473988
  0
ARC
  5
55C
330
1F
100
AcDbEntity
  8
0
100
AcDbCircle
 10
136.2722901291557
 20
34.02865091636011
 30
0.0
 40
0.011116374666792
100
AcDbArc
 50
281.6853038370986
 51
346.3287505540947
  0
LINE
  5
55D
330
1F
100
AcDbEntity
  8
0
100
AcDbLine
 10
89.67229019952325
 20
41.51146629001994
 30
0.0
 11
90.11273107556695
 21
42.20015849806689
 31
0.0
  0
ARC
  5
55E
330
1F
100
AcDbEntity
  8
0
100
AcDbCircle
 10
90.00978240107768
 20
42.263607344756
 30
0.0
 40
0.1209304995597814
100
AcDbArc
 50
328.3538351310994
 51
343.8289438394996
  0
LINE
  5
55F
330
1F
100
AcDbEntity
  8
0
100
AcDbLine
 10
90.1470822197055
 20
45.6141876920584
 30
0.0
 11
90.11194870025033
 21
45.53056501855421
 31
0.0
  0
LINE
  5
560
330
1F
100
AcDbEntity
  8
0
100
AcDbLine
 10
90.11194870025033
 20
44.95577836341864
 30
0.0
 11
90.11194870025033
 21
45.53056501855421
 31
0.0
  0
LINE
  5
561
330
1F
100
AcDbEntity
  8
0
100
AcDbLine
 10
89.65956363039442
 20
41.52707061958028
 30
0.0
 11
90.09200565553188
 21
42.20325548194
 31
0.0
  0
ARC
  5
562
330
1F
100
AcDbEntity
  8
0
100
AcDbCircle
 10
89.97501963304262
 20
42.27323548809033
 30
0.0
 40
0.136319223603306
100
AcDbArc
 50
329.1125087592066
 51
352.3156469675972
  0
LINE
  5
563
330
1F
100
AcDbEntity
  8
0
100
AcDbLine
 10
86.82577108352939
 20
46.08848609404811
 30
0.0
 11
86.79933573276834
 21
46.0255662744522
 31
0.0
  0
LINE
  5
564
330
1F
100
AcDbEntity
  8
0
100
AcDbLine
 10
86.79933573276834
 20
42.77392768841719
 30
0.0
 11
86.79933573276834
 21
46.0255662744522
 31
0.0
  0
LINE
  5
565
330
1F
100
AcDbEntity
  8
0
100
AcDbLine
 10
86.34695066293241
 20
42.02207187547822
 30
0.0
 11
86.77939268804996
 21
42.69825673783794
 31
0.0
  0
ARC
  5
566
330
1F
100
AcDbEntity
  8
0
100
AcDbCircle
 10
86.65276146049292
 20
42.7720938059366
 30
0.0
 40
0.1465857442676968
100
AcDbArc
 50
329.7540791467937
 51
0.716825962400077
  0
ARC
  5
567
330
1F
100
AcDbEntity
  8
0
100
AcDbCircle
 10
90.08548060524343
 20
45.66083952508178
 30
0.0
 40
0.1308277370084306
100
AcDbArc
 50
261.3071765778029
 51
282.116202302096
  0
LINE
  5
568
330
1F
100
AcDbEntity
  8
0
100
AcDbLine
 10
86.84384962184607
 20
46.10192875363689
 30
0.0
 11
86.88357334356835
 21
46.09599286789523
 31
0.0
  0
LWPOLYLINE
  5
569
330
1F
100
AcDbEntity
  8
0
100
AcDbPolyline
 90
        9
 70
   128
 43
0.0
 10
86.82925029984597
 20
46.11603061581104
 10
86.8260233267288
 20
46.11418728547261
 10
86.82424780814699
 20
46.11221643438034
 10
86.82399197631637
 20
46.1101938012323
 10
86.82526566265932
 20
46.10819711464354
 10
86.82801992018355
 20
46.1063031062165
 10
86.83214890427027
 20
46.10458456158295
 10
86.83749394041758
 20
46.10310752347169
 10
86.84384962184607
 20
46.10192875363689
  0
LINE
  5
56A
330
1F
100
AcDbEntity
  8
0
100
AcDbLine
 10
86.82925029984597
 20
46.11603061581104
 30
0.0
 11
87.38964985643317
 21
46.36725086433677
 31
0.0
  0
ARC
  5
56B
330
1F
100
AcDbEntity
  8
0
100
AcDbCircle
 10
87.42474590652895
 20
46.25589856561271
 30
0.0
 40
0.1167521612760894
100
AcDbArc
 50
80.44043723440001
 51
107.4938243672004
  0
LINE
  5
56C
330
1F
100
AcDbEntity
  8
0
100
AcDbLine
 10
90.70838892195007
 20
45.88325448669997
 30
0.0
 11
87.44413526787004
 21
46.37102944691412
 31
0.0
  0
LWPOLYLINE
  5
56D
330
1F
100
AcDbEntity
  8
0
100
AcDbPolyline
 90
        9
 70
   128
 43
0.0
 10
90.72298824395019
 20
45.86915262454584
 10
90.72621521706734
 20
45.87099595486427
 10
90.72799073564913
 20
45.87296680595653
 10
90.7282465674997
 20
45.87498943912453
 10
90.72697288113678
 20
45.8769861257133
 10
90.72421862361258
 20
45.87888013414032
 10
90.72008963952587
 20
45.88059867877388
 10
90.71474460339851
 20
45.88207571686519
 10
90.70838892195007
 20
45.88325448669997
  0
LINE
  5
56E
330
1F
100
AcDbEntity
  8
0
100
AcDbLine
 10
90.16258868736299
 20
45.61793237602006
 30
0.0
 11
90.72298824395019
 21
45.86915262454584
 31
0.0
  0
ARC
  5
56F
330
1F
100
AcDbEntity
  8
0
100
AcDbCircle
 10
90.12749263728712
 20
45.72928467474412
 30
0.0
 40
0.1167521612762964
100
AcDbArc
 50
260.4404372344991
 51
287.4938243672005
  0
LINE
  5
570
330
1F
100
AcDbEntity
  8
0
100
AcDbLine
 10
90.10810327592606
 20
45.6141537934427
 30
0.0
 11
90.06837955422373
 21
45.6200896792044
 31
0.0
  0
LINE
  5
571
330
1F
100
AcDbEntity
  8
0
100
AcDbLine
 10
90.04843650950531
 20
45.5340954490483
 30
0.0
 11
90.04843650950531
 21
45.5726224529335
 31
0.0
  0
ARC
  5
572
330
1F
100
AcDbEntity
  8
0
100
AcDbCircle
 10
90.1029930466745
 20
45.57762396365403
 30
0.0
 40
0.0547853160795396
100
AcDbArc
 50
129.1832235484999
 51
185.237991378198
  0
ARC
  5
573
330
1F
100
AcDbEntity
  8
0
100
AcDbCircle
 10
86.91818683601907
 20
46.05352715232493
 30
0.0
 40
0.0547853160796015
100
AcDbArc
 50
129.1832235484999
 51
185.237991378198
  0
LINE
  5
574
330
1F
100
AcDbEntity
  8
0
100
AcDbLine
 10
86.86363029884992
 20
46.00999863771924
 30
0.0
 11
86.84635911549069
 21
46.01257945762339
 31
0.0
  0
LINE
  5
575
330
1F
100
AcDbEntity
  8
0
100
AcDbLine
 10
86.86363029884992
 20
46.04852564162434
 30
0.0
 11
86.86363029884992
 21
46.00999863771924
 31
0.0
  0
LINE
  5
576
330
1F
100
AcDbEntity
  8
0
100
AcDbLine
 10
90.06570769284465
 20
45.53151462914414
 30
0.0
 11
90.04843650950531
 21
45.5340954490483
 31
0.0
  0
LINE
  5
577
330
1F
100
AcDbEntity
  8
0
100
AcDbLine
 10
90.04843650950531
 20
42.29012172094853
 30
0.0
 11
90.06570769284465
 21
42.28754090104432
 31
0.0
  0
LINE
  5
578
330
1F
100
AcDbEntity
  8
0
100
AcDbLine
 10
90.04843650950531
 20
42.26021328693554
 30
0.0
 11
90.04843650950531
 21
42.29012172094853
 31
0.0
  0
LINE
  5
579
330
1F
100
AcDbEntity
  8
0
100
AcDbLine
 10
86.86363029884992
 20
42.76602490961943
 30
0.0
 11
86.86363029884992
 21
42.73611647562638
 31
0.0
  0
LINE
  5
57A
330
1F
100
AcDbEntity
  8
0
100
AcDbLine
 10
86.84635911549069
 20
42.76860572952357
 30
0.0
 11
86.86363029884992
 21
42.76602490961943
 31
0.0
  0
LINE
  5
57B
330
1F
100
AcDbEntity
  8
0
100
AcDbLine
 10
86.44277450598647
 20
42.06692655397643
 30
0.0
 11
86.4255033226272
 21
42.06950737388064
 31
0.0
  0
LINE
  5
57C
330
1F
100
AcDbEntity
  8
0
100
AcDbLine
 10
86.81647903843312
 20
42.68085373990749
 30
0.0
 11
86.83375022179237
 21
42.67827292000331
 31
0.0
  0
LINE
  5
57D
330
1F
100
AcDbEntity
  8
0
100
AcDbLine
 10
86.83375022179237
 20
42.67827292000331
 30
0.0
 11
86.85864453767033
 21
42.71719873797656
 31
0.0
  0
LINE
  5
57E
330
1F
100
AcDbEntity
  8
0
100
AcDbLine
 10
90.04345074832571
 20
42.24129554928572
 30
0.0
 11
90.01855643244779
 21
42.20236973133251
 31
0.0
  0
LINE
  5
57F
330
1F
100
AcDbEntity
  8
0
100
AcDbLine
 10
90.01855643244779
 20
42.20236973133251
 30
0.0
 11
90.03582761580702
 21
42.19978891142829
 31
0.0
  0
LINE
  5
580
330
1F
100
AcDbEntity
  8
0
100
AcDbLine
 10
89.64485189998121
 20
41.58844254540139
 30
0.0
 11
89.62758071664188
 21
41.5910233653056
 31
0.0
  0
LINE
  5
581
330
1F
100
AcDbEntity
  8
0
100
AcDbLine
 10
89.62758071664188
 20
41.5910233653056
 30
0.0
 11
89.59303834992338
 21
41.53701144203521
 31
0.0
  0
LINE
  5
582
330
1F
100
AcDbEntity
  8
0
100
AcDbLine
 10
89.59303834992338
 20
41.53701144203521
 30
0.0
 11
89.66730443834421
 21
41.52591391648511
 31
0.0
  0
LINE
  5
583
330
1F
100
AcDbEntity
  8
0
100
AcDbLine
 10
89.66730443834421
 20
41.52591391648511
 30
0.0
 11
89.64139766332527
 21
41.4854049740324
 31
0.0
  0
LINE
  5
584
330
1F
100
AcDbEntity
  8
0
100
AcDbLine
 10
86.33396605084715
 20
42.02401215625616
 30
0.0
 11
86.30805927580826
 21
41.98350321380343
 31
0.0
  0
LINE
  5
585
330
1F
100
AcDbEntity
  8
0
100
AcDbLine
 10
86.33396605084715
 20
42.02401215625616
 30
0.0
 11
86.40823213926797
 21
42.01291463070612
 31
0.0
  0
LINE
  5
586
330
1F
100
AcDbEntity
  8
0
100
AcDbLine
 10
86.40823213926797
 20
42.01291463070612
 30
0.0
 11
86.44277450598647
 21
42.06692655397643
 31
0.0
  0
ARC
  5
587
330
1F
100
AcDbEntity
  8
0
100
AcDbCircle
 10
90.02526948723476
 20
42.13868163086753
 30
0.0
 40
0.0620126907693211
100
AcDbArc
 50
37.18174354289492
 51
80.19720632020101
  0
ARC
  5
588
330
1F
100
AcDbEntity
  8
0
100
AcDbCircle
 10
89.63428383388944
 20
41.52731892723914
 30
0.0
 40
0.0620304821786625
100
AcDbArc
 50
37.18821925480141
 51
80.19073060830093
  0
ARC
  5
589
330
1F
100
AcDbEntity
  8
0
100
AcDbCircle
 10
89.70313174799803
 20
41.44891644106428
 30
0.0
 40
0.0717112979105011
100
AcDbArc
 50
149.4143752528007
 51
195.7062847520013
  0
ARC
  5
58A
330
1F
100
AcDbEntity
  8
0
100
AcDbCircle
 10
86.36979336048105
 20
41.9470146808552
 30
0.0
 40
0.0717112979106102
100
AcDbArc
 50
149.4143752528956
 51
195.7062847520013
  0
LINE
  5
58B
330
1F
100
AcDbEntity
  8
0
100
AcDbLine
 10
89.67229019952382
 20
41.51146629001821
 30
0.0
 11
89.66730443834421
 21
41.52591391648511
 31
0.0
  0
LINE
  5
58C
330
1F
100
AcDbEntity
  8
0
100
AcDbLine
 10
89.63409800232524
 20
41.42950375948339
 30
0.0
 11
90.11694553679978
 21
40.03031904832329
 31
0.0
  0
LINE
  5
58D
330
1F
100
AcDbEntity
  8
0
100
AcDbLine
 10
86.3007596148082
 20
41.92760199925442
 30
0.0
 11
86.78360714930269
 21
40.52841728809432
 31
0.0
  0
LWPOLYLINE
  5
58E
330
1F
100
AcDbEntity
  8
0
100
AcDbPolyline
 90
       24
 70
   128
 43
0.0
 10
87.44265814051363
 20
41.56160219673261
 10
87.53093752879342
 20
41.54360997217281
 10
87.62099217731286
 20
41.51584450765962
 10
87.71106927478035
 20
41.47884622636019
 10
87.79941557297233
 20
41.43333525775893
 10
87.88431151165569
 20
41.38019742106735
 10
87.96410468798271
 20
41.32046698386381
 10
88.03724201849986
 20
41.25530653112535
 10
88.10229996831614
 20
41.18598433697171
 10
88.15801225839399
 20
41.11384967906484
 10
88.20329451240059
 20
41.04030657645103
 10
88.2372653627709
 20
40.96678646196551
 10
88.25926360553541
 20
40.89472032104121
 10
88.26886106990569
 20
40.82551083909311
 10
88.26587095219389
 20
40.76050510000839
 10
88.25035145160903
 20
40.70096836650702
 10
88.22260463759198
 20
40.64805945343318
 10
88.18317057030645
 20
40.6028081725505
 10
88.13281678901942
 20
40.56609528860565
 10
88.07252337280592
 20
40.53863537610744
 10
88.00346386442877
 20
40.52096291102742
 10
87.92698242867173
 20
40.51342186777025
 10
87.84456768967766
 20
40.5161590241934
 10
87.82726501700864
 20
40.51796733271054
  0
LWPOLYLINE
  5
58F
330
1F
100
AcDbEntity
  8
0
100
AcDbPolyline
 90
       15
 70
   128
 43
0.0
 10
87.06467005190217
 20
41.00194404985567
 10
87.06227388131855
 20
41.00581025216013
 10
87.02255056513809
 20
41.07952141738445
 10
86.99449768315956
 20
41.15249229850394
 10
86.97866125285342
 20
41.22330260027545
 10
86.97534951228339
 20
41.29057408073617
 10
86.98462692074036
 20
41.35299737703156
 10
87.00631290400584
 20
41.40935749073185
 10
87.03998536909374
 20
41.45855743631481
 10
87.08498891976836
 20
41.49963959278738
 10
87.14044761309244
 20
41.53180434271456
 10
87.20528200871646
 20
41.55442563585132
 10
87.27823017885617
 20
41.56706317442284
 10
87.3578722703659
 20
41.56947098312918
 10
87.44265814051363
 20
41.56160219673261
  0
ARC
  5
590
330
1F
100
AcDbEntity
  8
0
100
AcDbCircle
 10
90.01179294142151
 20
42.25975481632036
 30
0.0
 40
0.0366464360667852
100
AcDbArc
 50
329.7540791466996
 51
0.7168259624977859
  0
ARC
  5
591
330
1F
100
AcDbEntity
  8
0
100
AcDbCircle
 10
86.82698673076613
 20
42.7356580049913
 30
0.0
 40
0.0366464360670603
100
AcDbArc
 50
329.7540791467937
 51
0.7168259623023575
  0
LWPOLYLINE
  5
592
330
1F
100
AcDbEntity
  8
0
100
AcDbPolyline
 90
        9
 70
   128
 43
0.0
 10
90.13421672015907
 20
40.01879800605331
 10
90.13161363047505
 20
40.01796067673962
 10
90.12905508037063
 20
40.01779688206034
 10
90.12658484736164
 20
40.01830942463157
 10
90.12424519779983
 20
40.01948953465887
 10
90.12207616375766
 20
40.02131702018846
 10
90.12011485800483
 20
40.02376061238082
 10
90.11839483902193
 20
40.02677850072257
 10
90.11694553679978
 20
40.03031904832329
  0
ARC
  5
593
330
1F
100
AcDbEntity
  8
0
100
AcDbCircle
 10
86.79968699440133
 20
40.53169779255147
 30
0.0
 40
0.0164110672486252
100
AcDbArc
 50
191.5308694834054
 51
253.3456709381997
  0
LINE
  5
594
330
1F
100
AcDbEntity
  8
0
100
AcDbLine
 10
90.13421672015907
 20
40.01879800605331
 30
0.0
 11
90.16402789082613
 21
40.03216198825668
 31
0.0
  0
LWPOLYLINE
  5
595
330
1F
100
AcDbEntity
  8
0
100
AcDbPolyline
 90
        9
 70
   128
 43
0.0
 10
86.8317597934906
 20
46.02668131977759
 10
86.82853282037342
 20
46.02483798945911
 10
86.82675730179164
 20
46.02286713836685
 10
86.82650146996097
 20
46.02084450519885
 10
86.82777515630396
 20
46.01884781863002
 10
86.83052941382817
 20
46.01695381018305
 10
86.83465839791489
 20
46.01523526554951
 10
86.84000343406223
 20
46.01375822745819
 10
86.84635911549069
 20
46.01257945762339
  0
LWPOLYLINE
  5
596
330
1F
100
AcDbEntity
  8
0
100
AcDbPolyline
 90
        7
 70
   128
 43
0.0
 10
86.84635911549069
 20
42.76860572952357
 10
86.84000343406223
 20
42.76978449935834
 10
86.83465839791489
 20
42.77126153744972
 10
86.83052941382817
 20
42.77298008208322
 10
86.82777515630396
 20
42.7748740905302
 10
86.82650146996097
 20
42.776870777099
 10
86.82641607077227
 20
42.77754595188935
  0
LINE
  5
597
330
1F
100
AcDbEntity
  8
0
100
AcDbLine
 10
86.86363029884992
 20
46.04096847646963
 30
0.0
 11
86.8317597934906
 21
46.02668131977759
 31
0.0
  0
LWPOLYLINE
  5
598
330
1F
100
AcDbEntity
  8
0
100
AcDbPolyline
 90
        9
 70
   128
 43
0.0
 10
86.4255033226272
 20
42.06950737388064
 10
86.41895604118863
 20
42.06995914566692
 10
86.41304356812273
 20
42.06928312774446
 10
86.40799311643256
 20
42.06750529911992
 10
86.40399877216834
 20
42.06469398073568
 10
86.4012140357288
 20
42.06095720998803
 10
86.39974592296766
 20
42.05643858888445
 10
86.39965085265865
 20
42.05131176548404
 10
86.40093247826792
 20
42.04577376073518
  0
ARC
  5
599
330
1F
100
AcDbEntity
  8
0
100
AcDbCircle
 10
86.81049948697618
 20
42.65852989598641
 30
0.0
 40
0.0231107992777462
100
AcDbArc
 50
75.00503959730401
 51
139.7962982278975
  0
LINE
  5
59A
330
1F
100
AcDbEntity
  8
0
100
AcDbLine
 10
86.40093247826792
 20
42.04577376073518
 30
0.0
 11
86.41085604288948
 21
42.01701747871474
 31
0.0
  0
LWPOLYLINE
  5
59B
330
1F
100
AcDbEntity
  8
0
100
AcDbPolyline
 90
       10
 70
   128
 43
0.0
 10
89.92720137554078
 20
41.67734842004063
 10
89.92303216058926
 20
41.67838645675471
 10
89.90750418614494
 20
41.69146930738088
 10
89.8971287253124
 20
41.71681585864114
 10
89.89348534798279
 20
41.75056732788134
 10
89.8971287253124
 20
41.78758535987481
 10
89.90750418614494
 20
41.82223429480546
 10
89.92303216058926
 20
41.84923914643071
 10
89.94134865530693
 20
41.86448867091946
 10
89.95549593509304
 20
41.8666993030817
  0
LWPOLYLINE
  5
59C
330
1F
100
AcDbEntity
  8
0
100
AcDbPolyline
 90
       10
 70
   128
 43
0.0
 10
90.48316679835735
 20
45.84777153904378
 10
90.47810206240155
 20
45.83981939598525
 10
90.45944299599337
 20
45.83144504211737
 10
90.42982215410686
 20
45.82555624938288
 10
90.39374904142116
 20
45.82304953312632
 10
90.35671546234857
 20
45.82430651816649
 10
90.32435944356555
 20
45.82913583992096
 10
90.30160689565887
 20
45.8368022779237
 10
90.29192168775507
 20
45.84613868650239
 10
90.29171356906065
 20
45.84777153904378
  0
LWPOLYLINE
  5
59D
330
1F
100
AcDbEntity
  8
0
100
AcDbPolyline
 90
       10
 70
   128
 43
0.0
 10
135.7586119651835
 20
36.8064459950665
 10
135.7544602507722
 20
36.80747788100655
 10
135.7389281716703
 20
36.82054701901451
 10
135.7285465668045
 20
36.84588288168028
 10
135.7248959413946
 20
36.87962831362245
 10
135.7285320700657
 20
36.91664587866944
 10
135.7389013852097
 20
36.95129998816208
 10
135.7544252525634
 20
36.97831486804762
 10
135.7727403040827
 20
36.99357774773529
 10
135.7869065247357
 20
36.99579687810751
  0
LWPOLYLINE
  5
59E
330
1F
100
AcDbEntity
  8
0
100
AcDbPolyline
 90
        4
 70
   128
 43
0.0
 10
87.42272825064635
 20
46.26273001310234
 10
87.40000550720116
 20
46.2704023702605
 10
87.39035658692367
 20
46.27974129539222
 10
87.39015476542506
 20
46.28134928142976
  0
LWPOLYLINE
  5
59F
330
1F
100
AcDbEntity
  8
0
100
AcDbPolyline
 90
        7
 70
   128
 43
0.0
 10
87.58160799472177
 20
46.28134928142976
 10
87.57651230965349
 20
46.27337354104281
 10
87.55782070864075
 20
46.26500404877066
 10
87.52817699698795
 20
46.25912297002581
 10
87.49209416105086
 20
46.25662564568687
 10
87.45506548555416
 20
46.2578922707761
 10
87.42272825064635
 20
46.26273001310234
  0
LWPOLYLINE
  5
5A0
330
1F
100
AcDbEntity
  8
0
100
AcDbPolyline
 90
       10
 70
   128
 43
0.0
 10
136.0514569620352
 20
39.03853632746109
 10
136.0463922260995
 20
39.03058418442255
 10
136.0277331596713
 20
39.02220983053468
 10
135.9981123178047
 20
39.0163210378201
 10
135.9620392051191
 20
39.01381432156359
 10
135.9250056260465
 20
39.01507130660377
 10
135.8926496072635
 20
39.01990062835825
 10
135.8698970593568
 20
39.02756706636092
 10
135.860211851453
 20
39.03690347493967
 10
135.8600037327386
 20
39.03853632746109
  0
LWPOLYLINE
  5
5A1
330
1F
100
AcDbEntity
  8
0
100
AcDbPolyline
 90
       10
 70
   128
 43
0.0
 10
135.4954915392387
 20
34.86811320847789
 10
135.4913223242872
 20
34.86915124519203
 10
135.4757943498229
 20
34.88223409581809
 10
135.4654188890102
 20
34.90758064705847
 10
135.4617755116807
 20
34.94133211631862
 10
135.4654188890102
 20
34.97835014829212
 10
135.4757943498229
 20
35.01299908324273
 10
135.4913223242872
 20
35.04000393486797
 10
135.5096388190048
 20
35.05525345933677
 10
135.523786098791
 20
35.05746409151897
  0
LWPOLYLINE
  5
5A2
330
1F
100
AcDbEntity
  8
0
100
AcDbPolyline
 90
        4
 70
   128
 43
0.0
 10
132.9910184143243
 20
39.45349480153959
 10
132.968295670899
 20
39.46116715867783
 10
132.9586467506215
 20
39.47050608382949
 10
132.958444929123
 20
39.47211406986696
  0
LWPOLYLINE
  5
5A3
330
1F
100
AcDbEntity
  8
0
100
AcDbPolyline
 90
        7
 70
   128
 43
0.0
 10
133.1498981584196
 20
39.47211406986696
 10
133.1448024733514
 20
39.46413832948002
 10
133.1261108723386
 20
39.45576883720793
 10
133.0964671606858
 20
39.44988775844314
 10
133.0603843247488
 20
39.44739043412415
 10
133.023355649252
 20
39.44865705921336
 10
132.9910184143243
 20
39.45349480153959
  0
LINE
  5
5A4
330
1F
100
AcDbEntity
  8
0
100
AcDbLine
 10
136.2713353629297
 20
37.83737656787571
 30
0.0
 11
136.2713353629297
 21
37.94631998559584
 31
0.0
  0
LINE
  5
5A5
330
1F
100
AcDbEntity
  8
0
100
AcDbLine
 10
136.2713353629297
 20
38.15529782562931
 30
0.0
 11
136.2713353629297
 21
38.33822761852241
 31
0.0
  0
LINE
  5
5A6
330
1F
100
AcDbEntity
  8
0
100
AcDbLine
 10
136.2713353629297
 20
37.83737656787571
 30
0.0
 11
136.2932727121199
 21
37.84721081246607
 31
0.0
  0
LINE
  5
5A7
330
1F
100
AcDbEntity
  8
0
100
AcDbLine
 10
136.2932727121199
 20
34.49536147345992
 30
0.0
 11
136.2713353629297
 21
34.48552722884961
 31
0.0
  0
LINE
  5
5A8
330
1F
100
AcDbEntity
  8
0
100
AcDbLine
 10
136.2713353629297
 20
33.98467617820291
 30
0.0
 11
136.2713353629297
 21
34.09436649166571
 31
0.0
  0
LINE
  5
5A9
330
1F
100
AcDbEntity
  8
0
100
AcDbLine
 10
136.2713353629297
 20
34.30432951830769
 30
0.0
 11
136.2713353629297
 21
34.48552722884961
 31
0.0
  0
LINE
  5
5AA
330
1F
100
AcDbEntity
  8
0
100
AcDbLine
 10
136.2713353629297
 20
33.98467617820291
 30
0.0
 11
136.2932727121199
 21
33.99451042281322
 31
0.0
  0
LINE
  5
5AB
330
1F
100
AcDbEntity
  8
0
100
AcDbLine
 10
136.2540641795704
 20
33.47608266786365
 30
0.0
 11
136.2932727121199
 21
33.49365937214657
 31
0.0
  0
LINE
  5
5AC
330
1F
100
AcDbEntity
  8
0
100
AcDbLine
 10
136.2932727121199
 20
38.34806186313278
 30
0.0
 11
136.2713353629297
 21
38.33822761852241
 31
0.0
  0
LINE
  5
5AD
330
1F
100
AcDbEntity
  8
0
100
AcDbLine
 10
135.6802388639482
 20
38.72132980699144
 30
0.0
 11
135.715372383417
 21
38.80495248050158
 31
0.0
  0
LINE
  5
5AE
330
1F
100
AcDbEntity
  8
0
100
AcDbLine
 10
135.6802388639482
 20
35.46969122095641
 30
0.0
 11
135.6802388639482
 21
38.72132980699144
 31
0.0
  0
LINE
  5
5AF
330
1F
100
AcDbEntity
  8
0
100
AcDbLine
 10
135.2278537940923
 20
34.71783540799754
 30
0.0
 11
135.6602958192297
 21
35.39402027037721
 31
0.0
  0
ARC
  5
5B0
330
1F
100
AcDbEntity
  8
0
100
AcDbCircle
 10
135.5336645916528
 20
35.46785733847594
 30
0.0
 40
0.1465857442675897
100
AcDbArc
 50
329.7540791467937
 51
0.716825962400077
  0
ARC
  5
5B1
330
1F
100
AcDbEntity
  8
0
100
AcDbCircle
 10
136.2920062616919
 20
38.35418522996775
 30
0.0
 40
0.0062529607500511
100
AcDbArc
 50
281.6853038369972
 51
346.3287505541952
  0
LWPOLYLINE
  5
5B2
330
1F
100
AcDbEntity
  8
0
100
AcDbPolyline
 90
        9
 70
   128
 43
0.0
 10
136.2932727121199
 20
37.84721081246607
 10
136.2961769879273
 20
37.84886980976069
 10
136.297774954639
 20
37.85064357574777
 10
136.2980052033125
 20
37.85246394559897
 10
136.2968588855779
 20
37.85426096352092
 10
136.294380053826
 20
37.85596557111718
 10
136.2906639681241
 20
37.85751226126933
 10
136.2858534356094
 20
37.85884159556753
 10
136.2801333223238
 20
37.85990248840688
  0
LINE
  5
5B3
330
1F
100
AcDbEntity
  8
0
100
AcDbLine
 10
136.2801333223238
 20
37.85990248840688
 30
0.0
 11
136.2713353629297
 21
37.86121716085773
 31
0.0
  0
ARC
  5
5B4
330
1F
100
AcDbEntity
  8
0
100
AcDbCircle
 10
136.2920062616919
 20
34.50148484029495
 30
0.0
 40
0.0062529607500511
100
AcDbArc
 50
281.6853038369972
 51
346.3287505541952
  0
LINE
  5
5B5
330
1F
100
AcDbEntity
  8
0
100
AcDbLine
 10
132.3676258964663
 20
39.21633106288942
 30
0.0
 11
132.3940612472273
 21
39.27925088248537
 31
0.0
  0
LINE
  5
5B6
330
1F
100
AcDbEntity
  8
0
100
AcDbLine
 10
132.3676258964663
 20
35.9646924768544
 30
0.0
 11
132.3676258964663
 21
39.21633106288942
 31
0.0
  0
LINE
  5
5B7
330
1F
100
AcDbEntity
  8
0
100
AcDbLine
 10
131.9152408266104
 20
35.21283666391548
 30
0.0
 11
132.3476828517479
 21
35.8890215262752
 31
0.0
  0
LWPOLYLINE
  5
5B8
330
1F
100
AcDbEntity
  8
0
100
AcDbPolyline
 90
        9
 70
   128
 43
0.0
 10
136.2932727121199
 20
33.99451042281322
 10
136.2961769879273
 20
33.99616942008788
 10
136.297774954639
 20
33.99794318607491
 10
136.2980052033125
 20
33.99976355592611
 10
136.2968588855779
 20
34.001560573848
 10
136.294380053826
 20
34.00326518144431
 10
136.2906639681241
 20
34.00481187159653
 10
136.2858534356094
 20
34.00614120589472
 10
136.2801333223238
 20
34.00720209875397
  0
LINE
  5
5B9
330
1F
100
AcDbEntity
  8
0
100
AcDbLine
 10
136.2801333223238
 20
34.00720209875397
 30
0.0
 11
136.2713353629297
 21
34.00851677118493
 31
0.0
  0
ARC
  5
5BA
330
1F
100
AcDbEntity
  8
0
100
AcDbCircle
 10
136.2920062616919
 20
33.49978273898159
 30
0.0
 40
0.0062529607500511
100
AcDbArc
 50
281.6853038369972
 51
346.3287505541952
  0
ARC
  5
5BB
330
1F
100
AcDbEntity
  8
0
100
AcDbCircle
 10
132.2210516241907
 20
35.96285859437386
 30
0.0
 40
0.1465857442675816
100
AcDbArc
 50
329.7540791466996
 51
0.716825962400077
  0
ARC
  5
5BC
330
1F
100
AcDbEntity
  8
0
100
AcDbCircle
 10
135.6537707689413
 20
38.85160431351904
 30
0.0
 40
0.1308277370078066
100
AcDbArc
 50
261.3071765776958
 51
282.1162023021993
  0
ARC
  5
5BD
330
1F
100
AcDbEntity
  8
0
100
AcDbCircle
 10
135.6537152842
 20
35.61241113055468
 30
0.0
 40
0.1355472105224351
100
AcDbArc
 50
261.6357702692052
 51
281.2843214120971
  0
LINE
  5
5BE
330
1F
100
AcDbEntity
  8
0
100
AcDbLine
 10
132.4121397855439
 20
39.29269354207418
 30
0.0
 11
132.4518635072662
 21
39.2867576563125
 31
0.0
  0
LWPOLYLINE
  5
5BF
330
1F
100
AcDbEntity
  8
0
100
AcDbPolyline
 90
        9
 70
   128
 43
0.0
 10
132.3975404635438
 20
39.30679540422835
 10
132.3943134904267
 20
39.30495207390988
 10
132.3925379718449
 20
39.30298122281762
 10
132.3922821399942
 20
39.30095858964956
 10
132.3935558263573
 20
39.2989619030808
 10
132.3963100838815
 20
39.29706789463381
 10
132.4004390679682
 20
39.29534935002022
 10
132.4057841041154
 20
39.2938723119089
 10
132.4121397855439
 20
39.29269354207418
  0
LINE
  5
5C0
330
1F
100
AcDbEntity
  8
0
100
AcDbLine
 10
132.3975404635438
 20
39.30679540422835
 30
0.0
 11
132.9579400201311
 21
39.55801565275408
 31
0.0
  0
ARC
  5
5C1
330
1F
100
AcDbEntity
  8
0
100
AcDbCircle
 10
132.9930360702268
 20
39.44666335403002
 30
0.0
 40
0.1167521612761203
100
AcDbArc
 50
80.44043723449906
 51
107.4938243672004
  0
LINE
  5
5C2
330
1F
100
AcDbEntity
  8
0
100
AcDbLine
 10
136.276679085648
 20
39.07401927513723
 30
0.0
 11
133.0124254315679
 21
39.56179423533143
 31
0.0
  0
LWPOLYLINE
  5
5C3
330
1F
100
AcDbEntity
  8
0
100
AcDbPolyline
 90
        9
 70
   128
 43
0.0
 10
136.291278407648
 20
39.05991741298306
 10
136.2945053807652
 20
39.06176074330153
 10
136.296280899347
 20
39.06373159439379
 10
136.2965367311976
 20
39.0657542275618
 10
136.2952630448347
 20
39.06775091413062
 10
136.2925087873105
 20
39.0696449225776
 10
136.2883798032238
 20
39.07136346721109
 10
136.2830347670764
 20
39.07284050530245
 10
136.276679085648
 20
39.07401927513723
  0
LINE
  5
5C4
330
1F
100
AcDbEntity
  8
0
100
AcDbLine
 10
135.7308788510608
 20
38.80869716445733
 30
0.0
 11
136.291278407648
 21
39.05991741298306
 31
0.0
  0
ARC
  5
5C5
330
1F
100
AcDbEntity
  8
0
100
AcDbCircle
 10
135.6957828009651
 20
38.92004946318138
 30
0.0
 40
0.1167521612760746
100
AcDbArc
 50
260.4404372344991
 51
287.4938243672005
  0
LINE
  5
5C6
330
1F
100
AcDbEntity
  8
0
100
AcDbLine
 10
135.676393439624
 20
38.80491858187998
 30
0.0
 11
135.6366697179017
 21
38.8108544676416
 31
0.0
  0
ARC
  5
5C7
330
1F
100
AcDbEntity
  8
0
100
AcDbCircle
 10
135.6712832103724
 20
38.76838875209131
 30
0.0
 40
0.0547853160794535
100
AcDbArc
 50
129.1832235483957
 51
185.237991378198
  0
ARC
  5
5C8
330
1F
100
AcDbEntity
  8
0
100
AcDbCircle
 10
132.4864769997169
 20
39.2442919407622
 30
0.0
 40
0.054785316079595
100
AcDbArc
 50
129.1832235484999
 51
185.2379913780999
  0
LINE
  5
5C9
330
1F
100
AcDbEntity
  8
0
100
AcDbLine
 10
135.6167266731832
 20
38.72486023748559
 30
0.0
 11
135.6167266731832
 21
38.76338724137071
 31
0.0
  0
LINE
  5
5CA
330
1F
100
AcDbEntity
  8
0
100
AcDbLine
 10
132.4319204625478
 20
39.20076342615647
 30
0.0
 11
132.4146492791885
 21
39.20334424606063
 31
0.0
  0
LINE
  5
5CB
330
1F
100
AcDbEntity
  8
0
100
AcDbLine
 10
132.4319204625478
 20
39.2392904300616
 30
0.0
 11
132.4319204625478
 21
39.20076342615647
 31
0.0
  0
LINE
  5
5CC
330
1F
100
AcDbEntity
  8
0
100
AcDbLine
 10
135.6339978565425
 20
38.72227941758143
 30
0.0
 11
135.6167266731832
 21
38.72486023748559
 31
0.0
  0
LINE
  5
5CD
330
1F
100
AcDbEntity
  8
0
100
AcDbLine
 10
135.6167266731832
 20
35.48088650938576
 30
0.0
 11
135.6339978565425
 21
35.4783056894816
 31
0.0
  0
LINE
  5
5CE
330
1F
100
AcDbEntity
  8
0
100
AcDbLine
 10
135.6167266731832
 20
35.4509780753728
 30
0.0
 11
135.6167266731832
 21
35.48088650938576
 31
0.0
  0
LINE
  5
5CF
330
1F
100
AcDbEntity
  8
0
100
AcDbLine
 10
132.4319204625478
 20
35.9567896980567
 30
0.0
 11
132.4319204625478
 21
35.92688126404369
 31
0.0
  0
LINE
  5
5D0
330
1F
100
AcDbEntity
  8
0
100
AcDbLine
 10
132.4146492791885
 20
35.95937051796086
 30
0.0
 11
132.4319204625478
 21
35.9567896980567
 31
0.0
  0
LINE
  5
5D1
330
1F
100
AcDbEntity
  8
0
100
AcDbLine
 10
132.0110646696843
 20
35.25769134241369
 30
0.0
 11
131.9937934863251
 21
35.26027216229795
 31
0.0
  0
LINE
  5
5D2
330
1F
100
AcDbEntity
  8
0
100
AcDbLine
 10
132.384769202131
 20
35.87161852834481
 30
0.0
 11
132.4020403854903
 21
35.8690377084406
 31
0.0
  0
LINE
  5
5D3
330
1F
100
AcDbEntity
  8
0
100
AcDbLine
 10
132.4020403854903
 20
35.8690377084406
 30
0.0
 11
132.4269347013682
 21
35.90796352641382
 31
0.0
  0
LINE
  5
5D4
330
1F
100
AcDbEntity
  8
0
100
AcDbLine
 10
135.6117409120037
 20
35.432060337723
 30
0.0
 11
135.5868465961457
 21
35.39313451976973
 31
0.0
  0
LINE
  5
5D5
330
1F
100
AcDbEntity
  8
0
100
AcDbLine
 10
135.5868465961457
 20
35.39313451976973
 30
0.0
 11
135.604117779505
 21
35.39055369986556
 31
0.0
  0
LINE
  5
5D6
330
1F
100
AcDbEntity
  8
0
100
AcDbLine
 10
135.213142063679
 20
34.7792073338386
 30
0.0
 11
135.1958708803397
 21
34.78178815372286
 31
0.0
  0
LINE
  5
5D7
330
1F
100
AcDbEntity
  8
0
100
AcDbLine
 10
135.1958708803397
 20
34.78178815372286
 30
0.0
 11
135.1613285136213
 21
34.72777623047245
 31
0.0
  0
LINE
  5
5D8
330
1F
100
AcDbEntity
  8
0
100
AcDbLine
 10
135.1613285136213
 20
34.72777623047245
 30
0.0
 11
135.2355946020421
 21
34.7166787049224
 31
0.0
  0
LINE
  5
5D9
330
1F
100
AcDbEntity
  8
0
100
AcDbLine
 10
135.2355946020421
 20
34.7166787049224
 30
0.0
 11
135.2096878270232
 21
34.67616976246968
 31
0.0
  0
LINE
  5
5DA
330
1F
100
AcDbEntity
  8
0
100
AcDbLine
 10
131.902256214545
 20
35.21477694469343
 30
0.0
 11
131.8763494395061
 21
35.17426800224064
 31
0.0
  0
LINE
  5
5DB
330
1F
100
AcDbEntity
  8
0
100
AcDbLine
 10
131.902256214545
 20
35.21477694469343
 30
0.0
 11
131.9765223029658
 21
35.20367941914333
 31
0.0
  0
LINE
  5
5DC
330
1F
100
AcDbEntity
  8
0
100
AcDbLine
 10
131.9765223029658
 20
35.20367941914333
 30
0.0
 11
132.0110646696843
 21
35.25769134241369
 31
0.0
  0
ARC
  5
5DD
330
1F
100
AcDbEntity
  8
0
100
AcDbCircle
 10
135.5935596509326
 20
35.32944641930482
 30
0.0
 40
0.0620126907694825
100
AcDbArc
 50
37.18174354299377
 51
80.19720632020101
  0
ARC
  5
5DE
330
1F
100
AcDbEntity
  8
0
100
AcDbCircle
 10
135.2025739975674
 20
34.71808371567642
 30
0.0
 40
0.0620304821785747
100
AcDbArc
 50
37.18821925480141
 51
80.19073060840005
  0
ARC
  5
5DF
330
1F
100
AcDbEntity
  8
0
100
AcDbCircle
 10
131.9380835241789
 20
35.13777946929247
 30
0.0
 40
0.0717112979105517
100
AcDbArc
 50
149.4143752528007
 51
195.7062847520013
  0
ARC
  5
5E0
330
1F
100
AcDbEntity
  8
0
100
AcDbCircle
 10
135.2714219116959
 20
34.63968122950149
 30
0.0
 40
0.0717112979105965
100
AcDbArc
 50
149.4143752528007
 51
195.7062847520013
  0
LINE
  5
5E1
330
1F
100
AcDbEntity
  8
0
100
AcDbLine
 10
135.2023881660231
 20
34.62026854790065
 30
0.0
 11
135.6852357004977
 21
33.2210838367605
 31
0.0
  0
LINE
  5
5E2
330
1F
100
AcDbEntity
  8
0
100
AcDbLine
 10
131.8690497785061
 20
35.11836678769163
 30
0.0
 11
132.3518973130006
 21
33.71918207653152
 31
0.0
  0
LWPOLYLINE
  5
5E3
330
1F
100
AcDbEntity
  8
0
100
AcDbPolyline
 90
       37
 70
   128
 43
0.0
 10
134.5616347606317
 20
33.53406130718151
 10
134.6464206307795
 20
33.52619252076499
 10
134.7260627222892
 20
33.52860032947138
 10
134.7990108924289
 20
33.54123786806281
 10
134.863845288033
 20
33.56385916117961
 10
134.9193039813769
 20
33.59602391112674
 10
134.9643075320515
 20
33.63710606759929
 10
134.9979799971395
 20
33.68630601318229
 10
135.019665980405
 20
33.74266612686267
 10
135.028943388862
 20
33.80508942317795
 10
135.025631648292
 20
33.87236090363865
 10
135.0097952179658
 20
33.94317120541024
 10
134.9817423360073
 20
34.01614208650978
 10
134.9420190198069
 20
34.08985325175399
 10
134.891398438573
 20
34.16286999712993
 10
134.8308658643302
 20
34.23377113478352
 10
134.7615994947673
 20
34.30117665468146
 10
134.6849475209694
 20
34.36377458505984
 10
134.6024018864594
 20
34.42034652841647
 10
134.5155692480709
 20
34.46979137624385
 10
134.4261397043765
 20
34.51114674078235
 10
134.3358538996953
 20
34.54360768690367
 10
134.2464691445294
 20
34.56654239924745
 10
134.1597252114478
 20
34.57950447970076
 10
134.0773104724537
 20
34.58224163612397
 10
134.0008290367166
 20
34.57470059288676
 10
133.9317695283394
 20
34.55702812780675
 10
133.8714761121259
 20
34.52956821530847
 10
133.8211223308389
 20
34.49285533134367
 10
133.7816882635534
 20
34.44760405048095
 10
133.7539414495363
 20
34.3946951373872
 10
133.7384219489515
 20
34.33515840390578
 10
133.7354318312198
 20
34.27015266480113
 10
133.74502929561
 20
34.20094318287295
 10
133.7670275383744
 20
34.12887704192872
 10
133.8009983887448
 20
34.0553569274631
 10
133.8131006591271
 20
34.03379693841117
  0
ARC
  5
5E4
330
1F
100
AcDbEntity
  8
0
100
AcDbCircle
 10
135.5800831051194
 20
35.45051960475769
 30
0.0
 40
0.0366464360668962
100
AcDbArc
 50
329.7540791466996
 51
0.716825962400077
  0
ARC
  5
5E5
330
1F
100
AcDbEntity
  8
0
100
AcDbCircle
 10
132.395276894464
 20
35.92642279342852
 30
0.0
 40
0.0366464360668948
100
AcDbArc
 50
329.7540791467937
 51
0.7168259624977859
  0
LWPOLYLINE
  5
5E6
330
1F
100
AcDbEntity
  8
0
100
AcDbPolyline
 90
        9
 70
   128
 43
0.0
 10
135.7025068838569
 20
33.20956279449057
 10
135.699903794173
 20
33.20872546517688
 10
135.6973452440685
 20
33.2085616704976
 10
135.6948750110596
 20
33.20907421306879
 10
135.6925353614977
 20
33.21025432309614
 10
135.6903663274555
 20
33.21208180860572
 10
135.6884050217028
 20
33.21452540081806
 10
135.6866850027198
 20
33.21754328915984
 10
135.6852357004977
 20
33.2210838367605
  0
ARC
  5
5E7
330
1F
100
AcDbEntity
  8
0
100
AcDbCircle
 10
132.3679771580992
 20
33.72246258098869
 30
0.0
 40
0.0164110672486769
100
AcDbArc
 50
191.5308694835053
 51
253.3456709380962
  0
LINE
  5
5E8
330
1F
100
AcDbEntity
  8
0
100
AcDbLine
 10
135.7025068838569
 20
33.20956279449057
 30
0.0
 11
136.2513923182113
 21
33.45562140322795
 31
0.0
  0
LWPOLYLINE
  5
5E9
330
1F
100
AcDbEntity
  8
0
100
AcDbPolyline
 90
        7
 70
   128
 43
0.0
 10
132.4146492791885
 20
35.95937051796086
 10
132.4082935977601
 20
35.96054928779564
 10
132.4029485616128
 20
35.96202632588694
 10
132.398819577526
 20
35.96374487052049
 10
132.3960653200018
 20
35.96563887894753
 10
132.394791633639
 20
35.96763556553629
 10
132.3947062344701
 20
35.96831074032664
  0
LWPOLYLINE
  5
5EA
330
1F
100
AcDbEntity
  8
0
100
AcDbPolyline
 90
        9
 70
   128
 43
0.0
 10
132.4000499571884
 20
39.21744610821486
 10
132.3968229840714
 20
39.2156027778964
 10
132.3950474654895
 20
39.21363192680406
 10
132.394791633639
 20
39.21160929363612
 10
132.3960653200018
 20
39.20961260706724
 10
132.398819577526
 20
39.20771859862032
 10
132.4029485616128
 20
39.20600005398677
 10
132.4082935977601
 20
39.2045230158954
 10
132.4146492791885
 20
39.20334424606063
  0
LINE
  5
5EB
330
1F
100
AcDbEntity
  8
0
100
AcDbLine
 10
132.4319204625478
 20
39.23173326490689
 30
0.0
 11
132.4000499571884
 21
39.21744610821486
 31
0.0
  0
LWPOLYLINE
  5
5EC
330
1F
100
AcDbEntity
  8
0
100
AcDbPolyline
 90
        9
 70
   128
 43
0.0
 10
131.9937934863251
 20
35.26027216229795
 10
131.9872462048865
 20
35.26072393408425
 10
131.9813337318206
 20
35.26004791618175
 10
131.9762832801304
 20
35.25827008755721
 10
131.9722889358662
 20
35.25545876917289
 10
131.9695041994267
 20
35.2517219984253
 10
131.9680360866655
 20
35.24720337730179
 10
131.9679410163566
 20
35.24207655390137
 10
131.9692226419657
 20
35.23653854917245
  0
ARC
  5
5ED
330
1F
100
AcDbEntity
  8
0
100
AcDbCircle
 10
132.3787896506542
 20
35.84929468442368
 30
0.0
 40
0.0231107992777695
100
AcDbArc
 50
75.0050395974018
 51
139.7962982278975
  0
LINE
  5
5EE
330
1F
100
AcDbEntity
  8
0
100
AcDbLine
 10
131.9692226419657
 20
35.23653854917245
 30
0.0
 11
131.9791462065674
 21
35.20778226715203
 31
0.0
  0
ARC
  5
5EF
330
1F
100
AcDbEntity
  8
0
100
AcDbCircle
 10
136.2506887346335
 20
33.45902327369629
 30
0.0
 40
0.0034738670833429
100
AcDbArc
 50
281.6853038368974
 51
346.3287505543998
  0
ARC
  5
5F0
330
1F
100
AcDbEntity
  8
0
100
AcDbCircle
 10
87.30263619347219
 20
41.33358141874857
 30
0.0
 40
0.2714157739670799
100
AcDbArc
 50
153.1623369403023
 51
178.6505867466972
  0
ARC
  5
5F1
330
1F
100
AcDbEntity
  8
0
100
AcDbCircle
 10
134.062638008659
 20
34.34626963439593
 30
0.0
 40
0.271415773967173
100
AcDbArc
 50
153.1623369403023
 51
178.6505867466972
  0
LWPOLYLINE
  5
5F2
330
1F
100
AcDbEntity
  8
0
100
AcDbPolyline
 90
       17
 70
   128
 43
0.0
 10
109.2194500334833
 20
38.25804341917683
 10
109.193012450577
 20
38.25612858013995
 10
109.1705997500213
 20
38.2427744838036
 10
109.155624062283
 20
38.22001417027474
 10
109.1503653000662
 20
38.1913126909634
 10
109.155624062283
 20
38.16103958591327
 10
109.1705997500213
 20
38.13380366094975
 10
109.193012450577
 20
38.11375133873661
 10
109.2194500334833
 20
38.10393540359632
 10
109.2458876163895
 20
38.10585024261332
 10
109.2683003169652
 20
38.11920433894966
 10
109.2832760047035
 20
38.14196465247846
 10
109.2885347669003
 20
38.1706661317898
 10
109.2832760047035
 20
38.20093923683987
 10
109.2683003169652
 20
38.2281751618035
 10
109.2458876163895
 20
38.24822748401665
 10
109.2194500334833
 20
38.25804341917683
  0
LWPOLYLINE
  5
5F3
330
1F
100
AcDbEntity
  8
0
100
AcDbPolyline
 90
       17
 70
   128
 43
0.0
 10
108.9776534665136
 20
38.29417489771567
 10
108.9512158836074
 20
38.29226005867872
 10
108.9288031830517
 20
38.27890596234238
 10
108.9138274953133
 20
38.25614564881352
 10
108.9085687330966
 20
38.22744416950224
 10
108.9138274953133
 20
38.19717106445211
 10
108.9288031830517
 20
38.16993513948853
 10
108.9512158836074
 20
38.1498828172754
 10
108.9776534665136
 20
38.14006688211522
 10
109.0040910494398
 20
38.1419817211521
 10
109.0265037499956
 20
38.15533581748844
 10
109.0414794377339
 20
38.1780961310173
 10
109.0467381999307
 20
38.20679761032863
 10
109.0414794377339
 20
38.23707071537871
 10
109.0265037499956
 20
38.26430664034229
 10
109.0040910494199
 20
38.28435896255541
 10
108.9776534665136
 20
38.29417489771567
  0
LWPOLYLINE
  5
5F4
330
1F
100
AcDbEntity
  8
0
100
AcDbPolyline
 90
       17
 70
   128
 43
0.0
 10
108.735856899544
 20
38.33030637623455
 10
108.7094193166377
 20
38.32839153721756
 10
108.687006616082
 20
38.31503744086126
 10
108.6720309283437
 20
38.29227712733234
 10
108.6667721661269
 20
38.26357564802106
 10
108.6720309283437
 20
38.23330254297099
 10
108.687006616082
 20
38.20606661800741
 10
108.7094193166377
 20
38.18601429581423
 10
108.735856899544
 20
38.17619836065399
 10
108.7622944824702
 20
38.17811319969093
 10
108.7847071830259
 20
38.19146729602728
 10
108.7996828707642
 20
38.21422760955613
 10
108.804941632981
 20
38.24292908886742
 10
108.7996828707642
 20
38.27320219391753
 10
108.7847071830259
 20
38.30043811888112
 10
108.7622944824702
 20
38.3204904410743
 10
108.735856899544
 20
38.33030637623455
  0
LWPOLYLINE
  5
5F5
330
1F
100
AcDbEntity
  8
0
100
AcDbPolyline
 90
       17
 70
   128
 43
0.0
 10
109.1503653000662
 20
38.57658272993467
 10
109.1173183214334
 20
38.57418918114348
 10
109.0893024457288
 20
38.5574965607081
 10
109.0705828360459
 20
38.52904616879704
 10
109.0640093832899
 20
38.49316931966291
 10
109.0705828360459
 20
38.45532793835025
 10
109.0893024457288
 20
38.42128303213582
 10
109.1173183214334
 20
38.39621762938435
 10
109.1503653000662
 20
38.38394771044903
 10
109.183412278699
 20
38.38634125924023
 10
109.2114281544236
 20
38.40303387965565
 10
109.2301477640865
 20
38.43148427156672
 10
109.2367212168425
 20
38.4673611207009
 10
109.2301477640865
 20
38.50520250201351
 10
109.2114281544236
 20
38.53924740822794
 10
109.183412278699
 20
38.5643128109794
 10
109.1503653000662
 20
38.57658272993467
  0
LWPOLYLINE
  5
5F6
330
1F
100
AcDbEntity
  8
0
100
AcDbPolyline
 90
       19
 70
   128
 43
0.0
 10
108.7876704496217
 20
38.65004344968549
 10
108.7522278939701
 20
38.64836921612408
 10
108.7210602336179
 20
38.63295614403046
 10
108.6979267483889
 20
38.60566327738644
 10
108.6856176779862
 20
38.5697825386805
 10
108.6856176779862
 20
38.52964167459385
 10
108.6979267483889
 20
38.49008226569106
 10
108.7210602336179
 20
38.45587576056642
 10
108.7522278939701
 20
38.43114796853354
 10
108.7876704496217
 20
38.41888142629472
 10
108.8231130052534
 20
38.42055565985612
 10
108.8542806656057
 20
38.43596873194974
 10
108.8774141508546
 20
38.46326159859376
 10
108.8897232212374
 20
38.49914233727975
 10
108.8897232212374
 20
38.53928320138641
 10
108.8774141508546
 20
38.57884261028914
 10
108.8542806656057
 20
38.61304911541379
 10
108.8231130052534
 20
38.63777690742671
 10
108.7876704496217
 20
38.65004344968549
  0
LWPOLYLINE
  5
5F7
330
1F
100
AcDbEntity
  8
0
100
AcDbPolyline
 90
       17
 70
   128
 43
0.0
 10
108.4422467825166
 20
38.38573841561953
 10
108.4091998038838
 20
38.38334486682834
 10
108.3811839281791
 20
38.3666522464129
 10
108.3624643184962
 20
38.33820185450179
 10
108.3558908657403
 20
38.30232500536766
 10
108.3624643184962
 20
38.26448362405506
 10
108.3811839281791
 20
38.23043871784057
 10
108.4091998038838
 20
38.20537331508911
 10
108.4422467825166
 20
38.19310339615379
 10
108.4752937611494
 20
38.19549694492508
 10
108.503309636874
 20
38.21218956536041
 10
108.5220292465369
 20
38.24063995727147
 10
108.5286026992929
 20
38.27651680640565
 10
108.5220292465369
 20
38.31435818771831
 10
108.503309636874
 20
38.34840309393275
 10
108.4752937611494
 20
38.37346849668421
 10
108.4422467825166
 20
38.38573841561953
  0
ELLIPSE
  5
5F8
330
1F
100
AcDbEntity
  8
0
100
AcDbEllipse
 10
109.3151037158986
 20
38.0578265683406
 30
0.0
 11
-0.0318725407023281
 21
0.0731418452828791
 31
0.0
210
0.0
220
0.0
230
0.9999999999999998
 40
0.8354049611999998
 41
2.658503336338017
 42
4.228995076638121
  0
LWPOLYLINE
  5
5F9
330
1F
100
AcDbEntity
  8
0
100
AcDbPolyline
 90
        3
 70
   128
 43
0.0
 10
109.3149454729441
 20
37.98068631854869
 10
109.313025029792
 20
37.98025220985835
 10
109.3121721500686
 20
37.98030085044582
  0
ARC
  5
5FA
330
1F
100
AcDbEntity
  8
0
100
AcDbCircle
 10
108.2807222297224
 20
38.70854168084259
 30
0.0
 40
0.0033009631713258
100
AcDbArc
 50
102.6214877108009
 51
167.4231278002024
  0
ELLIPSE
  5
5FB
330
1F
100
AcDbEntity
  8
0
100
AcDbEllipse
 10
108.3492649614604
 20
38.70149921924753
 30
0.0
 11
-0.0334406381692364
 21
0.072438483295675
 31
0.0
210
0.0
220
0.0
230
1.0
 40
0.837357115
 41
5.782078630711307
 42
7.352570371011156
  0
ELLIPSE
  5
5FC
330
1F
100
AcDbEntity
  8
0
100
AcDbEllipse
 10
108.3492649614604
 20
38.20215112455344
 30
0.0
 11
-0.0323732282455191
 21
0.0729092627228583
 31
0.0
210
0.0
220
0.0
230
0.9999999999999998
 40
0.8398551709000001
 41
1.082027297706706
 42
2.652519038006538
  0
LWPOLYLINE
  5
5FD
330
1F
100
AcDbEntity
  8
0
100
AcDbPolyline
 90
        9
 70
   128
 43
0.0
 10
90.09447207618851
 20
44.91590222721638
 10
90.09299104647684
 20
44.91598790806074
 10
90.08933040680672
 20
44.91522211466775
 10
90.08564963983806
 20
44.91310886201967
 10
90.08207871371523
 20
44.90972276917211
 10
90.07874371811917
 20
44.9051833993647
 10
90.07576241196249
 20
44.89965103805878
 10
90.07324006544434
 20
44.89332103336017
 10
90.07126574274662
 20
44.88641689817916
  0
ARC
  5
5FE
330
1F
100
AcDbEntity
  8
0
100
AcDbCircle
 10
90.09480415773785
 20
44.92136761481232
 30
0.0
 40
0.0067893775311382
100
AcDbArc
 50
298.5542390854003
 51
343.5469658848977
  0
LWPOLYLINE
  5
5FF
330
1F
100
AcDbEntity
  8
0
100
AcDbPolyline
 90
        7
 70
   128
 43
0.0
 10
90.10131552534259
 20
44.91944466420124
 10
90.10003613106091
 20
44.91956164966278
 10
90.09891745428655
 20
44.91952119206553
 10
90.09800201032025
 20
44.91932482903806
 10
90.09732459058126
 20
44.91898002332772
 10
90.09691094042349
 20
44.91849987928963
 10
90.0968673424548
 20
44.91840406811642
  0
ARC
  5
600
330
1F
100
AcDbEntity
  8
0
100
AcDbCircle
 10
90.13560999191836
 20
44.99240476795971
 30
0.0
 40
0.0057970877682219
100
AcDbArc
 50
81.54435680280228
 51
113.9632422991014
  0
ARC
  5
601
330
1F
100
AcDbEntity
  8
0
100
AcDbCircle
 10
90.16801538603052
 20
45.00693144117724
 30
0.0
 40
0.0057973496933395
100
AcDbArc
 50
81.54478739850114
 51
113.9188638863007
  0
ARC
  5
602
330
1F
100
AcDbEntity
  8
0
100
AcDbCircle
 10
90.17336371914206
 20
45.00307533007338
 30
0.0
 40
0.0105919762096688
100
AcDbArc
 50
86.83630707769909
 51
115.1167403537995
  0
LINE
  5
603
330
1F
100
AcDbEntity
  8
0
100
AcDbLine
 10
90.17394827764318
 20
45.0136511634426
 30
0.0
 11
90.23626598413214
 21
45.00497272738209
 31
0.0
  0
SPLINE
  5
604
330
1F
100
AcDbEntity
  8
0
100
AcDbSpline
210
0.0
220
0.0
230
1.0
 70
     8
 71
     3
 72
    18
 73
    14
 74
     0
 42
0.00000001
 43
0.0000000001
 40
0.0
 40
0.0
 40
0.0
 40
0.0
 40
0.068201458876564
 40
0.1599163149578647
 40
0.2517233661281483
 40
0.3433228734598625
 40
0.4359190434926385
 40
0.528803269039353
 40
0.6214060339725701
 40
0.6811475053052505
 40
0.8013823458168277
 40
0.9217055403155832
 40
1.0
 40
1.0
 40
1.0
 40
1.0
 10
132.078358472734
 20
36.00158616426512
 30
0.0
 10
132.0641675717019
 20
36.05082947756733
 30
0.0
 10
132.0308932600321
 20
36.16629341821209
 30
0.0
 10
131.9854941232698
 20
36.35749335586536
 30
0.0
 10
131.9442365089771
 20
36.57623568577913
 30
0.0
 10
131.9134910857082
 20
36.80658399415899
 30
0.0
 10
131.8963520525503
 20
37.04908421884966
 30
0.0
 10
131.8936901273911
 20
37.3010703929599
 30
0.0
 10
131.9037916889173
 20
37.52812335813029
 30
0.0
 10
131.92701695668
 20
37.78236874846482
 30
0.0
 10
131.9659755017678
 20
38.06281924497131
 30
0.0
 10
132.0209610787783
 20
38.35760654416032
 30
0.0
 10
132.062129865454
 20
38.53815650168554
 30
0.0
 10
132.078358472734
 20
38.60932873171015
 30
0.0
  0
LWPOLYLINE
  5
605
330
1F
100
AcDbEntity
  8
0
100
AcDbPolyline
 90
        9
 70
   128
 43
0.0
 10
132.078358472734
 20
38.60932873170646
 10
132.0803327954118
 20
38.61623286688746
 10
132.0828551419499
 20
38.62256287160596
 10
132.0858364480867
 20
38.62809523289196
 10
132.0891714436827
 20
38.63263460271929
 10
132.0927423698056
 20
38.63602069554696
 10
132.0964231367942
 20
38.638133948215
 10
132.1000837764643
 20
38.63889974160793
 10
132.1017253184096
 20
38.63879025702465
  0
LINE
  5
606
330
1F
100
AcDbEntity
  8
0
100
AcDbLine
 10
132.10840825533
 20
38.64235649774844
 30
0.0
 11
132.1365590914217
 21
38.71211929193379
 31
0.0
  0
LWPOLYLINE
  5
607
330
1F
100
AcDbEntity
  8
0
100
AcDbPolyline
 90
        9
 70
   128
 43
0.0
 10
132.1042105158217
 20
38.63816002372601
 10
132.1042129761154
 20
38.63815989393669
 10
132.1048557805322
 20
38.63822529015181
 10
132.1055086325939
 20
38.6384857172389
 10
132.1061564887634
 20
38.63893517421605
 10
132.1067844206546
 20
38.63956330436105
 10
132.1073779589504
 20
38.6403556338098
 10
132.1079234268702
 20
38.64129390506372
 10
132.10840825533
 20
38.64235649774844
  0
ARC
  5
608
330
1F
100
AcDbEntity
  8
0
100
AcDbCircle
 10
132.1519360466415
 20
38.70728008205873
 30
0.0
 40
0.0161204436569343
100
AcDbArc
 50
121.3250482299988
 51
162.5309328988012
  0
LINE
  5
609
330
1F
100
AcDbEntity
  8
0
100
AcDbLine
 10
132.1435551471272
 20
38.72105067490396
 30
0.0
 11
132.1759605366525
 21
38.73557761360326
 31
0.0
  0
LINE
  5
60A
330
1F
100
AcDbEntity
  8
0
100
AcDbLine
 10
132.1810410076306
 20
38.73656299698986
 30
0.0
 11
132.3316235975637
 21
38.72612019397962
 31
0.0
  0
LINE
  5
60B
330
1F
100
AcDbEntity
  8
0
100
AcDbLine
 10
132.3316235975637
 20
38.72998918771203
 30
0.0
 11
132.3130853230263
 21
38.73294833912041
 31
0.0
  0
ARC
  5
60C
330
1F
100
AcDbEntity
  8
0
100
AcDbCircle
 10
132.09519254063
 20
36.00399009987068
 30
0.0
 40
0.0170048448541572
100
AcDbArc
 50
188.1269961645042
 51
252.0156932212955
  0
LINE
  5
60D
330
1F
100
AcDbEntity
  8
0
100
AcDbLine
 10
132.10840825533
 20
35.99550029625539
 30
0.0
 11
132.1080685977771
 21
35.9955480418389
 31
0.0
  0
LINE
  5
60E
330
1F
100
AcDbEntity
  8
0
100
AcDbLine
 10
132.1365590914217
 20
35.95097685122846
 30
0.0
 11
132.10840825533
 21
35.99550029625539
 31
0.0
  0
ARC
  5
60F
330
1F
100
AcDbEntity
  8
0
100
AcDbCircle
 10
132.1419023155041
 20
35.95379592594146
 30
0.0
 40
0.0060412933867128
100
AcDbArc
 50
207.8160425336025
 51
259.1356158780016
  0
LINE
  5
610
330
1F
100
AcDbEntity
  8
0
100
AcDbLine
 10
90.19786728946908
 20
44.90529886041978
 30
0.0
 11
132.011402191796
 21
38.65713389406665
 31
0.0
  0
LINE
  5
611
330
1F
100
AcDbEntity
  8
0
100
AcDbLine
 10
132.011402191796
 20
36.00944244319976
 30
0.0
 11
132.0076813619229
 21
36.00999844399871
 31
0.0
  0
LWPOLYLINE
  5
612
330
1F
100
AcDbEntity
  8
0
100
AcDbPolyline
 90
        9
 70
   128
 43
0.0
 10
90.09447207618851
 20
44.91590222721638
 10
90.09299104647684
 20
44.91598790806074
 10
90.08933040680672
 20
44.91522211466775
 10
90.08564963983806
 20
44.91310886201967
 10
90.08207871371523
 20
44.90972276917211
 10
90.07874371811917
 20
44.9051833993647
 10
90.07576241196249
 20
44.89965103805878
 10
90.07324006544434
 20
44.89332103336017
 10
90.07126574274662
 20
44.88641689817916
  0
ARC
  5
613
330
1F
100
AcDbEntity
  8
0
100
AcDbCircle
 10
90.09480415773785
 20
44.92136761481232
 30
0.0
 40
0.006789377531187
100
AcDbArc
 50
298.5542390855968
 51
343.5469658846055
  0
LWPOLYLINE
  5
614
330
1F
100
AcDbEntity
  8
0
100
AcDbPolyline
 90
        7
 70
   128
 43
0.0
 10
90.10131552534259
 20
44.91944466420124
 10
90.10003613106091
 20
44.91956164966278
 10
90.09891745428655
 20
44.91952119206553
 10
90.09800201032025
 20
44.91932482903806
 10
90.09732459058126
 20
44.91898002332772
 10
90.09691094042349
 20
44.91849987928963
 10
90.0968673424548
 20
44.91840406811642
  0
ARC
  5
615
330
1F
100
AcDbEntity
  8
0
100
AcDbCircle
 10
90.13560999191836
 20
44.99240476795971
 30
0.0
 40
0.0057970877684534
100
AcDbArc
 50
81.54435680329783
 51
113.9632422985018
  0
ARC
  5
616
330
1F
100
AcDbEntity
  8
0
100
AcDbCircle
 10
90.16801538603052
 20
45.00693144117724
 30
0.0
 40
0.005797349693406
100
AcDbArc
 50
81.54478739859824
 51
113.9188638862045
  0
ARC
  5
617
330
1F
100
AcDbEntity
  8
0
100
AcDbCircle
 10
90.17336371914206
 20
45.00307533007338
 30
0.0
 40
0.0105919762097479
100
AcDbArc
 50
86.83630707789644
 51
115.1167403536972
  0
LINE
  5
618
330
1F
100
AcDbEntity
  8
0
100
AcDbLine
 10
90.17394827764318
 20
45.0136511634426
 30
0.0
 11
90.23626598413214
 21
45.00497272738209
 31
0.0
  0
SPLINE
  5
619
330
1F
100
AcDbEntity
  8
0
100
AcDbSpline
210
0.0
220
0.0
230
1.0
 70
     8
 71
     3
 72
    18
 73
    14
 74
     0
 42
0.00000001
 43
0.0000000001
 40
0.0
 40
0.0
 40
0.0
 40
0.0
 40
0.068201458876564
 40
0.1599163149578647
 40
0.2517233661281483
 40
0.3433228734598625
 40
0.4359190434926385
 40
0.528803269039353
 40
0.6214060339725701
 40
0.6811475053052505
 40
0.8013823458168277
 40
0.9217055403155832
 40
1.0
 40
1.0
 40
1.0
 40
1.0
 10
132.078358472734
 20
36.00158616426507
 30
0.0
 10
132.0641675717019
 20
36.05082947756733
 30
0.0
 10
132.0308932600321
 20
36.16629341821209
 30
0.0
 10
131.9854941232698
 20
36.35749335586536
 30
0.0
 10
131.9442365089771
 20
36.57623568577913
 30
0.0
 10
131.9134910857082
 20
36.80658399415899
 30
0.0
 10
131.8963520525503
 20
37.04908421884966
 30
0.0
 10
131.8936901273911
 20
37.3010703929599
 30
0.0
 10
131.9037916889173
 20
37.52812335813029
 30
0.0
 10
131.92701695668
 20
37.78236874846482
 30
0.0
 10
131.9659755017678
 20
38.06281924497131
 30
0.0
 10
132.0209610787783
 20
38.35760654416032
 30
0.0
 10
132.062129865454
 20
38.53815650168554
 30
0.0
 10
132.078358472734
 20
38.60932873171015
 30
0.0
  0
LWPOLYLINE
  5
61A
330
1F
100
AcDbEntity
  8
0
100
AcDbPolyline
 90
        9
 70
   128
 43
0.0
 10
132.078358472734
 20
38.60932873170646
 10
132.0803327954118
 20
38.61623286688746
 10
132.0828551419499
 20
38.62256287160596
 10
132.0858364480867
 20
38.62809523289196
 10
132.0891714436827
 20
38.63263460271929
 10
132.0927423698056
 20
38.63602069554696
 10
132.0964231367942
 20
38.638133948215
 10
132.1000837764643
 20
38.63889974160793
 10
132.1017253184096
 20
38.63879025702465
  0
LINE
  5
61B
330
1F
100
AcDbEntity
  8
0
100
AcDbLine
 10
132.10840825533
 20
38.64235649774844
 30
0.0
 11
132.1365590914217
 21
38.71211929193379
 31
0.0
  0
LWPOLYLINE
  5
61C
330
1F
100
AcDbEntity
  8
0
100
AcDbPolyline
 90
        9
 70
   128
 43
0.0
 10
132.1042105193916
 20
38.63816002352661
 10
132.1042129761154
 20
38.63815989393669
 10
132.1048557805322
 20
38.63822529015181
 10
132.1055086325939
 20
38.6384857172389
 10
132.1061564887634
 20
38.63893517421605
 10
132.1067844206546
 20
38.63956330436105
 10
132.1073779589504
 20
38.6403556338098
 10
132.1079234268702
 20
38.64129390506372
 10
132.10840825533
 20
38.64235649774844
  0
ARC
  5
61D
330
1F
100
AcDbEntity
  8
0
100
AcDbCircle
 10
132.1519360466415
 20
38.70728008205873
 30
0.0
 40
0.0161204436569235
100
AcDbArc
 50
121.3250482299988
 51
162.5309328988012
  0
LINE
  5
61E
330
1F
100
AcDbEntity
  8
0
100
AcDbLine
 10
132.1435551471272
 20
38.72105067490396
 30
0.0
 11
132.1759605366525
 21
38.73557761360326
 31
0.0
  0
LINE
  5
61F
330
1F
100
AcDbEntity
  8
0
100
AcDbLine
 10
132.1810410076306
 20
38.73656299698986
 30
0.0
 11
132.3316235975637
 21
38.72612019397962
 31
0.0
  0
LINE
  5
620
330
1F
100
AcDbEntity
  8
0
100
AcDbLine
 10
132.3316235975637
 20
38.72998918771203
 30
0.0
 11
132.3130853230263
 21
38.73294833912041
 31
0.0
  0
ARC
  5
621
330
1F
100
AcDbEntity
  8
0
100
AcDbCircle
 10
132.09519254063
 20
36.00399009987068
 30
0.0
 40
0.0170048448541696
100
AcDbArc
 50
188.1269961646029
 51
252.0156932213983
  0
LINE
  5
622
330
1F
100
AcDbEntity
  8
0
100
AcDbLine
 10
132.10840825533
 20
35.99550029625539
 30
0.0
 11
132.1080685977771
 21
35.9955480418389
 31
0.0
  0
LINE
  5
623
330
1F
100
AcDbEntity
  8
0
100
AcDbLine
 10
132.1365590914217
 20
35.95097685122846
 30
0.0
 11
132.10840825533
 21
35.99550029625539
 31
0.0
  0
ARC
  5
624
330
1F
100
AcDbEntity
  8
0
100
AcDbCircle
 10
132.1419023155041
 20
35.95379592594146
 30
0.0
 40
0.0060412933866685
100
AcDbArc
 50
207.816042533293
 51
259.1356158781011
  0
LINE
  5
625
330
1F
100
AcDbEntity
  8
0
100
AcDbLine
 10
132.011402191796
 20
36.00944244319976
 30
0.0
 11
132.0076813619229
 21
36.00999844399871
 31
0.0
  0
LINE
  5
626
330
1F
100
AcDbEntity
  8
0
100
AcDbLine
 10
90.18463085496263
 20
45.6051023943662
 30
0.0
 11
132.3435894243948
 21
39.30532103010899
 31
0.0
  0
LINE
  5
627
330
1F
100
AcDbEntity
  8
0
100
AcDbLine
 10
91.09045407865499
 20
45.80470624498786
 30
0.0
 11
132.5585653138768
 21
39.60815767653873
 31
0.0
  0
LINE
  5
628
330
1F
100
AcDbEntity
  8
0
100
AcDbLine
 10
132.2502914039914
 20
36.03025842575755
 30
0.0
 11
132.3316235975637
 21
36.01810501743995
 31
0.0
  0
ARC
  5
629
330
1F
100
AcDbEntity
  8
0
100
AcDbCircle
 10
93.57542646594751
 20
41.35904448052679
 30
0.0
 40
0.0309831160720537
100
AcDbArc
 50
263.1999475658036
 51
4.814106825403954
  0
LINE
  5
62A
330
1F
100
AcDbEntity
  8
0
100
AcDbLine
 10
93.60630028061279
 20
41.44684040409202
 30
0.0
 11
93.60630028061279
 21
41.36164468239809
 31
0.0
  0
ARC
  5
62B
330
1F
100
AcDbEntity
  8
0
100
AcDbCircle
 10
93.55974537137845
 20
41.44659427465234
 30
0.0
 40
0.0465555598609842
100
AcDbArc
 50
0.3029121314958905
 51
51.02317591850004
  0
LINE
  5
62C
330
1F
100
AcDbEntity
  8
0
100
AcDbLine
 10
93.46813081377872
 20
41.57870484361467
 30
0.0
 11
93.58902909725356
 21
41.48278658809295
 31
0.0
  0
ARC
  5
62D
330
1F
100
AcDbEntity
  8
0
100
AcDbCircle
 10
93.44681941952563
 20
41.55424804521191
 30
0.0
 40
0.0324393358928902
100
AcDbArc
 50
48.93145206009614
 51
114.0709865329015
  0
LINE
  5
62E
330
1F
100
AcDbEntity
  8
0
100
AcDbLine
 10
93.31269016358538
 20
41.52407970642019
 30
0.0
 11
93.4335884470602
 21
41.58386648340306
 31
0.0
  0
ARC
  5
62F
330
1F
100
AcDbEntity
  8
0
100
AcDbCircle
 10
93.32874228763245
 20
41.49483678050454
 30
0.0
 40
0.0333589478732088
100
AcDbArc
 50
118.7634101392039
 51
182.6487553360036
  0
LINE
  5
630
330
1F
100
AcDbEntity
  8
0
100
AcDbLine
 10
93.29541898022617
 20
41.40809944051368
 30
0.0
 11
93.29541898022617
 21
41.49329516220761
 31
0.0
  0
ARC
  5
631
330
1F
100
AcDbEntity
  8
0
100
AcDbCircle
 10
93.33926543909576
 20
41.40726682410043
 30
0.0
 40
0.0438543635852021
100
AcDbArc
 50
178.9121202895052
 51
257.7511024666019
  0
LINE
  5
632
330
1F
100
AcDbEntity
  8
0
100
AcDbLine
 10
93.57175791391425
 20
41.32827931828138
 30
0.0
 11
93.32996134694464
 21
41.36441079682021
 31
0.0
  0
LINE
  5
633
330
1F
100
AcDbEntity
  8
0
100
AcDbLine
 10
112.0984322972513
 20
37.16076888179703
 30
0.0
 11
112.0864664704203
 21
37.15540474836956
 31
0.0
  0
LWPOLYLINE
  5
635
330
1F
100
AcDbEntity
  8
0
100
AcDbPolyline
 90
       13
 70
   128
 43
0.0
 10
136.1703039775801
 20
37.86699268176493
 10
136.1630643759566
 20
37.86883148698661
 10
136.1419657053467
 20
37.88407392840389
 10
136.1255731385092
 20
37.91234274892412
 10
136.1153432269429
 20
37.95112613977455
 10
136.1121849431961
 20
37.99697802648882
 10
136.1163789146256
 20
38.04582426773493
 10
136.1275524884696
 20
38.09332466058544
 10
136.1447128436626
 20
38.13525858671159
 10
136.1663352073391
 20
38.16790003272389
 10
136.1904983376078
 20
38.18834866294213
 10
136.2150552342803
 20
38.19478752679014
 10
136.2198465825631
 20
38.19431666414539
  0
LWPOLYLINE
  5
636
330
1F
100
AcDbEntity
  8
0
100
AcDbPolyline
 90
       12
 70
   128
 43
0.0
 10
136.1688525142697
 20
34.01454394226511
 10
136.1535481120462
 20
34.02095998247513
 10
136.1342598918563
 20
34.04202874741253
 10
136.1203624707796
 20
34.07517712940779
 10
136.1130906956802
 20
34.11745974924065
 10
136.1130906956802
 20
34.16511961058558
 10
136.1203624707796
 20
34.21392192562047
 10
136.1342598918563
 20
34.25953039447108
 10
136.1535481120462
 20
34.29789250455594
 10
136.176513288348
 20
34.32559961400512
 10
136.2011148640617
 20
34.3401898245865
 10
136.2185667098278
 20
34.34180117575352
  0
LINE
  5
637
330
1F
100
AcDbEntity
  8
0
100
AcDbLine
 10
112.1555512038374
 20
37.36554737443408
 30
0.0
 11
112.1418363079872
 21
37.36759678096013
 31
0.0
  0
LINE
  5
638
330
1F
100
AcDbEntity
  8
0
100
AcDbLine
 10
136.2980820625704
 20
34.64681455134904
 30
0.0
 11
136.3029962314303
 21
34.64901751297754
 31
0.0
  0
LINE
  5
639
330
1F
100
AcDbEntity
  8
0
100
AcDbLine
 10
112.1168131233053
 20
37.33097813625773
 30
0.0
 11
112.1555512038374
 21
37.32518953412921
 31
0.0
  0
LINE
  5
63A
330
1F
100
AcDbEntity
  8
0
100
AcDbLine
 10
86.88357334356835
 20
46.09599286789523
 30
0.0
 11
90.06837955422373
 21
45.6200896792044
 31
0.0
  0
LINE
  5
63B
330
1F
100
AcDbEntity
  8
0
100
AcDbLine
 10
90.04345074832571
 20
42.24129554928572
 30
0.0
 11
86.85864453767033
 21
42.71719873797656
 31
0.0
  0
LINE
  5
63C
330
1F
100
AcDbEntity
  8
0
100
AcDbLine
 10
90.03582761580702
 20
42.19978891142829
 30
0.0
 11
89.64485189998121
 21
41.58844254540139
 31
0.0
  0
LINE
  5
63D
330
1F
100
AcDbEntity
  8
0
100
AcDbLine
 10
89.63409800232524
 20
41.42950375948339
 30
0.0
 11
86.3007596148082
 21
41.92760199925442
 31
0.0
  0
LINE
  5
63F
330
1F
100
AcDbEntity
  8
0
100
AcDbLine
 10
135.6339978565425
 20
35.4783056894816
 30
0.0
 11
135.6339978565425
 21
38.72227941758143
 31
0.0
  0
LINE
  5
640
330
1F
100
AcDbEntity
  8
0
100
AcDbLine
 10
132.4518635072662
 20
39.2867576563125
 30
0.0
 11
135.6366697179017
 21
38.8108544676416
 31
0.0
  0
LINE
  5
641
330
1F
100
AcDbEntity
  8
0
100
AcDbLine
 10
135.6117409120037
 20
35.432060337723
 30
0.0
 11
132.4269347013682
 21
35.90796352641382
 31
0.0
  0
LINE
  5
642
330
1F
100
AcDbEntity
  8
0
100
AcDbLine
 10
135.2023881660231
 20
34.62026854790065
 30
0.0
 11
131.8690497785061
 21
35.11836678769163
 31
0.0
  0
LWPOLYLINE
  5
643
330
1F
100
AcDbEntity
  8
0
100
AcDbPolyline
 90
        3
 70
   128
 43
0.0
 10
87.09456112950331
 20
41.50633101485516
 10
87.08909586028926
 20
41.4998691839786
 10
87.06045481775673
 20
41.4561159184384
  0
ARC
  5
644
330
1F
100
AcDbEntity
  8
0
100
AcDbCircle
 10
88.02781148072442
 20
40.86552873612101
 30
0.0
 40
0.2609944125468813
100
AcDbArc
 50
295.6853391007013
 51
335.5570946840055
  0
LWPOLYLINE
  5
646
330
1F
100
AcDbEntity
  8
0
100
AcDbPolyline
 90
        3
 70
   128
 43
0.0
 10
133.8545629446901
 20
34.51901923052247
 10
133.849097675476
 20
34.51255739964592
 10
133.8204566329435
 20
34.46880413410571
  0
ARC
  5
647
330
1F
100
AcDbEntity
  8
0
100
AcDbCircle
 10
134.7878132959112
 20
33.87821695178832
 30
0.0
 40
0.2609944125466791
100
AcDbArc
 50
295.6853391007013
 51
335.5570946840055
  0
ELLIPSE
  5
649
330
1F
100
AcDbEntity
  8
0
100
AcDbEllipse
 10
111.5423047600368
 20
37.74827161765581
 30
0.0
 11
0.100669670758923
 21
-0.0646819969455146
 31
0.0
210
0.0
220
0.0
230
0.9999999999999998
 40
0.5852144834999999
 41
0.6460475470221127
 42
2.21653928732194
  0
LINE
  5
64A
330
1F
100
AcDbEntity
  8
0
100
AcDbLine
 10
112.1555512038374
 20
38.52228215265046
 30
0.0
 11
111.6454751693343
 21
37.73209292324066
 31
0.0
  0
LINE
  5
64B
330
1F
100
AcDbEntity
  8
0
100
AcDbLine
 10
109.9902808905705
 20
38.0616304809979
 30
0.0
 11
111.511953841155
 21
37.83424804028829
 31
0.0
  0
LINE
  5
64C
330
1F
100
AcDbEntity
  8
0
100
AcDbLine
 10
111.6454751693343
 20
37.73209292324066
 30
0.0
 11
111.88531386596
 21
37.03709374957617
 31
0.0
  0
ELLIPSE
  5
64D
330
1F
100
AcDbEntity
  8
0
100
AcDbEllipse
 10
111.7821343437281
 20
37.05329885131471
 30
0.0
 11
0.0998196096155123
 21
-0.0660021994213799
 31
0.0
210
0.0
220
0.0
230
1.0
 40
0.5963366812
 41
6.27523619152486
 42
6.936777265052017
  0
ELLIPSE
  5
64E
330
1F
100
AcDbEntity
  8
0
100
AcDbEllipse
 10
110.0206633776767
 20
37.97564934113734
 30
0.0
 11
0.101779414909148
 21
-0.0629379419472391
 31
0.0
210
0.0
220
0.0
230
1.0
 40
0.5935553793000004
 41
2.206607323614758
 42
3.151485555762618
  0
LWPOLYLINE
  5
64F
330
1F
100
AcDbEntity
  8
0
100
AcDbPolyline
 90
       17
 70
   128
 43
0.0
 10
109.1204428161583
 20
38.5342695379926
 10
109.0973099311153
 20
38.53259405384278
 10
109.077698818114
 20
38.52090921954602
 10
109.064595091348
 20
38.50099394519828
 10
109.0599936744208
 20
38.47588015080834
 10
109.064595091348
 20
38.44939118388953
 10
109.077698818114
 20
38.42555974953143
 10
109.0973099311153
 20
38.40801396761737
 10
109.1204428161583
 20
38.39942502435468
 10
109.1435757012012
 20
38.4011005085045
 10
109.1631868142024
 20
38.41278534280128
 10
109.1762905409685
 20
38.43270061712907
 10
109.1808919578957
 20
38.45781441153896
 10
109.1762905409685
 20
38.48430337845775
 10
109.1631868142024
 20
38.5081348127959
 10
109.1435757012012
 20
38.52568059472993
 10
109.1204428161583
 20
38.5342695379926
  0
LWPOLYLINE
  5
650
330
1F
100
AcDbEntity
  8
0
100
AcDbPolyline
 90
       17
 70
   128
 43
0.0
 10
108.7577479656939
 20
38.60773025774341
 10
108.7280056849243
 20
38.6055760638194
 10
108.7027913967941
 20
38.59055270544354
 10
108.6859437480835
 20
38.5649473527136
 10
108.6800276405972
 20
38.53265818850082
 10
108.6859437480835
 20
38.49860094531948
 10
108.7027913967941
 20
38.46796052973042
 10
108.7280056849243
 20
38.44540166725813
 10
108.7577479656939
 20
38.43435874020037
 10
108.7874902464833
 20
38.43651293410449
 10
108.8127045346135
 20
38.45153629248035
 10
108.8295521833241
 20
38.47714164521028
 10
108.8354682907905
 20
38.50943080944296
 10
108.8295521833241
 20
38.54348805262436
 10
108.8127045346135
 20
38.57412846821336
 10
108.7874902464833
 20
38.59668733068565
 10
108.7577479656939
 20
38.60773025774341
  0
ELLIPSE
  5
651
330
1F
100
AcDbEntity
  8
0
100
AcDbEllipse
 10
109.3151037158986
 20
38.55717466303474
 30
0.0
 11
-0.0328485413097503
 21
0.0726963082880652
 31
0.0
210
0.0
220
0.0
230
1.0
 40
0.8333842689
 41
4.218155764939706
 42
5.788647505239588
  0
LINE
  5
652
330
1F
100
AcDbEntity
  8
0
100
AcDbLine
 10
109.3840196844307
 20
38.54679018782633
 30
0.0
 11
109.3840196844307
 21
38.04740688334772
 31
0.0
  0
LINE
  5
653
330
1F
100
AcDbEntity
  8
0
100
AcDbLine
 10
108.3490751503016
 20
38.77848344064057
 30
0.0
 11
109.3149454729441
 21
38.63415416721962
 31
0.0
  0
LINE
  5
654
330
1F
100
AcDbEntity
  8
ﾚｲﾔｰ2
100
AcDbLine
 10
135.5272403354668
 20
35.05694792753013
 30
0.0
 11
135.5426820299657
 21
35.04821631319642
 31
0.0
  0
LINE
  5
655
330
1F
100
AcDbEntity
  8
ﾚｲﾔｰ2
100
AcDbLine
 10
135.4989457758946
 20
34.86759704448913
 30
0.0
 11
135.5162519630249
 21
34.87142537516183
 31
0.0
  0
LINE
  5
656
330
1F
100
AcDbEntity
  8
ﾚｲﾔｰ2
100
AcDbLine
 10
136.2966221303664
 20
39.04581555082888
 30
0.0
 11
136.2980820625704
 21
39.04619340908459
 31
0.0
  0
LINE
  5
657
330
1F
100
AcDbEntity
  8
ﾚｲﾔｰ2
100
AcDbLine
 10
136.0499767302189
 20
39.04672920081793
 30
0.0
 11
136.0514569620352
 21
39.04238902786551
 31
0.0
  0
LINE
  5
658
330
1F
100
AcDbEntity
  8
ﾚｲﾔｰ2
100
AcDbLine
 10
135.8600037327386
 20
39.04238902786551
 30
0.0
 11
135.8614722950147
 21
39.04671219164311
 31
0.0
  0
LINE
  5
659
330
1F
100
AcDbEntity
  8
ﾚｲﾔｰ2
100
AcDbLine
 10
133.1484175752116
 20
39.48030745430425
 30
0.0
 11
133.1498981584196
 21
39.47596677025149
 31
0.0
  0
LINE
  5
65A
330
1F
100
AcDbEntity
  8
ﾚｲﾔｰ2
100
AcDbLine
 10
132.958444929123
 20
39.47596677025149
 30
0.0
 11
132.9599140870589
 21
39.48029080395047
 31
0.0
  0
LINE
  5
65B
330
1F
100
AcDbEntity
  8
ﾚｲﾔｰ2
100
AcDbLine
 10
132.5494916464394
 20
39.47499023777186
 30
0.0
 11
132.5509357773472
 21
39.47070290975496
 31
0.0
  0
LINE
  5
65C
330
1F
100
AcDbEntity
  8
ﾚｲﾔｰ2
100
AcDbLine
 10
132.3594825480506
 20
39.47070290975496
 30
0.0
 11
132.360940597928
 21
39.47501069170687
 31
0.0
  0
LINE
  5
65D
330
1F
100
AcDbEntity
  8
ﾚｲﾔｰ2
100
AcDbLine
 10
90.4816865665237
 20
45.85596441238556
 30
0.0
 11
90.48316679835735
 21
45.8516242394283
 31
0.0
  0
LINE
  5
65E
330
1F
100
AcDbEntity
  8
ﾚｲﾔｰ2
100
AcDbLine
 10
90.29171356906065
 20
45.8516242394283
 30
0.0
 11
90.29318213131958
 21
45.85594740321079
 31
0.0
  0
LINE
  5
65F
330
1F
100
AcDbEntity
  8
ﾚｲﾔｰ2
100
AcDbLine
 10
90.76359063747792
 20
45.71902589228478
 30
0.0
 11
90.76503476838714
 21
45.71473856427741
 31
0.0
  0
LINE
  5
660
330
1F
100
AcDbEntity
  8
ﾚｲﾔｰ2
100
AcDbLine
 10
90.57358153909047
 20
45.71473856427741
 30
0.0
 11
90.57503958896651
 21
45.71904634621978
 31
0.0
  0
LINE
  5
661
330
1F
100
AcDbEntity
  8
ﾚｲﾔｰ2
100
AcDbLine
 10
87.58012741151645
 20
46.28954266587192
 30
0.0
 11
87.58160799472177
 21
46.28520198181422
 31
0.0
  0
LINE
  5
662
330
1F
100
AcDbEntity
  8
ﾚｲﾔｰ2
100
AcDbLine
 10
87.39015476542506
 20
46.28520198181422
 30
0.0
 11
87.3916239233638
 21
46.28952601551816
 31
0.0
  0
LINE
  5
663
330
1F
100
AcDbEntity
  8
ﾚｲﾔｰ2
100
AcDbLine
 10
86.82390657712764
 20
46.09160547406006
 30
0.0
 11
86.82577108352939
 21
46.08848609404811
 31
0.0
  0
LINE
  5
664
330
1F
100
AcDbEntity
  8
ﾚｲﾔｰ2
100
AcDbLine
 10
135.7903607614115
 20
36.99528071413869
 30
0.0
 11
135.8058017817548
 21
36.9865498218727
 31
0.0
  0
LINE
  5
665
330
1F
100
AcDbEntity
  8
ﾚｲﾔｰ2
100
AcDbLine
 10
135.7620662018593
 20
36.80592983109761
 30
0.0
 11
135.7793717284005
 21
36.80975778123843
 31
0.0
  0
LINE
  5
666
330
1F
100
AcDbEntity
  8
ﾚｲﾔｰ2
100
AcDbLine
 10
132.3921967408255
 20
39.28237026249735
 30
0.0
 11
132.3940612472273
 21
39.27925088248537
 31
0.0
  0
ARC
  5
667
330
1F
100
AcDbEntity
  8
ﾚｲﾔｰ2
100
AcDbCircle
 10
90.14298180293456
 20
42.27517531380363
 30
0.0
 40
0.0202957236596774
100
AcDbArc
 50
275.7369790914158
 51
321.4869502309322
  0
LINE
  5
668
330
1F
100
AcDbEntity
  8
ﾚｲﾔｰ2
100
AcDbLine
 10
90.23626598413214
 20
45.00497272738209
 30
0.0
 11
90.33655285336307
 21
44.99522101285434
 31
0.0
  0
LINE
  5
669
330
1F
100
AcDbEntity
  8
ﾚｲﾔｰ2
100
AcDbLine
 10
89.95549593509304
 20
41.8666993030817
 30
0.0
 11
89.9743918662706
 21
41.85745152476409
 31
0.0
  0
LINE
  5
66A
330
1F
100
AcDbEntity
  8
ﾚｲﾔｰ2
100
AcDbLine
 10
89.92892849386876
 20
41.67709033804624
 30
0.0
 11
89.94796179932976
 21
41.68066058672946
 31
0.0
  0
ENDSEC
  0
SECTION
  2
OBJECTS
  0
DICTIONARY
  5
C
330
0
100
AcDbDictionary
281
     1
  3
ACAD_CIP_PREVIOUS_PRODUCT_INFO
350
1A2
  3
ACAD_COLOR
350
6C
  3
ACAD_DETAILVIEWSTYLE
350
1A8
  3
ACAD_GROUP
350
D
  3
ACAD_LAYOUT
350
1A
  3
ACAD_MATERIAL
350
6B
  3
ACAD_MLEADERSTYLE
350
D2
  3
ACAD_MLINESTYLE
350
17
  3
ACAD_PLOTSETTINGS
350
19
  3
ACAD_PLOTSTYLENAME
350
E
  3
ACAD_RENDER_ACTIVE_RAPIDRT_SETTINGS
350
229
  3
ACAD_RENDER_ACTIVE_SETTINGS
350
6AA
  3
ACAD_SCALELIST
350
B1
  3
ACAD_SECTIONVIEWSTYLE
350
1A5
  3
ACAD_TABLESTYLE
350
A6
  3
ACAD_VISUALSTYLE
350
95
  3
ACDB_RECOMPOSE_DATA
350
73C
  3
AcDbVariableDictionary
350
59
  0
DICTIONARY
  5
18B
330
2
100
AcDbDictionary
280
     1
281
     1
  3
ACAD_LAYERSTATES
360
18C
  0
DICTIONARY
  5
E1
330
10
100
AcDbDictionary
280
     1
281
     1
  0
DICTIONARY
  5
22B
330
22A
100
AcDbDictionary
280
     1
281
     1
  0
DICTIONARY
  5
15A
330
1F
100
AcDbDictionary
280
     1
281
     1
  0
XRECORD
  5
1A2
102
{ACAD_REACTORS
330
C
102
}
330
C
100
AcDbXrecord
280
     1
300
ACD
300
2021
300

  0
DICTIONARY
  5
6C
102
{ACAD_REACTORS
330
C
102
}
330
C
100
AcDbDictionary
281
     1
  0
DICTIONARY
  5
1A8
102
{ACAD_REACTORS
330
C
102
}
330
C
100
AcDbDictionary
281
     1
  3
Imperial24
350
1A9
  3
Metric50
350
22E
  0
DICTIONARY
  5
D
102
{ACAD_REACTORS
330
C
102
}
330
C
100
AcDbDictionary
281
     1
  0
DICTIONARY
  5
1A
102
{ACAD_REACTORS
330
C
102
}
330
C
100
AcDbDictionary
281
     1
  3
Model
350
22
  3
布局1
350
74
  3
布局2
350
79
  0
DICTIONARY
  5
6B
102
{ACAD_REACTORS
330
C
102
}
330
C
100
AcDbDictionary
281
     1
  3
ByBlock
350
93
  3
ByLayer
350
92
  3
Global
350
94
  0
DICTIONARY
  5
D2
102
{ACAD_REACTORS
330
C
102
}
330
C
100
AcDbDictionary
281
     1
  3
Annotative
350
E0
  3
Standard
350
D3
  0
DICTIONARY
  5
17
102
{ACAD_REACTORS
330
C
102
}
330
C
100
AcDbDictionary
281
     1
  3
Standard
350
18
  0
DICTIONARY
  5
19
102
{ACAD_REACTORS
330
C
102
}
330
C
100
AcDbDictionary
281
     1
  0
ACDBDICTIONARYWDFLT
  5
E
102
{ACAD_REACTORS
330
C
102
}
330
C
100
AcDbDictionary
281
     1
  3
Normal
350
F
100
AcDbDictionaryWithDefault
340
F
  0
RAPIDRTRENDERSETTINGS
  5
229
102
{ACAD_REACTORS
330
C
102
}
330
C
100
AcDbRenderSettings
 90
        2
  1
中
290
     1
290
     0
290
     1
290
     1
  1

  1
应用 5 个渲染级别
 90
        0
100
AcDbRapidRTRenderSettings
 90
        3
 70
     0
 90
        5
 90
        1
 70
     1
 70
     2
 40
3.0
 40
3.0
290
     1
  0
MENTALRAYRENDERSETTINGS
  5
6AA
102
{ACAD_XDICTIONARY
360
6AB
102
}
102
{ACAD_REACTORS
330
C
102
}
330
C
100
AcDbRenderSettings
 90
        2
  1
中
290
     1
290
     1
290
     1
290
     1
  1

  1

 90
        0
100
AcDbMentalRayRenderSettings
 90
        2
 90
        0
 90
        1
 70
     2
 40
3.0
 40
3.0
 40
0.0500000007450581
 40
0.0500000007450581
 40
0.0500000007450581
 40
0.0500000007450581
 70
     0
290
     0
290
     1
 90
        5
 90
        5
 90
        5
290
     0
 90
      500
290
     0
 40
1.0
 90
    10000
 90
        5
 90
        5
 90
        5
290
     0
 90
      200
290
     0
290
     0
290
     0
 40
1.0
 40
1.0
 40
1500.0
 70
     0
 70
     0
 40
10.0
 70
     0
 70
     0
290
     0
  1

 90
       32
 70
     0
 90
     1048
290
     0
 40
1.0
  0
DICTIONARY
  5
B1
102
{ACAD_REACTORS
330
C
102
}
330
C
100
AcDbDictionary
281
     1
  3
A0
350
B2
  3
A1
350
124
  3
A2
350
125
  3
A3
350
126
  3
A4
350
127
  3
A5
350
128
  3
A6
350
129
  3
A7
350
12A
  3
A8
350
12B
  3
A9
350
12C
  3
B0
350
12D
  3
B1
350
12E
  3
B2
350
12F
  3
B3
350
130
  3
B4
350
131
  3
B5
350
132
  3
B6
350
133
  3
B7
350
134
  3
B8
350
135
  3
B9
350
136
  3
C0
350
137
  3
C1
350
138
  3
C2
350
139
  3
C3
350
13A
  3
C4
350
13B
  3
C5
350
13C
  3
C6
350
13D
  3
C7
350
13E
  3
C8
350
13F
  3
C9
350
140
  3
D0
350
141
  3
D1
350
142
  3
D2
350
143
  0
DICTIONARY
  5
1A5
102
{ACAD_REACTORS
330
C
102
}
330
C
100
AcDbDictionary
281
     1
  3
Imperial24
350
1A7
  3
Metric50
350
22D
  0
DICTIONARY
  5
A6
102
{ACAD_REACTORS
330
C
102
}
330
C
100
AcDbDictionary
281
     1
  3
Standard
350
A7
  0
DICTIONARY
  5
95
102
{ACAD_REACTORS
330
C
102
}
330
C
100
AcDbDictionary
281
     1
  3
2dWireframe
350
9B
  3
Basic
350
9A
  3
Brighten
350
A1
  3
ColorChange
350
A5
  3
Conceptual
350
9E
  3
Dim
350
A0
  3
EdgeColorOff
350
172
  3
Facepattern
350
A4
  3
Flat
350
96
  3
FlatWithEdges
350
97
  3
Gouraud
350
98
  3
GouraudWithEdges
350
99
  3
Hidden
350
9D
  3
JitterOff
350
170
  3
Linepattern
350
A3
  3
OverhangOff
350
171
  3
Realistic
350
9F
  3
Shaded
350
17F
  3
Shaded with edges
350
17E
  3
Shades of Gray
350
17B
  3
Sketchy
350
17C
  3
Thicken
350
A2
  3
Wireframe
350
9C
  3
X-Ray
350
17D
  0
XRECORD
  5
73C
102
{ACAD_REACTORS
330
C
102
}
330
C
100
AcDbXrecord
280
     1
 90
        1
330
A7
  0
DICTIONARY
  5
59
102
{ACAD_REACTORS
330
C
102
}
330
C
100
AcDbDictionary
281
     1
  3
CANNOSCALE
350
EB
  3
CMLEADERSTYLE
350
EA
  3
CTABLESTYLE
350
AB
  3
CVIEWDETAILSTYLE
350
1B4
  3
CVIEWSECTIONSTYLE
350
1B5
  3
DIMASSOC
350
5A
  3
HIDETEXT
350
5E
  3
LAYEREVAL
350
14A
  3
LAYERNOTIFY
350
14B
  0
DICTIONARY
  5
18C
102
{ACAD_REACTORS
330
18B
102
}
330
18B
100
AcDbDictionary
281
     1
  0
ACDBDETAILVIEWSTYLE
  5
1A9
102
{ACAD_XDICTIONARY
360
76F
102
}
102
{ACAD_REACTORS
330
1A8
102
}
330
1A8
100
AcDbModelDocViewStyle
 70
     0
  3
Imperial24
290
     0
100
AcDbDetailViewStyle
 70
     0
 71
     0
 90
        3
 71
     1
340
11
 62
   256
 40
0.24
340
0
 62
   256
 40
0.24
300

 40
0.36
280
     3
 71
     2
340
16
 90
       25
 62
   256
 71
     3
340
11
 62
   256
 40
0.24
 90
        1
 40
0.75
 90
        1
300
%<\AcVar ViewType \f "%tc1">% %<\AcVar ViewDetailId>%\PSCALE %<\AcVar ViewScale \f "%sn">%
 71
     4
340
16
 90
       25
 62
   256
340
16
 90
       25
 62
   256
280
     0
  0
ACDBDETAILVIEWSTYLE
  5
22E
102
{ACAD_XDICTIONARY
360
773
102
}
102
{ACAD_REACTORS
330
1A8
102
}
330
1A8
100
AcDbModelDocViewStyle
 70
     0
  3
Metric50
290
     0
100
AcDbDetailViewStyle
 70
     0
 71
     0
 90
        3
 71
     1
340
11
 62
   256
 40
5.0
340
0
 62
   256
 40
5.0
300

 40
0.0
280
     1
 71
     2
340
16
 90
       25
 62
   256
 71
     3
340
11
 62
   256
 40
5.0
 90
        0
 40
15.0
 90
        1
300
%<\AcVar ViewDetailId>% (%<\AcVar ViewScale \f "%sn">%)
 71
     4
340
16
 90
       25
 62
   256
340
16
 90
       25
 62
   256
280
     0
  0
LAYOUT
  5
22
102
{ACAD_XDICTIONARY
360
191
102
}
102
{ACAD_REACTORS
330
1A
102
}
330
1A
100
AcDbPlotSettings
  1

  2
none_device
  4
Letter_(8.50_x_11.00_Inches)
  6

 40
6.349999904632567
 41
6.349999904632567
 42
6.350006103515625
 43
6.350006103515625
 44
215.8999938964844
 45
279.3999938964844
 46
0.0
 47
0.0
 48
0.0
 49
0.0
140
0.0
141
0.0
142
1.0
143
3.560208697428376
 70
 11952
 72
     0
 73
     1
 74
     0
  7

 75
     0
147
0.28088241027059
 76
     0
 77
     2
 78
   300
148
0.1311165230791651
149
0.096403374003771
100
AcDbLayout
  1
Model
 70
     1
 71
     0
 10
0.0
 20
0.0
 11
12.0
 21
9.0
 12
0.0
 22
0.0
 32
0.0
 14
0.0
 24
0.0
 34
0.0
 15
0.0
 25
0.0
 35
0.0
146
0.0
 13
0.0
 23
0.0
 33
0.0
 16
1.0
 26
0.0
 36
0.0
 17
0.0
 27
1.0
 37
0.0
 76
     0
330
1F
331
90
  0
LAYOUT
  5
74
102
{ACAD_REACTORS
330
1A
102
}
330
1A
100
AcDbPlotSettings
  1

  2
\\ADSCCNDC1\hq601xrx1
  4

  6

 40
0.0
 41
0.0
 42
0.0
 43
0.0
 44
0.0
 45
0.0
 46
0.0
 47
0.0
 48
0.0
 49
0.0
140
0.0
141
0.0
142
1.0
143
1.0
 70
   688
 72
     0
 73
     0
 74
     5
  7

 75
    16
147
1.0
 76
     0
 77
     2
 78
   300
148
0.0
149
0.0
100
AcDbLayout
  1
布局1
 70
     1
 71
     1
 10
0.0
 20
0.0
 11
12.0
 21
9.0
 12
0.0
 22
0.0
 32
0.0
 14
0.0
 24
0.0
 34
0.0
 15
0.0
 25
0.0
 35
0.0
146
0.0
 13
0.0
 23
0.0
 33
0.0
 16
1.0
 26
0.0
 36
0.0
 17
0.0
 27
1.0
 37
0.0
 76
     0
330
73
  0
LAYOUT
  5
79
102
{ACAD_REACTORS
330
1A
102
}
330
1A
100
AcDbPlotSettings
  1

  2
\\ADSCCNDC1\hq601xrx1
  4

  6

 40
0.0
 41
0.0
 42
0.0
 43
0.0
 44
0.0
 45
0.0
 46
0.0
 47
0.0
 48
0.0
 49
0.0
140
0.0
141
0.0
142
1.0
143
1.0
 70
   688
 72
     0
 73
     0
 74
     5
  7

 75
    16
147
1.0
 76
     0
 77
     2
 78
   300
148
0.0
149
0.0
100
AcDbLayout
  1
布局2
 70
     1
 71
     2
 10
0.0
 20
0.0
 11
12.0
 21
9.0
 12
0.0
 22
0.0
 32
0.0
 14
0.0
 24
0.0
 34
0.0
 15
0.0
 25
0.0
 35
0.0
146
0.0
 13
0.0
 23
0.0
 33
0.0
 16
1.0
 26
0.0
 36
0.0
 17
0.0
 27
1.0
 37
0.0
 76
     0
330
78
  0
MATERIAL
  5
93
102
{ACAD_XDICTIONARY
360
185
102
}
102
{ACAD_REACTORS
330
6B
102
}
330
6B
100
AcDbMaterial
  1
ByBlock
 94
       63
  0
MATERIAL
  5
92
102
{ACAD_XDICTIONARY
360
183
102
}
102
{ACAD_REACTORS
330
6B
102
}
330
6B
100
AcDbMaterial
  1
ByLayer
 94
       63
  0
MATERIAL
  5
94
102
{ACAD_XDICTIONARY
360
10B
102
}
102
{ACAD_REACTORS
330
6B
102
}
330
6B
100
AcDbMaterial
  1
Global
 43
0.0208000000566244
 43
0.0
 43
0.0
 43
0.0
 43
0.0
 43
0.0208000000566244
 43
0.0
 43
0.0
 43
0.0
 43
0.0
 43
1.0
 43
0.0
 43
0.0
 43
0.0
 43
0.0
 43
1.0
 49
0.0208000000566244
 49
0.0
 49
0.0
 49
0.0
 49
0.0
 49
0.0208000000566244
 49
0.0
 49
0.0
 49
0.0
 49
0.0
 49
1.0
 49
0.0
 49
0.0
 49
0.0
 49
0.0
 49
1.0
142
0.0208000000566244
142
0.0
142
0.0
142
0.0
142
0.0
142
0.0208000000566244
142
0.0
142
0.0
142
0.0
142
0.0
142
1.0
142
0.0
142
0.0
142
0.0
142
0.0
142
1.0
144
0.0208000000566244
144
0.0
144
0.0
144
0.0
144
0.0
144
0.0208000000566244
144
0.0
144
0.0
144
0.0
144
0.0
144
1.0
144
0.0
144
0.0
144
0.0
144
0.0
144
1.0
 94
       63
1001
ACAD
1070
    -1
1070
     3
1070
     0
1000

1071
        0
1070
     0
  0
MLEADERSTYLE
  5
E0
102
{ACAD_REACTORS
330
D2
102
}
330
D2
100
AcDbMLeaderStyle
179
     2
170
     2
171
     1
172
     0
 90
        2
 40
0.0
 41
0.0
173
     1
 91
-1056964608
340
14
 92
       -2
290
     1
 42
0.09
291
     1
 43
0.36
  3
Standard
 44
0.18
300

342
11
174
     1
178
     1
175
     1
176
     0
 93
-1056964608
 45
0.18
292
     0
297
     0
 46
0.18
 94
-1056964608
 47
1.0
 49
1.0
140
1.0
293
     1
141
0.0
294
     1
177
     0
142
1.0
295
     0
296
     1
143
0.125
271
     0
272
     9
273
     9
  0
MLEADERSTYLE
  5
D3
102
{ACAD_REACTORS
330
D2
102
}
330
D2
100
AcDbMLeaderStyle
179
     2
170
     2
171
     1
172
     0
 90
        2
 40
0.0
 41
0.0
173
     1
 91
-1056964608
340
14
 92
       -2
290
     1
 42
0.09
291
     1
 43
0.36
  3
Standard
 44
0.18
300

342
11
174
     1
178
     1
175
     1
176
     0
 93
-1056964608
 45
0.18
292
     0
297
     0
 46
0.18
 94
-1056964608
 47
1.0
 49
1.0
140
1.0
293
     1
141
0.0
294
     1
177
     0
142
1.0
295
     0
296
     0
143
0.125
271
     0
272
     9
273
     9
  0
MLINESTYLE
  5
18
102
{ACAD_REACTORS
330
17
102
}
330
17
100
AcDbMlineStyle
  2
STANDARD
 70
     0
  3

 62
   256
 51
90.0
 52
90.0
 71
     2
 49
0.5
 62
   256
  6
BYLAYER
 49
-0.5
 62
   256
  6
BYLAYER
  0
ACDBPLACEHOLDER
  5
F
102
{ACAD_REACTORS
330
E
102
}
330
E
  0
DICTIONARY
  5
6AB
330
6AA
100
AcDbDictionary
280
     1
281
     1
  3
ADSK_XREC_MENTALRAYSETTINGSINFO
360
6AC
  0
SCALE
  5
B2
102
{ACAD_REACTORS
330
B1
102
}
330
B1
100
AcDbScale
 70
     0
300
1:1
140
1.0
141
1.0
290
     1
  0
SCALE
  5
124
102
{ACAD_REACTORS
330
B1
102
}
330
B1
100
AcDbScale
 70
     0
300
1:2
140
1.0
141
2.0
290
     0
  0
SCALE
  5
125
102
{ACAD_REACTORS
330
B1
102
}
330
B1
100
AcDbScale
 70
     0
300
1:4
140
1.0
141
4.0
290
     0
  0
SCALE
  5
126
102
{ACAD_REACTORS
330
B1
102
}
330
B1
100
AcDbScale
 70
     0
300
1:5
140
1.0
141
5.0
290
     0
  0
SCALE
  5
127
102
{ACAD_REACTORS
330
B1
102
}
330
B1
100
AcDbScale
 70
     0
300
1:8
140
1.0
141
8.0
290
     0
  0
SCALE
  5
128
102
{ACAD_REACTORS
330
B1
102
}
330
B1
100
AcDbScale
 70
     0
300
1:10
140
1.0
141
10.0
290
     0
  0
SCALE
  5
129
102
{ACAD_REACTORS
330
B1
102
}
330
B1
100
AcDbScale
 70
     0
300
1:16
140
1.0
141
16.0
290
     0
  0
SCALE
  5
12A
102
{ACAD_REACTORS
330
B1
102
}
330
B1
100
AcDbScale
 70
     0
300
1:20
140
1.0
141
20.0
290
     0
  0
SCALE
  5
12B
102
{ACAD_REACTORS
330
B1
102
}
330
B1
100
AcDbScale
 70
     0
300
1:30
140
1.0
141
30.0
290
     0
  0
SCALE
  5
12C
102
{ACAD_REACTORS
330
B1
102
}
330
B1
100
AcDbScale
 70
     0
300
1:40
140
1.0
141
40.0
290
     0
  0
SCALE
  5
12D
102
{ACAD_REACTORS
330
B1
102
}
330
B1
100
AcDbScale
 70
     0
300
1:50
140
1.0
141
50.0
290
     0
  0
SCALE
  5
12E
102
{ACAD_REACTORS
330
B1
102
}
330
B1
100
AcDbScale
 70
     0
300
1:100
140
1.0
141
100.0
290
     0
  0
SCALE
  5
12F
102
{ACAD_REACTORS
330
B1
102
}
330
B1
100
AcDbScale
 70
     0
300
2:1
140
2.0
141
1.0
290
     0
  0
SCALE
  5
130
102
{ACAD_REACTORS
330
B1
102
}
330
B1
100
AcDbScale
 70
     0
300
4:1
140
4.0
141
1.0
290
     0
  0
SCALE
  5
131
102
{ACAD_REACTORS
330
B1
102
}
330
B1
100
AcDbScale
 70
     0
300
8:1
140
8.0
141
1.0
290
     0
  0
SCALE
  5
132
102
{ACAD_REACTORS
330
B1
102
}
330
B1
100
AcDbScale
 70
     0
300
10:1
140
10.0
141
1.0
290
     0
  0
SCALE
  5
133
102
{ACAD_REACTORS
330
B1
102
}
330
B1
100
AcDbScale
 70
     0
300
100:1
140
100.0
141
1.0
290
     0
  0
SCALE
  5
134
102
{ACAD_REACTORS
330
B1
102
}
330
B1
100
AcDbScale
 70
     0
300
1/128" = 1'-0"
140
0.0078125
141
12.0
290
     0
  0
SCALE
  5
135
102
{ACAD_REACTORS
330
B1
102
}
330
B1
100
AcDbScale
 70
     0
300
1/64" = 1'-0"
140
0.015625
141
12.0
290
     0
  0
SCALE
  5
136
102
{ACAD_REACTORS
330
B1
102
}
330
B1
100
AcDbScale
 70
     0
300
1/32" = 1'-0"
140
0.03125
141
12.0
290
     0
  0
SCALE
  5
137
102
{ACAD_REACTORS
330
B1
102
}
330
B1
100
AcDbScale
 70
     0
300
1/16" = 1'-0"
140
0.0625
141
12.0
290
     0
  0
SCALE
  5
138
102
{ACAD_REACTORS
330
B1
102
}
330
B1
100
AcDbScale
 70
     0
300
3/32" = 1'-0"
140
0.09375
141
12.0
290
     0
  0
SCALE
  5
139
102
{ACAD_REACTORS
330
B1
102
}
330
B1
100
AcDbScale
 70
     0
300
1/8" = 1'-0"
140
0.125
141
12.0
290
     0
  0
SCALE
  5
13A
102
{ACAD_REACTORS
330
B1
102
}
330
B1
100
AcDbScale
 70
     0
300
3/16" = 1'-0"
140
0.1875
141
12.0
290
     0
  0
SCALE
  5
13B
102
{ACAD_REACTORS
330
B1
102
}
330
B1
100
AcDbScale
 70
     0
300
1/4" = 1'-0"
140
0.25
141
12.0
290
     0
  0
SCALE
  5
13C
102
{ACAD_REACTORS
330
B1
102
}
330
B1
100
AcDbScale
 70
     0
300
3/8" = 1'-0"
140
0.375
141
12.0
290
     0
  0
SCALE
  5
13D
102
{ACAD_REACTORS
330
B1
102
}
330
B1
100
AcDbScale
 70
     0
300
1/2" = 1'-0"
140
0.5
141
12.0
290
     0
  0
SCALE
  5
13E
102
{ACAD_REACTORS
330
B1
102
}
330
B1
100
AcDbScale
 70
     0
300
3/4" = 1'-0"
140
0.75
141
12.0
290
     0
  0
SCALE
  5
13F
102
{ACAD_REACTORS
330
B1
102
}
330
B1
100
AcDbScale
 70
     0
300
1" = 1'-0"
140
1.0
141
12.0
290
     0
  0
SCALE
  5
140
102
{ACAD_REACTORS
330
B1
102
}
330
B1
100
AcDbScale
 70
     0
300
1-1/2" = 1'-0"
140
1.5
141
12.0
290
     0
  0
SCALE
  5
141
102
{ACAD_REACTORS
330
B1
102
}
330
B1
100
AcDbScale
 70
     0
300
3" = 1'-0"
140
3.0
141
12.0
290
     0
  0
SCALE
  5
142
102
{ACAD_REACTORS
330
B1
102
}
330
B1
100
AcDbScale
 70
     0
300
6" = 1'-0"
140
6.0
141
12.0
290
     0
  0
SCALE
  5
143
102
{ACAD_REACTORS
330
B1
102
}
330
B1
100
AcDbScale
 70
     0
300
1'-0" = 1'-0"
140
12.0
141
12.0
290
     0
  0
ACDBSECTIONVIEWSTYLE
  5
1A7
102
{ACAD_XDICTIONARY
360
76D
102
}
102
{ACAD_REACTORS
330
1A5
102
}
330
1A5
100
AcDbModelDocViewStyle
 70
     0
  3
Imperial24
290
     0
100
AcDbSectionViewStyle
 70
     0
 71
     0
 90
       78
 71
     1
340
11
 62
   256
 40
0.24
340
0
340
0
 62
   256
 40
0.24
300
I, O, Q, S, X, Z
 40
0.48
 90
        3
 40
0.18
 90
        1
 71
     2
340
16
 90
       25
 62
   256
340
16
 90
       50
 62
   256
 40
0.24
 40
0.0
 40
0.24
 71
     3
340
11
 62
   256
 40
0.24
 90
        1
 40
0.75
 90
        1
300
%<\AcVar ViewType \f "%tc1">% %<\AcVar ViewSectionStartId>%-%<\AcVar ViewSectionEndId>%\PSCALE %<\AcVar ViewScale \f "%sn">%
 71
     4
 62
   256
 62
   257
300
ANSI31
 40
1.0
 90
        0
290
     0
290
     0
 90
        6
 40
0.0
 40
1.570796326794896
 40
0.2617993877991494
 40
1.308996938995747
 40
-0.2617993877991494
 40
1.832595714594044
  0
ACDBSECTIONVIEWSTYLE
  5
22D
102
{ACAD_XDICTIONARY
360
771
102
}
102
{ACAD_REACTORS
330
1A5
102
}
330
1A5
100
AcDbModelDocViewStyle
 70
     0
  3
Metric50
290
     0
100
AcDbSectionViewStyle
 70
     0
 71
     0
 90
      102
 71
     1
340
11
 62
   256
 40
5.0
340
0
340
0
 62
   256
 40
5.0
300
I, O, Q, S, X, Z
 40
10.0
 90
        0
 40
2.5
 90
        0
 71
     2
340
16
 90
       25
 62
   256
340
16
 90
       50
 62
   256
 40
5.0
 40
2.5
 40
5.0
 71
     3
340
11
 62
   256
 40
5.0
 90
        0
 40
15.0
 90
        1
300
%<\AcVar ViewSectionStartId>%-%<\AcVar ViewSectionEndId>% (%<\AcVar ViewScale \f "%sn">%)
 71
     4
 62
   256
 62
   257
300
ANSI31
 40
1.0
 90
        0
290
     0
290
     0
 90
        6
 40
0.0
 40
1.570796326794896
 40
0.2617993877991494
 40
1.308996938995747
 40
-0.2617993877991494
 40
1.832595714594044
  0
TABLESTYLE
  5
A7
102
{ACAD_XDICTIONARY
360
FF
102
}
102
{ACAD_REACTORS
330
A6
102
}
330
A6
100
AcDbTableStyle
280
     0
  3
Standard
 70
     0
 71
     0
 40
0.06
 41
0.06
280
     0
281
     0
  7
Standard
140
0.18
170
     2
 62
     0
 63
     7
283
     0
 90
      512
 91
        0
  1

274
    -2
284
     1
 64
     0
275
    -2
285
     1
 65
     0
276
    -2
286
     1
 66
     0
277
    -2
287
     1
 67
     0
278
    -2
288
     1
 68
     0
279
    -2
289
     1
 69
     0
  7
Standard
140
0.25
170
     5
 62
     0
 63
     7
283
     0
 90
      512
 91
        0
  1

274
    -2
284
     1
 64
     0
275
    -2
285
     1
 65
     0
276
    -2
286
     1
 66
     0
277
    -2
287
     1
 67
     0
278
    -2
288
     1
 68
     0
279
    -2
289
     1
 69
     0
  7
Standard
140
0.18
170
     5
 62
     0
 63
     7
283
     0
 90
      512
 91
        0
  1

274
    -2
284
     1
 64
     0
275
    -2
285
     1
 65
     0
276
    -2
286
     1
 66
     0
277
    -2
287
     1
 67
     0
278
    -2
288
     1
 68
     0
279
    -2
289
     1
 69
     0
  0
VISUALSTYLE
  5
9B
102
{ACAD_XDICTIONARY
360
747
102
}
102
{ACAD_REACTORS
330
95
102
}
330
95
100
AcDbVisualStyle
  2
2dWireframe
 70
     4
177
     2
291
     0
 71
     0
176
     1
 72
     2
176
     1
 73
     1
176
     1
 90
        0
176
     1
 40
0.6
176
     1
 41
30.0
176
     1
 63
     7
421
 16777215
176
     1
 74
     1
176
     1
 91
        4
176
     1
 64
     7
176
     1
 65
   257
176
     1
 75
     1
176
     1
175
     1
176
     1
 42
1.0
176
     1
 92
        0
176
     1
 66
   257
176
     1
 43
1.0
176
     1
 76
     1
176
     1
 77
     6
176
     1
 78
     2
176
     1
 67
     7
176
     1
 79
     5
176
     1
170
     0
176
     1
171
     0
176
     1
290
     0
176
     1
 93
        1
176
     1
 44
0.0
176
     1
173
     0
176
     1
1001
ACAD
1000
AcDbSavedByObjectVersion
1070
     0
  0
VISUALSTYLE
  5
9A
102
{ACAD_XDICTIONARY
360
745
102
}
102
{ACAD_REACTORS
330
95
102
}
330
95
100
AcDbVisualStyle
  2
Basic
 70
     7
177
     2
291
     1
 71
     1
176
     1
 72
     0
176
     1
 73
     1
176
     1
 90
        0
176
     1
 40
0.6
176
     1
 41
30.0
176
     1
 63
     7
421
 16777215
176
     1
 74
     0
176
     1
 91
        4
176
     1
 64
     7
176
     1
 65
   257
176
     1
 75
     1
176
     1
175
     1
176
     1
 42
1.0
176
     1
 92
        8
176
     1
 66
     7
176
     1
 43
1.0
176
     1
 76
     1
176
     1
 77
     6
176
     1
 78
     2
176
     1
 67
     7
176
     1
 79
     5
176
     1
170
     0
176
     1
171
     0
176
     1
290
     0
176
     1
 93
        1
176
     1
 44
0.0
176
     1
173
     0
176
     1
1001
ACAD
1000
AcDbSavedByObjectVersion
1070
     0
  0
VISUALSTYLE
  5
A1
102
{ACAD_XDICTIONARY
360
753
102
}
102
{ACAD_REACTORS
330
95
102
}
330
95
100
AcDbVisualStyle
  2
Brighten
 70
    12
177
     2
291
     1
 71
     2
176
     1
 72
     2
176
     1
 73
     1
176
     1
 90
        0
176
     1
 40
0.6
176
     1
 41
30.0
176
     1
 63
     7
421
 16777215
176
     1
 74
     1
176
     1
 91
        4
176
     1
 64
     7
176
     1
 65
   257
176
     1
 75
     1
176
     1
175
     1
176
     1
 42
1.0
176
     1
 92
        8
176
     1
 66
     7
176
     1
 43
1.0
176
     1
 76
     1
176
     1
 77
     6
176
     1
 78
     2
176
     1
 67
     7
176
     1
 79
     5
176
     1
170
     0
176
     1
171
     0
176
     1
290
     0
176
     1
 93
        1
176
     1
 44
50.0
176
     1
173
     0
176
     1
1001
ACAD
1000
AcDbSavedByObjectVersion
1070
     0
  0
VISUALSTYLE
  5
A5
102
{ACAD_XDICTIONARY
360
75B
102
}
102
{ACAD_REACTORS
330
95
102
}
330
95
100
AcDbVisualStyle
  2
ColorChange
 70
    16
177
     2
291
     1
 71
     2
176
     1
 72
     2
176
     1
 73
     3
176
     1
 90
        0
176
     1
 40
0.6
176
     1
 41
30.0
176
     1
 63
     8
421
  8421504
176
     1
 74
     1
176
     1
 91
        4
176
     1
 64
     7
176
     1
 65
   257
176
     1
 75
     1
176
     1
175
     1
176
     1
 42
1.0
176
     1
 92
        8
176
     1
 66
     8
424
  8421504
176
     1
 43
1.0
176
     1
 76
     1
176
     1
 77
     6
176
     1
 78
     2
176
     1
 67
     7
176
     1
 79
     5
176
     1
170
     0
176
     1
171
     0
176
     1
290
     0
176
     1
 93
        1
176
     1
 44
0.0
176
     1
173
     0
176
     1
1001
ACAD
1000
AcDbSavedByObjectVersion
1070
     0
  0
VISUALSTYLE
  5
9E
102
{ACAD_XDICTIONARY
360
74D
102
}
102
{ACAD_REACTORS
330
95
102
}
330
95
100
AcDbVisualStyle
  2
Conceptual
 70
     9
177
     2
291
     0
 71
     3
176
     1
 72
     2
176
     1
 73
     1
176
     1
 90
        0
176
     1
 40
0.6
176
     1
 41
30.0
176
     1
 63
     7
421
 16777215
176
     1
 74
     2
176
     1
 91
        2
176
     1
 64
     7
176
     1
 65
   257
176
     1
 75
     1
176
     1
175
     1
176
     1
 42
40.0
176
     1
 92
        8
176
     1
 66
     7
176
     1
 43
1.0
176
     1
 76
     1
176
     1
 77
     6
176
     1
 78
     2
176
     1
 67
     7
176
     1
 79
     3
176
     1
170
     0
176
     1
171
     0
176
     1
290
     0
176
     1
 93
        1
176
     1
 44
0.0
176
     1
173
     0
176
     1
1001
ACAD
1000
AcDbSavedByObjectVersion
1070
     0
  0
VISUALSTYLE
  5
A0
102
{ACAD_XDICTIONARY
360
751
102
}
102
{ACAD_REACTORS
330
95
102
}
330
95
100
AcDbVisualStyle
  2
Dim
 70
    11
177
     2
291
     1
 71
     2
176
     1
 72
     2
176
     1
 73
     1
176
     1
 90
        0
176
     1
 40
0.6
176
     1
 41
30.0
176
     1
 63
     7
421
 16777215
176
     1
 74
     1
176
     1
 91
        4
176
     1
 64
     7
176
     1
 65
   257
176
     1
 75
     1
176
     1
175
     1
176
     1
 42
1.0
176
     1
 92
        8
176
     1
 66
     7
176
     1
 43
1.0
176
     1
 76
     1
176
     1
 77
     6
176
     1
 78
     2
176
     1
 67
     7
176
     1
 79
     5
176
     1
170
     0
176
     1
171
     0
176
     1
290
     0
176
     1
 93
        1
176
     1
 44
-50.0
176
     1
173
     0
176
     1
1001
ACAD
1000
AcDbSavedByObjectVersion
1070
     0
  0
VISUALSTYLE
  5
172
102
{ACAD_XDICTIONARY
360
761
102
}
102
{ACAD_REACTORS
330
95
102
}
330
95
100
AcDbVisualStyle
  2
EdgeColorOff
 70
    22
177
     2
291
     1
 71
     2
176
     0
 72
     2
176
     0
 73
     0
176
     0
 90
        0
176
     0
 40
0.6
176
     0
 41
30.0
176
     0
 63
     7
421
 16777215
176
     0
 74
     1
176
     0
 91
        4
176
     0
 64
     7
176
     0
 65
   257
176
     0
 75
     1
176
     0
175
     1
176
     0
 42
1.0
176
     0
 92
        8
176
     2
 66
     7
176
     0
 43
1.0
176
     0
 76
     1
176
     0
 77
     6
176
     0
 78
     2
176
     0
 67
     7
176
     0
 79
     5
176
     0
170
     0
176
     0
171
     0
176
     0
290
     0
176
     0
 93
        1
176
     0
 44
0.0
176
     0
173
     0
176
     0
1001
ACAD
1000
AcDbSavedByObjectVersion
1070
     0
  0
VISUALSTYLE
  5
A4
102
{ACAD_XDICTIONARY
360
759
102
}
102
{ACAD_REACTORS
330
95
102
}
330
95
100
AcDbVisualStyle
  2
Facepattern
 70
    15
177
     2
291
     1
 71
     2
176
     1
 72
     2
176
     1
 73
     1
176
     1
 90
        0
176
     1
 40
0.6
176
     1
 41
30.0
176
     1
 63
     7
421
 16777215
176
     1
 74
     1
176
     1
 91
        4
176
     1
 64
     7
176
     1
 65
   257
176
     1
 75
     1
176
     1
175
     1
176
     1
 42
1.0
176
     1
 92
        8
176
     1
 66
     7
176
     1
 43
1.0
176
     1
 76
     1
176
     1
 77
     6
176
     1
 78
     2
176
     1
 67
     7
176
     1
 79
     5
176
     1
170
     0
176
     1
171
     0
176
     1
290
     0
176
     1
 93
        1
176
     1
 44
0.0
176
     1
173
     0
176
     1
1001
ACAD
1000
AcDbSavedByObjectVersion
1070
     0
  0
VISUALSTYLE
  5
96
102
{ACAD_XDICTIONARY
360
73D
102
}
102
{ACAD_REACTORS
330
95
102
}
330
95
100
AcDbVisualStyle
  2
Flat
 70
     0
177
     2
291
     1
 71
     2
176
     1
 72
     1
176
     1
 73
     1
176
     1
 90
        2
176
     1
 40
0.6
176
     1
 41
30.0
176
     1
 63
     7
421
 16777215
176
     1
 74
     0
176
     1
 91
        0
176
     1
 64
     7
176
     1
 65
   257
176
     1
 75
     1
176
     1
175
     1
176
     1
 42
1.0
176
     1
 92
        8
176
     1
 66
     7
176
     1
 43
1.0
176
     1
 76
     1
176
     1
 77
     6
176
     1
 78
     2
176
     1
 67
     7
176
     1
 79
     5
176
     1
170
     0
176
     1
171
     0
176
     1
290
     0
176
     1
 93
       13
176
     1
 44
0.0
176
     1
173
     0
176
     1
1001
ACAD
1000
AcDbSavedByObjectVersion
1070
     0
  0
VISUALSTYLE
  5
97
102
{ACAD_XDICTIONARY
360
73F
102
}
102
{ACAD_REACTORS
330
95
102
}
330
95
100
AcDbVisualStyle
  2
FlatWithEdges
 70
     1
177
     2
291
     1
 71
     2
176
     1
 72
     1
176
     1
 73
     1
176
     1
 90
        2
176
     1
 40
0.6
176
     1
 41
30.0
176
     1
 63
     7
421
 16777215
176
     1
 74
     1
176
     1
 91
        0
176
     1
 64
     7
176
     1
 65
   257
176
     1
 75
     1
176
     1
175
     1
176
     1
 42
1.0
176
     1
 92
        0
176
     1
 66
   257
176
     1
 43
1.0
176
     1
 76
     1
176
     1
 77
     6
176
     1
 78
     2
176
     1
 67
     7
176
     1
 79
     5
176
     1
170
     0
176
     1
171
     0
176
     1
290
     0
176
     1
 93
       13
176
     1
 44
0.0
176
     1
173
     0
176
     1
1001
ACAD
1000
AcDbSavedByObjectVersion
1070
     0
  0
VISUALSTYLE
  5
98
102
{ACAD_XDICTIONARY
360
741
102
}
102
{ACAD_REACTORS
330
95
102
}
330
95
100
AcDbVisualStyle
  2
Gouraud
 70
     2
177
     2
291
     1
 71
     2
176
     1
 72
     2
176
     1
 73
     1
176
     1
 90
        2
176
     1
 40
0.6
176
     1
 41
30.0
176
     1
 63
     7
421
 16777215
176
     1
 74
     0
176
     1
 91
        0
176
     1
 64
     7
176
     1
 65
   257
176
     1
 75
     1
176
     1
175
     1
176
     1
 42
1.0
176
     1
 92
        0
176
     1
 66
     7
176
     1
 43
1.0
176
     1
 76
     1
176
     1
 77
     6
176
     1
 78
     2
176
     1
 67
     7
176
     1
 79
     5
176
     1
170
     0
176
     1
171
     0
176
     1
290
     0
176
     1
 93
       13
176
     1
 44
0.0
176
     1
173
     0
176
     1
1001
ACAD
1000
AcDbSavedByObjectVersion
1070
     0
  0
VISUALSTYLE
  5
99
102
{ACAD_XDICTIONARY
360
743
102
}
102
{ACAD_REACTORS
330
95
102
}
330
95
100
AcDbVisualStyle
  2
GouraudWithEdges
 70
     3
177
     2
291
     1
 71
     2
176
     1
 72
     2
176
     1
 73
     1
176
     1
 90
        2
176
     1
 40
0.6
176
     1
 41
30.0
176
     1
 63
     7
421
 16777215
176
     1
 74
     1
176
     1
 91
        0
176
     1
 64
     7
176
     1
 65
   257
176
     1
 75
     1
176
     1
175
     1
176
     1
 42
1.0
176
     1
 92
        0
176
     1
 66
   257
176
     1
 43
1.0
176
     1
 76
     1
176
     1
 77
     6
176
     1
 78
     2
176
     1
 67
     7
176
     1
 79
     5
176
     1
170
     0
176
     1
171
     0
176
     1
290
     0
176
     1
 93
       13
176
     1
 44
0.0
176
     1
173
     0
176
     1
1001
ACAD
1000
AcDbSavedByObjectVersion
1070
     0
  0
VISUALSTYLE
  5
9D
102
{ACAD_XDICTIONARY
360
74B
102
}
102
{ACAD_REACTORS
330
95
102
}
330
95
100
AcDbVisualStyle
  2
Hidden
 70
     6
177
     2
291
     0
 71
     1
176
     1
 72
     2
176
     1
 73
     2
176
     1
 90
        0
176
     1
 40
0.6
176
     1
 41
30.0
176
     1
 63
     7
421
 16777215
176
     1
 74
     2
176
     1
 91
        2
176
     1
 64
     7
176
     1
 65
   257
176
     1
 75
     2
176
     1
175
     1
176
     1
 42
40.0
176
     1
 92
        0
176
     1
 66
   257
176
     1
 43
1.0
176
     1
 76
     1
176
     1
 77
     6
176
     1
 78
     2
176
     1
 67
     7
176
     1
 79
     3
176
     1
170
     0
176
     1
171
     0
176
     1
290
     0
176
     1
 93
        1
176
     1
 44
0.0
176
     1
173
     0
176
     1
1001
ACAD
1000
AcDbSavedByObjectVersion
1070
     0
  0
VISUALSTYLE
  5
170
102
{ACAD_XDICTIONARY
360
75D
102
}
102
{ACAD_REACTORS
330
95
102
}
330
95
100
AcDbVisualStyle
  2
JitterOff
 70
    20
177
     2
291
     1
 71
     2
176
     0
 72
     2
176
     0
 73
     0
176
     0
 90
        0
176
     0
 40
0.6
176
     0
 41
30.0
176
     0
 63
     7
421
 16777215
176
     0
 74
     1
176
     0
 91
        4
176
     0
 64
     7
176
     0
 65
   257
176
     0
 75
     1
176
     0
175
     1
176
     0
 42
1.0
176
     0
 92
       10
176
     2
 66
     7
176
     0
 43
1.0
176
     0
 76
     1
176
     0
 77
     6
176
     0
 78
     2
176
     0
 67
     7
176
     0
 79
     5
176
     0
170
     0
176
     0
171
     0
176
     0
290
     0
176
     0
 93
        1
176
     0
 44
0.0
176
     0
173
     0
176
     0
1001
ACAD
1000
AcDbSavedByObjectVersion
1070
     0
  0
VISUALSTYLE
  5
A3
102
{ACAD_XDICTIONARY
360
757
102
}
102
{ACAD_REACTORS
330
95
102
}
330
95
100
AcDbVisualStyle
  2
Linepattern
 70
    14
177
     2
291
     1
 71
     2
176
     1
 72
     2
176
     1
 73
     1
176
     1
 90
        0
176
     1
 40
0.6
176
     1
 41
30.0
176
     1
 63
     7
421
 16777215
176
     1
 74
     1
176
     1
 91
        4
176
     1
 64
     7
176
     1
 65
   257
176
     1
 75
     7
176
     1
175
     7
176
     1
 42
1.0
176
     1
 92
        8
176
     1
 66
     7
176
     1
 43
1.0
176
     1
 76
     1
176
     1
 77
     6
176
     1
 78
     2
176
     1
 67
     7
176
     1
 79
     5
176
     1
170
     0
176
     1
171
     0
176
     1
290
     0
176
     1
 93
        1
176
     1
 44
0.0
176
     1
173
     0
176
     1
1001
ACAD
1000
AcDbSavedByObjectVersion
1070
     0
  0
VISUALSTYLE
  5
171
102
{ACAD_XDICTIONARY
360
75F
102
}
102
{ACAD_REACTORS
330
95
102
}
330
95
100
AcDbVisualStyle
  2
OverhangOff
 70
    21
177
     2
291
     1
 71
     2
176
     0
 72
     2
176
     0
 73
     0
176
     0
 90
        0
176
     0
 40
0.6
176
     0
 41
30.0
176
     0
 63
     7
421
 16777215
176
     0
 74
     1
176
     0
 91
        4
176
     0
 64
     7
176
     0
 65
   257
176
     0
 75
     1
176
     0
175
     1
176
     0
 42
1.0
176
     0
 92
        9
176
     2
 66
     7
176
     0
 43
1.0
176
     0
 76
     1
176
     0
 77
     6
176
     0
 78
     2
176
     0
 67
     7
176
     0
 79
     5
176
     0
170
     0
176
     0
171
     0
176
     0
290
     0
176
     0
 93
        1
176
     0
 44
0.0
176
     0
173
     0
176
     0
1001
ACAD
1000
AcDbSavedByObjectVersion
1070
     0
  0
VISUALSTYLE
  5
9F
102
{ACAD_XDICTIONARY
360
74F
102
}
102
{ACAD_REACTORS
330
95
102
}
330
95
100
AcDbVisualStyle
  2
Realistic
 70
     8
177
     2
291
     0
 71
     2
176
     1
 72
     3
176
     1
 73
     0
176
     1
 90
        2
176
     1
 40
0.6
176
     1
 41
30.0
176
     1
 63
     7
421
 16777215
176
     1
 74
     0
176
     1
 91
        0
176
     1
 64
     7
176
     1
 65
   257
176
     1
 75
     1
176
     1
175
     1
176
     1
 42
1.0
176
     1
 92
        8
176
     1
 66
   257
176
     1
 43
1.0
176
     1
 76
     1
176
     1
 77
     6
176
     1
 78
     2
176
     1
 67
     7
176
     1
 79
     3
176
     1
170
     0
176
     1
171
     0
176
     1
290
     0
176
     1
 93
       13
176
     1
 44
0.0
176
     1
173
     0
176
     1
1001
ACAD
1000
AcDbSavedByObjectVersion
1070
     0
  0
VISUALSTYLE
  5
17F
102
{ACAD_XDICTIONARY
360
76B
102
}
102
{ACAD_REACTORS
330
95
102
}
330
95
100
AcDbVisualStyle
  2
Shaded
 70
    27
177
     2
291
     0
 71
     2
176
     1
 72
     2
176
     1
 73
     1
176
     1
 90
        2
176
     1
 40
0.6
176
     1
 41
30.0
176
     1
 63
     7
421
 16777215
176
     1
 74
     0
176
     1
 91
        4
176
     1
 64
     7
176
     1
 65
   257
176
     1
 75
     1
176
     1
175
     1
176
     1
 42
1.0
176
     1
 92
        8
176
     1
 66
   257
176
     1
 43
1.0
176
     1
 76
     1
176
     1
 77
     6
176
     1
 78
     2
176
     1
 67
     8
425
  7895160
176
     1
 79
     3
176
     1
170
     0
176
     1
171
     0
176
     1
290
     0
176
     1
 93
        5
176
     1
 44
0.0
176
     1
173
     0
176
     1
1001
ACAD
1000
AcDbSavedByObjectVersion
1070
     0
  0
VISUALSTYLE
  5
17E
102
{ACAD_XDICTIONARY
360
769
102
}
102
{ACAD_REACTORS
330
95
102
}
330
95
100
AcDbVisualStyle
  2
Shaded with edges
 70
    26
177
     2
291
     0
 71
     2
176
     1
 72
     2
176
     1
 73
     1
176
     1
 90
        2
176
     1
 40
0.6
176
     1
 41
30.0
176
     1
 63
     7
421
 16777215
176
     1
 74
     1
176
     1
 91
        2
176
     1
 64
     7
176
     1
 65
   257
176
     1
 75
     2
176
     1
175
     1
176
     1
 42
1.0
176
     1
 92
        8
176
     1
 66
   257
176
     1
 43
1.0
176
     1
 76
     1
176
     1
 77
     6
176
     1
 78
     2
176
     1
 67
     7
176
     1
 79
     3
176
     1
170
     0
176
     1
171
     0
176
     1
290
     0
176
     1
 93
        5
176
     1
 44
0.0
176
     1
173
     0
176
     1
1001
ACAD
1000
AcDbSavedByObjectVersion
1070
     0
  0
VISUALSTYLE
  5
17B
102
{ACAD_XDICTIONARY
360
763
102
}
102
{ACAD_REACTORS
330
95
102
}
330
95
100
AcDbVisualStyle
  2
Shades of Gray
 70
    23
177
     2
291
     0
 71
     2
176
     1
 72
     2
176
     1
 73
     3
176
     1
 90
        0
176
     1
 40
0.6
176
     1
 41
30.0
176
     1
 63
     7
421
 16777215
176
     1
 74
     2
176
     1
 91
        2
176
     1
 64
     7
176
     1
 65
     7
176
     1
 75
     1
176
     1
175
     1
176
     1
 42
40.0
176
     1
 92
        8
176
     1
 66
     7
176
     1
 43
1.0
176
     1
 76
     1
176
     1
 77
     6
176
     1
 78
     2
176
     1
 67
     7
176
     1
 79
     3
176
     1
170
     0
176
     1
171
     0
176
     1
290
     0
176
     1
 93
        1
176
     1
 44
0.0
176
     1
173
     0
176
     1
1001
ACAD
1000
AcDbSavedByObjectVersion
1070
     0
  0
VISUALSTYLE
  5
17C
102
{ACAD_XDICTIONARY
360
765
102
}
102
{ACAD_REACTORS
330
95
102
}
330
95
100
AcDbVisualStyle
  2
Sketchy
 70
    24
177
     2
291
     0
 71
     1
176
     1
 72
     2
176
     1
 73
     2
176
     1
 90
        0
176
     1
 40
0.6
176
     1
 41
30.0
176
     1
 63
     7
421
 16777215
176
     1
 74
     2
176
     1
 91
        2
176
     1
 64
     7
176
     1
 65
     7
176
     1
 75
     1
176
     1
175
     1
176
     1
 42
40.0
176
     1
 92
       11
176
     1
 66
     7
176
     1
 43
1.0
176
     1
 76
     1
176
     1
 77
     6
176
     1
 78
     2
176
     1
 67
     7
176
     1
 79
     6
176
     1
170
     0
176
     1
171
     0
176
     1
290
     0
176
     1
 93
        1
176
     1
 44
0.0
176
     1
173
     0
176
     1
1001
ACAD
1000
AcDbSavedByObjectVersion
1070
     0
  0
VISUALSTYLE
  5
A2
102
{ACAD_XDICTIONARY
360
755
102
}
102
{ACAD_REACTORS
330
95
102
}
330
95
100
AcDbVisualStyle
  2
Thicken
 70
    13
177
     2
291
     1
 71
     2
176
     1
 72
     2
176
     1
 73
     1
176
     1
 90
        0
176
     1
 40
0.6
176
     1
 41
30.0
176
     1
 63
     7
421
 16777215
176
     1
 74
     1
176
     1
 91
        4
176
     1
 64
     7
176
     1
 65
   257
176
     1
 75
     1
176
     1
175
     1
176
     1
 42
1.0
176
     1
 92
       12
176
     1
 66
     7
176
     1
 43
1.0
176
     1
 76
     1
176
     1
 77
     6
176
     1
 78
     2
176
     1
 67
     7
176
     1
 79
     5
176
     1
170
     0
176
     1
171
     0
176
     1
290
     0
176
     1
 93
        1
176
     1
 44
0.0
176
     1
173
     0
176
     1
1001
ACAD
1000
AcDbSavedByObjectVersion
1070
     0
  0
VISUALSTYLE
  5
9C
102
{ACAD_XDICTIONARY
360
749
102
}
102
{ACAD_REACTORS
330
95
102
}
330
95
100
AcDbVisualStyle
  2
Wireframe
 70
     5
177
     2
291
     0
 71
     0
176
     1
 72
     2
176
     1
 73
     0
176
     1
 90
        0
176
     1
 40
0.6
176
     1
 41
30.0
176
     1
 63
     7
421
 16777215
176
     1
 74
     1
176
     1
 91
        4
176
     1
 64
     7
176
     1
 65
   257
176
     1
 75
     1
176
     1
175
     1
176
     1
 42
1.0
176
     1
 92
        0
176
     1
 66
   257
176
     1
 43
1.0
176
     1
 76
     1
176
     1
 77
     6
176
     1
 78
     2
176
     1
 67
     7
176
     1
 79
     3
176
     1
170
     0
176
     1
171
     0
176
     1
290
     0
176
     1
 93
        1
176
     1
 44
0.0
176
     1
173
     0
176
     1
1001
ACAD
1000
AcDbSavedByObjectVersion
1070
     0
  0
VISUALSTYLE
  5
17D
102
{ACAD_XDICTIONARY
360
767
102
}
102
{ACAD_REACTORS
330
95
102
}
330
95
100
AcDbVisualStyle
  2
X-Ray
 70
    25
177
     2
291
     0
 71
     2
176
     1
 72
     2
176
     1
 73
     1
176
     1
 90
        1
176
     1
 40
0.5
176
     1
 41
30.0
176
     1
 63
     7
421
 16777215
176
     1
 74
     1
176
     1
 91
        0
176
     1
 64
     7
176
     1
 65
   257
176
     1
 75
     1
176
     1
175
     1
176
     1
 42
1.0
176
     1
 92
        8
176
     1
 66
     7
176
     1
 43
1.0
176
     1
 76
     1
176
     1
 77
     6
176
     1
 78
     2
176
     1
 67
     7
176
     1
 79
     3
176
     1
170
     0
176
     1
171
     0
176
     1
290
     0
176
     1
 93
       13
176
     1
 44
0.0
176
     1
173
     0
176
     1
1001
ACAD
1000
AcDbSavedByObjectVersion
1070
     0
  0
DICTIONARYVAR
  5
EB
102
{ACAD_REACTORS
330
59
102
}
330
59
100
DictionaryVariables
280
     0
  1
1:1
  0
DICTIONARYVAR
  5
EA
102
{ACAD_REACTORS
330
59
102
}
330
59
100
DictionaryVariables
280
     0
  1
STANDARD
  0
DICTIONARYVAR
  5
AB
102
{ACAD_REACTORS
330
59
102
}
330
59
100
DictionaryVariables
280
     0
  1
STANDARD
  0
DICTIONARYVAR
  5
1B4
102
{ACAD_REACTORS
330
59
102
}
330
59
100
DictionaryVariables
280
     0
  1
Imperial24
  0
DICTIONARYVAR
  5
1B5
102
{ACAD_REACTORS
330
59
102
}
330
59
100
DictionaryVariables
280
     0
  1
Imperial24
  0
DICTIONARYVAR
  5
5A
102
{ACAD_REACTORS
330
59
102
}
330
59
100
DictionaryVariables
280
     0
  1
2
  0
DICTIONARYVAR
  5
5E
102
{ACAD_REACTORS
330
59
102
}
330
59
100
DictionaryVariables
280
     0
  1
1
  0
DICTIONARYVAR
  5
14A
102
{ACAD_REACTORS
330
59
102
}
330
59
100
DictionaryVariables
280
     0
  1
0
  0
DICTIONARYVAR
  5
14B
102
{ACAD_REACTORS
330
59
102
}
330
59
100
DictionaryVariables
280
     0
  1
0
  0
DICTIONARY
  5
76F
330
1A9
100
AcDbDictionary
280
     1
281
     1
  3
ACAD_XREC_ROUNDTRIP
360
770
  0
DICTIONARY
  5
773
330
22E
100
AcDbDictionary
280
     1
281
     1
  3
ACAD_XREC_ROUNDTRIP
360
774
  0
DICTIONARY
  5
191
330
22
100
AcDbDictionary
280
     1
281
     1
  0
DICTIONARY
  5
185
330
93
100
AcDbDictionary
280
     1
281
     1
  3
FBXASSET
360
186
  0
DICTIONARY
  5
183
330
92
100
AcDbDictionary
280
     1
281
     1
  3
FBXASSET
360
184
  0
DICTIONARY
  5
10B
330
94
100
AcDbDictionary
280
     1
281
     1
  3
BUMPTILE
360
10D
  3
DIFFUSETILE
360
10C
  3
FBXASSET
360
187
  3
OPACITYTILE
360
10E
  3
REFLECTIONTILE
360
10F
  0
XRECORD
  5
6AC
102
{ACAD_REACTORS
330
6AB
102
}
330
6AB
100
AcDbXrecord
280
     1
 70
     2
 71
     3
 72
     0
  0
DICTIONARY
  5
76D
330
1A7
100
AcDbDictionary
280
     1
281
     1
  3
ACAD_XREC_ROUNDTRIP
360
76E
  0
DICTIONARY
  5
771
330
22D
100
AcDbDictionary
280
     1
281
     1
  3
ACAD_XREC_ROUNDTRIP
360
772
  0
DICTIONARY
  5
FF
330
A7
100
AcDbDictionary
280
     1
281
     1
  3
ACAD_ROUNDTRIP_2008_TABLESTYLE_CELLSTYLEMAP
360
73B
  0
DICTIONARY
  5
747
330
9B
100
AcDbDictionary
280
     1
281
     1
  3
ACAD_XREC_ROUNDTRIP
360
748
  0
DICTIONARY
  5
745
330
9A
100
AcDbDictionary
280
     1
281
     1
  3
ACAD_XREC_ROUNDTRIP
360
746
  0
DICTIONARY
  5
753
330
A1
100
AcDbDictionary
280
     1
281
     1
  3
ACAD_XREC_ROUNDTRIP
360
754
  0
DICTIONARY
  5
75B
330
A5
100
AcDbDictionary
280
     1
281
     1
  3
ACAD_XREC_ROUNDTRIP
360
75C
  0
DICTIONARY
  5
74D
330
9E
100
AcDbDictionary
280
     1
281
     1
  3
ACAD_XREC_ROUNDTRIP
360
74E
  0
DICTIONARY
  5
751
330
A0
100
AcDbDictionary
280
     1
281
     1
  3
ACAD_XREC_ROUNDTRIP
360
752
  0
DICTIONARY
  5
761
330
172
100
AcDbDictionary
280
     1
281
     1
  3
ACAD_XREC_ROUNDTRIP
360
762
  0
DICTIONARY
  5
759
330
A4
100
AcDbDictionary
280
     1
281
     1
  3
ACAD_XREC_ROUNDTRIP
360
75A
  0
DICTIONARY
  5
73D
330
96
100
AcDbDictionary
280
     1
281
     1
  3
ACAD_XREC_ROUNDTRIP
360
73E
  0
DICTIONARY
  5
73F
330
97
100
AcDbDictionary
280
     1
281
     1
  3
ACAD_XREC_ROUNDTRIP
360
740
  0
DICTIONARY
  5
741
330
98
100
AcDbDictionary
280
     1
281
     1
  3
ACAD_XREC_ROUNDTRIP
360
742
  0
DICTIONARY
  5
743
330
99
100
AcDbDictionary
280
     1
281
     1
  3
ACAD_XREC_ROUNDTRIP
360
744
  0
DICTIONARY
  5
74B
330
9D
100
AcDbDictionary
280
     1
281
     1
  3
ACAD_XREC_ROUNDTRIP
360
74C
  0
DICTIONARY
  5
75D
330
170
100
AcDbDictionary
280
     1
281
     1
  3
ACAD_XREC_ROUNDTRIP
360
75E
  0
DICTIONARY
  5
757
330
A3
100
AcDbDictionary
280
     1
281
     1
  3
ACAD_XREC_ROUNDTRIP
360
758
  0
DICTIONARY
  5
75F
330
171
100
AcDbDictionary
280
     1
281
     1
  3
ACAD_XREC_ROUNDTRIP
360
760
  0
DICTIONARY
  5
74F
330
9F
100
AcDbDictionary
280
     1
281
     1
  3
ACAD_XREC_ROUNDTRIP
360
750
  0
DICTIONARY
  5
76B
330
17F
100
AcDbDictionary
280
     1
281
     1
  3
ACAD_XREC_ROUNDTRIP
360
76C
  0
DICTIONARY
  5
769
330
17E
100
AcDbDictionary
280
     1
281
     1
  3
ACAD_XREC_ROUNDTRIP
360
76A
  0
DICTIONARY
  5
763
330
17B
100
AcDbDictionary
280
     1
281
     1
  3
ACAD_XREC_ROUNDTRIP
360
764
  0
DICTIONARY
  5
765
330
17C
100
AcDbDictionary
280
     1
281
     1
  3
ACAD_XREC_ROUNDTRIP
360
766
  0
DICTIONARY
  5
755
330
A2
100
AcDbDictionary
280
     1
281
     1
  3
ACAD_XREC_ROUNDTRIP
360
756
  0
DICTIONARY
  5
749
330
9C
100
AcDbDictionary
280
     1
281
     1
  3
ACAD_XREC_ROUNDTRIP
360
74A
  0
DICTIONARY
  5
767
330
17D
100
AcDbDictionary
280
     1
281
     1
  3
ACAD_XREC_ROUNDTRIP
360
768
  0
XRECORD
  5
770
102
{ACAD_REACTORS
330
76F
102
}
330
76F
100
AcDbXrecord
280
     1
102
DISPLAYNAME
  1
Imperial24
102
FLAGS
 90
        0
  0
XRECORD
  5
774
102
{ACAD_REACTORS
330
773
102
}
330
773
100
AcDbXrecord
280
     1
102
DISPLAYNAME
  1
Metric50
102
FLAGS
 90
        0
  0
XRECORD
  5
186
102
{ACAD_REACTORS
330
185
102
}
330
185
100
AcDbXrecord
280
     1
 70
     1
 90
429727718
  1
7581DE8E-A623-425F-9BF4-B3F4BE6C4F9A
310
504B03040A0000080000AC70623B3DEE336E79000000790000001B0000006175746F6465736B2D64657369676E2D7061636B6167652E786D6C3C3F786D6C2076657273696F6E3D22312E302220656E636F64696E673D227574662D3822203F3E3C666F726D6174733E3C666F726D61743E687474703A2F2F736368656D612E
310
6175746F6465736B2E636F6D2F64657369676E2D7061636B6167652F323030393C2F666F726D61743E3C2F666F726D6174733E504B0304140006080800AC70623BD486FD9CA0000000F4000000130000005B436F6E74656E745F54797065735D2E786D6C7D8EC10E82300C865F65E91D8A1E8C310C0EEA1BF002731658846E
310
D98AC1B77784ABF1D8FE5FBFBF75BBCE937A534CCEB38643598122B6FEE978D0B0485F9C41B54DDD7D022595594E1A469170414C76A4D9A4D207E29CF43ECE46F218070CC6BECC4078ACAA135ACF422C856C0E68EA1BF5669944DDD7BCDE7B1F8E415D77AECB980613C2E4AC91FC167A2B244592486606FC29C8FD7F045B9A
310
EF7053A7E60B504B0304140006080800AC70623B9A2F3B5FEC0000007C01000008000000636F72652E786D6C8D90416E83301045AF62CDB632D8040820E328B4E204BD80653BC44AB011B6AB1EBF262152BBEB6A467FFE9B197D76FA9EEFE84BAFDE38DB03CD08206DA553C64E3DC470C10DA01367AB73E1970D9015B3EE61
310
9381B3697571D925E96CD03624D53AA5775178AF0320794F4D0F5E5EF52C32114372F85BB608791393CEE8AB4B708C46A1E711A3D23E73317A055E0D4D53D6C71A9FC7A1C6657D18703354232ECFED4731B6B43CBED72CDF60CE82995FF7E5AA45D00A7841488B29C5A4F8A46547AAAEA8DE48D311C2F2CDFE078A8BFA2714
310
8D0D87627FF78979E0343DF21870966F59A4F2082AD52D37FE03504B0304140006080800AC70623B55019EA25F0000007C00000007000000636E782E786D6C4DCB3B0E80201045D1AD90E915ED2CF8AC45050C11660C8261F98AB1B07AC9C97D42D718D865D3E909258CFD00CCE24AC6E326A164D74DC0B4128928FF326038
310
472BA13128B1252AC747C6BAB984FC68F0B87FE8960A5C09FE86CFB69FBA01504B0304140006080800AC70623B6E137E0172010000D40300000C0000006662782F636F72652E786D6CC5535B6E833010BC8AE5DF0A6C0810121947A1554ED00B38E05014B091B1518EDFE511A5A9D22AFD2A1F60CDEC7A67C698ED2E6D8306
310
69FA5AAB0C073EC548AA4297B5AA32ECECC94B31DA7166B4B65FCA3052A295191E61CC5965B4EB16A8D0CA4A650155BA940B28FA5E5A8C8A061619EE8B0FD90A5F380B15FDD9EF44711695F4031F68A8E3ACB70604A079C8F8C6FC74BC3032E39C3957970B5B9730AD3ED5D2601EE7691A25EBC4DB1FF2C48B9255EEA5797C
310
F0A2FDE62D3C6C8268FD9A3032367366EBF6AAAE30525859621E52BAF182C0A3E17B106D69BC0DE3179A6E2965642CBF6B725DF96493AB955D858BDCB9ADC73C002113F1CD2D4464512F06D04338236388F09912BE0F1A028190AD3836571F67800659586D22604AED6ED4201A27612AF5E9F4A09F178CCC9D3075DA1C5C3F
310
9C113E3DE3F71DE1A885AAC084B0B03C3A3BEA64B38625B44E1A6FB017A4B46945F39C8D5F1CFE89BA897F28A9D08D36FFA5882C074496DF838CF7917F02504B0304140006080800AC70623BE001BAC07D0000009D0000000B0000006662782F636E782E786D6C4DCCD10AC2201886E15B91FFDCA6536B037548D87D8CE686
310
E4344CA3CB6F8B1D74F4C1C3C72B87CF1AD0DBE5974F51013D11402EDED3E4E3A2A096197780062D734AE5EF06288EAB53B03368B9E4549F074D6E1E6B289B061F1F07124689687987B9601C7373BD60C36E065B6A6DDF7341A93843A365F32B6DBB87F517504B0304140006080800AC70623B8E5068122901000012020000
310
310000006662782F30333130353234382D343533342D344143372D413346412D4531454539393435313135362F636F72652E786D6C8D515B6EC32010BC0AE22B55850D364E93081345557A825E801892A2C460F1A872FC2EB523B57FF961D1EECCECECAED8DFC71BFA36215AEF7ACC2A8A917183D7D65D7A9CD3996C30DA4B
310
11BC4F7F601839359A1E973496E2127C9E96D4E05D322E41D6796D96A48AD1248C861B7C7A1C872F33AA4AE5048878AD26355CD5C554AC8232E0A4882980013437292F96B465B46BF886F0AEE5841FDEDFC8A1FD3890233B1EB75BDE31D6AD453D13A5C8D9EA856E35D8B1676BC2B322852C45B2E3C3FE108C4A4663D950BA
310
258C11DA7C32BEA3DDAEE95EE96647A9A80BFC1F294FFA4952B62EB5CD6277A6452C99A8E78214DAE7D3ED61C6DC271F122AFD56D10C2F305545CB6A60FC1908E383E29A2F8A31F900EB5D5D4F8065DD2CBBE652D4E542107ECF07B15C53FE00504B0304140006080800AC70623B503B51794E010000330300003000000066
310
62782F30333130353234382D343533342D344143372D413346412D4531454539393435313135362F636E782E786D6CD593C16EC32010447F0571AD6CE3D489D20813A9877E410FBD62D82434182CC055F3F75D1292E692438FBD206B7698593D61BEFD1E2DF982108D773D6D6B460938E5B571FB9ECE6957AD29D90A1EBC4F
310
77364A9C1CA1A759A682EF839FA72269D8C9D92654AD71C72206887E0E0A22CAF926B15E498B01E0AA19451807D01A34B919F16B070157417138917400F2F6FA41FCF0092A45DEE414C19BDC21783E4BD39D891265658C3D8DEA00A3ACE59CBC8678ACB54CB26EEB6BD7839D7E9348BE70AD9C8321B9BCA7F9A4A26C542347
310
DEE050F09802D22BA6749A800A394DD62899107273365E3C82CFC6A55557BC06C10774B7ABE7AEC3B0F34CF06446280E154026D0542C187BA9DAB6628BF7B6DBB0E566B17C62EB0D63BCC976C107EF6DB9843110FC449477095CA2A2E54D1E3FC2577C449B80AC7D38FD01240228AD173AB78CFFCCA739BF6FC415F02F103F
310
504B0304140006080800AC70623B38FA165F680500003C100000340000006662782F30333130353234382D343533342D344143372D413346412D4531454539393435313135362F6F626A656374732E786D6CAD575D6FA33814FD2B887D0E8424EDB42BCAA8499A2A1A756634D18CF6A15264C0A16CC146B6E9A4FBEBF7180C
310
019276B21F7908D8D8F7F3DCE36BFFE33ECFAC172A64CAD98DED3963DBA22CE271CA921BBB54BBD1956D7D0C7CC1B9EA2CB32D46727A63EB693BF013C1CBC24CC57447CA4C0D6657F33F2C1951466D2BCA889437B68C9E684E1C522A1E53F9ECC4441127D9ED1DCFA917F6C52682144F03A105119429588A790629566D94D7
310
1F8E6D37F05DFD3DF0F5BF59357D7B955BF9D3D79F32A9088B8E940DC44CBDD9F26E72713DBA98CDA6A3D9E5C41BCD57F3E5C8FB301D2F2E178BEBDBBB6B28964A4092B144D09D1DDC2336228D7CB7FED45A6C0C3F6552C419A351E53F3CAC6C3612635A5016238F2995D0D6F17ADC1F7A3A369DCF533D362ABBD3E779D5DD
310
D111D4D8DE3CBB96F2F04FB820CF41859054A3AA8E8F71B4C6DFF810B590F3CC7C4BA5951345454A322B4B4341C4AB1D60A95E12F83D311A9D42235C7B6007DE415ED75694C6AFB17BCACA5D99651A9A7650217B0BFC53252BCBD2BFA838AD0D36215765CAD4957148BD16D40EAE7DB79A0C7CFD984ECCC73A90D62E230952
310
0E37EBAF034717BAF6D64B3BF8B40AF71B5D8FA79517821754280D1F40AB495CF3D451326ABDB332A737C0995ECC0F41F986C87F46F91E4C41DE44BA9FED67468B1284C91D173972E38CAB9F356E5E46EDDBF10BF86CB0FA784D3BF3AF16FB6E6B6C9F30DECA1FC0A55373F5DFF3D78F5917A99DF405FE0B0A8C8BA909E526
310
2219A8E72165488806A595714C81CB77E1DE0ED6604A303B76912C680372F4E2BB2FF88EFF5A36D8AA52DF79322474C0B767303F625995056C7B032C473C592936CEBD15F38BFFA5666E979B4F9B52EC48441F0CB12CE92E65A9C2D979006FD7A05E227A1E3DD3D79F5CC470F438099B6E1272A34A22DA3AE63AF0497358E8
310
C141734F41847D09D79CE7FF42C3432A239A6584515E365ADA634863B52519D327A00AEB804E2703140BFA92EA4EA2B7A26716CEFA48A4850E597BE8B53CEDBCE1CBF7F56780D20EE6AF73A0F5F9B02A3CD07DC4332EB6E1EBB666421BE0C39E3EBA7FF4E16D22EA6A29407C85E586724C88B771BADB9512BC7B228A3FD68B
310
6EA65A22397E690AA8D158D7E40CEC8CDA23C2C0B7D1898640101CEC9C6D531CE328CB93CABBBA870A6425F70DF96199175B92F392A973C2346EFC69AC6F8577BB18F993A8E8C90E36D573340765C7343EA4AA87027D049DF0A9979E0F1757DEF2EEEA6E747B39412B35B9588DAEE7ABD9683E5DCDE677978BD9EAFAB6B5A8
310
B224F09B13AA5B8388264E44BF14A909F3F7F5A16CEDE08128E9DED705E526F5F3FBDA415BECBBD80380B71BD77991D19C3245347C1FF44BF68DA0ABE8C9A8E7D73949E81952BEDC6F063660E68C7D5F75A9D19F83BD6676A16BE1A410F554E621236936D8681C770A9618B79B50B6CF9AD19BA11E9978A20F953C4B63104E
310
6C2594E7548176CE607B915309C474BBF2D8DC1ECED8FD52F7838A84196D2C79226889330954036E65A4FAF3D66F68E174177563E3B0739EF1670AD1B690EA1B1BFCA6D2884A27C4F1A81B9F4A3820802EAC2541408DB02443675D6F6AC7ED2E1D1BD00F4E40A3BF5D724EB764FCEA116F4E8A02A7768F562BDB8C82E81F39
310
DE98631185D7B054AD2F8789D6994A0D2AAB76CADC0DD0423C1BD57BD4D7FB6E794EB5A61791B3EE49EF82A0963A524424D5BD40DB674CBA5D7E75D10A58EB2F569195097279BEA491A00073A90B1C28022A8CCC82284075F1FBE357C17117CDAD550A083C2E789E736606B7E62E6B6D9E70338D1F410B545F3FE464EC798F
310
55D76F2E22DB9048EA90583E63A22938EDC1006B00E4D1716A52E0EA1C0C96AF9796393066105A81F6A829ADAFE1168A47DF1C75A974C9B278B7F177ABA5008340CB1EFC0D504B0304140006080000AC70623B000000000000000000000000350000006662782F30333130353234382D343533342D344143372D413346412D
310
4531454539393435313135362F76657274696365732E62696E504B0304140006080800AC70623BF270F1330600000004000000360000006662782F30333130353234382D343533342D344143372D413346412D4531454539393435313135362F747269616E676C65732E62696E636660600000504B0304140006080000AC70
310
623B000000000000000000000000370000006662782F30333130353234382D343533342D344143372D413346412D4531454539393435313135362F617474726962757465732E62696E504B0304140006080800AC70623B08DA0BD19000000041010000360000006662782F30333130353234382D343533342D344143372D41
310
3346412D4531454539393435313135362F6469726563746F72792E786D6C858F410AC3201045AF22B36F53E9A60B35CBEEBAE80D244E44489C6234F4F835464A48035D0DF398FF9F8AF63D0E6CC63039F212F8F9020C7D47C6792B21C5FE7403D62A1188E2E60C98D7234A5830286103A55745067B9D86B8A3CF9C7F90C11D
310
E607FB144396D7B6A82D282E9A152AD114D5EF2CB866EEE831B8EEA07A7BB5A8D7D61A2BAAEB7FD5F70921FF497D00504B0304140006080800AC70623BF2C5666EFF000000A00100003B0000006662782F30333130353234382D343533342D344143372D413346412D4531454539393435313135362F7265736F7572636573
310
2F636F72652E786D6C8D504B6E833010BD0A9A6D65B00910888CA3D02A27E8052C33A156821DF953F5F8B5132AB5BB6E6646EFA3797AFCF8B5DE8A4F745E5B33022B291468949DB5594688E1427A288E823B6BC32F191446AE38428641F0C5D978DF20654D4013126AEC8C1B28BDC70085BAA56304AF3E7095A58C2129FCB5
310
BC4B75950B96AC4C74D209EE834B018AE7933C4138F4363A859E574F56F018F5BC69F49C7EEA8B4607A29DFABEE9F62D399DA78E34DD6E22FDD49E49731ADEEAF3C09AFD6BC7AB6C163CE8F527A3722803CE206A4A07C218A1F53B6B0EB43DD4ED0BED0F94F22ACBFF98E27DFEA7296A1376F516F769F320580AF22004AF72
310
5F693DCA4C3B772BBE01504B010214000A0000080000AC70623B3DEE336E79000000790000001B00000000000000000000000000000000006175746F6465736B2D64657369676E2D7061636B6167652E786D6C504B01021400140006080800AC70623BD486FD9CA0000000F40000001300000000000000000000000000B200
310
00005B436F6E74656E745F54797065735D2E786D6C504B01021400140006080800AC70623B9A2F3B5FEC0000007C010000080000000000000000000000000083010000636F72652E786D6C504B01021400140006080800AC70623B55019EA25F0000007C000000070000000000000000000000000095020000636E782E786D
310
6C504B01021400140006080800AC70623B6E137E0172010000D40300000C00000000000000000000000000190300006662782F636F72652E786D6C504B01021400140006080800AC70623BE001BAC07D0000009D0000000B00000000000000000000000000B50400006662782F636E782E786D6C504B010214001400060808
310
00AC70623B8E506812290100001202000031000000000000000000000000005B0500006662782F30333130353234382D343533342D344143372D413346412D4531454539393435313135362F636F72652E786D6C504B01021400140006080800AC70623B503B51794E010000330300003000000000000000000000000000D3
310
0600006662782F30333130353234382D343533342D344143372D413346412D4531454539393435313135362F636E782E786D6C504B01021400140006080800AC70623B38FA165F680500003C10000034000000000000000000000000006F0800006662782F30333130353234382D343533342D344143372D413346412D4531
310
454539393435313135362F6F626A656374732E786D6C504B01021400140006080000AC70623B0000000000000000000000003500000000000000000000000000290E00006662782F30333130353234382D343533342D344143372D413346412D4531454539393435313135362F76657274696365732E62696E504B01021400
310
140006080800AC70623BF270F133060000000400000036000000000000000000000000007C0E00006662782F30333130353234382D343533342D344143372D413346412D4531454539393435313135362F747269616E676C65732E62696E504B01021400140006080000AC70623B0000000000000000000000003700000000
310
000000000000000000D60E00006662782F30333130353234382D343533342D344143372D413346412D4531454539393435313135362F617474726962757465732E62696E504B01021400140006080800AC70623B08DA0BD1900000004101000036000000000000000000000000002B0F00006662782F30333130353234382D
310
343533342D344143372D413346412D4531454539393435313135362F6469726563746F72792E786D6C504B01021400140006080800AC70623BF2C5666EFF000000A00100003B000000000000000000000000000F1000006662782F30333130353234382D343533342D344143372D413346412D453145453939343531313536
310
2F7265736F75726365732F636F72652E786D6C504B0506000000000E000E0080040000671100000000
  0
XRECORD
  5
184
102
{ACAD_REACTORS
330
183
102
}
330
183
100
AcDbXrecord
280
     1
 70
     1
 90
429727718
  1
778E3A9F-1AF3-452F-85C1-1BC15BD3F630
310
504B03040A0000080000AC70623B3DEE336E79000000790000001B0000006175746F6465736B2D64657369676E2D7061636B6167652E786D6C3C3F786D6C2076657273696F6E3D22312E302220656E636F64696E673D227574662D3822203F3E3C666F726D6174733E3C666F726D61743E687474703A2F2F736368656D612E
310
6175746F6465736B2E636F6D2F64657369676E2D7061636B6167652F323030393C2F666F726D61743E3C2F666F726D6174733E504B0304140006080800AC70623BD486FD9CA0000000F4000000130000005B436F6E74656E745F54797065735D2E786D6C7D8EC10E82300C865F65E91D8A1E8C310C0EEA1BF002731658846E
310
D98AC1B77784ABF1D8FE5FBFBF75BBCE937A534CCEB38643598122B6FEE978D0B0485F9C41B54DDD7D022595594E1A469170414C76A4D9A4D207E29CF43ECE46F218070CC6BECC4078ACAA135ACF422C856C0E68EA1BF5669944DDD7BCDE7B1F8E415D77AECB980613C2E4AC91FC167A2B244592486606FC29C8FD7F045B9A
310
EF7053A7E60B504B0304140006080800AC70623BFD5588D4EC0000007C01000008000000636F72652E786D6C8D90416EC3201045AF82665B6103891DC7C24471939CA01740405C94182C03558F5F9C3852BBEB6A467FFE9B197D7EF81EEFE8CBCCC17AD7012D0820E394D7D60D1DA478C50DA083E0B3F7F1970D9093A3E960
310
9141F061F6695A25E55D342E66D5796D56518660222075CF4D07417D9A511632C5EC08B76292EA260753D05797E194AC46CF2356E77DF66ACD0C62C768BD63971E5727D2E06DDF9C71BF7B3FE10BABF79BFA488FE4DCF07281058F767CDD57B391D168108C903DA61413F641B72DA95A56BD91A62584978BFD0F9426FD4F28
310
5917376C7DF7890510343FF218085E2E59E4F2082AD72537F103504B0304140006080800AC70623B55019EA25F0000007C00000007000000636E782E786D6C4DCB3B0E80201045D1AD90E915ED2CF8AC45050C11660C8261F98AB1B07AC9C97D42D718D865D3E909258CFD00CCE24AC6E326A164D74DC0B4128928FF326038
310
472BA13128B1252AC747C6BAB984FC68F0B87FE8960A5C09FE86CFB69FBA01504B0304140006080800AC70623BB5D38BAD72010000D40300000C0000006662782F636F72652E786D6CC553DB8E823014FC95A6AF1B68C11B9A52A3AB7EC1FE4085CA36424B4A4BFCFC3D5C8CEBC635EED3F200CDCC393D3353CAD697AA44AD
310
B48D323AC5514831923A33B9D2458ABD3B0509466BCEAC31EE5B19465A5432C51D8C392BACF1F50865463BA91DA0DAE4720445D348875156C222C54DF6292B110AEFA0A23987B5C8CEA2906114020D759C35CE8200340CE9DE989F8E1746069C33EF553EB22A8769EAA4A4C57C1147F3457CD806B31D4D82E936D907DBC5FB
310
2E38C4F3E564BE8936749F30D23573E65475559759299CCC318F295D065114D0F8239AAEE86C15CFDE68B2A29491AEFCAEC9D7F98B4D5E69378947B9435B837904427AE2875B88C8A146B4A0877046BA10E1D3277C1F340402213B712CAF3ECE00B53273C64E81C98DBF51AD28BD84A934A4FD837E5F303274C2D47E7370FD
310
7046FCF28CE73BC2510B5D8009E16079F4AED3C9060D6368B5B441EB2E481B5B89F2351B4F1CFE89BA897F282933A5B1FFA5888C0744C6DF8374F7917F01504B0304140006080800AC70623B09885E1C7E0000009D0000000B0000006662782F636E782E786D6C4DCCDF0A83201C86E15B91DFB9CBA6FD11D41063F711CB42
310
663A9C8E5DFE6A74B0A30F1E3E5E317C368FDE36BD5C0C12EA0B0164C33DCE2EAC124A5E700F685022C598FF6E80C2B459090783126B8AE579D26C97A9F8BCAB77E17122E586D5843498B3EE8699D114F39E5E713D76EDA84DCBB569A052A2FA95F63DC2EA0B504B0304140006080800AC70623B961D28872A010000120200
310
00310000006662782F33394334313030352D393437462D344341332D393833322D3144373644414336394143352F636F72652E786D6C8D515B6EC32010BC8AC557AA0A1BFC4A1C61A2C8514FD00B10435294182C1E558EDFA576A4F62F3F80666766875D76784CF7EC5B39AFADE911CD09CA9419ADD4E6DAA3182E7887B203
310
67CEDAF08786322326D5A30423CEAECEC67985466B8232015063A55A41E1BD0A281BEFF0E8911FBFD42472110330FC2D9FC578135795D31CCAC0E3CC070701B2A5493A11AFBAA1A68434B8ABB71FB81E8E15EE765589E969DB9E8E43DB1D8786158B90B318B55CE55A421C7DD1CABD6A92C49C053D3DE38F4E89A024E22521
310
1DA61493F293D67BD2ECCBE69DECF684B022D1FF89E22C5F14456D4255AE711799479CB2622970266D3CDF9F61D463B62E64A9DFC6ABF10D7192C35CCA0A040B11BE0F8E6DBD3AFA601D8C77733B0397C290926D5B7356A40DC1F5BB3EB8D336F90F504B0304140006080800AC70623B503B51794E01000033030000300000
310
006662782F33394334313030352D393437462D344341332D393833322D3144373644414336394143352F636E782E786D6CD593C16EC32010447F0571AD6CE3D489D20813A9877E410FBD62D82434182CC055F3F75D1292E692438FBD206B7698593D61BEFD1E2DF982108D773D6D6B460938E5B571FB9ECE6957AD29D90A1E
310
BC4F77364A9C1CA1A759A682EF839FA72269D8C9D92654AD71C72206887E0E0A22CAF926B15E498B01E0AA19451807D01A34B919F16B070157417138917400F2F6FA41FCF0092A45DEE414C19BDC21783E4BD39D891265658C3D8DEA00A3ACE59CBC8678ACB54CB26EEB6BD7839D7E9348BE70AD9C8321B9BCA7F9A4A26C54
310
2347DEE050F09802D22BA6749A800A394DD62899107273365E3C82CFC6A55557BC06C10774B7ABE7AEC3B0F34CF06446280E154026D0542C187BA9DAB6628BF7B6DBB0E566B17C62EB0D63BCC976C107EF6DB9843110FC449477095CA2A2E54D1E3FC2577C449B80AC7D38FD01240228AD173AB78CFFCCA739BF6FC415F02F
310
103F504B0304140006080800AC70623B2EA4D28F640500003C100000340000006662782F33394334313030352D393437462D344341332D393833322D3144373644414336394143352F6F626A656374732E786D6CAD575D739B3814FD2B0CFB6C30B1D3263B844E6CC71D4F376DA79E76F621331E01326103122389C4E9AFDF
310
231018B09D7A3FFC609090EEE7B94757FE875D9E59CF54C894B31BDB73C6B64559C4E394253776A9B6A32BDBFA10F88273D559665B8CE4F4C6D6D376E027829785998AE99694991ACC2E677F5A32A28CDA569411296F6C193DD29C38A4543CA6F2C98989224EB2DD399E532FEC8B4D04291E07420B222853B014F30C52ACDA
310
28AF3F1CDB6EE0BBFA7BE0EB7FB36A727A955BF9D3D79F32A9088B0E940DC44CBCE9E2EEE2F27A74399D4E46D37717DE68B69C2D46DEFBC978FE6E3EBFBEBDBB8662A90424194B04DDDAC147C446A491EFD69F5A8B8DE1C74C8A386334AAFC878795CD46624C0BCA62E431A512DA3A5E8FFB434FC7A6F379A2C7466577FA3C
310
AFBA3B3A821ADB9B67D7521EFE0517E439A810926A54D5F1318ED6F81BEFA316729E996FA9B472A2A84849666569288878B5032CD54B02BF2746A35368846B0FECC0DBCBEBDA8AD2F835768F59B92DB34C43D30E2A646F807FAA646559FA938AE3DA60137255A64C5D1987D46B41EDE0DA77ABC9C0D78FC985F95807D2DA66
310
2441CAE166FD75E0E85CD7DE6A61079F96E16EADEBF1B8F242F0820AA5E1036835896B9E3A4A46AD7756E6F40638D38BF93E28DF10F9CF28DFBD29C89B4877D3DDD468518230B9E522476E9C71F5B3C6CDCBA87D3B7C019F0D561FAE6967FED562DF6D8DED13C6A9FC015C3A3557FF3D7FFD987591DA495FE03FA3C0B89898
310
50AE2392817AEE53868468505A19C714B87C1BEEEC6005A604B36317C9823620072FBEFB8CEFF8AF6583AD2AF59D274342077C7B06F323965559C0B6136039E0C94AB171EE54CC2FFF979AB95DAC3FAD4BB12511BD37C4B2A0DB94A50A67E71EBC5D837A89E879F4445F5FB888E1E86112D6DD24E4469544B475CC75E093E6
310
B0D083BDE69E8208FB12AE39CFFF8586FB544634CB08A3BC6CB4B4C790C66A4B32A64F4015D6019D5C0C502CE873AA3B89DE8A9E5938EB2391163A64EDA1D7F2B473C297EFABCF00A51DCC5EFF20AF5DC20CF7741FF18C8B4DF8BAA999D006F8B0A78FEE1F7D789B88BA5A0A105F61B9A11C13E24D9C6EB7A504EF1E89E28F
310
D5BC9BA996480E5F9A026A34D63539053BA3F68830F06D74A2211004073B679B14C738CAF2A8F2AEEEA10259C93D213F2CF36243725E32754E98C68D3F8DF5ADF06E17235F888A1EED605D3D473350764CE31309D547D0119F7AE979FFFEEA6E727BBD1C79B74BB4529717CBD1D5E5DC1B79B3B977395B4C96EF2638E6FA15
310
D09C50DD1A44347122FAA5484D98BFAFF6656B07F74449F7635D506E523FBFAF1CB4C5BE8B3D0078BB71951719CD295344C3F75EBF64DF08BA8A9E8C7A7E9593849E21E5CBC7F5C006CC9CB1EFAB2E35FA32D86B66E7BA168E0A518F651E329266838DC671A7608971BB0965FBAC19BD19EA918927FA50C9B33406E1C45642
310
794E1568E70CB6173995404CB72B8FCDEDE18CDDCF753FA84898D1C6924782963893403548A78C547FDEFA0D2D9CEEA26E6C1C76CE13FE4C21DA16527D6383DF541A51E984381E75E353090704D085B52408D0139664E8ACEB4DEDB8DDA56303FAC10968F4B74BCEE9968C5F3DE2CD4951E0D4EED16A659B5110FD23C71B73
310
2CA2F01A96AAF5653FD13A53A909C03570A77DA0857832AA77A8AFB7DDF29C6A4D2F2267DD93DE04412D75A48848AA7B810EBA31E976F1D5452B60ADBE58455626C8E5F992468202CCA52E70A008A830320BA200D5F9EF0F5F05C75D34B7962920F030E779CE9919DC9ABBACB57EC4CD347E002D507DFD901763CF7BA8BA7E
310
7311D984445287C4F209134DC1690F065803200F8E53733D73750E06CB570BCB1C185308AD407BD094D6D7700BC5A36F8EBA54BA6459BCD9F8BBD552A040A0650FFE06504B0304140006080000AC70623B000000000000000000000000350000006662782F33394334313030352D393437462D344341332D393833322D3144
310
373644414336394143352F76657274696365732E62696E504B0304140006080800AC70623BF270F1330600000004000000360000006662782F33394334313030352D393437462D344341332D393833322D3144373644414336394143352F747269616E676C65732E62696E636660600000504B0304140006080000AC70623B
310
000000000000000000000000370000006662782F33394334313030352D393437462D344341332D393833322D3144373644414336394143352F617474726962757465732E62696E504B0304140006080800AC70623B08DA0BD19000000041010000360000006662782F33394334313030352D393437462D344341332D393833
310
322D3144373644414336394143352F6469726563746F72792E786D6C858F410AC3201045AF22B36F53E9A60B35CBEEBAE80D244E44489C6234F4F835464A48035D0DF398FF9F8AF63D0E6CC63039F212F8F9020C7D47C6792B21C5FE7403D62A1188E2E60C98D7234A5830286103A55745067B9D86B8A3CF9C7F90C11DE607
310
FB144396D7B6A82D282E9A152AD114D5EF2CB866EEE831B8EEA07A7BB5A8D7D61A2BAAEB7FD5F70921FF497D00504B0304140006080800AC70623B95BFD5E5FE000000A00100003B0000006662782F33394334313030352D393437462D344341332D393833322D3144373644414336394143352F7265736F75726365732F63
310
6F72652E786D6C8D50596E833010BD0A9ADFCA603B1B41C611699213F40296992456828DBC543D7E4DA052FBD79F99D15B344F4F1CBE8667F1893E18675B60258502AD76BDB1B71652BC921A8A8314DEB9F84B06855503B630C120C5CDBB342E907636A28D19B5AEC70554216084423FF3D142D0771C54A952CC8AF02847A5
310
1FEA86252B339D755284E87380627E324D901E834B5E6310D5CC4A9192E9178DE9F34F7335E841EE38DBEEF8A5239B13ADC9FA589FC971F77E2217BEDDAFB61DEBE8B916D56496229AE127A3F6A822F62039A57BC218A1FC83AD1BBA69F8E68DD60DA5A29AE47F4C69ECFF694AC6C6155FE2CEB60092E5202F428A6AEA2BAF
310
5799794FDDCA6F504B010214000A0000080000AC70623B3DEE336E79000000790000001B00000000000000000000000000000000006175746F6465736B2D64657369676E2D7061636B6167652E786D6C504B01021400140006080800AC70623BD486FD9CA0000000F40000001300000000000000000000000000B20000005B
310
436F6E74656E745F54797065735D2E786D6C504B01021400140006080800AC70623BFD5588D4EC0000007C010000080000000000000000000000000083010000636F72652E786D6C504B01021400140006080800AC70623B55019EA25F0000007C000000070000000000000000000000000095020000636E782E786D6C504B
310
01021400140006080800AC70623BB5D38BAD72010000D40300000C00000000000000000000000000190300006662782F636F72652E786D6C504B01021400140006080800AC70623B09885E1C7E0000009D0000000B00000000000000000000000000B50400006662782F636E782E786D6C504B01021400140006080800AC70
310
623B961D28872A0100001202000031000000000000000000000000005C0500006662782F33394334313030352D393437462D344341332D393833322D3144373644414336394143352F636F72652E786D6C504B01021400140006080800AC70623B503B51794E010000330300003000000000000000000000000000D5060000
310
6662782F33394334313030352D393437462D344341332D393833322D3144373644414336394143352F636E782E786D6C504B01021400140006080800AC70623B2EA4D28F640500003C1000003400000000000000000000000000710800006662782F33394334313030352D393437462D344341332D393833322D3144373644
310
414336394143352F6F626A656374732E786D6C504B01021400140006080000AC70623B0000000000000000000000003500000000000000000000000000270E00006662782F33394334313030352D393437462D344341332D393833322D3144373644414336394143352F76657274696365732E62696E504B01021400140006
310
080800AC70623BF270F133060000000400000036000000000000000000000000007A0E00006662782F33394334313030352D393437462D344341332D393833322D3144373644414336394143352F747269616E676C65732E62696E504B01021400140006080000AC70623B0000000000000000000000003700000000000000
310
000000000000D40E00006662782F33394334313030352D393437462D344341332D393833322D3144373644414336394143352F617474726962757465732E62696E504B01021400140006080800AC70623B08DA0BD190000000410100003600000000000000000000000000290F00006662782F33394334313030352D393437
310
462D344341332D393833322D3144373644414336394143352F6469726563746F72792E786D6C504B01021400140006080800AC70623B95BFD5E5FE000000A00100003B000000000000000000000000000D1000006662782F33394334313030352D393437462D344341332D393833322D3144373644414336394143352F7265
310
736F75726365732F636F72652E786D6C504B0506000000000E000E0080040000641100000000
  0
XRECORD
  5
10D
102
{ACAD_REACTORS
330
10B
102
}
330
10B
100
AcDbXrecord
280
     1
270
     1
271
     1
  0
XRECORD
  5
10C
102
{ACAD_REACTORS
330
10B
102
}
330
10B
100
AcDbXrecord
280
     1
270
     1
271
     1
  0
XRECORD
  5
187
102
{ACAD_REACTORS
330
10B
102
}
330
10B
100
AcDbXrecord
280
     1
 70
     0
 90
1778669749
  1
7E355024-1ABF-47F9-966E-F2159FBE82AB
310
504B03040A0000080000AC70623B3DEE336E79000000790000001B0000006175746F6465736B2D64657369676E2D7061636B6167652E786D6C3C3F786D6C2076657273696F6E3D22312E302220656E636F64696E673D227574662D3822203F3E3C666F726D6174733E3C666F726D61743E687474703A2F2F736368656D612E
310
6175746F6465736B2E636F6D2F64657369676E2D7061636B6167652F323030393C2F666F726D61743E3C2F666F726D6174733E504B0304140006080800AC70623BD486FD9CA0000000F4000000130000005B436F6E74656E745F54797065735D2E786D6C7D8EC10E82300C865F65E91D8A1E8C310C0EEA1BF002731658846E
310
D98AC1B77784ABF1D8FE5FBFBF75BBCE937A534CCEB38643598122B6FEE978D0B0485F9C41B54DDD7D022595594E1A469170414C76A4D9A4D207E29CF43ECE46F218070CC6BECC4078ACAA135ACF422C856C0E68EA1BF5669944DDD7BCDE7B1F8E415D77AECB980613C2E4AC91FC167A2B244592486606FC29C8FD7F045B9A
310
EF7053A7E60B504B0304140006080800AC70623BDCE527C8EB0000007C01000008000000636F72652E786D6C8D90416EC3201045AF82665B6103B15DC7C24471249FA01740405C94182C03558F5F9C3852BBEB6A467FFE9B197D7EFA9EEFE8CBACC17AD7032D0820E394D7D64D3DA478C52DA093E0ABF7F1970D9093B3E961
310
9341F069F569D925E55D342E66D5796D76518660222075CF4D0F417D9A591632C5EC08B76291EA262753D05797E194AC46CF2356E77DF66ACD0A621C9B73335C463C5E0E1457EC9DE2A1612D3E9233A92BD2D66333F07283058F767EDD57AB91D168108C9023A61413F641AB8ED41DABDF48DB11C2CBCDFE074A8BFE2794AC
310
8B07B6BFFBC402089A1F790C042FB72C72790495EB969BF801504B0304140006080800AC70623B55019EA25F0000007C00000007000000636E782E786D6C4DCB3B0E80201045D1AD90E915ED2CF8AC45050C11660C8261F98AB1B07AC9C97D42D718D865D3E909258CFD00CCE24AC6E326A164D74DC0B4128928FF32603847
310
2BA13128B1252AC747C6BAB984FC68F0B87FE8960A5C09FE86CFB69FBA01504B0304140006080800AC70623BB24894EB71010000D40300000C0000006662782F636F72652E786D6CC5535B6E833010BC8AE5DF0A6C085012194749244ED00B38E05014B091B1518EDFE511A5A9D228FD2A1F60CDEC7A67C6986D2F6D830669
310
FA5AAB0C073EC548AA4297B5AA32ECECC94B31DA7266B4B6DFCA3052A295191E61CC5965B4EB16A8D0CA4A650155BA940B28FA5E5A8C8A061619EE8B4FD90A5F380B15FDD9EF44711695F4031F68A8E3ACB70604A079C8F8C6FC74BC3032E39C3957970B5B9730AD3ED5D2609EE7C92ED91F722F3FAC022F0ADF036F9F84A9
310
B7A63B1A47348DF364CFC8D8CC99ADDBABBAC2486165897948E9DA0B028F861F41B4A1F1268CDF68BAA19491B1FCAEC975E58B4DAE5676152E72E7B61EF300844CC40FB7109145BD18400FE18C8C21C2674AF83E68080442B6E2D85C7D9C011A6461B5898029B5BB5183689C84A9D4A7D3837E5F303277C2D4697370FD7046
310
F8F28CE73BC2510B5581096161797476D4C9660D4B689D34DE602F4869D38AE6351B4F1CFE89BA897F28A9D08D36FFA5882C074496DF838CF7917F01504B0304140006080800AC70623B3A54DFB77D0000009D0000000B0000006662782F636E782E786D6C4DCCD10A83201805E05791FFDEA5EBA76DA046A37C8F581632D3
310
613AF6F8B3D1C52E0E073E0E47B49FD591B7899B0D5E023F3120C63FC264FD2221A7995E81B44AC410D2DF0C881F5723616750628921BF0E9ACC3C66978A3AEB9F07B2A6D77AB87514F95953EC39D20EEF9C6AD60C88BC2EB940A544F57B2ABD1FAB2F504B0304140006080800AC70623B4A17098729010000120200003100
310
00006662782F30364446464539412D343132462D344431342D413442312D4630364534343133343431372F636F72652E786D6C8D515B6EC32010BC0AE22B55850D0E76930813A54A7C825E80DA244589C1E251E5F85D6A476AFFF2018B7667666759B1BF8F37F4AD7D30CEB6981514236D7B37187B69718A67B2C1682F8577
310
2EFE816164D5A85B9CD3588A8B77695A52BDB351DB0859EB06BD2455083A62D4DFE0D1E2D07FE951152A4540846B31A9FEAA2EBA600594012745881E0CA0B949BEB1A4CDB1EB4EDB03E1ACEA083F324E0EFC9D918E3627CED91ACE9B2867A214299961A19B01EC98B3D1FE59914C96229AF161BFF75A453D605951BA258C11
310
5A7D30BEA3F5AEAA5FE96647A92833FC1F294DC393A4646C5C578BDD9916B064A29C0B520C2E7DDE1E66F47D723EA2DC6F1574FF02531594D6AC69443903617C506CF8A218A2F3F0BDABEB2760593DCB365C8A326F08C2EFFA20E66DCA1F504B0304140006080800AC70623B503B51794E0100003303000030000000666278
310
2F30364446464539412D343132462D344431342D413442312D4630364534343133343431372F636E782E786D6CD593C16EC32010447F0571AD6CE3D489D20813A9877E410FBD62D82434182CC055F3F75D1292E692438FBD206B7698593D61BEFD1E2DF982108D773D6D6B460938E5B571FB9ECE6957AD29D90A1EBC4F7736
310
4A9C1CA1A759A682EF839FA72269D8C9D92654AD71C72206887E0E0A22CAF926B15E498B01E0AA19451807D01A34B919F16B070157417138917400F2F6FA41FCF0092A45DEE414C19BDC21783E4BD39D891265658C3D8DEA00A3ACE59CBC8678ACB54CB26EEB6BD7839D7E9348BE70AD9C8321B9BCA7F9A4A26C542347DEE0
310
50F09802D22BA6749A800A394DD62899107273365E3C82CFC6A55557BC06C10774B7ABE7AEC3B0F34CF06446280E154026D0542C187BA9DAB6628BF7B6DBB0E566B17C62EB0D63BCC976C107EF6DB9843110FC449477095CA2A2E54D1E3FC2577C449B80AC7D38FD01240228AD173AB78CFFCCA739BF6FC415F02F103F504B
310
0304140006080800AC70623BD8F6D0D5660500003B100000340000006662782F30364446464539412D343132462D344431342D413442312D4630364534343133343431372F6F626A656374732E786D6CAD575B8F9B3814FE2B887D064292B964C5504D92491555D3568D5AEDC348910187610730B2CD4C667FFD7E06438024
310
6DF6928780CDF1B97EE762EFC33E4B8D57CA45C2F23BD3B547A641F39045491EDF99A5DC59B7A6F1C1F73863B243661A39C9E89DA9B64DDF8B392B0BBD15D11D295339D85DCDFF304448736A1A614A84B83345F84C33629352B2888A173B2292D8F16E6FBB764DD8671B73523C0F981684D35C4253ECE7E062D44AB9FDE5C8
310
747CCF51DF7D4FFD6BAAC9792AA7B2A72F3FC985247978246CC066E24E970FE3AB9975359D4EACE9F5D8B5E6ABF9D2726F26A3C5F56231BB7F9841B0901C9CB4269CEE4CFF237CC393D073EA4FADC65AF1532A852CCF6958D90F0B2B9D35C78816348F10C7840A48EB583DEA2F5DE59BCEE7895A6B91DDEDCBACEA9EE8306A
310
746F9E5D4D59F0274C1097A0820BAA5055FB471B5AE36F74F05AC058AABF25C2C888A43C21A991260127FCDDF441AA487CAFC746A1932B842B0B4CDF3DF0EBEA8AD4F835764F69B92BD35441D3F42B646F817F2A45A559F217E5A7A54127C4AA4C7279AB0D92EF0535FD99E7549BBEA71E93B1FE583BD2D8A52446C86166FD
310
7560E842E5DE7A69FA9F56C17EA3F2F1B4F082B38272A9E0036835816B9ECA4B5AAC7B51E4D40118D3F3F9C129DFE0F9CF48DF832A881B4FF6D3FD544B919CE462C77886D8D8A3EA678C9A17AB7D3B7E413D1B501FD3B43BFF8AD8735A65FB05E35CFC002E159ADBFF1EBFBECFBA48ED84CFF75E91608C4FB42B372149517A
310
1E931C0151A03452862DD4F25DB037FD352A252A3B4E91D46F1D72F4E239AFF88EFF9A37AA5525BEF3CC11D041BDBDA0F2C397555A40B7336039AA9395606DDC399F5FFD2F3973BFDC7CDA947C4742FAA80BCB92EE923C91E89D07F07615EA05A267D10B7D7F633C82A1C741D8748390695102DE563E578E8F9B66A11607C9
310
3D0121CEC54CD53CEF17121E1311D2342539656523A56D430AAB6D91D17302B2B076E8643C4031A7AF899A247A143DB5D0EB439E14CA656DD36BEBB47DC696EFEBCF0025E8531690F440141CAA7DC852C6B7C1FBB62E8426B087237D70FFE8A35B3BD4515C00F80ACA4DC5D11EDE46C96E570A94DD134EFCB15E7403D5D691
310
E397267F1A89754A4E519C917A846BF43632310F7082BECEF26D822E8EAC3C29BC2B7B2840547CCFF00FCAACD8928C95B9BCC44DA3C69E46FB96797788116F4486CFA6BFA99ED61C153BA2D121543D10A80E74C2A65E786E1E265757A3F1D472EFE72B6B7AB39A59B3EBEB076B3576AF66ABF9C3EDF87EDE6A5469E27B4D83
310
EAA620BC8986E8953CD16EFEBE3E64ADE93F12299C8F753E3971FDFCBEB631157B0ECE00DFEDC17556A434A3B9240ABD8FEA25FD463054F478D4FBEB8CC4F4022E5F3E6E063A60E782735F55A6D1B7C159BDBB50B97092897C2EB32027493A38A80DB78B3CD66637AE6C9F75416F966AA5FD893154B03489506F2223A62CA3
310
1255E78262CF332A8098EE501EE9CBC305A75FEB71509220A58D26CF0413712A806AC0AD0C657FDFF80D139C1AA2EE4CF43AFB057F3A114D03A1BE3351DE6412526107E88E6AEEA998030218C2DA1A08A8913C4E3158D787DA757B4AF906E5070D50CB6F492E1996B45DBDBA9B91A240D3EE55D54A372D20FC478637EA1844
310
E23528656BCB61A335A61283CCAA8DD257034C102F5AF41EF9F573B35CBBA2E979E4A26BD24F415073B524E171752D50FA6995EE975F1D4C02C6FA8B51A4658C585ECEC9E214602E558203454085E6591009A82E7E7FFACA19AEA299B14A0081A705CB3296EBC5BDBECA1A9B675C4CA3279405AA6E1F623C72DDA76AE8D7F7
310
906D4004B549245EB0D1249CB260803500F2A89BEA10382A0603F2F5D2D00D630AA615688F66D2FA166E2079D4C551A54AB758163F9DFB9D8A1460E098D8FDBF01504B0304140006080000AC70623B000000000000000000000000350000006662782F30364446464539412D343132462D344431342D413442312D46303645
310
34343133343431372F76657274696365732E62696E504B0304140006080800AC70623BF270F1330600000004000000360000006662782F30364446464539412D343132462D344431342D413442312D4630364534343133343431372F747269616E676C65732E62696E636660600000504B0304140006080000AC70623B0000
310
00000000000000000000370000006662782F30364446464539412D343132462D344431342D413442312D4630364534343133343431372F617474726962757465732E62696E504B0304140006080800AC70623B08DA0BD19000000041010000360000006662782F30364446464539412D343132462D344431342D413442312D
310
4630364534343133343431372F6469726563746F72792E786D6C858F410AC3201045AF22B36F53E9A60B35CBEEBAE80D244E44489C6234F4F835464A48035D0DF398FF9F8AF63D0E6CC63039F212F8F9020C7D47C6792B21C5FE7403D62A1188E2E60C98D7234A5830286103A55745067B9D86B8A3CF9C7F90C11DE607FB14
310
4396D7B6A82D282E9A152AD114D5EF2CB866EEE831B8EEA07A7BB5A8D7D61A2BAAEB7FD5F70921FF497D00504B0304140006080800AC70623BB40F7AF9FE000000A00100003B0000006662782F30364446464539412D343132462D344431342D413442312D4630364534343133343431372F7265736F75726365732F636F72
310
652E786D6C8D504B6E833010BD0A9A6D65B00950828CA3109513F4029699502BC146FE543D7E4D42A576D7CDCCE87D344F8F9FBE967BF689CE6B6B7A6039850C8DB29336730F315C490BD94970676DF82583CCC8057BD860107C7636AE3BA4AC096842428D9D7007A5F7182053F774F4E0D5072E3297312485BFE5AB543739
310
63CEF244279DE03EB814207B3ED9260887DE46A7D0F3E2C90A1EA39E768D9ED24F7DD5E8408C63736E86CB1B192F0746AAF29591A1295B72A4675A57B4ADC766E0C566163CE8E527A37228034E204A4A8F843142CB775675B4EECAFA85B61DA5BCD8E47F4C719DFE698ADA8443B9C77DDA3C0896823C08C18BADAFB41E65A6
310
BD752BBE01504B010214000A0000080000AC70623B3DEE336E79000000790000001B00000000000000000000000000000000006175746F6465736B2D64657369676E2D7061636B6167652E786D6C504B01021400140006080800AC70623BD486FD9CA0000000F40000001300000000000000000000000000B20000005B436F
310
6E74656E745F54797065735D2E786D6C504B01021400140006080800AC70623BDCE527C8EB0000007C010000080000000000000000000000000083010000636F72652E786D6C504B01021400140006080800AC70623B55019EA25F0000007C000000070000000000000000000000000094020000636E782E786D6C504B0102
310
1400140006080800AC70623BB24894EB71010000D40300000C00000000000000000000000000180300006662782F636F72652E786D6C504B01021400140006080800AC70623B3A54DFB77D0000009D0000000B00000000000000000000000000B30400006662782F636E782E786D6C504B01021400140006080800AC70623B
310
4A17098729010000120200003100000000000000000000000000590500006662782F30364446464539412D343132462D344431342D413442312D4630364534343133343431372F636F72652E786D6C504B01021400140006080800AC70623B503B51794E010000330300003000000000000000000000000000D10600006662
310
782F30364446464539412D343132462D344431342D413442312D4630364534343133343431372F636E782E786D6C504B01021400140006080800AC70623BD8F6D0D5660500003B10000034000000000000000000000000006D0800006662782F30364446464539412D343132462D344431342D413442312D46303645343431
310
33343431372F6F626A656374732E786D6C504B01021400140006080000AC70623B0000000000000000000000003500000000000000000000000000250E00006662782F30364446464539412D343132462D344431342D413442312D4630364534343133343431372F76657274696365732E62696E504B010214001400060808
310
00AC70623BF270F13306000000040000003600000000000000000000000000780E00006662782F30364446464539412D343132462D344431342D413442312D4630364534343133343431372F747269616E676C65732E62696E504B01021400140006080000AC70623B00000000000000000000000037000000000000000000
310
00000000D20E00006662782F30364446464539412D343132462D344431342D413442312D4630364534343133343431372F617474726962757465732E62696E504B01021400140006080800AC70623B08DA0BD190000000410100003600000000000000000000000000270F00006662782F30364446464539412D343132462D
310
344431342D413442312D4630364534343133343431372F6469726563746F72792E786D6C504B01021400140006080800AC70623BB40F7AF9FE000000A00100003B000000000000000000000000000B1000006662782F30364446464539412D343132462D344431342D413442312D4630364534343133343431372F7265736F
310
75726365732F636F72652E786D6C504B0506000000000E000E0080040000621100000000
  0
XRECORD
  5
10E
102
{ACAD_REACTORS
330
10B
102
}
330
10B
100
AcDbXrecord
280
     1
270
     1
271
     1
  0
XRECORD
  5
10F
102
{ACAD_REACTORS
330
10B
102
}
330
10B
100
AcDbXrecord
280
     1
270
     1
271
     1
  0
XRECORD
  5
76E
102
{ACAD_REACTORS
330
76D
102
}
330
76D
100
AcDbXrecord
280
     1
102
DISPLAYNAME
  1
Imperial24
102
FLAGS
 90
        0
  0
XRECORD
  5
772
102
{ACAD_REACTORS
330
771
102
}
330
771
100
AcDbXrecord
280
     1
102
DISPLAYNAME
  1
Metric50
102
FLAGS
 90
        0
  0
CELLSTYLEMAP
  5
73B
102
{ACAD_REACTORS
330
FF
102
}
330
FF
100
AcDbCellStyleMap
 90
        3
300
CELLSTYLE
  1
TABLEFORMAT_BEGIN
 90
        5
170
     1
 91
        0
 92
    32768
 62
   257
 93
        1
300
CONTENTFORMAT
  1
CONTENTFORMAT_BEGIN
 90
        0
 91
        0
 92
      512
 93
        0
300

 40
0.0
140
1.0
 94
        5
 62
     0
340
11
144
0.25
309
CONTENTFORMAT_END
171
     1
301
MARGIN
  1
CELLMARGIN_BEGIN
 40
0.06
 40
0.06
 40
0.06
 40
0.06
 40
0.18
 40
0.18
309
CELLMARGIN_END
 94
        6
 95
        1
302
GRIDFORMAT
  1
GRIDFORMAT_BEGIN
 90
        0
 91
        1
 62
     0
 92
       -2
340
0
 93
        0
 40
0.045
309
GRIDFORMAT_END
 95
        2
302
GRIDFORMAT
  1
GRIDFORMAT_BEGIN
 90
        0
 91
        1
 62
     0
 92
       -2
340
0
 93
        0
 40
0.045
309
GRIDFORMAT_END
 95
        4
302
GRIDFORMAT
  1
GRIDFORMAT_BEGIN
 90
        0
 91
        1
 62
     0
 92
       -2
340
0
 93
        0
 40
0.045
309
GRIDFORMAT_END
 95
        8
302
GRIDFORMAT
  1
GRIDFORMAT_BEGIN
 90
        0
 91
        1
 62
     0
 92
       -2
340
0
 93
        0
 40
0.045
309
GRIDFORMAT_END
 95
       16
302
GRIDFORMAT
  1
GRIDFORMAT_BEGIN
 90
        0
 91
        1
 62
     0
 92
       -2
340
0
 93
        0
 40
0.045
309
GRIDFORMAT_END
 95
       32
302
GRIDFORMAT
  1
GRIDFORMAT_BEGIN
 90
        0
 91
        1
 62
     0
 92
       -2
340
0
 93
        0
 40
0.045
309
GRIDFORMAT_END
309
TABLEFORMAT_END
  1
CELLSTYLE_BEGIN
 90
        1
 91
        1
300
_TITLE
309
CELLSTYLE_END
300
CELLSTYLE
  1
TABLEFORMAT_BEGIN
 90
        5
170
     1
 91
        0
 92
        0
 62
   257
 93
        1
300
CONTENTFORMAT
  1
CONTENTFORMAT_BEGIN
 90
        0
 91
        0
 92
      512
 93
        0
300

 40
0.0
140
1.0
 94
        5
 62
     0
340
11
144
0.18
309
CONTENTFORMAT_END
171
     1
301
MARGIN
  1
CELLMARGIN_BEGIN
 40
0.06
 40
0.06
 40
0.06
 40
0.06
 40
0.18
 40
0.18
309
CELLMARGIN_END
 94
        6
 95
        1
302
GRIDFORMAT
  1
GRIDFORMAT_BEGIN
 90
        0
 91
        1
 62
     0
 92
       -2
340
0
 93
        0
 40
0.045
309
GRIDFORMAT_END
 95
        2
302
GRIDFORMAT
  1
GRIDFORMAT_BEGIN
 90
        0
 91
        1
 62
     0
 92
       -2
340
0
 93
        0
 40
0.045
309
GRIDFORMAT_END
 95
        4
302
GRIDFORMAT
  1
GRIDFORMAT_BEGIN
 90
        0
 91
        1
 62
     0
 92
       -2
340
0
 93
        0
 40
0.045
309
GRIDFORMAT_END
 95
        8
302
GRIDFORMAT
  1
GRIDFORMAT_BEGIN
 90
        0
 91
        1
 62
     0
 92
       -2
340
0
 93
        0
 40
0.045
309
GRIDFORMAT_END
 95
       16
302
GRIDFORMAT
  1
GRIDFORMAT_BEGIN
 90
        0
 91
        1
 62
     0
 92
       -2
340
0
 93
        0
 40
0.045
309
GRIDFORMAT_END
 95
       32
302
GRIDFORMAT
  1
GRIDFORMAT_BEGIN
 90
        0
 91
        1
 62
     0
 92
       -2
340
0
 93
        0
 40
0.045
309
GRIDFORMAT_END
309
TABLEFORMAT_END
  1
CELLSTYLE_BEGIN
 90
        2
 91
        1
300
_HEADER
309
CELLSTYLE_END
300
CELLSTYLE
  1
TABLEFORMAT_BEGIN
 90
        5
170
     1
 91
        0
 92
        0
 62
   257
 93
        1
300
CONTENTFORMAT
  1
CONTENTFORMAT_BEGIN
 90
        0
 91
        0
 92
      512
 93
        0
300

 40
0.0
140
1.0
 94
        2
 62
     0
340
11
144
0.18
309
CONTENTFORMAT_END
171
     1
301
MARGIN
  1
CELLMARGIN_BEGIN
 40
0.06
 40
0.06
 40
0.06
 40
0.06
 40
0.18
 40
0.18
309
CELLMARGIN_END
 94
        6
 95
        1
302
GRIDFORMAT
  1
GRIDFORMAT_BEGIN
 90
        0
 91
        1
 62
     0
 92
       -2
340
0
 93
        0
 40
0.045
309
GRIDFORMAT_END
 95
        2
302
GRIDFORMAT
  1
GRIDFORMAT_BEGIN
 90
        0
 91
        1
 62
     0
 92
       -2
340
0
 93
        0
 40
0.045
309
GRIDFORMAT_END
 95
        4
302
GRIDFORMAT
  1
GRIDFORMAT_BEGIN
 90
        0
 91
        1
 62
     0
 92
       -2
340
0
 93
        0
 40
0.045
309
GRIDFORMAT_END
 95
        8
302
GRIDFORMAT
  1
GRIDFORMAT_BEGIN
 90
        0
 91
        1
 62
     0
 92
       -2
340
0
 93
        0
 40
0.045
309
GRIDFORMAT_END
 95
       16
302
GRIDFORMAT
  1
GRIDFORMAT_BEGIN
 90
        0
 91
        1
 62
     0
 92
       -2
340
0
 93
        0
 40
0.045
309
GRIDFORMAT_END
 95
       32
302
GRIDFORMAT
  1
GRIDFORMAT_BEGIN
 90
        0
 91
        1
 62
     0
 92
       -2
340
0
 93
        0
 40
0.045
309
GRIDFORMAT_END
309
TABLEFORMAT_END
  1
CELLSTYLE_BEGIN
 90
        3
 91
        2
300
_DATA
309
CELLSTYLE_END
  0
XRECORD
  5
748
102
{ACAD_REACTORS
330
747
102
}
330
747
100
AcDbXrecord
280
     1
102
RTVSPost2010Prop28
280
     1
102
RTVSPost2010PropOp28
 70
     1
102
RTVSPost2010Prop29
280
     1
102
RTVSPost2010PropOp29
 70
     1
102
RTVSPost2010Prop30
280
     0
102
RTVSPost2010PropOp30
 70
     1
102
RTVSPost2010Prop31
280
     0
102
RTVSPost2010PropOp31
 70
     1
102
RTVSPost2010Prop32
280
     0
102
RTVSPost2010PropOp32
 70
     1
102
RTVSPost2010Prop33
280
     0
102
RTVSPost2010PropOp33
 70
     1
102
RTVSPost2010Prop34
280
     0
102
RTVSPost2010PropOp34
 70
     1
102
RTVSPost2010Prop35
280
     0
102
RTVSPost2010PropOp35
 70
     1
102
RTVSPost2010Prop36
280
     0
102
RTVSPost2010PropOp36
 70
     1
102
RTVSPost2010Prop37
 90
       50
102
RTVSPost2010PropOp37
 70
     1
102
RTVSPost2010Prop38
140
0.0
102
RTVSPost2010PropOp38
 70
     1
102
RTVSPost2010Prop39
140
1.0
102
RTVSPost2010PropOp39
 70
     1
102
RTVSPost2010Prop40
 90
        0
102
RTVSPost2010PropOp40
 70
     1
102
RTVSPost2010Prop41ColorIndex
 90
       18
102
RTVSPost2010Prop41ColorRGB
 90
        0
102
RTVSPost2010PropOp41
 70
     1
102
RTVSPost2010Prop42
 90
       50
102
RTVSPost2010PropOp42
 70
     1
102
RTVSPost2010Prop43
 90
        3
102
RTVSPost2010PropOp43
 70
     1
102
RTVSPost2010Prop44ColorIndex
 90
        5
102
RTVSPost2010Prop44ColorRGB
 90
      255
102
RTVSPost2010PropOp44
 70
     1
102
RTVSPost2010Prop45
280
     0
102
RTVSPost2010PropOp45
 70
     1
102
RTVSPost2010Prop46
 90
       50
102
RTVSPost2010PropOp46
 70
     1
102
RTVSPost2010Prop47
 90
       50
102
RTVSPost2010PropOp47
 70
     1
102
RTVSPost2010Prop48
 90
       50
102
RTVSPost2010PropOp48
 70
     1
102
RTVSPost2010Prop49
280
     0
102
RTVSPost2010PropOp49
 70
     1
102
RTVSPost2010Prop50
 90
       50
102
RTVSPost2010PropOp50
 70
     1
102
RTVSPost2010Prop51ColorIndex
 90
      256
102
RTVSPost2010Prop51ColorRGB
 90
-16777216
102
RTVSPost2010PropOp51
 70
     0
102
RTVSPost2010Prop52
140
1.0
102
RTVSPost2010PropOp52
 70
     0
102
RTVSPost2010Prop53
 90
        2
102
RTVSPost2010PropOp53
 70
     1
102
RTVSPost2010Prop54
  1
strokes_ogs.tif
102
RTVSPost2010PropOp54
 70
     1
102
RTVSPost2010Prop55
280
     0
102
RTVSPost2010PropOp55
 70
     1
102
RTVSPost2010Prop56
140
1.0
102
RTVSPost2010PropOp56
 70
     1
102
RTVSPost2010Prop57
140
1.0
102
RTVSPost2010PropOp57
 70
     1
  0
XRECORD
  5
746
102
{ACAD_REACTORS
330
745
102
}
330
745
100
AcDbXrecord
280
     1
102
RTVSPost2010Prop28
280
     0
102
RTVSPost2010PropOp28
 70
     1
102
RTVSPost2010Prop29
280
     1
102
RTVSPost2010PropOp29
 70
     1
102
RTVSPost2010Prop30
280
     1
102
RTVSPost2010PropOp30
 70
     1
102
RTVSPost2010Prop31
280
     0
102
RTVSPost2010PropOp31
 70
     1
102
RTVSPost2010Prop32
280
     0
102
RTVSPost2010PropOp32
 70
     1
102
RTVSPost2010Prop33
280
     0
102
RTVSPost2010PropOp33
 70
     1
102
RTVSPost2010Prop34
280
     0
102
RTVSPost2010PropOp34
 70
     1
102
RTVSPost2010Prop35
280
     0
102
RTVSPost2010PropOp35
 70
     1
102
RTVSPost2010Prop36
280
     0
102
RTVSPost2010PropOp36
 70
     1
102
RTVSPost2010Prop37
 90
       50
102
RTVSPost2010PropOp37
 70
     1
102
RTVSPost2010Prop38
140
0.0
102
RTVSPost2010PropOp38
 70
     1
102
RTVSPost2010Prop39
140
1.0
102
RTVSPost2010PropOp39
 70
     1
102
RTVSPost2010Prop40
 90
        0
102
RTVSPost2010PropOp40
 70
     1
102
RTVSPost2010Prop41ColorIndex
 90
       18
102
RTVSPost2010Prop41ColorRGB
 90
        0
102
RTVSPost2010PropOp41
 70
     1
102
RTVSPost2010Prop42
 90
       50
102
RTVSPost2010PropOp42
 70
     1
102
RTVSPost2010Prop43
 90
        3
102
RTVSPost2010PropOp43
 70
     1
102
RTVSPost2010Prop44ColorIndex
 90
        5
102
RTVSPost2010Prop44ColorRGB
 90
      255
102
RTVSPost2010PropOp44
 70
     1
102
RTVSPost2010Prop45
280
     0
102
RTVSPost2010PropOp45
 70
     1
102
RTVSPost2010Prop46
 90
       50
102
RTVSPost2010PropOp46
 70
     1
102
RTVSPost2010Prop47
 90
       50
102
RTVSPost2010PropOp47
 70
     1
102
RTVSPost2010Prop48
 90
       50
102
RTVSPost2010PropOp48
 70
     1
102
RTVSPost2010Prop49
280
     0
102
RTVSPost2010PropOp49
 70
     1
102
RTVSPost2010Prop50
 90
       50
102
RTVSPost2010PropOp50
 70
     1
102
RTVSPost2010Prop51ColorIndex
 90
      256
102
RTVSPost2010Prop51ColorRGB
 90
-16777216
102
RTVSPost2010PropOp51
 70
     0
102
RTVSPost2010Prop52
140
1.0
102
RTVSPost2010PropOp52
 70
     0
102
RTVSPost2010Prop53
 90
        2
102
RTVSPost2010PropOp53
 70
     1
102
RTVSPost2010Prop54
  1
strokes_ogs.tif
102
RTVSPost2010PropOp54
 70
     1
102
RTVSPost2010Prop55
280
     0
102
RTVSPost2010PropOp55
 70
     1
102
RTVSPost2010Prop56
140
1.0
102
RTVSPost2010PropOp56
 70
     1
102
RTVSPost2010Prop57
140
1.0
102
RTVSPost2010PropOp57
 70
     1
  0
XRECORD
  5
754
102
{ACAD_REACTORS
330
753
102
}
330
753
100
AcDbXrecord
280
     1
102
RTVSPost2010Prop28
280
     0
102
RTVSPost2010PropOp28
 70
     1
102
RTVSPost2010Prop29
280
     1
102
RTVSPost2010PropOp29
 70
     1
102
RTVSPost2010Prop30
280
     1
102
RTVSPost2010PropOp30
 70
     1
102
RTVSPost2010Prop31
280
     0
102
RTVSPost2010PropOp31
 70
     1
102
RTVSPost2010Prop32
280
     0
102
RTVSPost2010PropOp32
 70
     1
102
RTVSPost2010Prop33
280
     0
102
RTVSPost2010PropOp33
 70
     1
102
RTVSPost2010Prop34
280
     0
102
RTVSPost2010PropOp34
 70
     1
102
RTVSPost2010Prop35
280
     0
102
RTVSPost2010PropOp35
 70
     1
102
RTVSPost2010Prop36
280
     0
102
RTVSPost2010PropOp36
 70
     1
102
RTVSPost2010Prop37
 90
       50
102
RTVSPost2010PropOp37
 70
     1
102
RTVSPost2010Prop38
140
0.0
102
RTVSPost2010PropOp38
 70
     1
102
RTVSPost2010Prop39
140
1.0
102
RTVSPost2010PropOp39
 70
     1
102
RTVSPost2010Prop40
 90
        0
102
RTVSPost2010PropOp40
 70
     1
102
RTVSPost2010Prop41ColorIndex
 90
       18
102
RTVSPost2010Prop41ColorRGB
 90
        0
102
RTVSPost2010PropOp41
 70
     1
102
RTVSPost2010Prop42
 90
       50
102
RTVSPost2010PropOp42
 70
     1
102
RTVSPost2010Prop43
 90
        3
102
RTVSPost2010PropOp43
 70
     1
102
RTVSPost2010Prop44ColorIndex
 90
        5
102
RTVSPost2010Prop44ColorRGB
 90
      255
102
RTVSPost2010PropOp44
 70
     1
102
RTVSPost2010Prop45
280
     0
102
RTVSPost2010PropOp45
 70
     1
102
RTVSPost2010Prop46
 90
       50
102
RTVSPost2010PropOp46
 70
     1
102
RTVSPost2010Prop47
 90
       50
102
RTVSPost2010PropOp47
 70
     1
102
RTVSPost2010Prop48
 90
       50
102
RTVSPost2010PropOp48
 70
     1
102
RTVSPost2010Prop49
280
     0
102
RTVSPost2010PropOp49
 70
     1
102
RTVSPost2010Prop50
 90
       50
102
RTVSPost2010PropOp50
 70
     1
102
RTVSPost2010Prop51ColorIndex
 90
      256
102
RTVSPost2010Prop51ColorRGB
 90
-16777216
102
RTVSPost2010PropOp51
 70
     0
102
RTVSPost2010Prop52
140
1.0
102
RTVSPost2010PropOp52
 70
     0
102
RTVSPost2010Prop53
 90
        2
102
RTVSPost2010PropOp53
 70
     1
102
RTVSPost2010Prop54
  1
strokes_ogs.tif
102
RTVSPost2010PropOp54
 70
     1
102
RTVSPost2010Prop55
280
     0
102
RTVSPost2010PropOp55
 70
     1
102
RTVSPost2010Prop56
140
1.0
102
RTVSPost2010PropOp56
 70
     1
102
RTVSPost2010Prop57
140
1.0
102
RTVSPost2010PropOp57
 70
     1
  0
XRECORD
  5
75C
102
{ACAD_REACTORS
330
75B
102
}
330
75B
100
AcDbXrecord
280
     1
102
RTVSPost2010Prop28
280
     0
102
RTVSPost2010PropOp28
 70
     1
102
RTVSPost2010Prop29
280
     1
102
RTVSPost2010PropOp29
 70
     1
102
RTVSPost2010Prop30
280
     1
102
RTVSPost2010PropOp30
 70
     1
102
RTVSPost2010Prop31
280
     0
102
RTVSPost2010PropOp31
 70
     1
102
RTVSPost2010Prop32
280
     0
102
RTVSPost2010PropOp32
 70
     1
102
RTVSPost2010Prop33
280
     0
102
RTVSPost2010PropOp33
 70
     1
102
RTVSPost2010Prop34
280
     0
102
RTVSPost2010PropOp34
 70
     1
102
RTVSPost2010Prop35
280
     0
102
RTVSPost2010PropOp35
 70
     1
102
RTVSPost2010Prop36
280
     0
102
RTVSPost2010PropOp36
 70
     1
102
RTVSPost2010Prop37
 90
       50
102
RTVSPost2010PropOp37
 70
     1
102
RTVSPost2010Prop38
140
0.0
102
RTVSPost2010PropOp38
 70
     1
102
RTVSPost2010Prop39
140
1.0
102
RTVSPost2010PropOp39
 70
     1
102
RTVSPost2010Prop40
 90
        0
102
RTVSPost2010PropOp40
 70
     1
102
RTVSPost2010Prop41ColorIndex
 90
       18
102
RTVSPost2010Prop41ColorRGB
 90
        0
102
RTVSPost2010PropOp41
 70
     1
102
RTVSPost2010Prop42
 90
       50
102
RTVSPost2010PropOp42
 70
     1
102
RTVSPost2010Prop43
 90
        3
102
RTVSPost2010PropOp43
 70
     1
102
RTVSPost2010Prop44ColorIndex
 90
        5
102
RTVSPost2010Prop44ColorRGB
 90
      255
102
RTVSPost2010PropOp44
 70
     1
102
RTVSPost2010Prop45
280
     0
102
RTVSPost2010PropOp45
 70
     1
102
RTVSPost2010Prop46
 90
       50
102
RTVSPost2010PropOp46
 70
     1
102
RTVSPost2010Prop47
 90
       50
102
RTVSPost2010PropOp47
 70
     1
102
RTVSPost2010Prop48
 90
       50
102
RTVSPost2010PropOp48
 70
     1
102
RTVSPost2010Prop49
280
     0
102
RTVSPost2010PropOp49
 70
     1
102
RTVSPost2010Prop50
 90
       50
102
RTVSPost2010PropOp50
 70
     1
102
RTVSPost2010Prop51ColorIndex
 90
      256
102
RTVSPost2010Prop51ColorRGB
 90
-16777216
102
RTVSPost2010PropOp51
 70
     0
102
RTVSPost2010Prop52
140
1.0
102
RTVSPost2010PropOp52
 70
     0
102
RTVSPost2010Prop53
 90
        2
102
RTVSPost2010PropOp53
 70
     1
102
RTVSPost2010Prop54
  1
strokes_ogs.tif
102
RTVSPost2010PropOp54
 70
     1
102
RTVSPost2010Prop55
280
     0
102
RTVSPost2010PropOp55
 70
     1
102
RTVSPost2010Prop56
140
1.0
102
RTVSPost2010PropOp56
 70
     1
102
RTVSPost2010Prop57
140
1.0
102
RTVSPost2010PropOp57
 70
     1
  0
XRECORD
  5
74E
102
{ACAD_REACTORS
330
74D
102
}
330
74D
100
AcDbXrecord
280
     1
102
RTVSPost2010Prop28
280
     0
102
RTVSPost2010PropOp28
 70
     1
102
RTVSPost2010Prop29
280
     1
102
RTVSPost2010PropOp29
 70
     1
102
RTVSPost2010Prop30
280
     1
102
RTVSPost2010PropOp30
 70
     1
102
RTVSPost2010Prop31
280
     0
102
RTVSPost2010PropOp31
 70
     1
102
RTVSPost2010Prop32
280
     0
102
RTVSPost2010PropOp32
 70
     1
102
RTVSPost2010Prop33
280
     0
102
RTVSPost2010PropOp33
 70
     1
102
RTVSPost2010Prop34
280
     0
102
RTVSPost2010PropOp34
 70
     1
102
RTVSPost2010Prop35
280
     0
102
RTVSPost2010PropOp35
 70
     1
102
RTVSPost2010Prop36
280
     0
102
RTVSPost2010PropOp36
 70
     1
102
RTVSPost2010Prop37
 90
       50
102
RTVSPost2010PropOp37
 70
     1
102
RTVSPost2010Prop38
140
0.0
102
RTVSPost2010PropOp38
 70
     1
102
RTVSPost2010Prop39
140
1.0
102
RTVSPost2010PropOp39
 70
     1
102
RTVSPost2010Prop40
 90
        0
102
RTVSPost2010PropOp40
 70
     1
102
RTVSPost2010Prop41ColorIndex
 90
       18
102
RTVSPost2010Prop41ColorRGB
 90
        0
102
RTVSPost2010PropOp41
 70
     1
102
RTVSPost2010Prop42
 90
       50
102
RTVSPost2010PropOp42
 70
     1
102
RTVSPost2010Prop43
 90
        3
102
RTVSPost2010PropOp43
 70
     1
102
RTVSPost2010Prop44ColorIndex
 90
        5
102
RTVSPost2010Prop44ColorRGB
 90
      255
102
RTVSPost2010PropOp44
 70
     1
102
RTVSPost2010Prop45
280
     0
102
RTVSPost2010PropOp45
 70
     1
102
RTVSPost2010Prop46
 90
       50
102
RTVSPost2010PropOp46
 70
     1
102
RTVSPost2010Prop47
 90
       50
102
RTVSPost2010PropOp47
 70
     1
102
RTVSPost2010Prop48
 90
       50
102
RTVSPost2010PropOp48
 70
     1
102
RTVSPost2010Prop49
280
     0
102
RTVSPost2010PropOp49
 70
     1
102
RTVSPost2010Prop50
 90
       50
102
RTVSPost2010PropOp50
 70
     1
102
RTVSPost2010Prop51ColorIndex
 90
      256
102
RTVSPost2010Prop51ColorRGB
 90
-16777216
102
RTVSPost2010PropOp51
 70
     0
102
RTVSPost2010Prop52
140
1.0
102
RTVSPost2010PropOp52
 70
     0
102
RTVSPost2010Prop53
 90
        2
102
RTVSPost2010PropOp53
 70
     1
102
RTVSPost2010Prop54
  1
strokes_ogs.tif
102
RTVSPost2010PropOp54
 70
     1
102
RTVSPost2010Prop55
280
     0
102
RTVSPost2010PropOp55
 70
     1
102
RTVSPost2010Prop56
140
1.0
102
RTVSPost2010PropOp56
 70
     1
102
RTVSPost2010Prop57
140
1.0
102
RTVSPost2010PropOp57
 70
     1
  0
XRECORD
  5
752
102
{ACAD_REACTORS
330
751
102
}
330
751
100
AcDbXrecord
280
     1
102
RTVSPost2010Prop28
280
     0
102
RTVSPost2010PropOp28
 70
     1
102
RTVSPost2010Prop29
280
     1
102
RTVSPost2010PropOp29
 70
     1
102
RTVSPost2010Prop30
280
     1
102
RTVSPost2010PropOp30
 70
     1
102
RTVSPost2010Prop31
280
     0
102
RTVSPost2010PropOp31
 70
     1
102
RTVSPost2010Prop32
280
     0
102
RTVSPost2010PropOp32
 70
     1
102
RTVSPost2010Prop33
280
     0
102
RTVSPost2010PropOp33
 70
     1
102
RTVSPost2010Prop34
280
     0
102
RTVSPost2010PropOp34
 70
     1
102
RTVSPost2010Prop35
280
     0
102
RTVSPost2010PropOp35
 70
     1
102
RTVSPost2010Prop36
280
     0
102
RTVSPost2010PropOp36
 70
     1
102
RTVSPost2010Prop37
 90
       50
102
RTVSPost2010PropOp37
 70
     1
102
RTVSPost2010Prop38
140
0.0
102
RTVSPost2010PropOp38
 70
     1
102
RTVSPost2010Prop39
140
1.0
102
RTVSPost2010PropOp39
 70
     1
102
RTVSPost2010Prop40
 90
        0
102
RTVSPost2010PropOp40
 70
     1
102
RTVSPost2010Prop41ColorIndex
 90
       18
102
RTVSPost2010Prop41ColorRGB
 90
        0
102
RTVSPost2010PropOp41
 70
     1
102
RTVSPost2010Prop42
 90
       50
102
RTVSPost2010PropOp42
 70
     1
102
RTVSPost2010Prop43
 90
        3
102
RTVSPost2010PropOp43
 70
     1
102
RTVSPost2010Prop44ColorIndex
 90
        5
102
RTVSPost2010Prop44ColorRGB
 90
      255
102
RTVSPost2010PropOp44
 70
     1
102
RTVSPost2010Prop45
280
     0
102
RTVSPost2010PropOp45
 70
     1
102
RTVSPost2010Prop46
 90
       50
102
RTVSPost2010PropOp46
 70
     1
102
RTVSPost2010Prop47
 90
       50
102
RTVSPost2010PropOp47
 70
     1
102
RTVSPost2010Prop48
 90
       50
102
RTVSPost2010PropOp48
 70
     1
102
RTVSPost2010Prop49
280
     0
102
RTVSPost2010PropOp49
 70
     1
102
RTVSPost2010Prop50
 90
       50
102
RTVSPost2010PropOp50
 70
     1
102
RTVSPost2010Prop51ColorIndex
 90
      256
102
RTVSPost2010Prop51ColorRGB
 90
-16777216
102
RTVSPost2010PropOp51
 70
     0
102
RTVSPost2010Prop52
140
1.0
102
RTVSPost2010PropOp52
 70
     0
102
RTVSPost2010Prop53
 90
        2
102
RTVSPost2010PropOp53
 70
     1
102
RTVSPost2010Prop54
  1
strokes_ogs.tif
102
RTVSPost2010PropOp54
 70
     1
102
RTVSPost2010Prop55
280
     0
102
RTVSPost2010PropOp55
 70
     1
102
RTVSPost2010Prop56
140
1.0
102
RTVSPost2010PropOp56
 70
     1
102
RTVSPost2010Prop57
140
1.0
102
RTVSPost2010PropOp57
 70
     1
  0
XRECORD
  5
762
102
{ACAD_REACTORS
330
761
102
}
330
761
100
AcDbXrecord
280
     1
102
RTVSPost2010Prop28
280
     0
102
RTVSPost2010PropOp28
 70
     1
102
RTVSPost2010Prop29
280
     1
102
RTVSPost2010PropOp29
 70
     1
102
RTVSPost2010Prop30
280
     1
102
RTVSPost2010PropOp30
 70
     1
102
RTVSPost2010Prop31
280
     0
102
RTVSPost2010PropOp31
 70
     1
102
RTVSPost2010Prop32
280
     0
102
RTVSPost2010PropOp32
 70
     1
102
RTVSPost2010Prop33
280
     0
102
RTVSPost2010PropOp33
 70
     1
102
RTVSPost2010Prop34
280
     0
102
RTVSPost2010PropOp34
 70
     1
102
RTVSPost2010Prop35
280
     0
102
RTVSPost2010PropOp35
 70
     1
102
RTVSPost2010Prop36
280
     0
102
RTVSPost2010PropOp36
 70
     1
102
RTVSPost2010Prop37
 90
       50
102
RTVSPost2010PropOp37
 70
     1
102
RTVSPost2010Prop38
140
0.0
102
RTVSPost2010PropOp38
 70
     1
102
RTVSPost2010Prop39
140
1.0
102
RTVSPost2010PropOp39
 70
     1
102
RTVSPost2010Prop40
 90
        0
102
RTVSPost2010PropOp40
 70
     1
102
RTVSPost2010Prop41ColorIndex
 90
       18
102
RTVSPost2010Prop41ColorRGB
 90
        0
102
RTVSPost2010PropOp41
 70
     1
102
RTVSPost2010Prop42
 90
       50
102
RTVSPost2010PropOp42
 70
     1
102
RTVSPost2010Prop43
 90
        3
102
RTVSPost2010PropOp43
 70
     1
102
RTVSPost2010Prop44ColorIndex
 90
        5
102
RTVSPost2010Prop44ColorRGB
 90
      255
102
RTVSPost2010PropOp44
 70
     1
102
RTVSPost2010Prop45
280
     0
102
RTVSPost2010PropOp45
 70
     1
102
RTVSPost2010Prop46
 90
       50
102
RTVSPost2010PropOp46
 70
     1
102
RTVSPost2010Prop47
 90
       50
102
RTVSPost2010PropOp47
 70
     1
102
RTVSPost2010Prop48
 90
       50
102
RTVSPost2010PropOp48
 70
     1
102
RTVSPost2010Prop49
280
     0
102
RTVSPost2010PropOp49
 70
     1
102
RTVSPost2010Prop50
 90
       50
102
RTVSPost2010PropOp50
 70
     1
102
RTVSPost2010Prop51ColorIndex
 90
      256
102
RTVSPost2010Prop51ColorRGB
 90
-16777216
102
RTVSPost2010PropOp51
 70
     0
102
RTVSPost2010Prop52
140
1.0
102
RTVSPost2010PropOp52
 70
     0
102
RTVSPost2010Prop53
 90
        2
102
RTVSPost2010PropOp53
 70
     1
102
RTVSPost2010Prop54
  1
strokes_ogs.tif
102
RTVSPost2010PropOp54
 70
     1
102
RTVSPost2010Prop55
280
     0
102
RTVSPost2010PropOp55
 70
     1
102
RTVSPost2010Prop56
140
1.0
102
RTVSPost2010PropOp56
 70
     1
102
RTVSPost2010Prop57
140
1.0
102
RTVSPost2010PropOp57
 70
     1
  0
XRECORD
  5
75A
102
{ACAD_REACTORS
330
759
102
}
330
759
100
AcDbXrecord
280
     1
102
RTVSPost2010Prop28
280
     0
102
RTVSPost2010PropOp28
 70
     1
102
RTVSPost2010Prop29
280
     1
102
RTVSPost2010PropOp29
 70
     1
102
RTVSPost2010Prop30
280
     1
102
RTVSPost2010PropOp30
 70
     1
102
RTVSPost2010Prop31
280
     0
102
RTVSPost2010PropOp31
 70
     1
102
RTVSPost2010Prop32
280
     0
102
RTVSPost2010PropOp32
 70
     1
102
RTVSPost2010Prop33
280
     0
102
RTVSPost2010PropOp33
 70
     1
102
RTVSPost2010Prop34
280
     0
102
RTVSPost2010PropOp34
 70
     1
102
RTVSPost2010Prop35
280
     0
102
RTVSPost2010PropOp35
 70
     1
102
RTVSPost2010Prop36
280
     0
102
RTVSPost2010PropOp36
 70
     1
102
RTVSPost2010Prop37
 90
       50
102
RTVSPost2010PropOp37
 70
     1
102
RTVSPost2010Prop38
140
0.0
102
RTVSPost2010PropOp38
 70
     1
102
RTVSPost2010Prop39
140
1.0
102
RTVSPost2010PropOp39
 70
     1
102
RTVSPost2010Prop40
 90
        0
102
RTVSPost2010PropOp40
 70
     1
102
RTVSPost2010Prop41ColorIndex
 90
       18
102
RTVSPost2010Prop41ColorRGB
 90
        0
102
RTVSPost2010PropOp41
 70
     1
102
RTVSPost2010Prop42
 90
       50
102
RTVSPost2010PropOp42
 70
     1
102
RTVSPost2010Prop43
 90
        3
102
RTVSPost2010PropOp43
 70
     1
102
RTVSPost2010Prop44ColorIndex
 90
        5
102
RTVSPost2010Prop44ColorRGB
 90
      255
102
RTVSPost2010PropOp44
 70
     1
102
RTVSPost2010Prop45
280
     0
102
RTVSPost2010PropOp45
 70
     1
102
RTVSPost2010Prop46
 90
       50
102
RTVSPost2010PropOp46
 70
     1
102
RTVSPost2010Prop47
 90
       50
102
RTVSPost2010PropOp47
 70
     1
102
RTVSPost2010Prop48
 90
       50
102
RTVSPost2010PropOp48
 70
     1
102
RTVSPost2010Prop49
280
     0
102
RTVSPost2010PropOp49
 70
     1
102
RTVSPost2010Prop50
 90
       50
102
RTVSPost2010PropOp50
 70
     1
102
RTVSPost2010Prop51ColorIndex
 90
      256
102
RTVSPost2010Prop51ColorRGB
 90
-16777216
102
RTVSPost2010PropOp51
 70
     0
102
RTVSPost2010Prop52
140
1.0
102
RTVSPost2010PropOp52
 70
     0
102
RTVSPost2010Prop53
 90
        2
102
RTVSPost2010PropOp53
 70
     1
102
RTVSPost2010Prop54
  1
strokes_ogs.tif
102
RTVSPost2010PropOp54
 70
     1
102
RTVSPost2010Prop55
280
     0
102
RTVSPost2010PropOp55
 70
     1
102
RTVSPost2010Prop56
140
1.0
102
RTVSPost2010PropOp56
 70
     1
102
RTVSPost2010Prop57
140
1.0
102
RTVSPost2010PropOp57
 70
     1
  0
XRECORD
  5
73E
102
{ACAD_REACTORS
330
73D
102
}
330
73D
100
AcDbXrecord
280
     1
102
RTVSPost2010Prop28
280
     0
102
RTVSPost2010PropOp28
 70
     1
102
RTVSPost2010Prop29
280
     1
102
RTVSPost2010PropOp29
 70
     1
102
RTVSPost2010Prop30
280
     1
102
RTVSPost2010PropOp30
 70
     1
102
RTVSPost2010Prop31
280
     0
102
RTVSPost2010PropOp31
 70
     1
102
RTVSPost2010Prop32
280
     0
102
RTVSPost2010PropOp32
 70
     1
102
RTVSPost2010Prop33
280
     0
102
RTVSPost2010PropOp33
 70
     1
102
RTVSPost2010Prop34
280
     0
102
RTVSPost2010PropOp34
 70
     1
102
RTVSPost2010Prop35
280
     0
102
RTVSPost2010PropOp35
 70
     1
102
RTVSPost2010Prop36
280
     0
102
RTVSPost2010PropOp36
 70
     1
102
RTVSPost2010Prop37
 90
       50
102
RTVSPost2010PropOp37
 70
     1
102
RTVSPost2010Prop38
140
0.0
102
RTVSPost2010PropOp38
 70
     1
102
RTVSPost2010Prop39
140
1.0
102
RTVSPost2010PropOp39
 70
     1
102
RTVSPost2010Prop40
 90
        0
102
RTVSPost2010PropOp40
 70
     1
102
RTVSPost2010Prop41ColorIndex
 90
       18
102
RTVSPost2010Prop41ColorRGB
 90
        0
102
RTVSPost2010PropOp41
 70
     1
102
RTVSPost2010Prop42
 90
       50
102
RTVSPost2010PropOp42
 70
     1
102
RTVSPost2010Prop43
 90
        3
102
RTVSPost2010PropOp43
 70
     1
102
RTVSPost2010Prop44ColorIndex
 90
        5
102
RTVSPost2010Prop44ColorRGB
 90
      255
102
RTVSPost2010PropOp44
 70
     1
102
RTVSPost2010Prop45
280
     0
102
RTVSPost2010PropOp45
 70
     1
102
RTVSPost2010Prop46
 90
       50
102
RTVSPost2010PropOp46
 70
     1
102
RTVSPost2010Prop47
 90
       50
102
RTVSPost2010PropOp47
 70
     1
102
RTVSPost2010Prop48
 90
       50
102
RTVSPost2010PropOp48
 70
     1
102
RTVSPost2010Prop49
280
     0
102
RTVSPost2010PropOp49
 70
     1
102
RTVSPost2010Prop50
 90
       50
102
RTVSPost2010PropOp50
 70
     1
102
RTVSPost2010Prop51ColorIndex
 90
      256
102
RTVSPost2010Prop51ColorRGB
 90
-16777216
102
RTVSPost2010PropOp51
 70
     0
102
RTVSPost2010Prop52
140
1.0
102
RTVSPost2010PropOp52
 70
     0
102
RTVSPost2010Prop53
 90
        2
102
RTVSPost2010PropOp53
 70
     1
102
RTVSPost2010Prop54
  1
strokes_ogs.tif
102
RTVSPost2010PropOp54
 70
     1
102
RTVSPost2010Prop55
280
     0
102
RTVSPost2010PropOp55
 70
     1
102
RTVSPost2010Prop56
140
1.0
102
RTVSPost2010PropOp56
 70
     1
102
RTVSPost2010Prop57
140
1.0
102
RTVSPost2010PropOp57
 70
     1
  0
XRECORD
  5
740
102
{ACAD_REACTORS
330
73F
102
}
330
73F
100
AcDbXrecord
280
     1
102
RTVSPost2010Prop28
280
     0
102
RTVSPost2010PropOp28
 70
     1
102
RTVSPost2010Prop29
280
     1
102
RTVSPost2010PropOp29
 70
     1
102
RTVSPost2010Prop30
280
     1
102
RTVSPost2010PropOp30
 70
     1
102
RTVSPost2010Prop31
280
     0
102
RTVSPost2010PropOp31
 70
     1
102
RTVSPost2010Prop32
280
     0
102
RTVSPost2010PropOp32
 70
     1
102
RTVSPost2010Prop33
280
     0
102
RTVSPost2010PropOp33
 70
     1
102
RTVSPost2010Prop34
280
     0
102
RTVSPost2010PropOp34
 70
     1
102
RTVSPost2010Prop35
280
     0
102
RTVSPost2010PropOp35
 70
     1
102
RTVSPost2010Prop36
280
     0
102
RTVSPost2010PropOp36
 70
     1
102
RTVSPost2010Prop37
 90
       50
102
RTVSPost2010PropOp37
 70
     1
102
RTVSPost2010Prop38
140
0.0
102
RTVSPost2010PropOp38
 70
     1
102
RTVSPost2010Prop39
140
1.0
102
RTVSPost2010PropOp39
 70
     1
102
RTVSPost2010Prop40
 90
        0
102
RTVSPost2010PropOp40
 70
     1
102
RTVSPost2010Prop41ColorIndex
 90
       18
102
RTVSPost2010Prop41ColorRGB
 90
        0
102
RTVSPost2010PropOp41
 70
     1
102
RTVSPost2010Prop42
 90
       50
102
RTVSPost2010PropOp42
 70
     1
102
RTVSPost2010Prop43
 90
        3
102
RTVSPost2010PropOp43
 70
     1
102
RTVSPost2010Prop44ColorIndex
 90
        5
102
RTVSPost2010Prop44ColorRGB
 90
      255
102
RTVSPost2010PropOp44
 70
     1
102
RTVSPost2010Prop45
280
     0
102
RTVSPost2010PropOp45
 70
     1
102
RTVSPost2010Prop46
 90
       50
102
RTVSPost2010PropOp46
 70
     1
102
RTVSPost2010Prop47
 90
       50
102
RTVSPost2010PropOp47
 70
     1
102
RTVSPost2010Prop48
 90
       50
102
RTVSPost2010PropOp48
 70
     1
102
RTVSPost2010Prop49
280
     0
102
RTVSPost2010PropOp49
 70
     1
102
RTVSPost2010Prop50
 90
       50
102
RTVSPost2010PropOp50
 70
     1
102
RTVSPost2010Prop51ColorIndex
 90
      256
102
RTVSPost2010Prop51ColorRGB
 90
-16777216
102
RTVSPost2010PropOp51
 70
     0
102
RTVSPost2010Prop52
140
1.0
102
RTVSPost2010PropOp52
 70
     0
102
RTVSPost2010Prop53
 90
        2
102
RTVSPost2010PropOp53
 70
     1
102
RTVSPost2010Prop54
  1
strokes_ogs.tif
102
RTVSPost2010PropOp54
 70
     1
102
RTVSPost2010Prop55
280
     0
102
RTVSPost2010PropOp55
 70
     1
102
RTVSPost2010Prop56
140
1.0
102
RTVSPost2010PropOp56
 70
     1
102
RTVSPost2010Prop57
140
1.0
102
RTVSPost2010PropOp57
 70
     1
  0
XRECORD
  5
742
102
{ACAD_REACTORS
330
741
102
}
330
741
100
AcDbXrecord
280
     1
102
RTVSPost2010Prop28
280
     0
102
RTVSPost2010PropOp28
 70
     1
102
RTVSPost2010Prop29
280
     1
102
RTVSPost2010PropOp29
 70
     1
102
RTVSPost2010Prop30
280
     1
102
RTVSPost2010PropOp30
 70
     1
102
RTVSPost2010Prop31
280
     0
102
RTVSPost2010PropOp31
 70
     1
102
RTVSPost2010Prop32
280
     0
102
RTVSPost2010PropOp32
 70
     1
102
RTVSPost2010Prop33
280
     0
102
RTVSPost2010PropOp33
 70
     1
102
RTVSPost2010Prop34
280
     0
102
RTVSPost2010PropOp34
 70
     1
102
RTVSPost2010Prop35
280
     0
102
RTVSPost2010PropOp35
 70
     1
102
RTVSPost2010Prop36
280
     0
102
RTVSPost2010PropOp36
 70
     1
102
RTVSPost2010Prop37
 90
       50
102
RTVSPost2010PropOp37
 70
     1
102
RTVSPost2010Prop38
140
0.0
102
RTVSPost2010PropOp38
 70
     1
102
RTVSPost2010Prop39
140
1.0
102
RTVSPost2010PropOp39
 70
     1
102
RTVSPost2010Prop40
 90
        0
102
RTVSPost2010PropOp40
 70
     1
102
RTVSPost2010Prop41ColorIndex
 90
       18
102
RTVSPost2010Prop41ColorRGB
 90
        0
102
RTVSPost2010PropOp41
 70
     1
102
RTVSPost2010Prop42
 90
       50
102
RTVSPost2010PropOp42
 70
     1
102
RTVSPost2010Prop43
 90
        3
102
RTVSPost2010PropOp43
 70
     1
102
RTVSPost2010Prop44ColorIndex
 90
        5
102
RTVSPost2010Prop44ColorRGB
 90
      255
102
RTVSPost2010PropOp44
 70
     1
102
RTVSPost2010Prop45
280
     0
102
RTVSPost2010PropOp45
 70
     1
102
RTVSPost2010Prop46
 90
       50
102
RTVSPost2010PropOp46
 70
     1
102
RTVSPost2010Prop47
 90
       50
102
RTVSPost2010PropOp47
 70
     1
102
RTVSPost2010Prop48
 90
       50
102
RTVSPost2010PropOp48
 70
     1
102
RTVSPost2010Prop49
280
     0
102
RTVSPost2010PropOp49
 70
     1
102
RTVSPost2010Prop50
 90
       50
102
RTVSPost2010PropOp50
 70
     1
102
RTVSPost2010Prop51ColorIndex
 90
      256
102
RTVSPost2010Prop51ColorRGB
 90
-16777216
102
RTVSPost2010PropOp51
 70
     0
102
RTVSPost2010Prop52
140
1.0
102
RTVSPost2010PropOp52
 70
     0
102
RTVSPost2010Prop53
 90
        2
102
RTVSPost2010PropOp53
 70
     1
102
RTVSPost2010Prop54
  1
strokes_ogs.tif
102
RTVSPost2010PropOp54
 70
     1
102
RTVSPost2010Prop55
280
     0
102
RTVSPost2010PropOp55
 70
     1
102
RTVSPost2010Prop56
140
1.0
102
RTVSPost2010PropOp56
 70
     1
102
RTVSPost2010Prop57
140
1.0
102
RTVSPost2010PropOp57
 70
     1
  0
XRECORD
  5
744
102
{ACAD_REACTORS
330
743
102
}
330
743
100
AcDbXrecord
280
     1
102
RTVSPost2010Prop28
280
     0
102
RTVSPost2010PropOp28
 70
     1
102
RTVSPost2010Prop29
280
     1
102
RTVSPost2010PropOp29
 70
     1
102
RTVSPost2010Prop30
280
     1
102
RTVSPost2010PropOp30
 70
     1
102
RTVSPost2010Prop31
280
     0
102
RTVSPost2010PropOp31
 70
     1
102
RTVSPost2010Prop32
280
     0
102
RTVSPost2010PropOp32
 70
     1
102
RTVSPost2010Prop33
280
     0
102
RTVSPost2010PropOp33
 70
     1
102
RTVSPost2010Prop34
280
     0
102
RTVSPost2010PropOp34
 70
     1
102
RTVSPost2010Prop35
280
     0
102
RTVSPost2010PropOp35
 70
     1
102
RTVSPost2010Prop36
280
     0
102
RTVSPost2010PropOp36
 70
     1
102
RTVSPost2010Prop37
 90
       50
102
RTVSPost2010PropOp37
 70
     1
102
RTVSPost2010Prop38
140
0.0
102
RTVSPost2010PropOp38
 70
     1
102
RTVSPost2010Prop39
140
1.0
102
RTVSPost2010PropOp39
 70
     1
102
RTVSPost2010Prop40
 90
        0
102
RTVSPost2010PropOp40
 70
     1
102
RTVSPost2010Prop41ColorIndex
 90
       18
102
RTVSPost2010Prop41ColorRGB
 90
        0
102
RTVSPost2010PropOp41
 70
     1
102
RTVSPost2010Prop42
 90
       50
102
RTVSPost2010PropOp42
 70
     1
102
RTVSPost2010Prop43
 90
        3
102
RTVSPost2010PropOp43
 70
     1
102
RTVSPost2010Prop44ColorIndex
 90
        5
102
RTVSPost2010Prop44ColorRGB
 90
      255
102
RTVSPost2010PropOp44
 70
     1
102
RTVSPost2010Prop45
280
     0
102
RTVSPost2010PropOp45
 70
     1
102
RTVSPost2010Prop46
 90
       50
102
RTVSPost2010PropOp46
 70
     1
102
RTVSPost2010Prop47
 90
       50
102
RTVSPost2010PropOp47
 70
     1
102
RTVSPost2010Prop48
 90
       50
102
RTVSPost2010PropOp48
 70
     1
102
RTVSPost2010Prop49
280
     0
102
RTVSPost2010PropOp49
 70
     1
102
RTVSPost2010Prop50
 90
       50
102
RTVSPost2010PropOp50
 70
     1
102
RTVSPost2010Prop51ColorIndex
 90
      256
102
RTVSPost2010Prop51ColorRGB
 90
-16777216
102
RTVSPost2010PropOp51
 70
     0
102
RTVSPost2010Prop52
140
1.0
102
RTVSPost2010PropOp52
 70
     0
102
RTVSPost2010Prop53
 90
        2
102
RTVSPost2010PropOp53
 70
     1
102
RTVSPost2010Prop54
  1
strokes_ogs.tif
102
RTVSPost2010PropOp54
 70
     1
102
RTVSPost2010Prop55
280
     0
102
RTVSPost2010PropOp55
 70
     1
102
RTVSPost2010Prop56
140
1.0
102
RTVSPost2010PropOp56
 70
     1
102
RTVSPost2010Prop57
140
1.0
102
RTVSPost2010PropOp57
 70
     1
  0
XRECORD
  5
74C
102
{ACAD_REACTORS
330
74B
102
}
330
74B
100
AcDbXrecord
280
     1
102
RTVSPost2010Prop28
280
     0
102
RTVSPost2010PropOp28
 70
     1
102
RTVSPost2010Prop29
280
     1
102
RTVSPost2010PropOp29
 70
     1
102
RTVSPost2010Prop30
280
     1
102
RTVSPost2010PropOp30
 70
     1
102
RTVSPost2010Prop31
280
     0
102
RTVSPost2010PropOp31
 70
     1
102
RTVSPost2010Prop32
280
     0
102
RTVSPost2010PropOp32
 70
     1
102
RTVSPost2010Prop33
280
     0
102
RTVSPost2010PropOp33
 70
     1
102
RTVSPost2010Prop34
280
     0
102
RTVSPost2010PropOp34
 70
     1
102
RTVSPost2010Prop35
280
     0
102
RTVSPost2010PropOp35
 70
     1
102
RTVSPost2010Prop36
280
     0
102
RTVSPost2010PropOp36
 70
     1
102
RTVSPost2010Prop37
 90
       50
102
RTVSPost2010PropOp37
 70
     1
102
RTVSPost2010Prop38
140
0.0
102
RTVSPost2010PropOp38
 70
     1
102
RTVSPost2010Prop39
140
1.0
102
RTVSPost2010PropOp39
 70
     1
102
RTVSPost2010Prop40
 90
        0
102
RTVSPost2010PropOp40
 70
     1
102
RTVSPost2010Prop41ColorIndex
 90
       18
102
RTVSPost2010Prop41ColorRGB
 90
        0
102
RTVSPost2010PropOp41
 70
     1
102
RTVSPost2010Prop42
 90
       50
102
RTVSPost2010PropOp42
 70
     1
102
RTVSPost2010Prop43
 90
        3
102
RTVSPost2010PropOp43
 70
     1
102
RTVSPost2010Prop44ColorIndex
 90
        5
102
RTVSPost2010Prop44ColorRGB
 90
      255
102
RTVSPost2010PropOp44
 70
     1
102
RTVSPost2010Prop45
280
     0
102
RTVSPost2010PropOp45
 70
     1
102
RTVSPost2010Prop46
 90
       50
102
RTVSPost2010PropOp46
 70
     1
102
RTVSPost2010Prop47
 90
       50
102
RTVSPost2010PropOp47
 70
     1
102
RTVSPost2010Prop48
 90
       50
102
RTVSPost2010PropOp48
 70
     1
102
RTVSPost2010Prop49
280
     0
102
RTVSPost2010PropOp49
 70
     1
102
RTVSPost2010Prop50
 90
       50
102
RTVSPost2010PropOp50
 70
     1
102
RTVSPost2010Prop51ColorIndex
 90
      256
102
RTVSPost2010Prop51ColorRGB
 90
-16777216
102
RTVSPost2010PropOp51
 70
     0
102
RTVSPost2010Prop52
140
1.0
102
RTVSPost2010PropOp52
 70
     0
102
RTVSPost2010Prop53
 90
        2
102
RTVSPost2010PropOp53
 70
     1
102
RTVSPost2010Prop54
  1
strokes_ogs.tif
102
RTVSPost2010PropOp54
 70
     1
102
RTVSPost2010Prop55
280
     0
102
RTVSPost2010PropOp55
 70
     1
102
RTVSPost2010Prop56
140
1.0
102
RTVSPost2010PropOp56
 70
     1
102
RTVSPost2010Prop57
140
1.0
102
RTVSPost2010PropOp57
 70
     1
  0
XRECORD
  5
75E
102
{ACAD_REACTORS
330
75D
102
}
330
75D
100
AcDbXrecord
280
     1
102
RTVSPost2010Prop28
280
     0
102
RTVSPost2010PropOp28
 70
     1
102
RTVSPost2010Prop29
280
     1
102
RTVSPost2010PropOp29
 70
     1
102
RTVSPost2010Prop30
280
     1
102
RTVSPost2010PropOp30
 70
     1
102
RTVSPost2010Prop31
280
     0
102
RTVSPost2010PropOp31
 70
     1
102
RTVSPost2010Prop32
280
     0
102
RTVSPost2010PropOp32
 70
     1
102
RTVSPost2010Prop33
280
     0
102
RTVSPost2010PropOp33
 70
     1
102
RTVSPost2010Prop34
280
     0
102
RTVSPost2010PropOp34
 70
     1
102
RTVSPost2010Prop35
280
     0
102
RTVSPost2010PropOp35
 70
     1
102
RTVSPost2010Prop36
280
     0
102
RTVSPost2010PropOp36
 70
     1
102
RTVSPost2010Prop37
 90
       50
102
RTVSPost2010PropOp37
 70
     1
102
RTVSPost2010Prop38
140
0.0
102
RTVSPost2010PropOp38
 70
     1
102
RTVSPost2010Prop39
140
1.0
102
RTVSPost2010PropOp39
 70
     1
102
RTVSPost2010Prop40
 90
        0
102
RTVSPost2010PropOp40
 70
     1
102
RTVSPost2010Prop41ColorIndex
 90
       18
102
RTVSPost2010Prop41ColorRGB
 90
        0
102
RTVSPost2010PropOp41
 70
     1
102
RTVSPost2010Prop42
 90
       50
102
RTVSPost2010PropOp42
 70
     1
102
RTVSPost2010Prop43
 90
        3
102
RTVSPost2010PropOp43
 70
     1
102
RTVSPost2010Prop44ColorIndex
 90
        5
102
RTVSPost2010Prop44ColorRGB
 90
      255
102
RTVSPost2010PropOp44
 70
     1
102
RTVSPost2010Prop45
280
     0
102
RTVSPost2010PropOp45
 70
     1
102
RTVSPost2010Prop46
 90
       50
102
RTVSPost2010PropOp46
 70
     1
102
RTVSPost2010Prop47
 90
       50
102
RTVSPost2010PropOp47
 70
     1
102
RTVSPost2010Prop48
 90
       50
102
RTVSPost2010PropOp48
 70
     1
102
RTVSPost2010Prop49
280
     0
102
RTVSPost2010PropOp49
 70
     1
102
RTVSPost2010Prop50
 90
       50
102
RTVSPost2010PropOp50
 70
     1
102
RTVSPost2010Prop51ColorIndex
 90
      256
102
RTVSPost2010Prop51ColorRGB
 90
-16777216
102
RTVSPost2010PropOp51
 70
     0
102
RTVSPost2010Prop52
140
1.0
102
RTVSPost2010PropOp52
 70
     0
102
RTVSPost2010Prop53
 90
        2
102
RTVSPost2010PropOp53
 70
     1
102
RTVSPost2010Prop54
  1
strokes_ogs.tif
102
RTVSPost2010PropOp54
 70
     1
102
RTVSPost2010Prop55
280
     0
102
RTVSPost2010PropOp55
 70
     1
102
RTVSPost2010Prop56
140
1.0
102
RTVSPost2010PropOp56
 70
     1
102
RTVSPost2010Prop57
140
1.0
102
RTVSPost2010PropOp57
 70
     1
  0
XRECORD
  5
758
102
{ACAD_REACTORS
330
757
102
}
330
757
100
AcDbXrecord
280
     1
102
RTVSPost2010Prop28
280
     0
102
RTVSPost2010PropOp28
 70
     1
102
RTVSPost2010Prop29
280
     1
102
RTVSPost2010PropOp29
 70
     1
102
RTVSPost2010Prop30
280
     1
102
RTVSPost2010PropOp30
 70
     1
102
RTVSPost2010Prop31
280
     0
102
RTVSPost2010PropOp31
 70
     1
102
RTVSPost2010Prop32
280
     0
102
RTVSPost2010PropOp32
 70
     1
102
RTVSPost2010Prop33
280
     0
102
RTVSPost2010PropOp33
 70
     1
102
RTVSPost2010Prop34
280
     0
102
RTVSPost2010PropOp34
 70
     1
102
RTVSPost2010Prop35
280
     0
102
RTVSPost2010PropOp35
 70
     1
102
RTVSPost2010Prop36
280
     0
102
RTVSPost2010PropOp36
 70
     1
102
RTVSPost2010Prop37
 90
       50
102
RTVSPost2010PropOp37
 70
     1
102
RTVSPost2010Prop38
140
0.0
102
RTVSPost2010PropOp38
 70
     1
102
RTVSPost2010Prop39
140
1.0
102
RTVSPost2010PropOp39
 70
     1
102
RTVSPost2010Prop40
 90
        0
102
RTVSPost2010PropOp40
 70
     1
102
RTVSPost2010Prop41ColorIndex
 90
       18
102
RTVSPost2010Prop41ColorRGB
 90
        0
102
RTVSPost2010PropOp41
 70
     1
102
RTVSPost2010Prop42
 90
       50
102
RTVSPost2010PropOp42
 70
     1
102
RTVSPost2010Prop43
 90
        3
102
RTVSPost2010PropOp43
 70
     1
102
RTVSPost2010Prop44ColorIndex
 90
        5
102
RTVSPost2010Prop44ColorRGB
 90
      255
102
RTVSPost2010PropOp44
 70
     1
102
RTVSPost2010Prop45
280
     0
102
RTVSPost2010PropOp45
 70
     1
102
RTVSPost2010Prop46
 90
       50
102
RTVSPost2010PropOp46
 70
     1
102
RTVSPost2010Prop47
 90
       50
102
RTVSPost2010PropOp47
 70
     1
102
RTVSPost2010Prop48
 90
       50
102
RTVSPost2010PropOp48
 70
     1
102
RTVSPost2010Prop49
280
     0
102
RTVSPost2010PropOp49
 70
     1
102
RTVSPost2010Prop50
 90
       50
102
RTVSPost2010PropOp50
 70
     1
102
RTVSPost2010Prop51ColorIndex
 90
      256
102
RTVSPost2010Prop51ColorRGB
 90
-16777216
102
RTVSPost2010PropOp51
 70
     0
102
RTVSPost2010Prop52
140
1.0
102
RTVSPost2010PropOp52
 70
     0
102
RTVSPost2010Prop53
 90
        2
102
RTVSPost2010PropOp53
 70
     1
102
RTVSPost2010Prop54
  1
strokes_ogs.tif
102
RTVSPost2010PropOp54
 70
     1
102
RTVSPost2010Prop55
280
     0
102
RTVSPost2010PropOp55
 70
     1
102
RTVSPost2010Prop56
140
1.0
102
RTVSPost2010PropOp56
 70
     1
102
RTVSPost2010Prop57
140
1.0
102
RTVSPost2010PropOp57
 70
     1
  0
XRECORD
  5
760
102
{ACAD_REACTORS
330
75F
102
}
330
75F
100
AcDbXrecord
280
     1
102
RTVSPost2010Prop28
280
     0
102
RTVSPost2010PropOp28
 70
     1
102
RTVSPost2010Prop29
280
     1
102
RTVSPost2010PropOp29
 70
     1
102
RTVSPost2010Prop30
280
     1
102
RTVSPost2010PropOp30
 70
     1
102
RTVSPost2010Prop31
280
     0
102
RTVSPost2010PropOp31
 70
     1
102
RTVSPost2010Prop32
280
     0
102
RTVSPost2010PropOp32
 70
     1
102
RTVSPost2010Prop33
280
     0
102
RTVSPost2010PropOp33
 70
     1
102
RTVSPost2010Prop34
280
     0
102
RTVSPost2010PropOp34
 70
     1
102
RTVSPost2010Prop35
280
     0
102
RTVSPost2010PropOp35
 70
     1
102
RTVSPost2010Prop36
280
     0
102
RTVSPost2010PropOp36
 70
     1
102
RTVSPost2010Prop37
 90
       50
102
RTVSPost2010PropOp37
 70
     1
102
RTVSPost2010Prop38
140
0.0
102
RTVSPost2010PropOp38
 70
     1
102
RTVSPost2010Prop39
140
1.0
102
RTVSPost2010PropOp39
 70
     1
102
RTVSPost2010Prop40
 90
        0
102
RTVSPost2010PropOp40
 70
     1
102
RTVSPost2010Prop41ColorIndex
 90
       18
102
RTVSPost2010Prop41ColorRGB
 90
        0
102
RTVSPost2010PropOp41
 70
     1
102
RTVSPost2010Prop42
 90
       50
102
RTVSPost2010PropOp42
 70
     1
102
RTVSPost2010Prop43
 90
        3
102
RTVSPost2010PropOp43
 70
     1
102
RTVSPost2010Prop44ColorIndex
 90
        5
102
RTVSPost2010Prop44ColorRGB
 90
      255
102
RTVSPost2010PropOp44
 70
     1
102
RTVSPost2010Prop45
280
     0
102
RTVSPost2010PropOp45
 70
     1
102
RTVSPost2010Prop46
 90
       50
102
RTVSPost2010PropOp46
 70
     1
102
RTVSPost2010Prop47
 90
       50
102
RTVSPost2010PropOp47
 70
     1
102
RTVSPost2010Prop48
 90
       50
102
RTVSPost2010PropOp48
 70
     1
102
RTVSPost2010Prop49
280
     0
102
RTVSPost2010PropOp49
 70
     1
102
RTVSPost2010Prop50
 90
       50
102
RTVSPost2010PropOp50
 70
     1
102
RTVSPost2010Prop51ColorIndex
 90
      256
102
RTVSPost2010Prop51ColorRGB
 90
-16777216
102
RTVSPost2010PropOp51
 70
     0
102
RTVSPost2010Prop52
140
1.0
102
RTVSPost2010PropOp52
 70
     0
102
RTVSPost2010Prop53
 90
        2
102
RTVSPost2010PropOp53
 70
     1
102
RTVSPost2010Prop54
  1
strokes_ogs.tif
102
RTVSPost2010PropOp54
 70
     1
102
RTVSPost2010Prop55
280
     0
102
RTVSPost2010PropOp55
 70
     1
102
RTVSPost2010Prop56
140
1.0
102
RTVSPost2010PropOp56
 70
     1
102
RTVSPost2010Prop57
140
1.0
102
RTVSPost2010PropOp57
 70
     1
  0
XRECORD
  5
750
102
{ACAD_REACTORS
330
74F
102
}
330
74F
100
AcDbXrecord
280
     1
102
RTVSPost2010Prop28
280
     0
102
RTVSPost2010PropOp28
 70
     1
102
RTVSPost2010Prop29
280
     1
102
RTVSPost2010PropOp29
 70
     1
102
RTVSPost2010Prop30
280
     1
102
RTVSPost2010PropOp30
 70
     1
102
RTVSPost2010Prop31
280
     0
102
RTVSPost2010PropOp31
 70
     1
102
RTVSPost2010Prop32
280
     0
102
RTVSPost2010PropOp32
 70
     1
102
RTVSPost2010Prop33
280
     0
102
RTVSPost2010PropOp33
 70
     1
102
RTVSPost2010Prop34
280
     0
102
RTVSPost2010PropOp34
 70
     1
102
RTVSPost2010Prop35
280
     0
102
RTVSPost2010PropOp35
 70
     1
102
RTVSPost2010Prop36
280
     0
102
RTVSPost2010PropOp36
 70
     1
102
RTVSPost2010Prop37
 90
       50
102
RTVSPost2010PropOp37
 70
     1
102
RTVSPost2010Prop38
140
0.0
102
RTVSPost2010PropOp38
 70
     1
102
RTVSPost2010Prop39
140
1.0
102
RTVSPost2010PropOp39
 70
     1
102
RTVSPost2010Prop40
 90
        0
102
RTVSPost2010PropOp40
 70
     1
102
RTVSPost2010Prop41ColorIndex
 90
       18
102
RTVSPost2010Prop41ColorRGB
 90
        0
102
RTVSPost2010PropOp41
 70
     1
102
RTVSPost2010Prop42
 90
       50
102
RTVSPost2010PropOp42
 70
     1
102
RTVSPost2010Prop43
 90
        3
102
RTVSPost2010PropOp43
 70
     1
102
RTVSPost2010Prop44ColorIndex
 90
        5
102
RTVSPost2010Prop44ColorRGB
 90
      255
102
RTVSPost2010PropOp44
 70
     1
102
RTVSPost2010Prop45
280
     0
102
RTVSPost2010PropOp45
 70
     1
102
RTVSPost2010Prop46
 90
       50
102
RTVSPost2010PropOp46
 70
     1
102
RTVSPost2010Prop47
 90
       50
102
RTVSPost2010PropOp47
 70
     1
102
RTVSPost2010Prop48
 90
       50
102
RTVSPost2010PropOp48
 70
     1
102
RTVSPost2010Prop49
280
     0
102
RTVSPost2010PropOp49
 70
     1
102
RTVSPost2010Prop50
 90
       50
102
RTVSPost2010PropOp50
 70
     1
102
RTVSPost2010Prop51ColorIndex
 90
      256
102
RTVSPost2010Prop51ColorRGB
 90
-16777216
102
RTVSPost2010PropOp51
 70
     0
102
RTVSPost2010Prop52
140
1.0
102
RTVSPost2010PropOp52
 70
     0
102
RTVSPost2010Prop53
 90
        2
102
RTVSPost2010PropOp53
 70
     1
102
RTVSPost2010Prop54
  1
strokes_ogs.tif
102
RTVSPost2010PropOp54
 70
     1
102
RTVSPost2010Prop55
280
     0
102
RTVSPost2010PropOp55
 70
     1
102
RTVSPost2010Prop56
140
1.0
102
RTVSPost2010PropOp56
 70
     1
102
RTVSPost2010Prop57
140
1.0
102
RTVSPost2010PropOp57
 70
     1
  0
XRECORD
  5
76C
102
{ACAD_REACTORS
330
76B
102
}
330
76B
100
AcDbXrecord
280
     1
102
RTVSPost2010Prop28
280
     0
102
RTVSPost2010PropOp28
 70
     1
102
RTVSPost2010Prop29
280
     1
102
RTVSPost2010PropOp29
 70
     1
102
RTVSPost2010Prop30
280
     1
102
RTVSPost2010PropOp30
 70
     1
102
RTVSPost2010Prop31
280
     0
102
RTVSPost2010PropOp31
 70
     1
102
RTVSPost2010Prop32
280
     0
102
RTVSPost2010PropOp32
 70
     1
102
RTVSPost2010Prop33
280
     0
102
RTVSPost2010PropOp33
 70
     1
102
RTVSPost2010Prop34
280
     0
102
RTVSPost2010PropOp34
 70
     1
102
RTVSPost2010Prop35
280
     0
102
RTVSPost2010PropOp35
 70
     1
102
RTVSPost2010Prop36
280
     0
102
RTVSPost2010PropOp36
 70
     1
102
RTVSPost2010Prop37
 90
       50
102
RTVSPost2010PropOp37
 70
     1
102
RTVSPost2010Prop38
140
0.0
102
RTVSPost2010PropOp38
 70
     1
102
RTVSPost2010Prop39
140
1.0
102
RTVSPost2010PropOp39
 70
     1
102
RTVSPost2010Prop40
 90
        0
102
RTVSPost2010PropOp40
 70
     1
102
RTVSPost2010Prop41ColorIndex
 90
       18
102
RTVSPost2010Prop41ColorRGB
 90
        0
102
RTVSPost2010PropOp41
 70
     1
102
RTVSPost2010Prop42
 90
       50
102
RTVSPost2010PropOp42
 70
     1
102
RTVSPost2010Prop43
 90
        3
102
RTVSPost2010PropOp43
 70
     1
102
RTVSPost2010Prop44ColorIndex
 90
        5
102
RTVSPost2010Prop44ColorRGB
 90
      255
102
RTVSPost2010PropOp44
 70
     1
102
RTVSPost2010Prop45
280
     0
102
RTVSPost2010PropOp45
 70
     1
102
RTVSPost2010Prop46
 90
       50
102
RTVSPost2010PropOp46
 70
     1
102
RTVSPost2010Prop47
 90
       50
102
RTVSPost2010PropOp47
 70
     1
102
RTVSPost2010Prop48
 90
       50
102
RTVSPost2010PropOp48
 70
     1
102
RTVSPost2010Prop49
280
     0
102
RTVSPost2010PropOp49
 70
     1
102
RTVSPost2010Prop50
 90
       50
102
RTVSPost2010PropOp50
 70
     1
102
RTVSPost2010Prop51ColorIndex
 90
      256
102
RTVSPost2010Prop51ColorRGB
 90
-16777216
102
RTVSPost2010PropOp51
 70
     0
102
RTVSPost2010Prop52
140
1.0
102
RTVSPost2010PropOp52
 70
     0
102
RTVSPost2010Prop53
 90
        2
102
RTVSPost2010PropOp53
 70
     1
102
RTVSPost2010Prop54
  1
strokes_ogs.tif
102
RTVSPost2010PropOp54
 70
     1
102
RTVSPost2010Prop55
280
     0
102
RTVSPost2010PropOp55
 70
     1
102
RTVSPost2010Prop56
140
1.0
102
RTVSPost2010PropOp56
 70
     1
102
RTVSPost2010Prop57
140
1.0
102
RTVSPost2010PropOp57
 70
     1
  0
XRECORD
  5
76A
102
{ACAD_REACTORS
330
769
102
}
330
769
100
AcDbXrecord
280
     1
102
RTVSPost2010Prop28
280
     0
102
RTVSPost2010PropOp28
 70
     1
102
RTVSPost2010Prop29
280
     1
102
RTVSPost2010PropOp29
 70
     1
102
RTVSPost2010Prop30
280
     1
102
RTVSPost2010PropOp30
 70
     1
102
RTVSPost2010Prop31
280
     0
102
RTVSPost2010PropOp31
 70
     1
102
RTVSPost2010Prop32
280
     0
102
RTVSPost2010PropOp32
 70
     1
102
RTVSPost2010Prop33
280
     0
102
RTVSPost2010PropOp33
 70
     1
102
RTVSPost2010Prop34
280
     0
102
RTVSPost2010PropOp34
 70
     1
102
RTVSPost2010Prop35
280
     0
102
RTVSPost2010PropOp35
 70
     1
102
RTVSPost2010Prop36
280
     0
102
RTVSPost2010PropOp36
 70
     1
102
RTVSPost2010Prop37
 90
       50
102
RTVSPost2010PropOp37
 70
     1
102
RTVSPost2010Prop38
140
0.0
102
RTVSPost2010PropOp38
 70
     1
102
RTVSPost2010Prop39
140
1.0
102
RTVSPost2010PropOp39
 70
     1
102
RTVSPost2010Prop40
 90
        0
102
RTVSPost2010PropOp40
 70
     1
102
RTVSPost2010Prop41ColorIndex
 90
       18
102
RTVSPost2010Prop41ColorRGB
 90
        0
102
RTVSPost2010PropOp41
 70
     1
102
RTVSPost2010Prop42
 90
       50
102
RTVSPost2010PropOp42
 70
     1
102
RTVSPost2010Prop43
 90
        3
102
RTVSPost2010PropOp43
 70
     1
102
RTVSPost2010Prop44ColorIndex
 90
        5
102
RTVSPost2010Prop44ColorRGB
 90
      255
102
RTVSPost2010PropOp44
 70
     1
102
RTVSPost2010Prop45
280
     0
102
RTVSPost2010PropOp45
 70
     1
102
RTVSPost2010Prop46
 90
       50
102
RTVSPost2010PropOp46
 70
     1
102
RTVSPost2010Prop47
 90
       50
102
RTVSPost2010PropOp47
 70
     1
102
RTVSPost2010Prop48
 90
       50
102
RTVSPost2010PropOp48
 70
     1
102
RTVSPost2010Prop49
280
     0
102
RTVSPost2010PropOp49
 70
     1
102
RTVSPost2010Prop50
 90
       50
102
RTVSPost2010PropOp50
 70
     1
102
RTVSPost2010Prop51ColorIndex
 90
      256
102
RTVSPost2010Prop51ColorRGB
 90
-16777216
102
RTVSPost2010PropOp51
 70
     0
102
RTVSPost2010Prop52
140
1.0
102
RTVSPost2010PropOp52
 70
     0
102
RTVSPost2010Prop53
 90
        2
102
RTVSPost2010PropOp53
 70
     1
102
RTVSPost2010Prop54
  1
strokes_ogs.tif
102
RTVSPost2010PropOp54
 70
     1
102
RTVSPost2010Prop55
280
     0
102
RTVSPost2010PropOp55
 70
     1
102
RTVSPost2010Prop56
140
1.0
102
RTVSPost2010PropOp56
 70
     1
102
RTVSPost2010Prop57
140
1.0
102
RTVSPost2010PropOp57
 70
     1
  0
XRECORD
  5
764
102
{ACAD_REACTORS
330
763
102
}
330
763
100
AcDbXrecord
280
     1
102
RTVSPost2010Prop28
280
     0
102
RTVSPost2010PropOp28
 70
     1
102
RTVSPost2010Prop29
280
     1
102
RTVSPost2010PropOp29
 70
     1
102
RTVSPost2010Prop30
280
     1
102
RTVSPost2010PropOp30
 70
     1
102
RTVSPost2010Prop31
280
     0
102
RTVSPost2010PropOp31
 70
     1
102
RTVSPost2010Prop32
280
     0
102
RTVSPost2010PropOp32
 70
     1
102
RTVSPost2010Prop33
280
     0
102
RTVSPost2010PropOp33
 70
     1
102
RTVSPost2010Prop34
280
     0
102
RTVSPost2010PropOp34
 70
     1
102
RTVSPost2010Prop35
280
     0
102
RTVSPost2010PropOp35
 70
     1
102
RTVSPost2010Prop36
280
     0
102
RTVSPost2010PropOp36
 70
     1
102
RTVSPost2010Prop37
 90
       50
102
RTVSPost2010PropOp37
 70
     1
102
RTVSPost2010Prop38
140
0.0
102
RTVSPost2010PropOp38
 70
     1
102
RTVSPost2010Prop39
140
1.0
102
RTVSPost2010PropOp39
 70
     1
102
RTVSPost2010Prop40
 90
        0
102
RTVSPost2010PropOp40
 70
     1
102
RTVSPost2010Prop41ColorIndex
 90
       18
102
RTVSPost2010Prop41ColorRGB
 90
        0
102
RTVSPost2010PropOp41
 70
     1
102
RTVSPost2010Prop42
 90
       50
102
RTVSPost2010PropOp42
 70
     1
102
RTVSPost2010Prop43
 90
        3
102
RTVSPost2010PropOp43
 70
     1
102
RTVSPost2010Prop44ColorIndex
 90
        5
102
RTVSPost2010Prop44ColorRGB
 90
      255
102
RTVSPost2010PropOp44
 70
     1
102
RTVSPost2010Prop45
280
     0
102
RTVSPost2010PropOp45
 70
     1
102
RTVSPost2010Prop46
 90
       50
102
RTVSPost2010PropOp46
 70
     1
102
RTVSPost2010Prop47
 90
       50
102
RTVSPost2010PropOp47
 70
     1
102
RTVSPost2010Prop48
 90
       50
102
RTVSPost2010PropOp48
 70
     1
102
RTVSPost2010Prop49
280
     0
102
RTVSPost2010PropOp49
 70
     1
102
RTVSPost2010Prop50
 90
       50
102
RTVSPost2010PropOp50
 70
     1
102
RTVSPost2010Prop51ColorIndex
 90
      256
102
RTVSPost2010Prop51ColorRGB
 90
-16777216
102
RTVSPost2010PropOp51
 70
     0
102
RTVSPost2010Prop52
140
1.0
102
RTVSPost2010PropOp52
 70
     0
102
RTVSPost2010Prop53
 90
        2
102
RTVSPost2010PropOp53
 70
     1
102
RTVSPost2010Prop54
  1
strokes_ogs.tif
102
RTVSPost2010PropOp54
 70
     1
102
RTVSPost2010Prop55
280
     0
102
RTVSPost2010PropOp55
 70
     1
102
RTVSPost2010Prop56
140
1.0
102
RTVSPost2010PropOp56
 70
     1
102
RTVSPost2010Prop57
140
1.0
102
RTVSPost2010PropOp57
 70
     1
  0
XRECORD
  5
766
102
{ACAD_REACTORS
330
765
102
}
330
765
100
AcDbXrecord
280
     1
102
RTVSPost2010Prop28
280
     0
102
RTVSPost2010PropOp28
 70
     1
102
RTVSPost2010Prop29
280
     1
102
RTVSPost2010PropOp29
 70
     1
102
RTVSPost2010Prop30
280
     1
102
RTVSPost2010PropOp30
 70
     1
102
RTVSPost2010Prop31
280
     0
102
RTVSPost2010PropOp31
 70
     1
102
RTVSPost2010Prop32
280
     0
102
RTVSPost2010PropOp32
 70
     1
102
RTVSPost2010Prop33
280
     0
102
RTVSPost2010PropOp33
 70
     1
102
RTVSPost2010Prop34
280
     0
102
RTVSPost2010PropOp34
 70
     1
102
RTVSPost2010Prop35
280
     0
102
RTVSPost2010PropOp35
 70
     1
102
RTVSPost2010Prop36
280
     0
102
RTVSPost2010PropOp36
 70
     1
102
RTVSPost2010Prop37
 90
       50
102
RTVSPost2010PropOp37
 70
     1
102
RTVSPost2010Prop38
140
0.0
102
RTVSPost2010PropOp38
 70
     1
102
RTVSPost2010Prop39
140
1.0
102
RTVSPost2010PropOp39
 70
     1
102
RTVSPost2010Prop40
 90
        0
102
RTVSPost2010PropOp40
 70
     1
102
RTVSPost2010Prop41ColorIndex
 90
       18
102
RTVSPost2010Prop41ColorRGB
 90
        0
102
RTVSPost2010PropOp41
 70
     1
102
RTVSPost2010Prop42
 90
       50
102
RTVSPost2010PropOp42
 70
     1
102
RTVSPost2010Prop43
 90
        3
102
RTVSPost2010PropOp43
 70
     1
102
RTVSPost2010Prop44ColorIndex
 90
        5
102
RTVSPost2010Prop44ColorRGB
 90
      255
102
RTVSPost2010PropOp44
 70
     1
102
RTVSPost2010Prop45
280
     0
102
RTVSPost2010PropOp45
 70
     1
102
RTVSPost2010Prop46
 90
       50
102
RTVSPost2010PropOp46
 70
     1
102
RTVSPost2010Prop47
 90
       50
102
RTVSPost2010PropOp47
 70
     1
102
RTVSPost2010Prop48
 90
       50
102
RTVSPost2010PropOp48
 70
     1
102
RTVSPost2010Prop49
280
     0
102
RTVSPost2010PropOp49
 70
     1
102
RTVSPost2010Prop50
 90
       50
102
RTVSPost2010PropOp50
 70
     1
102
RTVSPost2010Prop51ColorIndex
 90
      256
102
RTVSPost2010Prop51ColorRGB
 90
-16777216
102
RTVSPost2010PropOp51
 70
     0
102
RTVSPost2010Prop52
140
1.0
102
RTVSPost2010PropOp52
 70
     0
102
RTVSPost2010Prop53
 90
        2
102
RTVSPost2010PropOp53
 70
     1
102
RTVSPost2010Prop54
  1
strokes_ogs.tif
102
RTVSPost2010PropOp54
 70
     1
102
RTVSPost2010Prop55
280
     0
102
RTVSPost2010PropOp55
 70
     1
102
RTVSPost2010Prop56
140
1.0
102
RTVSPost2010PropOp56
 70
     1
102
RTVSPost2010Prop57
140
1.0
102
RTVSPost2010PropOp57
 70
     1
  0
XRECORD
  5
756
102
{ACAD_REACTORS
330
755
102
}
330
755
100
AcDbXrecord
280
     1
102
RTVSPost2010Prop28
280
     0
102
RTVSPost2010PropOp28
 70
     1
102
RTVSPost2010Prop29
280
     1
102
RTVSPost2010PropOp29
 70
     1
102
RTVSPost2010Prop30
280
     1
102
RTVSPost2010PropOp30
 70
     1
102
RTVSPost2010Prop31
280
     0
102
RTVSPost2010PropOp31
 70
     1
102
RTVSPost2010Prop32
280
     0
102
RTVSPost2010PropOp32
 70
     1
102
RTVSPost2010Prop33
280
     0
102
RTVSPost2010PropOp33
 70
     1
102
RTVSPost2010Prop34
280
     0
102
RTVSPost2010PropOp34
 70
     1
102
RTVSPost2010Prop35
280
     0
102
RTVSPost2010PropOp35
 70
     1
102
RTVSPost2010Prop36
280
     0
102
RTVSPost2010PropOp36
 70
     1
102
RTVSPost2010Prop37
 90
       50
102
RTVSPost2010PropOp37
 70
     1
102
RTVSPost2010Prop38
140
0.0
102
RTVSPost2010PropOp38
 70
     1
102
RTVSPost2010Prop39
140
1.0
102
RTVSPost2010PropOp39
 70
     1
102
RTVSPost2010Prop40
 90
        0
102
RTVSPost2010PropOp40
 70
     1
102
RTVSPost2010Prop41ColorIndex
 90
       18
102
RTVSPost2010Prop41ColorRGB
 90
        0
102
RTVSPost2010PropOp41
 70
     1
102
RTVSPost2010Prop42
 90
       50
102
RTVSPost2010PropOp42
 70
     1
102
RTVSPost2010Prop43
 90
        3
102
RTVSPost2010PropOp43
 70
     1
102
RTVSPost2010Prop44ColorIndex
 90
        5
102
RTVSPost2010Prop44ColorRGB
 90
      255
102
RTVSPost2010PropOp44
 70
     1
102
RTVSPost2010Prop45
280
     0
102
RTVSPost2010PropOp45
 70
     1
102
RTVSPost2010Prop46
 90
       50
102
RTVSPost2010PropOp46
 70
     1
102
RTVSPost2010Prop47
 90
       50
102
RTVSPost2010PropOp47
 70
     1
102
RTVSPost2010Prop48
 90
       50
102
RTVSPost2010PropOp48
 70
     1
102
RTVSPost2010Prop49
280
     0
102
RTVSPost2010PropOp49
 70
     1
102
RTVSPost2010Prop50
 90
       50
102
RTVSPost2010PropOp50
 70
     1
102
RTVSPost2010Prop51ColorIndex
 90
      256
102
RTVSPost2010Prop51ColorRGB
 90
-16777216
102
RTVSPost2010PropOp51
 70
     0
102
RTVSPost2010Prop52
140
1.0
102
RTVSPost2010PropOp52
 70
     0
102
RTVSPost2010Prop53
 90
        2
102
RTVSPost2010PropOp53
 70
     1
102
RTVSPost2010Prop54
  1
strokes_ogs.tif
102
RTVSPost2010PropOp54
 70
     1
102
RTVSPost2010Prop55
280
     0
102
RTVSPost2010PropOp55
 70
     1
102
RTVSPost2010Prop56
140
1.0
102
RTVSPost2010PropOp56
 70
     1
102
RTVSPost2010Prop57
140
1.0
102
RTVSPost2010PropOp57
 70
     1
  0
XRECORD
  5
74A
102
{ACAD_REACTORS
330
749
102
}
330
749
100
AcDbXrecord
280
     1
102
RTVSPost2010Prop28
280
     0
102
RTVSPost2010PropOp28
 70
     1
102
RTVSPost2010Prop29
280
     1
102
RTVSPost2010PropOp29
 70
     1
102
RTVSPost2010Prop30
280
     1
102
RTVSPost2010PropOp30
 70
     1
102
RTVSPost2010Prop31
280
     0
102
RTVSPost2010PropOp31
 70
     1
102
RTVSPost2010Prop32
280
     0
102
RTVSPost2010PropOp32
 70
     1
102
RTVSPost2010Prop33
280
     0
102
RTVSPost2010PropOp33
 70
     1
102
RTVSPost2010Prop34
280
     0
102
RTVSPost2010PropOp34
 70
     1
102
RTVSPost2010Prop35
280
     0
102
RTVSPost2010PropOp35
 70
     1
102
RTVSPost2010Prop36
280
     0
102
RTVSPost2010PropOp36
 70
     1
102
RTVSPost2010Prop37
 90
       50
102
RTVSPost2010PropOp37
 70
     1
102
RTVSPost2010Prop38
140
0.0
102
RTVSPost2010PropOp38
 70
     1
102
RTVSPost2010Prop39
140
1.0
102
RTVSPost2010PropOp39
 70
     1
102
RTVSPost2010Prop40
 90
        0
102
RTVSPost2010PropOp40
 70
     1
102
RTVSPost2010Prop41ColorIndex
 90
       18
102
RTVSPost2010Prop41ColorRGB
 90
        0
102
RTVSPost2010PropOp41
 70
     1
102
RTVSPost2010Prop42
 90
       50
102
RTVSPost2010PropOp42
 70
     1
102
RTVSPost2010Prop43
 90
        3
102
RTVSPost2010PropOp43
 70
     1
102
RTVSPost2010Prop44ColorIndex
 90
        5
102
RTVSPost2010Prop44ColorRGB
 90
      255
102
RTVSPost2010PropOp44
 70
     1
102
RTVSPost2010Prop45
280
     0
102
RTVSPost2010PropOp45
 70
     1
102
RTVSPost2010Prop46
 90
       50
102
RTVSPost2010PropOp46
 70
     1
102
RTVSPost2010Prop47
 90
       50
102
RTVSPost2010PropOp47
 70
     1
102
RTVSPost2010Prop48
 90
       50
102
RTVSPost2010PropOp48
 70
     1
102
RTVSPost2010Prop49
280
     0
102
RTVSPost2010PropOp49
 70
     1
102
RTVSPost2010Prop50
 90
       50
102
RTVSPost2010PropOp50
 70
     1
102
RTVSPost2010Prop51ColorIndex
 90
      256
102
RTVSPost2010Prop51ColorRGB
 90
-16777216
102
RTVSPost2010PropOp51
 70
     0
102
RTVSPost2010Prop52
140
1.0
102
RTVSPost2010PropOp52
 70
     0
102
RTVSPost2010Prop53
 90
        2
102
RTVSPost2010PropOp53
 70
     1
102
RTVSPost2010Prop54
  1
strokes_ogs.tif
102
RTVSPost2010PropOp54
 70
     1
102
RTVSPost2010Prop55
280
     0
102
RTVSPost2010PropOp55
 70
     1
102
RTVSPost2010Prop56
140
1.0
102
RTVSPost2010PropOp56
 70
     1
102
RTVSPost2010Prop57
140
1.0
102
RTVSPost2010PropOp57
 70
     1
  0
XRECORD
  5
768
102
{ACAD_REACTORS
330
767
102
}
330
767
100
AcDbXrecord
280
     1
102
RTVSPost2010Prop28
280
     0
102
RTVSPost2010PropOp28
 70
     1
102
RTVSPost2010Prop29
280
     1
102
RTVSPost2010PropOp29
 70
     1
102
RTVSPost2010Prop30
280
     1
102
RTVSPost2010PropOp30
 70
     1
102
RTVSPost2010Prop31
280
     0
102
RTVSPost2010PropOp31
 70
     1
102
RTVSPost2010Prop32
280
     0
102
RTVSPost2010PropOp32
 70
     1
102
RTVSPost2010Prop33
280
     0
102
RTVSPost2010PropOp33
 70
     1
102
RTVSPost2010Prop34
280
     0
102
RTVSPost2010PropOp34
 70
     1
102
RTVSPost2010Prop35
280
     0
102
RTVSPost2010PropOp35
 70
     1
102
RTVSPost2010Prop36
280
     0
102
RTVSPost2010PropOp36
 70
     1
102
RTVSPost2010Prop37
 90
       50
102
RTVSPost2010PropOp37
 70
     1
102
RTVSPost2010Prop38
140
0.0
102
RTVSPost2010PropOp38
 70
     1
102
RTVSPost2010Prop39
140
1.0
102
RTVSPost2010PropOp39
 70
     1
102
RTVSPost2010Prop40
 90
        0
102
RTVSPost2010PropOp40
 70
     1
102
RTVSPost2010Prop41ColorIndex
 90
       18
102
RTVSPost2010Prop41ColorRGB
 90
        0
102
RTVSPost2010PropOp41
 70
     1
102
RTVSPost2010Prop42
 90
       50
102
RTVSPost2010PropOp42
 70
     1
102
RTVSPost2010Prop43
 90
        3
102
RTVSPost2010PropOp43
 70
     1
102
RTVSPost2010Prop44ColorIndex
 90
        5
102
RTVSPost2010Prop44ColorRGB
 90
      255
102
RTVSPost2010PropOp44
 70
     1
102
RTVSPost2010Prop45
280
     0
102
RTVSPost2010PropOp45
 70
     1
102
RTVSPost2010Prop46
 90
       50
102
RTVSPost2010PropOp46
 70
     1
102
RTVSPost2010Prop47
 90
       50
102
RTVSPost2010PropOp47
 70
     1
102
RTVSPost2010Prop48
 90
       50
102
RTVSPost2010PropOp48
 70
     1
102
RTVSPost2010Prop49
280
     0
102
RTVSPost2010PropOp49
 70
     1
102
RTVSPost2010Prop50
 90
       50
102
RTVSPost2010PropOp50
 70
     1
102
RTVSPost2010Prop51ColorIndex
 90
      256
102
RTVSPost2010Prop51ColorRGB
 90
-16777216
102
RTVSPost2010PropOp51
 70
     0
102
RTVSPost2010Prop52
140
1.0
102
RTVSPost2010PropOp52
 70
     0
102
RTVSPost2010Prop53
 90
        2
102
RTVSPost2010PropOp53
 70
     1
102
RTVSPost2010Prop54
  1
strokes_ogs.tif
102
RTVSPost2010PropOp54
 70
     1
102
RTVSPost2010Prop55
280
     0
102
RTVSPost2010PropOp55
 70
     1
102
RTVSPost2010Prop56
140
1.0
102
RTVSPost2010PropOp56
 70
     1
102
RTVSPost2010Prop57
140
1.0
102
RTVSPost2010PropOp57
 70
     1
  0
ENDSEC
  0
EOF
