  0
SECTION
  2
HEADER
  9
$ACADVER
  1
AC1024
  9
$ACADMAINTVER
 70
   226
  9
$DWGCODEPAGE
  3
ANSI_932
  9
$LASTSAVEDBY
  1
c23053
  9
$INSBASE
 10
0.0
 20
0.0
 30
0.0
  9
$EXTMIN
 10
0.0
 20
0.0
 30
0.0
  9
$EXTMAX
 10
50.0
 20
41.55754703741983
 30
0.0
  9
$LIMMIN
 10
-10.34930638310288
 20
-2.200833923843219
  9
$LIMMAX
 10
53.14873427883117
 20
33.62411866839386
  9
$ORTHOMODE
 70
     0
  9
$REGENMODE
 70
     1
  9
$FILLMODE
 70
     1
  9
$QTEXTMODE
 70
     0
  9
$MIRRTEXT
 70
     0
  9
$LTSCALE
 40
1.0
  9
$ATTMODE
 70
     1
  9
$TEXTSIZE
 40
2.5
  9
$TRACEWID
 40
1.0
  9
$TEXTSTYLE
  7
Standard
  9
$CLAYER
  8
0
  9
$CELTYPE
  6
ByLayer
  9
$CECOLOR
 62
   256
  9
$CELTSCALE
 40
1.0
  9
$DISPSILH
 70
     0
  9
$DIMSCALE
 40
1.0
  9
$DIMASZ
 40
2.5
  9
$DIMEXO
 40
0.625
  9
$DIMDLI
 40
3.75
  9
$DIMRND
 40
0.0
  9
$DIMDLE
 40
0.0
  9
$DIMEXE
 40
1.25
  9
$DIMTP
 40
0.0
  9
$DIMTM
 40
0.0
  9
$DIMTXT
 40
2.5
  9
$DIMCEN
 40
2.5
  9
$DIMTSZ
 40
0.0
  9
$DIMTOL
 70
     0
  9
$DIMLIM
 70
     0
  9
$DIMTIH
 70
     0
  9
$DIMTOH
 70
     0
  9
$DIMSE1
 70
     0
  9
$DIMSE2
 70
     0
  9
$DIMTAD
 70
     1
  9
$DIMZIN
 70
     8
  9
$DIMBLK
  1

  9
$DIMASO
 70
     1
  9
$DIMSHO
 70
     1
  9
$DIMPOST
  1

  9
$DIMAPOST
  1

  9
$DIMALT
 70
     0
  9
$DIMALTD
 70
     3
  9
$DIMALTF
 40
0.03937007874016
  9
$DIMLFAC
 40
1.0
  9
$DIMTOFL
 70
     1
  9
$DIMTVP
 40
0.0
  9
$DIMTIX
 70
     0
  9
$DIMSOXD
 70
     0
  9
$DIMSAH
 70
     0
  9
$DIMBLK1
  1

  9
$DIMBLK2
  1

  9
$DIMSTYLE
  2
ISO-25
  9
$DIMCLRD
 70
     0
  9
$DIMCLRE
 70
     0
  9
$DIMCLRT
 70
     0
  9
$DIMTFAC
 40
1.0
  9
$DIMGAP
 40
0.625
  9
$DIMJUST
 70
     0
  9
$DIMSD1
 70
     0
  9
$DIMSD2
 70
     0
  9
$DIMTOLJ
 70
     0
  9
$DIMTZIN
 70
     8
  9
$DIMALTZ
 70
     0
  9
$DIMALTTZ
 70
     0
  9
$DIMUPT
 70
     0
  9
$DIMDEC
 70
     2
  9
$DIMTDEC
 70
     2
  9
$DIMALTU
 70
     2
  9
$DIMALTTD
 70
     3
  9
$DIMTXSTY
  7
Standard
  9
$DIMAUNIT
 70
     0
  9
$DIMADEC
 70
     0
  9
$DIMALTRND
 40
0.0
  9
$DIMAZIN
 70
     0
  9
$DIMDSEP
 70
    44
  9
$DIMATFIT
 70
     3
  9
$DIMFRAC
 70
     0
  9
$DIMLDRBLK
  1

  9
$DIMLUNIT
 70
     2
  9
$DIMLWD
 70
    -2
  9
$DIMLWE
 70
    -2
  9
$DIMTMOVE
 70
     0
  9
$DIMFXL
 40
1.0
  9
$DIMFXLON
 70
     0
  9
$DIMJOGANG
 40
0.7853981633974483
  9
$DIMTFILL
 70
     0
  9
$DIMTFILLCLR
 70
     0
  9
$DIMARCSYM
 70
     0
  9
$DIMLTYPE
  6

  9
$DIMLTEX1
  6

  9
$DIMLTEX2
  6

  9
$DIMTXTDIRECTION
 70
     0
  9
$LUNITS
 70
     2
  9
$LUPREC
 70
     4
  9
$SKETCHINC
 40
1.0
  9
$FILLETRAD
 40
0.0
  9
$AUNITS
 70
     0
  9
$AUPREC
 70
     0
  9
$MENU
  1
.
  9
$ELEVATION
 40
0.0
  9
$PELEVATION
 40
0.0
  9
$THICKNESS
 40
0.0
  9
$LIMCHECK
 70
     0
  9
$CHAMFERA
 40
0.0
  9
$CHAMFERB
 40
0.0
  9
$CHAMFERC
 40
0.0
  9
$CHAMFERD
 40
0.0
  9
$SKPOLY
 70
     0
  9
$TDCREATE
 40
2459628.409490741
  9
$TDUCREATE
 40
2459628.076157407
  9
$TDUPDATE
 40
2461047.360231482
  9
$TDUUPDATE
 40
2461047.026898148
  9
$TDINDWG
 40
0.0298263889
  9
$TDUSRTIMER
 40
0.0298263889
  9
$USRTIMER
 70
     1
  9
$ANGBASE
 50
0.0
  9
$ANGDIR
 70
     0
  9
$PDMODE
 70
     0
  9
$PDSIZE
 40
0.0
  9
$PLINEWID
 40
0.0
  9
$SPLFRAME
 70
     0
  9
$SPLINETYPE
 70
     6
  9
$SPLINESEGS
 70
     8
  9
$HANDSEED
  5
380
  9
$SURFTAB1
 70
     6
  9
$SURFTAB2
 70
     6
  9
$SURFTYPE
 70
     6
  9
$SURFU
 70
     6
  9
$SURFV
 70
     6
  9
$UCSBASE
  2

  9
$UCSNAME
  2

  9
$UCSORG
 10
0.0
 20
0.0
 30
0.0
  9
$UCSXDIR
 10
1.0
 20
0.0
 30
0.0
  9
$UCSYDIR
 10
0.0
 20
1.0
 30
0.0
  9
$UCSORTHOREF
  2

  9
$UCSORTHOVIEW
 70
     0
  9
$UCSORGTOP
 10
0.0
 20
0.0
 30
0.0
  9
$UCSORGBOTTOM
 10
0.0
 20
0.0
 30
0.0
  9
$UCSORGLEFT
 10
0.0
 20
0.0
 30
0.0
  9
$UCSORGRIGHT
 10
0.0
 20
0.0
 30
0.0
  9
$UCSORGFRONT
 10
0.0
 20
0.0
 30
0.0
  9
$UCSORGBACK
 10
0.0
 20
0.0
 30
0.0
  9
$PUCSBASE
  2

  9
$PUCSNAME
  2

  9
$PUCSORG
 10
0.0
 20
0.0
 30
0.0
  9
$PUCSXDIR
 10
1.0
 20
0.0
 30
0.0
  9
$PUCSYDIR
 10
0.0
 20
1.0
 30
0.0
  9
$PUCSORTHOREF
  2

  9
$PUCSORTHOVIEW
 70
     0
  9
$PUCSORGTOP
 10
0.0
 20
0.0
 30
0.0
  9
$PUCSORGBOTTOM
 10
0.0
 20
0.0
 30
0.0
  9
$PUCSORGLEFT
 10
0.0
 20
0.0
 30
0.0
  9
$PUCSORGRIGHT
 10
0.0
 20
0.0
 30
0.0
  9
$PUCSORGFRONT
 10
0.0
 20
0.0
 30
0.0
  9
$PUCSORGBACK
 10
0.0
 20
0.0
 30
0.0
  9
$USERI1
 70
     0
  9
$USERI2
 70
     0
  9
$USERI3
 70
     0
  9
$USERI4
 70
     0
  9
$USERI5
 70
     0
  9
$USERR1
 40
0.0
  9
$USERR2
 40
0.0
  9
$USERR3
 40
0.0
  9
$USERR4
 40
0.0
  9
$USERR5
 40
0.0
  9
$WORLDVIEW
 70
     1
  9
$SHADEDGE
 70
     3
  9
$SHADEDIF
 70
    70
  9
$TILEMODE
 70
     1
  9
$MAXACTVP
 70
    64
  9
$PINSBASE
 10
0.0
 20
0.0
 30
0.0
  9
$PLIMCHECK
 70
     0
  9
$PEXTMIN
 10
0.0
 20
0.0
 30
0.0
  9
$PEXTMAX
 10
0.0
 20
0.0
 30
0.0
  9
$PLIMMIN
 10
0.0
 20
0.0
  9
$PLIMMAX
 10
12.0
 20
9.0
  9
$UNITMODE
 70
     0
  9
$VISRETAIN
 70
     1
  9
$PLINEGEN
 70
     0
  9
$PSLTSCALE
 70
     1
  9
$TREEDEPTH
 70
  3020
  9
$CMLSTYLE
  2
Standard
  9
$CMLJUST
 70
     0
  9
$CMLSCALE
 40
20.0
  9
$PROXYGRAPHICS
 70
     1
  9
$MEASUREMENT
 70
     1
  9
$CELWEIGHT
370
    -1
  9
$ENDCAPS
280
     0
  9
$JOINSTYLE
280
     0
  9
$LWDISPLAY
290
     0
  9
$INSUNITS
 70
     4
  9
$HYPERLINKBASE
  1

  9
$STYLESHEET
  1

  9
$XEDIT
290
     1
  9
$CEPSNTYPE
380
     0
  9
$PSTYLEMODE
290
     1
  9
$FINGERPRINTGUID
  2
{06241223-B2A3-4748-A1CC-CFFC3F159257}
  9
$VERSIONGUID
  2
{DCE97DFE-9B37-B345-B6D5-CC030F115A09}
  9
$EXTNAMES
290
     1
  9
$PSVPSCALE
 40
0.0
  9
$OLESTARTUP
290
     0
  9
$SORTENTS
280
   127
  9
$INDEXCTL
280
     0
  9
$HIDETEXT
280
     1
  9
$XCLIPFRAME
280
     2
  9
$HALOGAP
280
     0
  9
$OBSCOLOR
 70
   257
  9
$OBSLTYPE
280
     0
  9
$INTERSECTIONDISPLAY
280
     0
  9
$INTERSECTIONCOLOR
 70
   257
  9
$DIMASSOC
280
     2
  9
$PROJECTNAME
  1

  9
$CAMERADISPLAY
290
     0
  9
$LENSLENGTH
 40
50.0
  9
$CAMERAHEIGHT
 40
0.0
  9
$STEPSPERSEC
 40
2.0
  9
$STEPSIZE
 40
6.0
  9
$3DDWFPREC
 40
2.0
  9
$PSOLWIDTH
 40
5.0
  9
$PSOLHEIGHT
 40
80.0
  9
$LOFTANG1
 40
1.570796326794896
  9
$LOFTANG2
 40
1.570796326794896
  9
$LOFTMAG1
 40
0.0
  9
$LOFTMAG2
 40
0.0
  9
$LOFTPARAM
 70
     7
  9
$LOFTNORMALS
280
     1
  9
$LATITUDE
 40
37.795
  9
$LONGITUDE
 40
-122.394
  9
$NORTHDIRECTION
 40
0.0
  9
$TIMEZONE
 70
 -8000
  9
$LIGHTGLYPHDISPLAY
280
     1
  9
$TILEMODELIGHTSYNCH
280
     1
  9
$CMATERIAL
347
35
  9
$SOLIDHIST
280
     0
  9
$SHOWHIST
280
     1
  9
$DWFFRAME
280
     2
  9
$DGNFRAME
280
     0
  9
$REALWORLDSCALE
290
     1
  9
$INTERFERECOLOR
 62
     1
  9
$INTERFEREOBJVS
345
4E
  9
$INTERFEREVPVS
346
4F
  9
$CSHADOW
280
     0
  9
$SHADOWPLANELOCATION
 40
0.0
  0
ENDSEC
  0
SECTION
  2
CLASSES
  0
CLASS
  1
ACDBDICTIONARYWDFLT
  2
AcDbDictionaryWithDefault
  3
ObjectDBX Classes
 90
        0
 91
        1
280
     0
281
     0
  0
CLASS
  1
DICTIONARYVAR
  2
AcDbDictionaryVar
  3
ObjectDBX Classes
 90
        0
 91
       16
280
     0
281
     0
  0
CLASS
  1
TABLESTYLE
  2
AcDbTableStyle
  3
ObjectDBX Classes
 90
     4095
 91
        1
280
     0
281
     0
  0
CLASS
  1
MATERIAL
  2
AcDbMaterial
  3
ObjectDBX Classes
 90
     1153
 91
        3
280
     0
281
     0
  0
CLASS
  1
VISUALSTYLE
  2
AcDbVisualStyle
  3
ObjectDBX Classes
 90
     4095
 91
       24
280
     0
281
     0
  0
CLASS
  1
SCALE
  2
AcDbScale
  3
ObjectDBX Classes
 90
     1153
 91
       17
280
     0
281
     0
  0
CLASS
  1
MLEADERSTYLE
  2
AcDbMLeaderStyle
  3
ACDB_MLEADERSTYLE_CLASS
 90
     4095
 91
        1
280
     0
281
     0
  0
CLASS
  1
CELLSTYLEMAP
  2
AcDbCellStyleMap
  3
ObjectDBX Classes
 90
     1152
 91
        4
280
     0
281
     0
  0
CLASS
  1
EXACXREFPANELOBJECT
  2
ExAcXREFPanelObject
  3
EXAC_ESW
 90
     1025
 91
        0
280
     1
281
     0
  0
CLASS
  1
NPOCOLLECTION
  2
AcDbImpNonPersistentObjectsCollection
  3
ObjectDBX Classes
 90
     1153
 91
        0
280
     0
281
     0
  0
CLASS
  1
LAYER_INDEX
  2
AcDbLayerIndex
  3
ObjectDBX Classes
 90
        0
 91
        0
280
     0
281
     0
  0
CLASS
  1
SPATIAL_INDEX
  2
AcDbSpatialIndex
  3
ObjectDBX Classes
 90
        0
 91
        0
280
     0
281
     0
  0
CLASS
  1
IDBUFFER
  2
AcDbIdBuffer
  3
ObjectDBX Classes
 90
        0
 91
        0
280
     0
281
     0
  0
CLASS
  1
ACDBSECTIONVIEWSTYLE
  2
AcDbSectionViewStyle
  3
ObjectDBX Classes
 90
     1025
 91
        1
280
     0
281
     0
  0
CLASS
  1
ACDBDETAILVIEWSTYLE
  2
AcDbDetailViewStyle
  3
ObjectDBX Classes
 90
     1025
 91
        1
280
     0
281
     0
  0
CLASS
  1
DIMASSOC
  2
AcDbDimAssoc
  3
"AcDbDimAssoc|Product Desc:     AcDim ARX App For Dimension|Company:          Autodesk, Inc.|WEB Address:      www.autodesk.com"
 90
        0
 91
        0
280
     0
281
     0
  0
CLASS
  1
SORTENTSTABLE
  2
AcDbSortentsTable
  3
ObjectDBX Classes
 90
        0
 91
        1
280
     0
281
     0
  0
ENDSEC
  0
SECTION
  2
TABLES
  0
TABLE
  2
VPORT
  5
29
330
0
100
AcDbSymbolTable
 70
     1
  0
VPORT
  5
2A
330
29
100
AcDbSymbolTableRecord
100
AcDbViewportTableRecord
  2
*Active
 70
     0
 10
0.0
 20
0.0
 11
1.0
 21
1.0
 12
36.34945571790176
 22
17.19249609752077
 13
0.0
 23
0.0
 14
10.0
 24
10.0
 15
10.0
 25
10.0
 16
0.0
 26
0.0
 36
1.0
 17
0.0
 27
0.0
 37
0.0
 40
61.58590540522799
 41
2.11478117258464
 42
50.0
 43
0.0
 44
0.0
 50
0.0
 51
0.0
 71
     0
 72
  1000
 73
     1
 74
     3
 75
     0
 76
     1
 77
     0
 78
     0
281
     0
 65
     1
110
0.0
120
0.0
130
0.0
111
1.0
121
0.0
131
0.0
112
0.0
122
1.0
132
0.0
 79
     0
146
0.0
348
2B
 60
     3
 61
     5
292
     1
282
     1
141
0.0
142
0.0
 63
   250
421
  3355443
1001
ACAD_NAV_VCDISPLAY
1070
     3
  0
ENDTAB
  0
TABLE
  2
LTYPE
  5
24
330
0
100
AcDbSymbolTable
 70
     2
  0
LTYPE
  5
25
330
24
100
AcDbSymbolTableRecord
100
AcDbLinetypeTableRecord
  2
ByBlock
 70
     0
  3

 72
    65
 73
     0
 40
0.0
  0
LTYPE
  5
26
330
24
100
AcDbSymbolTableRecord
100
AcDbLinetypeTableRecord
  2
ByLayer
 70
     0
  3

 72
    65
 73
     0
 40
0.0
  0
LTYPE
  5
14
330
24
100
AcDbSymbolTableRecord
100
AcDbLinetypeTableRecord
  2
Continuous
 70
     0
  3
Solid line
 72
    65
 73
     0
 40
0.0
  0
ENDTAB
  0
TABLE
  2
LAYER
  5
1E
102
{ACAD_XDICTIONARY
360
1F
102
}
330
0
100
AcDbSymbolTable
 70
     2
  0
LAYER
  5
6
102
{ACAD_XDICTIONARY
360
7
102
}
330
1E
100
AcDbSymbolTableRecord
100
AcDbLayerTableRecord
  2
0
 70
     0
 62
     7
  6
Continuous
370
    -3
390
8
347
B
  0
LAYER
  5
62
330
1E
100
AcDbSymbolTableRecord
100
AcDbLayerTableRecord
  2
PDF_几何图形
 70
     0
 62
     7
  6
Continuous
370
    -3
390
8
347
B
  0
ENDTAB
  0
TABLE
  2
STYLE
  5
21
330
0
100
AcDbSymbolTable
 70
     1
  0
STYLE
  5
22
330
21
100
AcDbSymbolTableRecord
100
AcDbTextStyleTableRecord
  2
Standard
 70
     0
 40
0.0
 41
1.0
 50
0.0
 71
     0
 42
2.5
  3
arial.ttf
  4

1001
ACAD
1000
Arial
1071
       34
  0
ENDTAB
  0
TABLE
  2
VIEW
  5
27
330
0
100
AcDbSymbolTable
 70
     2
  0
ENDTAB
  0
TABLE
  2
UCS
  5
28
330
0
100
AcDbSymbolTable
 70
     0
  0
ENDTAB
  0
TABLE
  2
APPID
  5
2E
330
0
100
AcDbSymbolTable
 70
     4
  0
APPID
  5
13
330
2E
100
AcDbSymbolTableRecord
100
AcDbRegAppTableRecord
  2
ACAD
 70
     0
  0
APPID
  5
19
330
2E
100
AcDbSymbolTableRecord
100
AcDbRegAppTableRecord
  2
ACAD_PSEXT
 70
     0
  0
APPID
  5
2D
330
2E
100
AcDbSymbolTableRecord
100
AcDbRegAppTableRecord
  2
ACAD_NAV_VCDISPLAY
 70
     0
  0
APPID
  5
2B8
330
2E
100
AcDbSymbolTableRecord
100
AcDbRegAppTableRecord
  2
ACAD_EXEMPT_FROM_CAD_STANDARDS
 70
     0
  0
ENDTAB
  0
TABLE
  2
DIMSTYLE
  5
2F
330
0
100
AcDbSymbolTable
 70
     2
100
AcDbDimStyleTable
 71
     1
340
30
  0
DIMSTYLE
105
30
330
2F
100
AcDbSymbolTableRecord
100
AcDbDimStyleTableRecord
  2
ISO-25
 70
     0
 41
2.5
 42
0.625
 43
3.75
 44
1.25
 73
     0
 74
     0
 77
     1
 78
     8
140
2.5
141
2.5
143
0.03937007874016
147
0.625
171
     3
172
     1
271
     2
272
     2
274
     3
278
    44
283
     0
284
     8
340
22
  0
ENDTAB
  0
TABLE
  2
BLOCK_RECORD
  5
1
330
0
100
AcDbSymbolTable
 70
     1
  0
BLOCK_RECORD
  5
2
102
{ACAD_XDICTIONARY
360
3
102
}
330
1
100
AcDbSymbolTableRecord
100
AcDbBlockTableRecord
  2
*Model_Space
340
16
 70
     0
280
     1
281
     0
  0
BLOCK_RECORD
  5
1A
330
1
100
AcDbSymbolTableRecord
100
AcDbBlockTableRecord
  2
*Paper_Space
340
1D
 70
     0
280
     1
281
     0
  0
ENDTAB
  0
ENDSEC
  0
SECTION
  2
BLOCKS
  0
BLOCK
  5
5
330
2
100
AcDbEntity
  8
0
100
AcDbBlockBegin
  2
*Model_Space
 70
     0
 10
0.0
 20
0.0
 30
0.0
  3
*Model_Space
  1

  0
ENDBLK
  5
15
330
2
100
AcDbEntity
  8
0
100
AcDbBlockEnd
  0
BLOCK
  5
1B
330
1A
100
AcDbEntity
 67
     1
  8
0
100
AcDbBlockBegin
  2
*Paper_Space
 70
     0
 10
0.0
 20
0.0
 30
0.0
  3
*Paper_Space
  1

  0
ENDBLK
  5
1C
330
1A
100
AcDbEntity
 67
     1
  8
0
100
AcDbBlockEnd
  0
ENDSEC
  0
SECTION
  2
ENTITIES
  0
ELLIPSE
  5
61
330
2
100
AcDbEntity
  8
PDF_几何图形
100
AcDbEllipse
 10
15.63118785527771
 20
21.58926200473488
 30
0.0
 11
-0.7526256732494608
 21
0.011095231485412
 31
0.0
210
0.0
220
0.0
230
0.9999999999999998
 40
0.5753897861370854
 41
0.8227740361604185
 42
3.930100549917384
  0
ELLIPSE
  5
63
330
2
100
AcDbEntity
  8
PDF_几何图形
100
AcDbEllipse
 10
15.64656699513633
 20
21.41002045487303
 30
0.0
 11
0.9629160296183577
 21
0.0135501843754017
 31
0.0
210
0.0
220
0.0
230
1.0
 40
0.5747815013337803
 41
3.903183128418185
 42
7.062975969791552
  0
ELLIPSE
  5
64
330
2
100
AcDbEntity
  8
PDF_几何图形
100
AcDbEllipse
 10
14.5431999465193
 20
22.03965073205213
 30
0.0
 11
-0.959414064810222
 21
0.0127814223565321
 31
0.0
210
0.0
220
0.0
230
1.0
 40
0.582142553474059
 41
5.052943204737831
 42
7.079794258473732
  0
ELLIPSE
  5
65
330
2
100
AcDbEntity
  8
PDF_几何图形
100
AcDbEllipse
 10
14.55135312662486
 20
22.20731115575939
 30
0.0
 11
0.6283497433074765
 21
0.0014087382652117
 31
0.0
210
0.0
220
0.0
230
1.0
 40
0.5745175621503688
 41
5.822701333178908
 42
8.639417007581451
  0
ELLIPSE
  5
66
330
2
100
AcDbEntity
  8
PDF_几何图形
100
AcDbEllipse
 10
14.53162804259123
 20
22.12321519026099
 30
0.0
 11
0.5973522084948805
 21
0.0249207973963562
 31
0.0
210
0.0
220
0.0
230
0.9999999999999998
 40
0.5771527519152447
 41
5.493181874615803
 42
8.538604969180175
  0
ELLIPSE
  5
67
330
2
100
AcDbEntity
  8
PDF_几何图形
100
AcDbEllipse
 10
14.56125577486436
 20
22.10241713200324
 30
0.0
 11
-0.4953842891617144
 21
0.0154341046223251
 31
0.0
210
0.0
220
0.0
230
1.0
 40
0.577781661470949
 41
2.353483420033026
 42
5.566819728767616
  0
ELLIPSE
  5
68
330
2
100
AcDbEntity
  8
PDF_几何图形
100
AcDbEllipse
 10
14.57212782442502
 20
22.10839653627855
 30
0.0
 11
0.5236945753581731
 21
0.0268471714086526
 31
0.0
210
0.0
220
0.0
230
0.9999999999999998
 40
0.5698399285875292
 41
2.349305556580477
 42
5.369862232041135
  0
ELLIPSE
  5
69
330
2
100
AcDbEntity
  8
PDF_几何图形
100
AcDbEllipse
 10
15.63439754264654
 20
21.57946008292316
 30
0.0
 11
0.6407250277791076
 21
0.0068734431468312
 31
0.0
210
0.0
220
0.0
230
0.9999999999999998
 40
0.56159657953007
 41
5.796302500994121
 42
8.604929661432347
  0
ELLIPSE
  5
6A
330
2
100
AcDbEntity
  8
PDF_几何图形
100
AcDbEllipse
 10
15.6487705725973
 20
21.47072655662783
 30
0.0
 11
-0.4957090576801825
 21
0.0059248595843738
 31
0.0
210
0.0
220
0.0
230
0.9999999999999998
 40
0.5795202736354704
 41
2.363496158557449
 42
5.532479306208616
  0
ELLIPSE
  5
6B
330
2
100
AcDbEntity
  8
PDF_几何图形
100
AcDbEllipse
 10
15.6328826337257
 20
21.49999635958765
 30
0.0
 11
0.591379297794001
 21
0.008854920293484
 31
0.0
210
0.0
220
0.0
230
1.0
 40
0.5710898180767687
 41
5.487177505066871
 42
8.593446862898652
  0
ELLIPSE
  5
6C
330
2
100
AcDbEntity
  8
PDF_几何图形
100
AcDbEllipse
 10
15.62788459873827
 20
21.45871245349047
 30
0.0
 11
-0.4914592187740108
 21
0.0198246273334489
 31
0.0
210
0.0
220
0.0
230
1.0
 40
0.5701545007444146
 41
5.496963639281372
 42
8.733830379006027
  0
LINE
  5
6D
330
2
100
AcDbEntity
  8
PDF_几何图形
100
AcDbLine
 10
48.24485059472004
 20
3.517551494052796
 30
0.0
 11
18.1462140992167
 21
20.89610366539574
 31
0.0
  0
LINE
  5
6E
330
2
100
AcDbEntity
  8
PDF_几何图形
100
AcDbLine
 10
9.48651000870322
 20
24.14949857051948
 30
0.0
 11
9.48651000870322
 21
25.89208006962576
 31
0.0
  0
LINE
  5
6F
330
2
100
AcDbEntity
  8
PDF_几何图形
100
AcDbLine
 10
9.48651000870322
 20
25.89208006962576
 30
0.0
 11
4.300841311285165
 21
28.88743835219031
 31
0.0
  0
LINE
  5
70
330
2
100
AcDbEntity
  8
PDF_几何图形
100
AcDbLine
 10
1.733391354801264
 20
26.95822454308094
 30
0.0
 11
45.76443284015086
 21
1.54482158398607
 31
0.0
  0
LINE
  5
71
330
2
100
AcDbEntity
  8
PDF_几何图形
100
AcDbLine
 10
45.76443284015086
 20
1.54482158398607
 30
0.0
 11
45.76443284015086
 21
1.53756890049318
 31
0.0
  0
LINE
  5
72
330
2
100
AcDbEntity
  8
PDF_几何图形
100
AcDbLine
 10
45.76443284015086
 20
1.53756890049318
 30
0.0
 11
45.77168552364374
 21
1.53756890049318
 31
0.0
  0
ARC
  5
73
330
2
100
AcDbEntity
  8
PDF_几何图形
100
AcDbCircle
 10
45.65598611818608
 20
4.574683506743006
 30
0.0
 40
3.039317601686154
100
AcDbArc
 50
272.181637662541
 51
327.8888817405733
  0
LINE
  5
74
330
2
100
AcDbEntity
  8
PDF_几何图形
100
AcDbLine
 10
9.48651000870322
 20
25.73977371627502
 30
0.0
 11
4.2718305773136
 21
28.74963736582536
 31
0.0
  0
LINE
  5
75
330
2
100
AcDbEntity
  8
PDF_几何图形
100
AcDbLine
 10
4.06875543951261
 20
29.03974470554106
 30
0.0
 11
1.726138671308385
 21
27.69074557586307
 31
0.0
  0
LINE
  5
76
330
2
100
AcDbEntity
  8
PDF_几何图形
100
AcDbLine
 10
1.726138671308385
 20
27.69074557586307
 30
0.0
 11
1.718885987815485
 21
27.68349289237018
 31
0.0
  0
LINE
  5
77
330
2
100
AcDbEntity
  8
PDF_几何图形
100
AcDbLine
 10
1.718885987815485
 20
27.68349289237018
 30
0.0
 11
1.704380620829708
 21
27.66173484189149
 31
0.0
  0
LINE
  5
78
330
2
100
AcDbEntity
  8
PDF_几何图形
100
AcDbLine
 10
1.704380620829708
 20
27.66173484189149
 30
0.0
 11
1.689875253843911
 21
27.63997679141282
 31
0.0
  0
LINE
  5
79
330
2
100
AcDbEntity
  8
PDF_几何图形
100
AcDbLine
 10
1.689875253843911
 20
27.63997679141282
 30
0.0
 11
1.689875253843911
 21
27.63272410791993
 31
0.0
  0
LINE
  5
7A
330
2
100
AcDbEntity
  8
PDF_几何图形
100
AcDbLine
 10
1.59559036843631
 20
27.16855236437482
 30
0.0
 11
1.59559036843631
 21
27.16129968088193
 31
0.0
  0
LINE
  5
7B
330
2
100
AcDbEntity
  8
PDF_几何图形
100
AcDbLine
 10
1.59559036843631
 20
27.16129968088193
 30
0.0
 11
1.59559036843631
 21
27.08877284595301
 31
0.0
  0
LINE
  5
7C
330
2
100
AcDbEntity
  8
PDF_几何图形
100
AcDbLine
 10
1.59559036843631
 20
27.08877284595301
 30
0.0
 11
1.59559036843631
 21
27.08152016246011
 31
0.0
  0
LINE
  5
7D
330
2
100
AcDbEntity
  8
PDF_几何图形
100
AcDbLine
 10
1.602843051929208
 20
27.07426747896722
 30
0.0
 11
1.653611836379458
 21
27.04525674499565
 31
0.0
  0
LINE
  5
7E
330
2
100
AcDbEntity
  8
PDF_几何图形
100
AcDbLine
 10
1.653611836379458
 20
27.04525674499565
 30
0.0
 11
1.653611836379458
 21
27.03075137800987
 31
0.0
  0
LINE
  5
7F
330
2
100
AcDbEntity
  8
PDF_几何图形
100
AcDbLine
 10
1.653611836379458
 20
27.03075137800987
 30
0.0
 11
1.653611836379458
 21
27.00899332753118
 31
0.0
  0
LINE
  5
80
330
2
100
AcDbEntity
  8
PDF_几何图形
100
AcDbLine
 10
1.675369886858134
 20
26.9944879605454
 30
0.0
 11
1.668117203365235
 21
26.9944879605454
 31
0.0
  0
LINE
  5
81
330
2
100
AcDbEntity
  8
PDF_几何图形
100
AcDbLine
 10
1.668117203365235
 20
26.9944879605454
 30
0.0
 11
1.733391354801264
 21
26.95822454308094
 31
0.0
  0
LINE
  5
82
330
2
100
AcDbEntity
  8
PDF_几何图形
100
AcDbLine
 10
1.653611836379458
 20
27.04525674499565
 30
0.0
 11
1.653611836379458
 21
27.04525674499565
 31
0.0
  0
LINE
  5
83
330
2
100
AcDbEntity
  8
PDF_几何图形
100
AcDbLine
 10
47.41804467653031
 20
2.016246011024078
 30
0.0
 11
47.66463591528864
 21
2.212068465332169
 31
0.0
  0
LINE
  5
84
330
2
100
AcDbEntity
  8
PDF_几何图形
100
AcDbLine
 10
47.66463591528864
 20
2.212068465332169
 30
0.0
 11
47.89672178706122
 21
2.429648970118938
 31
0.0
  0
LINE
  5
85
330
2
100
AcDbEntity
  8
PDF_几何图形
100
AcDbLine
 10
47.89672178706122
 20
2.429648970118938
 30
0.0
 11
48.12155497534086
 21
2.661734841891503
 31
0.0
  0
LINE
  5
86
330
2
100
AcDbEntity
  8
PDF_几何图形
100
AcDbLine
 10
48.12155497534086
 20
2.661734841891503
 30
0.0
 11
48.33913548012763
 21
2.901073397156946
 31
0.0
  0
LINE
  5
87
330
2
100
AcDbEntity
  8
PDF_几何图形
100
AcDbLine
 10
48.33913548012763
 20
2.901073397156946
 30
0.0
 11
48.34638816362051
 21
2.908326080649834
 31
0.0
  0
LINE
  5
88
330
2
100
AcDbEntity
  8
PDF_几何图形
100
AcDbLine
 10
48.34638816362051
 20
2.908326080649834
 30
0.0
 11
48.35364084711342
 21
2.930084131128511
 31
0.0
  0
LINE
  5
89
330
2
100
AcDbEntity
  8
PDF_几何图形
100
AcDbLine
 10
48.35364084711342
 20
2.930084131128511
 30
0.0
 11
48.35364084711342
 21
2.944589498114298
 31
0.0
  0
LINE
  5
8A
330
2
100
AcDbEntity
  8
PDF_几何图形
100
AcDbLine
 10
48.35364084711342
 20
2.944589498114298
 30
0.0
 11
48.35364084711342
 21
2.959094865100086
 31
0.0
  0
LINE
  5
8B
330
2
100
AcDbEntity
  8
PDF_几何图形
100
AcDbLine
 10
48.35364084711342
 20
2.959094865100086
 30
0.0
 11
48.35364084711342
 21
2.966347548592973
 31
0.0
  0
LINE
  5
8C
330
2
100
AcDbEntity
  8
PDF_几何图形
100
AcDbLine
 10
48.35364084711342
 20
2.966347548592973
 30
0.0
 11
48.35364084711342
 21
2.973600232085873
 31
0.0
  0
LINE
  5
8D
330
2
100
AcDbEntity
  8
PDF_几何图形
100
AcDbLine
 10
48.35364084711342
 20
2.973600232085873
 30
0.0
 11
48.41166231505656
 21
3.060632434000575
 31
0.0
  0
LINE
  5
8E
330
2
100
AcDbEntity
  8
PDF_几何图形
100
AcDbLine
 10
48.41166231505656
 20
3.060632434000575
 30
0.0
 11
48.41166231505656
 21
3.067885117493474
 31
0.0
  0
LINE
  5
8F
330
2
100
AcDbEntity
  8
PDF_几何图形
100
AcDbLine
 10
48.41166231505656
 20
3.067885117493474
 30
0.0
 11
48.41166231505656
 21
3.082390484479252
 31
0.0
  0
LINE
  5
90
330
2
100
AcDbEntity
  8
PDF_几何图形
100
AcDbLine
 10
48.41166231505656
 20
3.082390484479252
 30
0.0
 11
48.41166231505656
 21
3.147664635915288
 31
0.0
  0
LINE
  5
91
330
2
100
AcDbEntity
  8
PDF_几何图形
100
AcDbLine
 10
48.41166231505656
 20
3.147664635915288
 30
0.0
 11
48.41166231505656
 21
3.154917319408178
 31
0.0
  0
LINE
  5
92
330
2
100
AcDbEntity
  8
PDF_几何图形
100
AcDbLine
 10
45.86597040905134
 20
1.479547432550043
 30
0.0
 11
45.87322309254424
 21
1.479547432550043
 31
0.0
  0
LINE
  5
93
330
2
100
AcDbEntity
  8
PDF_几何图形
100
AcDbLine
 10
45.87322309254424
 20
1.479547432550043
 30
0.0
 11
46.03278212938787
 21
1.48680011604293
 31
0.0
  0
LINE
  5
94
330
2
100
AcDbEntity
  8
PDF_几何图形
100
AcDbLine
 10
46.03278212938787
 20
1.48680011604293
 30
0.0
 11
46.35915288656803
 21
1.523063533507393
 31
0.0
  0
LINE
  5
95
330
2
100
AcDbEntity
  8
PDF_几何图形
100
AcDbLine
 10
46.35915288656803
 20
1.523063533507393
 30
0.0
 11
46.52596460690454
 21
1.566579634464745
 31
0.0
  0
LINE
  5
96
330
2
100
AcDbEntity
  8
PDF_几何图形
100
AcDbLine
 10
46.52596460690454
 20
1.566579634464745
 30
0.0
 11
46.70002901073395
 21
1.617348418914995
 31
0.0
  0
LINE
  5
97
330
2
100
AcDbEntity
  8
PDF_几何图形
100
AcDbLine
 10
46.70002901073395
 20
1.617348418914995
 30
0.0
 11
46.87409341456337
 21
1.689875253843922
 31
0.0
  0
LINE
  5
98
330
2
100
AcDbEntity
  8
PDF_几何图形
100
AcDbLine
 10
46.87409341456337
 20
1.689875253843922
 30
0.0
 11
47.05541050188569
 21
1.776907455758625
 31
0.0
  0
LINE
  5
99
330
2
100
AcDbEntity
  8
PDF_几何图形
100
AcDbLine
 10
47.05541050188569
 20
1.776907455758625
 30
0.0
 11
47.23672758920799
 21
1.885697708152014
 31
0.0
  0
LINE
  5
9A
330
2
100
AcDbEntity
  8
PDF_几何图形
100
AcDbLine
 10
47.23672758920799
 20
1.885697708152014
 30
0.0
 11
47.41079199303742
 21
2.008993327531189
 31
0.0
  0
LINE
  5
9B
330
2
100
AcDbEntity
  8
PDF_几何图形
100
AcDbLine
 10
47.41079199303742
 20
2.008993327531189
 30
0.0
 11
47.56309834638815
 21
2.132288946910355
 31
0.0
  0
LINE
  5
9C
330
2
100
AcDbEntity
  8
PDF_几何图形
100
AcDbLine
 10
9.48651000870322
 20
24.14949857051948
 30
0.0
 11
16.70293008413112
 21
19.98114302291848
 31
0.0
  0
LINE
  5
9D
330
2
100
AcDbEntity
  8
PDF_几何图形
100
AcDbLine
 10
14.1572381781259
 20
21.88859878154918
 30
0.0
 11
14.17174354511169
 21
21.88134609805628
 31
0.0
  0
LINE
  5
9E
330
2
100
AcDbEntity
  8
PDF_几何图形
100
AcDbLine
 10
14.17174354511169
 20
21.88134609805628
 30
0.0
 11
14.25877574702639
 21
21.84508268059182
 31
0.0
  0
LINE
  5
9F
330
2
100
AcDbEntity
  8
PDF_几何图形
100
AcDbLine
 10
14.25877574702639
 20
21.84508268059182
 30
0.0
 11
14.40382941688424
 21
21.80881926312736
 31
0.0
  0
LINE
  5
A0
330
2
100
AcDbEntity
  8
PDF_几何图形
100
AcDbLine
 10
14.40382941688424
 20
21.80881926312736
 30
0.0
 11
14.54888308674209
 21
21.80156657963446
 31
0.0
  0
LINE
  5
A1
330
2
100
AcDbEntity
  8
PDF_几何图形
100
AcDbLine
 10
14.54888308674209
 20
21.80156657963446
 30
0.0
 11
14.70118944009283
 21
21.80881926312736
 31
0.0
  0
LINE
  5
A2
330
2
100
AcDbEntity
  8
PDF_几何图形
100
AcDbLine
 10
14.70118944009283
 20
21.80881926312736
 30
0.0
 11
14.83899042645778
 21
21.84508268059182
 31
0.0
  0
LINE
  5
A3
330
2
100
AcDbEntity
  8
PDF_几何图形
100
AcDbLine
 10
14.83899042645778
 20
21.84508268059182
 30
0.0
 11
14.86074847693646
 21
21.85233536408471
 31
0.0
  0
LINE
  5
A4
330
2
100
AcDbEntity
  8
PDF_几何图形
100
AcDbLine
 10
15.25964606904554
 20
21.25036263417464
 30
0.0
 11
15.35393095445314
 21
21.21409921671018
 31
0.0
  0
LINE
  5
A5
330
2
100
AcDbEntity
  8
PDF_几何图形
100
AcDbLine
 10
15.35393095445314
 20
21.21409921671018
 30
0.0
 11
15.49173194081809
 21
21.17783579924572
 31
0.0
  0
LINE
  5
A6
330
2
100
AcDbEntity
  8
PDF_几何图形
100
AcDbLine
 10
15.49173194081809
 20
21.17783579924572
 30
0.0
 11
15.64403829416884
 21
21.17058311575283
 31
0.0
  0
LINE
  5
A7
330
2
100
AcDbEntity
  8
PDF_几何图形
100
AcDbLine
 10
15.64403829416884
 20
21.17058311575283
 30
0.0
 11
15.78909196402667
 21
21.17783579924572
 31
0.0
  0
LINE
  5
A8
330
2
100
AcDbEntity
  8
PDF_几何图形
100
AcDbLine
 10
15.78909196402667
 20
21.17783579924572
 30
0.0
 11
15.93414563388453
 21
21.21409921671018
 31
0.0
  0
LINE
  5
A9
330
2
100
AcDbEntity
  8
PDF_几何图形
100
AcDbLine
 10
15.93414563388453
 20
21.21409921671018
 30
0.0
 11
15.9486510008703
 21
21.22135190020307
 31
0.0
  0
LINE
  5
AA
330
2
100
AcDbEntity
  8
PDF_几何图形
100
AcDbLine
 10
11.35770234986944
 20
23.70902233826516
 30
0.0
 11
11.35770234986944
 21
23.78154917319408
 31
0.0
  0
LINE
  5
AB
330
2
100
AcDbEntity
  8
PDF_几何图形
100
AcDbLine
 10
11.12561647809689
 20
23.77429648970119
 30
0.0
 11
11.12561647809689
 21
23.70902233826516
 31
0.0
  0
LINE
  5
AC
330
2
100
AcDbEntity
  8
PDF_几何图形
100
AcDbLine
 10
23.70616948251654
 20
18.55401133175667
 30
0.0
 11
24.91296779808529
 21
19.24862199013634
 31
0.0
  0
LINE
  5
AD
330
2
100
AcDbEntity
  8
PDF_几何图形
100
AcDbLine
 10
5.758630693356531
 20
28.93820713664056
 30
0.0
 11
5.758630693356531
 21
28.93820713664056
 31
0.0
  0
LINE
  5
AE
330
2
100
AcDbEntity
  8
PDF_几何图形
100
AcDbLine
 10
4.12677690745575
 20
28.95271250362635
 30
0.0
 11
4.228314476356247
 21
28.89469103568321
 31
0.0
  0
LINE
  5
AF
330
2
100
AcDbEntity
  8
PDF_几何图形
100
AcDbLine
 10
4.228314476356247
 20
28.89469103568321
 30
0.0
 11
4.235567159849138
 21
28.89469103568321
 31
0.0
  0
LINE
  5
B0
330
2
100
AcDbEntity
  8
PDF_几何图形
100
AcDbLine
 10
4.235567159849138
 20
28.89469103568321
 30
0.0
 11
5.642587757470263
 21
28.69886858137511
 31
0.0
  0
LINE
  5
B1
330
2
100
AcDbEntity
  8
PDF_几何图形
100
AcDbLine
 10
4.083260806498397
 20
29.10501885697708
 30
0.0
 11
4.112271540469961
 21
28.97447055410502
 31
0.0
  0
LINE
  5
B2
330
2
100
AcDbEntity
  8
PDF_几何图形
100
AcDbLine
 10
4.112271540469961
 20
28.97447055410502
 30
0.0
 11
4.112271540469961
 21
28.96721787061212
 31
0.0
  0
LINE
  5
B3
330
2
100
AcDbEntity
  8
PDF_几何图形
100
AcDbLine
 10
4.112271540469961
 20
28.96721787061212
 30
0.0
 11
4.119524223962859
 21
28.96721787061212
 31
0.0
  0
LINE
  5
B4
330
2
100
AcDbEntity
  8
PDF_几何图形
100
AcDbLine
 10
4.119524223962859
 20
28.96721787061212
 30
0.0
 11
4.119524223962859
 21
28.95996518711923
 31
0.0
  0
LINE
  5
B5
330
2
100
AcDbEntity
  8
PDF_几何图形
100
AcDbLine
 10
4.119524223962859
 20
28.95996518711923
 30
0.0
 11
4.12677690745575
 21
28.95271250362635
 31
0.0
  0
LINE
  5
B6
330
2
100
AcDbEntity
  8
PDF_几何图形
100
AcDbLine
 10
4.12677690745575
 20
28.95271250362635
 30
0.0
 11
4.134029590948648
 21
28.95271250362635
 31
0.0
  0
LINE
  5
B7
330
2
100
AcDbEntity
  8
PDF_几何图形
100
AcDbLine
 10
3.343487090223371
 20
29.47490571511459
 30
0.0
 11
3.299970989266019
 21
29.50391644908616
 31
0.0
  0
LINE
  5
B8
330
2
100
AcDbEntity
  8
PDF_几何图形
100
AcDbLine
 10
0.1595590368436293
 20
25.52944589498114
 30
0.0
 11
0.1958224543080829
 21
25.52219321148825
 31
0.0
  0
LINE
  5
B9
330
2
100
AcDbEntity
  8
PDF_几何图形
100
AcDbLine
 10
0.1958224543080829
 20
25.52219321148825
 30
0.0
 11
0.203075137800981
 21
25.52219321148825
 31
0.0
  0
LINE
  5
BA
330
2
100
AcDbEntity
  8
PDF_几何图形
100
AcDbLine
 10
0.203075137800981
 20
25.52219321148825
 30
0.0
 11
0.2248331882796569
 21
25.52944589498114
 31
0.0
  0
LINE
  5
BB
330
2
100
AcDbEntity
  8
PDF_几何图形
100
AcDbLine
 10
0.2248331882796569
 20
25.52944589498114
 30
0.0
 11
0.2538439222512309
 21
25.55120394545982
 31
0.0
  0
LINE
  5
BC
330
2
100
AcDbEntity
  8
PDF_几何图形
100
AcDbLine
 10
0.2538439222512309
 20
25.55120394545982
 30
0.0
 11
0.2756019727299068
 21
25.5729619959385
 31
0.0
  0
LINE
  5
BD
330
2
100
AcDbEntity
  8
PDF_几何图形
100
AcDbLine
 10
0.2756019727299068
 20
25.5729619959385
 30
0.0
 11
1.624601102407884
 21
27.32085871772556
 31
0.0
  0
LINE
  5
BE
330
2
100
AcDbEntity
  8
PDF_几何图形
100
AcDbLine
 10
48.31012474615607
 20
3.474035393095444
 30
0.0
 11
48.33188279663474
 21
3.445024659123872
 31
0.0
  0
LINE
  5
BF
330
2
100
AcDbEntity
  8
PDF_几何图形
100
AcDbLine
 10
48.33188279663474
 20
3.445024659123872
 30
0.0
 11
48.33188279663474
 21
3.437771975630983
 31
0.0
  0
LINE
  5
C0
330
2
100
AcDbEntity
  8
PDF_几何图形
100
AcDbLine
 10
48.33188279663474
 20
3.437771975630983
 30
0.0
 11
48.33913548012763
 21
3.430519292138093
 31
0.0
  0
LINE
  5
C1
330
2
100
AcDbEntity
  8
PDF_几何图形
100
AcDbLine
 10
48.33913548012763
 20
3.430519292138093
 30
0.0
 11
48.44067304902812
 21
3.372497824194946
 31
0.0
  0
LINE
  5
C2
330
2
100
AcDbEntity
  8
PDF_几何图形
100
AcDbLine
 10
48.44067304902812
 20
3.372497824194946
 30
0.0
 11
48.44792573252102
 21
3.372497824194946
 31
0.0
  0
LINE
  5
C3
330
2
100
AcDbEntity
  8
PDF_几何图形
100
AcDbLine
 10
48.44792573252102
 20
3.372497824194946
 30
0.0
 11
48.45517841601392
 21
3.365245140702056
 31
0.0
  0
LINE
  5
C4
330
2
100
AcDbEntity
  8
PDF_几何图形
100
AcDbLine
 10
48.45517841601392
 20
3.365245140702056
 30
0.0
 11
49.85792235528361
 21
3.170017891422256
 31
0.0
  0
LINE
  5
C5
330
2
100
AcDbEntity
  8
PDF_几何图形
100
AcDbLine
 10
49.85792235528361
 20
3.170017891422256
 30
0.0
 11
49.8912097476066
 21
3.176675369886853
 31
0.0
  0
LINE
  5
C6
330
2
100
AcDbEntity
  8
PDF_几何图形
100
AcDbLine
 10
49.8912097476066
 20
3.176675369886853
 30
0.0
 11
49.92022048157817
 21
3.198433420365529
 31
0.0
  0
LINE
  5
C7
330
2
100
AcDbEntity
  8
PDF_几何图形
100
AcDbLine
 10
49.92022048157817
 20
3.198433420365529
 30
0.0
 11
49.95648389904264
 21
3.227444154337102
 31
0.0
  0
LINE
  5
C8
330
2
100
AcDbEntity
  8
PDF_几何图形
100
AcDbLine
 10
49.95648389904264
 20
3.227444154337102
 30
0.0
 11
49.97824194952129
 21
3.270960255294455
 31
0.0
  0
LINE
  5
C9
330
2
100
AcDbEntity
  8
PDF_几何图形
100
AcDbLine
 10
49.97824194952129
 20
3.270960255294455
 30
0.0
 11
50.0
 21
3.314476356251816
 31
0.0
  0
LINE
  5
CA
330
2
100
AcDbEntity
  8
PDF_几何图形
100
AcDbLine
 10
50.0
 20
3.314476356251816
 30
0.0
 11
50.0
 21
3.357992457209168
 31
0.0
  0
LINE
  5
CB
330
2
100
AcDbEntity
  8
PDF_几何图形
100
AcDbLine
 10
50.0
 20
3.357992457209168
 30
0.0
 11
49.9927473165071
 21
3.394255874673631
 31
0.0
  0
LINE
  5
CC
330
2
100
AcDbEntity
  8
PDF_几何图形
100
AcDbLine
 10
49.9927473165071
 20
3.394255874673631
 30
0.0
 11
49.97824194952129
 21
3.416013925152306
 31
0.0
  0
LINE
  5
CD
330
2
100
AcDbEntity
  8
PDF_几何图形
100
AcDbLine
 10
49.97824194952129
 20
3.416013925152306
 30
0.0
 11
48.30287206266318
 21
4.474905715114592
 31
0.0
  0
LINE
  5
CE
330
2
100
AcDbEntity
  8
PDF_几何图形
100
AcDbLine
 10
48.30287206266318
 20
4.474905715114592
 30
0.0
 11
48.12880765883376
 21
4.569190600522193
 31
0.0
  0
LINE
  5
CF
330
2
100
AcDbEntity
  8
PDF_几何图形
100
AcDbLine
 10
44.24862199013634
 20
0.0725268349289258
 30
0.0
 11
44.35015955903685
 21
0.0072526834928889
 31
0.0
  0
LINE
  5
D0
330
2
100
AcDbEntity
  8
PDF_几何图形
100
AcDbLine
 10
44.35015955903685
 20
0.0072526834928889
 30
0.0
 11
44.3719176095155
 21
0.0
 31
0.0
  0
LINE
  5
D1
330
2
100
AcDbEntity
  8
PDF_几何图形
100
AcDbLine
 10
44.3719176095155
 20
0.0
 30
0.0
 11
44.40092834348709
 21
0.0072526834928889
 31
0.0
  0
LINE
  5
D2
330
2
100
AcDbEntity
  8
PDF_几何图形
100
AcDbLine
 10
44.40092834348709
 20
0.0072526834928889
 30
0.0
 11
44.43719176095153
 21
0.0290107339715648
 31
0.0
  0
LINE
  5
D3
330
2
100
AcDbEntity
  8
PDF_几何图形
100
AcDbLine
 10
44.43719176095153
 20
0.0290107339715648
 30
0.0
 11
44.4662024949231
 21
0.0652741514360276
 31
0.0
  0
LINE
  5
D4
330
2
100
AcDbEntity
  8
PDF_几何图形
100
AcDbLine
 10
48.05628082390485
 20
4.496663765593266
 30
0.0
 11
23.70616948251654
 21
18.55401133175667
 31
0.0
  0
LINE
  5
D5
330
2
100
AcDbEntity
  8
PDF_几何图形
100
AcDbLine
 10
9.305192921380903
 20
26.86393965767334
 30
0.0
 11
5.802146794313893
 21
28.88743835219031
 31
0.0
  0
LINE
  5
D6
330
2
100
AcDbEntity
  8
PDF_几何图形
100
AcDbLine
 10
0.2465912387583327
 20
25.54395126196693
 30
0.0
 11
44.19785320568609
 21
0.1740644038294163
 31
0.0
  0
LINE
  5
D7
330
2
100
AcDbEntity
  8
PDF_几何图形
100
AcDbLine
 10
48.24485059472004
 20
3.517551494052796
 30
0.0
 11
48.24485059472004
 21
3.517551494052796
 31
0.0
  0
LINE
  5
D8
330
2
100
AcDbEntity
  8
PDF_几何图形
100
AcDbLine
 10
1.769654772265735
 20
26.93646649260227
 30
0.0
 11
1.776907455758625
 21
26.93646649260227
 31
0.0
  0
ARC
  5
D9
330
2
100
AcDbEntity
  8
PDF_几何图形
100
AcDbCircle
 10
1.661208050300955
 20
29.9735810988521
 30
0.0
 40
3.039317601686171
100
AcDbArc
 50
272.1816376625412
 51
327.8888817405731
  0
LINE
  5
DA
330
2
100
AcDbEntity
  8
PDF_几何图形
100
AcDbLine
 10
4.235567159849138
 20
28.35799245720917
 30
0.0
 11
4.242819843342036
 21
28.36524514070206
 31
0.0
  0
LINE
  5
DB
330
2
100
AcDbEntity
  8
PDF_几何图形
100
AcDbLine
 10
4.242819843342036
 20
28.36524514070206
 30
0.0
 11
4.250072526834915
 21
28.37249782419496
 31
0.0
  0
LINE
  5
DC
330
2
100
AcDbEntity
  8
PDF_几何图形
100
AcDbLine
 10
4.250072526834915
 20
28.37249782419496
 30
0.0
 11
4.250072526834915
 21
28.37975050768785
 31
0.0
  0
LINE
  5
DD
330
2
100
AcDbEntity
  8
PDF_几何图形
100
AcDbLine
 10
4.250072526834915
 20
28.37975050768785
 30
0.0
 11
4.257325210327814
 21
28.38700319118073
 31
0.0
  0
LINE
  5
DE
330
2
100
AcDbEntity
  8
PDF_几何图形
100
AcDbLine
 10
4.257325210327814
 20
28.38700319118073
 30
0.0
 11
4.257325210327814
 21
28.40150855816652
 31
0.0
  0
LINE
  5
DF
330
2
100
AcDbEntity
  8
PDF_几何图形
100
AcDbLine
 10
4.257325210327814
 20
28.40150855816652
 30
0.0
 11
4.257325210327814
 21
28.40876124165941
 31
0.0
  0
LINE
  5
E0
330
2
100
AcDbEntity
  8
PDF_几何图形
100
AcDbLine
 10
4.257325210327814
 20
28.40876124165941
 30
0.0
 11
4.257325210327814
 21
28.41601392515231
 31
0.0
  0
LINE
  5
E1
330
2
100
AcDbEntity
  8
PDF_几何图形
100
AcDbLine
 10
4.257325210327814
 20
28.41601392515231
 30
0.0
 11
4.257325210327814
 21
28.4232666086452
 31
0.0
  0
LINE
  5
E2
330
2
100
AcDbEntity
  8
PDF_几何图形
100
AcDbLine
 10
4.257325210327814
 20
28.4232666086452
 30
0.0
 11
4.250072526834915
 21
28.4232666086452
 31
0.0
  0
LINE
  5
E3
330
2
100
AcDbEntity
  8
PDF_几何图形
100
AcDbLine
 10
4.250072526834915
 20
28.4232666086452
 30
0.0
 11
4.257325210327814
 21
28.4232666086452
 31
0.0
  0
LINE
  5
E4
330
2
100
AcDbEntity
  8
PDF_几何图形
100
AcDbLine
 10
4.257325210327814
 20
28.4232666086452
 30
0.0
 11
4.257325210327814
 21
28.43051929213809
 31
0.0
  0
LINE
  5
E5
330
2
100
AcDbEntity
  8
PDF_几何图形
100
AcDbLine
 10
4.257325210327814
 20
28.43051929213809
 30
0.0
 11
4.308093994778063
 21
28.5175514940528
 31
0.0
  0
LINE
  5
E6
330
2
100
AcDbEntity
  8
PDF_几何图形
100
AcDbLine
 10
4.308093994778063
 20
28.5175514940528
 30
0.0
 11
4.308093994778063
 21
28.52480417754568
 31
0.0
  0
LINE
  5
E7
330
2
100
AcDbEntity
  8
PDF_几何图形
100
AcDbLine
 10
4.308093994778063
 20
28.52480417754568
 30
0.0
 11
4.315346678270953
 21
28.52480417754568
 31
0.0
  0
LINE
  5
E8
330
2
100
AcDbEntity
  8
PDF_几何图形
100
AcDbLine
 10
4.315346678270953
 20
28.52480417754568
 30
0.0
 11
4.315346678270953
 21
28.53205686103859
 31
0.0
  0
LINE
  5
E9
330
2
100
AcDbEntity
  8
PDF_几何图形
100
AcDbLine
 10
4.315346678270953
 20
28.53205686103859
 30
0.0
 11
4.315346678270953
 21
28.53930954453148
 31
0.0
  0
LINE
  5
EA
330
2
100
AcDbEntity
  8
PDF_几何图形
100
AcDbLine
 10
4.315346678270953
 20
28.53930954453148
 30
0.0
 11
4.315346678270953
 21
28.60458369596751
 31
0.0
  0
LINE
  5
EB
330
2
100
AcDbEntity
  8
PDF_几何图形
100
AcDbLine
 10
4.315346678270953
 20
28.60458369596751
 30
0.0
 11
4.315346678270953
 21
28.61183637946039
 31
0.0
  0
LINE
  5
EC
330
2
100
AcDbEntity
  8
PDF_几何图形
100
AcDbLine
 10
4.315346678270953
 20
28.61183637946039
 30
0.0
 11
4.315346678270953
 21
28.61908906295329
 31
0.0
  0
LINE
  5
ED
330
2
100
AcDbEntity
  8
PDF_几何图形
100
AcDbLine
 10
4.315346678270953
 20
28.61908906295329
 30
0.0
 11
4.27908326080649
 21
28.73513199883957
 31
0.0
  0
LINE
  5
EE
330
2
100
AcDbEntity
  8
PDF_几何图形
100
AcDbLine
 10
4.27908326080649
 20
28.73513199883957
 30
0.0
 11
4.27908326080649
 21
28.74238468233246
 31
0.0
  0
LINE
  5
EF
330
2
100
AcDbEntity
  8
PDF_几何图形
100
AcDbLine
 10
4.27908326080649
 20
28.74238468233246
 30
0.0
 11
4.2718305773136
 21
28.74963736582536
 31
0.0
  0
LINE
  5
F0
330
2
100
AcDbEntity
  8
PDF_几何图形
100
AcDbLine
 10
4.2718305773136
 20
28.74963736582536
 30
0.0
 11
4.264577893820711
 21
28.74963736582536
 31
0.0
  0
LINE
  5
F1
330
2
100
AcDbEntity
  8
PDF_几何图形
100
AcDbLine
 10
4.264577893820711
 20
28.74963736582536
 30
0.0
 11
4.194207262092373
 21
28.74963736582536
 31
0.0
  0
LINE
  5
F2
330
2
100
AcDbEntity
  8
PDF_几何图形
100
AcDbLine
 10
1.602843051929208
 20
27.07426747896722
 30
0.0
 11
1.602843051929208
 21
27.07426747896722
 31
0.0
  0
LINE
  5
F3
330
2
100
AcDbEntity
  8
PDF_几何图形
100
AcDbLine
 10
45.8079489411082
 20
1.515810850014504
 30
0.0
 11
45.8006962576153
 21
1.515810850014504
 31
0.0
  0
LINE
  5
F4
330
2
100
AcDbEntity
  8
PDF_几何图形
100
AcDbLine
 10
45.8006962576153
 20
1.515810850014504
 30
0.0
 11
45.7934435741224
 21
1.523063533507393
 31
0.0
  0
LINE
  5
F5
330
2
100
AcDbEntity
  8
PDF_几何图形
100
AcDbLine
 10
45.7934435741224
 20
1.523063533507393
 30
0.0
 11
45.78619089062953
 21
1.530316217000283
 31
0.0
  0
LINE
  5
F6
330
2
100
AcDbEntity
  8
PDF_几何图形
100
AcDbLine
 10
45.78619089062953
 20
1.530316217000283
 30
0.0
 11
45.78619089062953
 21
1.53756890049318
 31
0.0
  0
LINE
  5
F7
330
2
100
AcDbEntity
  8
PDF_几何图形
100
AcDbLine
 10
48.35364084711342
 20
2.959094865100086
 30
0.0
 11
48.35364084711342
 21
2.959094865100086
 31
0.0
  0
LINE
  5
F8
330
2
100
AcDbEntity
  8
PDF_几何图形
100
AcDbLine
 10
15.98616190912428
 20
25.35339925662974
 30
0.0
 11
16.08645198723528
 21
25.40615027560197
 31
0.0
  0
LINE
  5
F9
330
2
100
AcDbEntity
  8
PDF_几何图形
100
AcDbLine
 10
18.1462140992167
 20
21.54046997389034
 30
0.0
 11
18.1462140992167
 21
20.83695967507978
 31
0.0
  0
LINE
  5
FA
330
2
100
AcDbEntity
  8
PDF_几何图形
100
AcDbLine
 10
18.1462140992167
 20
20.83695967507978
 30
0.0
 11
18.1462140992167
 21
20.82970699158689
 31
0.0
  0
LINE
  5
FB
330
2
100
AcDbEntity
  8
PDF_几何图形
100
AcDbLine
 10
10.90078328981722
 20
23.88308674209458
 30
0.0
 11
11.37220771685523
 21
24.1514360313316
 31
0.0
  0
LINE
  5
FC
330
2
100
AcDbEntity
  8
PDF_几何图形
100
AcDbLine
 10
11.55352480417754
 20
24.1514360313316
 30
0.0
 11
12.56890049318247
 21
23.5639686684073
 31
0.0
  0
LINE
  5
FD
330
2
100
AcDbEntity
  8
PDF_几何图形
100
AcDbLine
 10
14.22976501305482
 20
22.57035102988105
 30
0.0
 11
14.25877574702639
 21
22.57760371337395
 31
0.0
  0
LINE
  5
FE
330
2
100
AcDbEntity
  8
PDF_几何图形
100
AcDbLine
 10
14.25877574702639
 20
22.57760371337395
 30
0.0
 11
14.38932404989846
 21
22.59210908035973
 31
0.0
  0
LINE
  5
FF
330
2
100
AcDbEntity
  8
PDF_几何图形
100
AcDbLine
 10
14.38932404989846
 20
22.59210908035973
 30
0.0
 11
14.51987235277052
 21
22.59936176385263
 31
0.0
  0
LINE
  5
100
330
2
100
AcDbEntity
  8
PDF_几何图形
100
AcDbLine
 10
14.51987235277052
 20
22.59936176385263
 30
0.0
 11
14.65042065564258
 21
22.59936176385263
 31
0.0
  0
LINE
  5
101
330
2
100
AcDbEntity
  8
PDF_几何图形
100
AcDbLine
 10
14.65042065564258
 20
22.59936176385263
 30
0.0
 11
14.78096895851464
 21
22.58485639686684
 31
0.0
  0
LINE
  5
102
330
2
100
AcDbEntity
  8
PDF_几何图形
100
AcDbLine
 10
14.78096895851464
 20
22.58485639686684
 30
0.0
 11
14.90426457789382
 21
22.56309834638816
 31
0.0
  0
LINE
  5
103
330
2
100
AcDbEntity
  8
PDF_几何图形
100
AcDbLine
 10
14.90426457789382
 20
22.56309834638816
 30
0.0
 11
15.00580214679431
 21
22.54134029590948
 31
0.0
  0
LINE
  5
104
330
2
100
AcDbEntity
  8
PDF_几何图形
100
AcDbLine
 10
10.95155207426747
 20
24.99274731650711
 30
0.0
 11
10.95155207426747
 21
25.69625761531768
 31
0.0
  0
LINE
  5
105
330
2
100
AcDbEntity
  8
PDF_几何图形
100
AcDbLine
 10
10.98781549173194
 20
25.71801566579634
 30
0.0
 11
18.10995068175223
 21
21.60574412532637
 31
0.0
  0
LINE
  5
106
330
2
100
AcDbEntity
  8
PDF_几何图形
100
AcDbLine
 10
15.11459239918769
 20
21.27937336814621
 30
0.0
 11
14.02668987525384
 21
21.91035683202785
 31
0.0
  0
LINE
  5
107
330
2
100
AcDbEntity
  8
PDF_几何图形
100
AcDbLine
 10
14.02668987525384
 20
21.91035683202785
 30
0.0
 11
13.94691035683202
 21
21.9611256164781
 31
0.0
  0
LINE
  5
108
330
2
100
AcDbEntity
  8
PDF_几何图形
100
AcDbLine
 10
13.94691035683202
 20
21.9611256164781
 30
0.0
 11
13.88888888888888
 21
22.01914708442124
 31
0.0
  0
LINE
  5
109
330
2
100
AcDbEntity
  8
PDF_几何图形
100
AcDbLine
 10
13.88888888888888
 20
22.01914708442124
 30
0.0
 11
13.84537278793153
 21
22.07716855236438
 31
0.0
  0
LINE
  5
10A
330
2
100
AcDbEntity
  8
PDF_几何图形
100
AcDbLine
 10
13.84537278793153
 20
22.07716855236438
 30
0.0
 11
13.81636205395996
 21
22.1424427038004
 31
0.0
  0
LINE
  5
10B
330
2
100
AcDbEntity
  8
PDF_几何图形
100
AcDbLine
 10
13.81636205395996
 20
22.1424427038004
 30
0.0
 11
13.80910937046706
 21
22.21496953872933
 31
0.0
  0
LINE
  5
10C
330
2
100
AcDbEntity
  8
PDF_几何图形
100
AcDbLine
 10
13.80910937046706
 20
22.21496953872933
 30
0.0
 11
13.81636205395996
 21
22.28024369016535
 31
0.0
  0
LINE
  5
10D
330
2
100
AcDbEntity
  8
PDF_几何图形
100
AcDbLine
 10
13.81636205395996
 20
22.28024369016535
 30
0.0
 11
13.84537278793153
 21
22.3455178416014
 31
0.0
  0
LINE
  5
10E
330
2
100
AcDbEntity
  8
PDF_几何图形
100
AcDbLine
 10
13.84537278793153
 20
22.3455178416014
 30
0.0
 11
13.88888888888888
 21
22.41079199303742
 31
0.0
  0
LINE
  5
10F
330
2
100
AcDbEntity
  8
PDF_几何图形
100
AcDbLine
 10
13.88888888888888
 20
22.41079199303742
 30
0.0
 11
13.9712977906206
 21
22.49320089476913
 31
0.0
  0
LINE
  5
110
330
2
100
AcDbEntity
  8
PDF_几何图形
100
AcDbLine
 10
15.16536118363793
 20
21.31563678561068
 30
0.0
 11
15.11459239918769
 21
21.34464751958224
 31
0.0
  0
LINE
  5
111
330
2
100
AcDbEntity
  8
PDF_几何图形
100
AcDbLine
 10
15.11459239918769
 20
21.34464751958224
 30
0.0
 11
14.19350159559036
 21
21.87409341456339
 31
0.0
  0
LINE
  5
112
330
2
100
AcDbEntity
  8
PDF_几何图形
100
AcDbLine
 10
11.12561647809689
 20
23.72352770525094
 30
0.0
 11
11.12561647809689
 21
23.71627502175805
 31
0.0
  0
LINE
  5
113
330
2
100
AcDbEntity
  8
PDF_几何图形
100
AcDbLine
 10
24.96373658253554
 20
19.30664345807948
 30
0.0
 11
24.96373658253554
 21
21.32288946910357
 31
0.0
  0
LINE
  5
114
330
2
100
AcDbEntity
  8
PDF_几何图形
100
AcDbLine
 10
24.96373658253554
 20
21.32288946910357
 30
0.0
 11
24.95648389904264
 21
21.33014215259646
 31
0.0
  0
LINE
  5
115
330
2
100
AcDbEntity
  8
PDF_几何图形
100
AcDbLine
 10
24.95648389904264
 20
21.33014215259646
 30
0.0
 11
24.95648389904264
 21
21.33739483608935
 31
0.0
  0
LINE
  5
116
330
2
100
AcDbEntity
  8
PDF_几何图形
100
AcDbLine
 10
24.95648389904264
 20
21.33739483608935
 30
0.0
 11
24.94923121554974
 21
21.34464751958224
 31
0.0
  0
LINE
  5
117
330
2
100
AcDbEntity
  8
PDF_几何图形
100
AcDbLine
 10
24.94923121554974
 20
21.34464751958224
 30
0.0
 11
12.2497824194952
 21
28.67711053089643
 31
0.0
  0
LINE
  5
118
330
2
100
AcDbEntity
  8
PDF_几何图形
100
AcDbLine
 10
12.2497824194952
 20
28.67711053089643
 30
0.0
 11
12.24252973600231
 21
28.67711053089643
 31
0.0
  0
LINE
  5
119
330
2
100
AcDbEntity
  8
PDF_几何图形
100
AcDbLine
 10
12.24252973600231
 20
28.67711053089643
 30
0.0
 11
12.23527705250943
 21
28.67711053089643
 31
0.0
  0
LINE
  5
11A
330
2
100
AcDbEntity
  8
PDF_几何图形
100
AcDbLine
 10
12.23527705250943
 20
28.67711053089643
 30
0.0
 11
12.22802436901653
 21
28.67711053089643
 31
0.0
  0
LINE
  5
11B
330
2
100
AcDbEntity
  8
PDF_几何图形
100
AcDbLine
 10
12.22802436901653
 20
28.67711053089643
 30
0.0
 11
12.22077168552364
 21
28.67711053089643
 31
0.0
  0
LINE
  5
11C
330
2
100
AcDbEntity
  8
PDF_几何图形
100
AcDbLine
 10
12.22077168552364
 20
28.67711053089643
 30
0.0
 11
12.21351900203075
 21
28.67711053089643
 31
0.0
  0
LINE
  5
11D
330
2
100
AcDbEntity
  8
PDF_几何图形
100
AcDbLine
 10
12.21351900203075
 20
28.67711053089643
 30
0.0
 11
12.20626631853785
 21
28.67711053089643
 31
0.0
  0
LINE
  5
11E
330
2
100
AcDbEntity
  8
PDF_几何图形
100
AcDbLine
 10
12.20626631853785
 20
28.67711053089643
 30
0.0
 11
12.19901363504496
 21
28.67711053089643
 31
0.0
  0
LINE
  5
11F
330
2
100
AcDbEntity
  8
PDF_几何图形
100
AcDbLine
 10
12.19901363504496
 20
28.67711053089643
 30
0.0
 11
12.19176095155207
 21
28.67711053089643
 31
0.0
  0
LINE
  5
120
330
2
100
AcDbEntity
  8
PDF_几何图形
100
AcDbLine
 10
12.19176095155207
 20
28.67711053089643
 30
0.0
 11
9.377719756309831
 21
27.04525674499565
 31
0.0
  0
LINE
  5
121
330
2
100
AcDbEntity
  8
PDF_几何图形
100
AcDbLine
 10
9.305192921380903
 20
26.92196112561648
 30
0.0
 11
9.305192921380903
 21
26.86393965767334
 31
0.0
  0
LINE
  5
122
330
2
100
AcDbEntity
  8
PDF_几何图形
100
AcDbLine
 10
12.2497824194952
 20
26.55932695097186
 30
0.0
 11
10.88322819572255
 21
25.77726278676462
 31
0.0
  0
LINE
  5
123
330
2
100
AcDbEntity
  8
PDF_几何图形
100
AcDbLine
 10
5.657093124456043
 20
28.9962286045837
 30
0.0
 11
5.678851174934719
 21
28.97447055410502
 31
0.0
  0
LINE
  5
124
330
2
100
AcDbEntity
  8
PDF_几何图形
100
AcDbLine
 10
5.678851174934719
 20
28.97447055410502
 30
0.0
 11
5.686103858427617
 21
28.93820713664056
 31
0.0
  0
LINE
  5
125
330
2
100
AcDbEntity
  8
PDF_几何图形
100
AcDbLine
 10
5.686103858427617
 20
28.93820713664056
 30
0.0
 11
5.678851174934719
 21
28.89469103568321
 31
0.0
  0
LINE
  5
126
330
2
100
AcDbEntity
  8
PDF_几何图形
100
AcDbLine
 10
5.678851174934719
 20
28.89469103568321
 30
0.0
 11
5.664345807948931
 21
28.85117493472585
 31
0.0
  0
LINE
  5
127
330
2
100
AcDbEntity
  8
PDF_几何图形
100
AcDbLine
 10
5.664345807948931
 20
28.85117493472585
 30
0.0
 11
5.635335073977366
 21
28.81491151726139
 31
0.0
  0
LINE
  5
128
330
2
100
AcDbEntity
  8
PDF_几何图形
100
AcDbLine
 10
5.635335073977366
 20
28.81491151726139
 30
0.0
 11
5.606324340005792
 21
28.77864809979693
 31
0.0
  0
LINE
  5
129
330
2
100
AcDbEntity
  8
PDF_几何图形
100
AcDbLine
 10
5.606324340005792
 20
28.77864809979693
 30
0.0
 11
5.570060922541339
 21
28.75689004931824
 31
0.0
  0
LINE
  5
12A
330
2
100
AcDbEntity
  8
PDF_几何图形
100
AcDbLine
 10
5.570060922541339
 20
28.75689004931824
 30
0.0
 11
5.541050188569765
 21
28.75689004931824
 31
0.0
  0
LINE
  5
12B
330
2
100
AcDbEntity
  8
PDF_几何图形
100
AcDbLine
 10
3.067885117493465
 20
29.04699738903394
 30
0.0
 11
3.082390484479252
 21
29.01798665506237
 31
0.0
  0
LINE
  5
12C
330
2
100
AcDbEntity
  8
PDF_几何图形
100
AcDbLine
 10
3.082390484479252
 20
29.01798665506237
 30
0.0
 11
3.024369016536113
 21
28.95996518711923
 31
0.0
  0
LINE
  5
12D
330
2
100
AcDbEntity
  8
PDF_几何图形
100
AcDbLine
 10
3.024369016536113
 20
28.95996518711923
 30
0.0
 11
2.959094865100086
 21
28.90919640266898
 31
0.0
  0
LINE
  5
12E
330
2
100
AcDbEntity
  8
PDF_几何图形
100
AcDbLine
 10
2.959094865100086
 20
28.90919640266898
 30
0.0
 11
2.901073397156936
 21
28.85842761821874
 31
0.0
  0
LINE
  5
12F
330
2
100
AcDbEntity
  8
PDF_几何图形
100
AcDbLine
 10
2.901073397156936
 20
28.85842761821874
 30
0.0
 11
2.83579924572091
 21
28.82216420075428
 31
0.0
  0
LINE
  5
130
330
2
100
AcDbEntity
  8
PDF_几何图形
100
AcDbLine
 10
2.83579924572091
 20
28.82216420075428
 30
0.0
 11
2.770525094284881
 21
28.78590078328981
 31
0.0
  0
LINE
  5
131
330
2
100
AcDbEntity
  8
PDF_几何图形
100
AcDbLine
 10
2.770525094284881
 20
28.78590078328981
 30
0.0
 11
2.705250942848854
 21
28.75689004931824
 31
0.0
  0
LINE
  5
132
330
2
100
AcDbEntity
  8
PDF_几何图形
100
AcDbLine
 10
2.705250942848854
 20
28.75689004931824
 30
0.0
 11
2.647229474905707
 21
28.74238468233246
 31
0.0
  0
LINE
  5
133
330
2
100
AcDbEntity
  8
PDF_几何图形
100
AcDbLine
 10
2.647229474905707
 20
28.74238468233246
 30
0.0
 11
2.589208006962576
 21
28.72787931534668
 31
0.0
  0
LINE
  5
134
330
2
100
AcDbEntity
  8
PDF_几何图形
100
AcDbLine
 10
2.589208006962576
 20
28.72787931534668
 30
0.0
 11
2.603713373948354
 21
28.77864809979693
 31
0.0
  0
LINE
  5
135
330
2
100
AcDbEntity
  8
PDF_几何图形
100
AcDbLine
 10
2.603713373948354
 20
28.77864809979693
 30
0.0
 11
2.654482158398605
 21
28.78590078328981
 31
0.0
  0
LINE
  5
136
330
2
100
AcDbEntity
  8
PDF_几何图形
100
AcDbLine
 10
2.654482158398605
 20
28.78590078328981
 30
0.0
 11
2.712503626341733
 21
28.80765883376849
 31
0.0
  0
LINE
  5
137
330
2
100
AcDbEntity
  8
PDF_几何图形
100
AcDbLine
 10
2.712503626341733
 20
28.80765883376849
 30
0.0
 11
2.777777777777779
 21
28.82941688424717
 31
0.0
  0
LINE
  5
138
330
2
100
AcDbEntity
  8
PDF_几何图形
100
AcDbLine
 10
2.777777777777779
 20
28.82941688424717
 30
0.0
 11
2.83579924572091
 21
28.85842761821874
 31
0.0
  0
LINE
  5
139
330
2
100
AcDbEntity
  8
PDF_几何图形
100
AcDbLine
 10
2.83579924572091
 20
28.85842761821874
 30
0.0
 11
2.893820713664048
 21
28.90194371917609
 31
0.0
  0
LINE
  5
13A
330
2
100
AcDbEntity
  8
PDF_几何图形
100
AcDbLine
 10
2.893820713664048
 20
28.90194371917609
 30
0.0
 11
2.951842181607188
 21
28.94545982013344
 31
0.0
  0
LINE
  5
13B
330
2
100
AcDbEntity
  8
PDF_几何图形
100
AcDbLine
 10
2.951842181607188
 20
28.94545982013344
 30
0.0
 11
3.009863649550335
 21
28.98897592109081
 31
0.0
  0
LINE
  5
13C
330
2
100
AcDbEntity
  8
PDF_几何图形
100
AcDbLine
 10
3.009863649550335
 20
28.98897592109081
 30
0.0
 11
3.067885117493465
 21
29.04699738903394
 31
0.0
  0
LINE
  5
13D
330
2
100
AcDbEntity
  8
PDF_几何图形
100
AcDbLine
 10
3.307223672758917
 20
29.48941108210038
 30
0.0
 11
3.307223672758917
 21
29.49666376559327
 31
0.0
  0
LINE
  5
13E
330
2
100
AcDbEntity
  8
PDF_几何图形
100
AcDbLine
 10
3.307223672758917
 20
29.49666376559327
 30
0.0
 11
3.299970989266019
 21
29.50391644908616
 31
0.0
  0
LINE
  5
13F
330
2
100
AcDbEntity
  8
PDF_几何图形
100
AcDbLine
 10
3.299970989266019
 20
29.50391644908616
 30
0.0
 11
3.292718305773131
 21
29.50391644908616
 31
0.0
  0
LINE
  5
140
330
2
100
AcDbEntity
  8
PDF_几何图形
100
AcDbLine
 10
3.292718305773131
 20
29.50391644908616
 30
0.0
 11
3.285465622280241
 21
29.50391644908616
 31
0.0
  0
LINE
  5
141
330
2
100
AcDbEntity
  8
PDF_几何图形
100
AcDbLine
 10
3.285465622280241
 20
29.50391644908616
 30
0.0
 11
2.378880185668698
 21
28.97447055410502
 31
0.0
  0
LINE
  5
142
330
2
100
AcDbEntity
  8
PDF_几何图形
100
AcDbLine
 10
2.378880185668698
 20
28.97447055410502
 30
0.0
 11
2.371627502175799
 21
28.96721787061212
 31
0.0
  0
LINE
  5
143
330
2
100
AcDbEntity
  8
PDF_几何图形
100
AcDbLine
 10
2.371627502175799
 20
28.96721787061212
 30
0.0
 11
2.364374818682901
 21
28.95996518711923
 31
0.0
  0
LINE
  5
144
330
2
100
AcDbEntity
  8
PDF_几何图形
100
AcDbLine
 10
2.364374818682901
 20
28.95996518711923
 30
0.0
 11
2.364374818682901
 21
28.95271250362635
 31
0.0
  0
LINE
  5
145
330
2
100
AcDbEntity
  8
PDF_几何图形
100
AcDbLine
 10
2.364374818682901
 20
28.95271250362635
 30
0.0
 11
2.364374818682901
 21
28.94545982013344
 31
0.0
  0
LINE
  5
146
330
2
100
AcDbEntity
  8
PDF_几何图形
100
AcDbLine
 10
2.364374818682901
 20
28.94545982013344
 30
0.0
 11
2.364374818682901
 21
28.85117493472585
 31
0.0
  0
LINE
  5
147
330
2
100
AcDbEntity
  8
PDF_几何图形
100
AcDbLine
 10
2.364374818682901
 20
28.85117493472585
 30
0.0
 11
2.364374818682901
 21
28.83666956774007
 31
0.0
  0
LINE
  5
148
330
2
100
AcDbEntity
  8
PDF_几何图形
100
AcDbLine
 10
2.364374818682901
 20
28.83666956774007
 30
0.0
 11
2.371627502175799
 21
28.82941688424717
 31
0.0
  0
LINE
  5
149
330
2
100
AcDbEntity
  8
PDF_几何图形
100
AcDbLine
 10
2.371627502175799
 20
28.82941688424717
 30
0.0
 11
2.393385552654476
 21
28.81491151726139
 31
0.0
  0
LINE
  5
14A
330
2
100
AcDbEntity
  8
PDF_几何图形
100
AcDbLine
 10
2.393385552654476
 20
28.81491151726139
 30
0.0
 11
2.458659704090502
 21
28.78590078328981
 31
0.0
  0
LINE
  5
14B
330
2
100
AcDbEntity
  8
PDF_几何图形
100
AcDbLine
 10
2.458659704090502
 20
28.78590078328981
 30
0.0
 11
2.480417754569179
 21
28.77864809979693
 31
0.0
  0
LINE
  5
14C
330
2
100
AcDbEntity
  8
PDF_几何图形
100
AcDbLine
 10
2.480417754569179
 20
28.77864809979693
 30
0.0
 11
2.509428488540752
 21
28.77864809979693
 31
0.0
  0
LINE
  5
14D
330
2
100
AcDbEntity
  8
PDF_几何图形
100
AcDbLine
 10
2.509428488540752
 20
28.77864809979693
 30
0.0
 11
2.531186539019429
 21
28.77864809979693
 31
0.0
  0
LINE
  5
14E
330
2
100
AcDbEntity
  8
PDF_几何图形
100
AcDbLine
 10
2.531186539019429
 20
28.77864809979693
 30
0.0
 11
2.560197272991002
 21
28.77139541630403
 31
0.0
  0
LINE
  5
14F
330
2
100
AcDbEntity
  8
PDF_几何图形
100
AcDbLine
 10
2.560197272991002
 20
28.77139541630403
 30
0.0
 11
2.545691906005215
 21
28.72787931534668
 31
0.0
  0
LINE
  5
150
330
2
100
AcDbEntity
  8
PDF_几何图形
100
AcDbLine
 10
2.545691906005215
 20
28.72787931534668
 30
0.0
 11
2.516681172033651
 21
28.72787931534668
 31
0.0
  0
LINE
  5
151
330
2
100
AcDbEntity
  8
PDF_几何图形
100
AcDbLine
 10
2.516681172033651
 20
28.72787931534668
 30
0.0
 11
2.487670438062076
 21
28.73513199883957
 31
0.0
  0
LINE
  5
152
330
2
100
AcDbEntity
  8
PDF_几何图形
100
AcDbLine
 10
2.487670438062076
 20
28.73513199883957
 30
0.0
 11
2.458659704090502
 21
28.73513199883957
 31
0.0
  0
LINE
  5
153
330
2
100
AcDbEntity
  8
PDF_几何图形
100
AcDbLine
 10
2.458659704090502
 20
28.73513199883957
 30
0.0
 11
2.429648970118938
 21
28.74238468233246
 31
0.0
  0
LINE
  5
154
330
2
100
AcDbEntity
  8
PDF_几何图形
100
AcDbLine
 10
2.429648970118938
 20
28.74238468233246
 30
0.0
 11
2.400638236147373
 21
28.75689004931824
 31
0.0
  0
LINE
  5
155
330
2
100
AcDbEntity
  8
PDF_几何图形
100
AcDbLine
 10
2.400638236147373
 20
28.75689004931824
 30
0.0
 11
2.378880185668698
 21
28.76414273281114
 31
0.0
  0
LINE
  5
156
330
2
100
AcDbEntity
  8
PDF_几何图形
100
AcDbLine
 10
2.378880185668698
 20
28.76414273281114
 30
0.0
 11
2.357122135190021
 21
28.77864809979693
 31
0.0
  0
LINE
  5
157
330
2
100
AcDbEntity
  8
PDF_几何图形
100
AcDbLine
 10
2.357122135190021
 20
28.77864809979693
 30
0.0
 11
2.328111401218448
 21
28.79315346678271
 31
0.0
  0
LINE
  5
158
330
2
100
AcDbEntity
  8
PDF_几何图形
100
AcDbLine
 10
2.328111401218448
 20
28.79315346678271
 30
0.0
 11
2.328111401218448
 21
28.8004061502756
 31
0.0
  0
LINE
  5
159
330
2
100
AcDbEntity
  8
PDF_几何图形
100
AcDbLine
 10
2.328111401218448
 20
28.8004061502756
 30
0.0
 11
2.328111401218448
 21
28.80765883376849
 31
0.0
  0
LINE
  5
15A
330
2
100
AcDbEntity
  8
PDF_几何图形
100
AcDbLine
 10
2.328111401218448
 20
28.80765883376849
 30
0.0
 11
2.328111401218448
 21
28.98897592109081
 31
0.0
  0
LINE
  5
15B
330
2
100
AcDbEntity
  8
PDF_几何图形
100
AcDbLine
 10
2.328111401218448
 20
28.98897592109081
 30
0.0
 11
3.343487090223371
 21
29.5691906005222
 31
0.0
  0
LINE
  5
15C
330
2
100
AcDbEntity
  8
PDF_几何图形
100
AcDbLine
 10
3.343487090223371
 20
29.5691906005222
 30
0.0
 11
3.343487090223371
 21
29.39512619669278
 31
0.0
  0
LINE
  5
15D
330
2
100
AcDbEntity
  8
PDF_几何图形
100
AcDbLine
 10
3.343487090223371
 20
29.39512619669278
 30
0.0
 11
3.343487090223371
 21
29.38787351319988
 31
0.0
  0
LINE
  5
15E
330
2
100
AcDbEntity
  8
PDF_几何图形
100
AcDbLine
 10
3.343487090223371
 20
29.38787351319988
 30
0.0
 11
3.336234406730491
 21
29.3733681462141
 31
0.0
  0
LINE
  5
15F
330
2
100
AcDbEntity
  8
PDF_几何图形
100
AcDbLine
 10
3.336234406730491
 20
29.3733681462141
 30
0.0
 11
3.314476356251806
 21
29.33710472874965
 31
0.0
  0
LINE
  5
160
330
2
100
AcDbEntity
  8
PDF_几何图形
100
AcDbLine
 10
3.314476356251806
 20
29.33710472874965
 30
0.0
 11
3.292718305773131
 21
29.29358862779228
 31
0.0
  0
LINE
  5
161
330
2
100
AcDbEntity
  8
PDF_几何图形
100
AcDbLine
 10
3.292718305773131
 20
29.29358862779228
 30
0.0
 11
3.263707571801566
 21
29.25007252683493
 31
0.0
  0
LINE
  5
162
330
2
100
AcDbEntity
  8
PDF_几何图形
100
AcDbLine
 10
3.263707571801566
 20
29.25007252683493
 30
0.0
 11
3.241949521322891
 21
29.21380910937046
 31
0.0
  0
LINE
  5
163
330
2
100
AcDbEntity
  8
PDF_几何图形
100
AcDbLine
 10
3.241949521322891
 20
29.21380910937046
 30
0.0
 11
3.212938787351315
 21
29.17029300841311
 31
0.0
  0
LINE
  5
164
330
2
100
AcDbEntity
  8
PDF_几何图形
100
AcDbLine
 10
3.212938787351315
 20
29.17029300841311
 30
0.0
 11
3.183928053379741
 21
29.13402959094865
 31
0.0
  0
LINE
  5
165
330
2
100
AcDbEntity
  8
PDF_几何图形
100
AcDbLine
 10
3.183928053379741
 20
29.13402959094865
 30
0.0
 11
3.154917319408178
 21
29.09776617348418
 31
0.0
  0
LINE
  5
166
330
2
100
AcDbEntity
  8
PDF_几何图形
100
AcDbLine
 10
3.154917319408178
 20
29.09776617348418
 30
0.0
 11
3.125906585436603
 21
29.06150275601972
 31
0.0
  0
LINE
  5
167
330
2
100
AcDbEntity
  8
PDF_几何图形
100
AcDbLine
 10
3.125906585436603
 20
29.06150275601972
 30
0.0
 11
3.111401218450816
 21
29.0905134899913
 31
0.0
  0
LINE
  5
168
330
2
100
AcDbEntity
  8
PDF_几何图形
100
AcDbLine
 10
3.111401218450816
 20
29.0905134899913
 30
0.0
 11
3.133159268929491
 21
29.11952422396286
 31
0.0
  0
LINE
  5
169
330
2
100
AcDbEntity
  8
PDF_几何图形
100
AcDbLine
 10
3.133159268929491
 20
29.11952422396286
 30
0.0
 11
3.162170002901067
 21
29.15578764142733
 31
0.0
  0
LINE
  5
16A
330
2
100
AcDbEntity
  8
PDF_几何图形
100
AcDbLine
 10
3.162170002901067
 20
29.15578764142733
 30
0.0
 11
3.183928053379741
 21
29.1847983753989
 31
0.0
  0
LINE
  5
16B
330
2
100
AcDbEntity
  8
PDF_几何图形
100
AcDbLine
 10
3.183928053379741
 20
29.1847983753989
 30
0.0
 11
3.212938787351315
 21
29.22106179286336
 31
0.0
  0
LINE
  5
16C
330
2
100
AcDbEntity
  8
PDF_几何图形
100
AcDbLine
 10
3.212938787351315
 20
29.22106179286336
 30
0.0
 11
3.234696837829991
 21
29.25732521032783
 31
0.0
  0
LINE
  5
16D
330
2
100
AcDbEntity
  8
PDF_几何图形
100
AcDbLine
 10
3.234696837829991
 20
29.25732521032783
 30
0.0
 11
3.256454888308668
 21
29.28633594429939
 31
0.0
  0
LINE
  5
16E
330
2
100
AcDbEntity
  8
PDF_几何图形
100
AcDbLine
 10
3.256454888308668
 20
29.28633594429939
 30
0.0
 11
3.278212938787343
 21
29.32259936176386
 31
0.0
  0
LINE
  5
16F
330
2
100
AcDbEntity
  8
PDF_几何图形
100
AcDbLine
 10
3.278212938787343
 20
29.32259936176386
 30
0.0
 11
3.299970989266019
 21
29.35886277922831
 31
0.0
  0
LINE
  5
170
330
2
100
AcDbEntity
  8
PDF_几何图形
100
AcDbLine
 10
3.299970989266019
 20
29.35886277922831
 30
0.0
 11
3.307223672758917
 21
29.38062082970699
 31
0.0
  0
LINE
  5
171
330
2
100
AcDbEntity
  8
PDF_几何图形
100
AcDbLine
 10
3.307223672758917
 20
29.38062082970699
 30
0.0
 11
3.307223672758917
 21
29.39512619669278
 31
0.0
  0
LINE
  5
172
330
2
100
AcDbEntity
  8
PDF_几何图形
100
AcDbLine
 10
3.307223672758917
 20
29.39512619669278
 30
0.0
 11
3.307223672758917
 21
29.48941108210038
 31
0.0
  0
LINE
  5
173
330
2
100
AcDbEntity
  8
PDF_几何图形
100
AcDbLine
 10
5.758630693356531
 20
28.93820713664056
 30
0.0
 11
5.794894110820995
 21
28.89469103568321
 31
0.0
  0
LINE
  5
174
330
2
100
AcDbEntity
  8
PDF_几何图形
100
AcDbLine
 10
5.794894110820995
 20
28.89469103568321
 30
0.0
 11
5.809399477806782
 21
28.86568030171163
 31
0.0
  0
LINE
  5
175
330
2
100
AcDbEntity
  8
PDF_几何图形
100
AcDbLine
 10
5.809399477806782
 20
28.86568030171163
 30
0.0
 11
5.809399477806782
 21
28.83666956774007
 31
0.0
  0
LINE
  5
176
330
2
100
AcDbEntity
  8
PDF_几何图形
100
AcDbLine
 10
5.809399477806782
 20
28.83666956774007
 30
0.0
 11
5.802146794313893
 21
28.8004061502756
 31
0.0
  0
LINE
  5
177
330
2
100
AcDbEntity
  8
PDF_几何图形
100
AcDbLine
 10
5.802146794313893
 20
28.8004061502756
 30
0.0
 11
5.780388743835217
 21
28.76414273281114
 31
0.0
  0
LINE
  5
178
330
2
100
AcDbEntity
  8
PDF_几何图形
100
AcDbLine
 10
5.780388743835217
 20
28.76414273281114
 30
0.0
 11
5.758630693356531
 21
28.73513199883957
 31
0.0
  0
LINE
  5
179
330
2
100
AcDbEntity
  8
PDF_几何图形
100
AcDbLine
 10
5.758630693356531
 20
28.73513199883957
 30
0.0
 11
5.736872642877857
 21
28.71337394836089
 31
0.0
  0
LINE
  5
17A
330
2
100
AcDbEntity
  8
PDF_几何图形
100
AcDbLine
 10
5.736872642877857
 20
28.71337394836089
 30
0.0
 11
5.707861908906292
 21
28.69886858137511
 31
0.0
  0
LINE
  5
17B
330
2
100
AcDbEntity
  8
PDF_几何图形
100
AcDbLine
 10
5.707861908906292
 20
28.69886858137511
 30
0.0
 11
5.686103858427617
 21
28.69161589788222
 31
0.0
  0
LINE
  5
17C
330
2
100
AcDbEntity
  8
PDF_几何图形
100
AcDbLine
 10
5.686103858427617
 20
28.69161589788222
 30
0.0
 11
5.642587757470263
 21
28.69886858137511
 31
0.0
  0
LINE
  5
17D
330
2
100
AcDbEntity
  8
PDF_几何图形
100
AcDbLine
 10
5.758630693356531
 20
28.93820713664056
 30
0.0
 11
5.707861908906292
 21
28.97447055410502
 31
0.0
  0
LINE
  5
17E
330
2
100
AcDbEntity
  8
PDF_几何图形
100
AcDbLine
 10
5.707861908906292
 20
28.97447055410502
 30
0.0
 11
5.127647229474905
 21
29.33710472874965
 31
0.0
  0
LINE
  5
17F
330
2
100
AcDbEntity
  8
PDF_几何图形
100
AcDbLine
 10
5.127647229474905
 20
29.33710472874965
 30
0.0
 11
4.779518421816063
 21
29.55468523353641
 31
0.0
  0
LINE
  5
180
330
2
100
AcDbEntity
  8
PDF_几何图形
100
AcDbLine
 10
3.988975921090796
 20
30.05512039454598
 30
0.0
 11
3.981723237597906
 21
30.05512039454598
 31
0.0
  0
LINE
  5
181
330
2
100
AcDbEntity
  8
PDF_几何图形
100
AcDbLine
 10
3.981723237597906
 20
30.05512039454598
 30
0.0
 11
3.974470554105008
 21
30.05512039454598
 31
0.0
  0
LINE
  5
182
330
2
100
AcDbEntity
  8
PDF_几何图形
100
AcDbLine
 10
3.974470554105008
 20
30.05512039454598
 30
0.0
 11
3.967217870612119
 21
30.05512039454598
 31
0.0
  0
LINE
  5
183
330
2
100
AcDbEntity
  8
PDF_几何图形
100
AcDbLine
 10
3.967217870612119
 20
30.05512039454598
 30
0.0
 11
1.704380620829708
 21
28.74963736582536
 31
0.0
  0
LINE
  5
184
330
2
100
AcDbEntity
  8
PDF_几何图形
100
AcDbLine
 10
1.704380620829708
 20
28.74963736582536
 30
0.0
 11
1.697127937336811
 21
28.74238468233246
 31
0.0
  0
LINE
  5
185
330
2
100
AcDbEntity
  8
PDF_几何图形
100
AcDbLine
 10
1.697127937336811
 20
28.74238468233246
 30
0.0
 11
1.697127937336811
 21
28.73513199883957
 31
0.0
  0
LINE
  5
186
330
2
100
AcDbEntity
  8
PDF_几何图形
100
AcDbLine
 10
1.697127937336811
 20
28.73513199883957
 30
0.0
 11
0.0217580504786759
 21
25.74702639976792
 31
0.0
  0
LINE
  5
187
330
2
100
AcDbEntity
  8
PDF_几何图形
100
AcDbLine
 10
0.0217580504786759
 20
25.74702639976792
 30
0.0
 11
0.0145053669857777
 21
25.72526834928924
 31
0.0
  0
LINE
  5
188
330
2
100
AcDbEntity
  8
PDF_几何图形
100
AcDbLine
 10
0.0145053669857777
 20
25.72526834928924
 30
0.0
 11
0.0
 21
25.68175224833188
 31
0.0
  0
LINE
  5
189
330
2
100
AcDbEntity
  8
PDF_几何图形
100
AcDbLine
 10
0.0
 20
25.68175224833188
 30
0.0
 11
0.0
 21
25.64548883086743
 31
0.0
  0
LINE
  5
18A
330
2
100
AcDbEntity
  8
PDF_几何图形
100
AcDbLine
 10
0.0
 20
25.64548883086743
 30
0.0
 11
0.0145053669857777
 21
25.61647809689585
 31
0.0
  0
LINE
  5
18B
330
2
100
AcDbEntity
  8
PDF_几何图形
100
AcDbLine
 10
0.0145053669857777
 20
25.61647809689585
 30
0.0
 11
0.0290107339715648
 21
25.59472004641718
 31
0.0
  0
LINE
  5
18C
330
2
100
AcDbEntity
  8
PDF_几何图形
100
AcDbLine
 10
0.0290107339715648
 20
25.59472004641718
 30
0.0
 11
0.0362634174644536
 21
25.59472004641718
 31
0.0
  0
LINE
  5
18D
330
2
100
AcDbEntity
  8
PDF_几何图形
100
AcDbLine
 10
0.0362634174644536
 20
25.59472004641718
 30
0.0
 11
0.1378009863649534
 21
25.53669857847403
 31
0.0
  0
LINE
  5
18E
330
2
100
AcDbEntity
  8
PDF_几何图形
100
AcDbLine
 10
0.1378009863649534
 20
25.53669857847403
 30
0.0
 11
0.1523063533507311
 21
25.52944589498114
 31
0.0
  0
LINE
  5
18F
330
2
100
AcDbEntity
  8
PDF_几何图形
100
AcDbLine
 10
4.235567159849138
 20
28.89469103568321
 30
0.0
 11
4.235567159849138
 21
28.89469103568321
 31
0.0
  0
LINE
  5
190
330
2
100
AcDbEntity
  8
PDF_几何图形
100
AcDbLine
 10
1.602843051929208
 20
27.67624020887728
 30
0.0
 11
1.624601102407884
 21
27.66898752538439
 31
0.0
  0
LINE
  5
191
330
2
100
AcDbEntity
  8
PDF_几何图形
100
AcDbLine
 10
1.689875253843911
 20
27.63997679141282
 30
0.0
 11
1.668117203365235
 21
27.64722947490572
 31
0.0
  0
LINE
  5
192
330
2
100
AcDbEntity
  8
PDF_几何图形
100
AcDbLine
 10
1.668117203365235
 20
27.64722947490572
 30
0.0
 11
1.624601102407884
 21
27.66898752538439
 31
0.0
  0
LINE
  5
193
330
2
100
AcDbEntity
  8
PDF_几何图形
100
AcDbLine
 10
2.328111401218448
 20
28.98897592109081
 30
0.0
 11
2.364374818682901
 21
28.95996518711923
 31
0.0
  0
LINE
  5
194
330
2
100
AcDbEntity
  8
PDF_几何图形
100
AcDbLine
 10
4.163040324920213
 20
29.95358282564549
 30
0.0
 11
4.163040324920213
 21
29.95358282564549
 31
0.0
  0
LINE
  5
195
330
2
100
AcDbEntity
  8
PDF_几何图形
100
AcDbLine
 10
0.0362634174644536
 20
25.58746736292428
 30
0.0
 11
0.0362634174644536
 21
25.59472004641718
 31
0.0
  0
LINE
  5
196
330
2
100
AcDbEntity
  8
PDF_几何图形
100
AcDbLine
 10
49.78241949521322
 20
3.328981723237593
 30
0.0
 11
49.77516681172033
 21
3.321729039744704
 31
0.0
  0
LINE
  5
197
330
2
100
AcDbEntity
  8
PDF_几何图形
100
AcDbLine
 10
49.77516681172033
 20
3.321729039744704
 30
0.0
 11
49.76066144473453
 21
3.314476356251816
 31
0.0
  0
LINE
  5
198
330
2
100
AcDbEntity
  8
PDF_几何图形
100
AcDbLine
 10
49.76066144473453
 20
3.314476356251816
 30
0.0
 11
49.74615607774874
 21
3.314476356251816
 31
0.0
  0
LINE
  5
199
330
2
100
AcDbEntity
  8
PDF_几何图形
100
AcDbLine
 10
49.74615607774874
 20
3.314476356251816
 30
0.0
 11
48.31737742964897
 21
3.517551494052796
 31
0.0
  0
LINE
  5
19A
330
2
100
AcDbEntity
  8
PDF_几何图形
100
AcDbLine
 10
48.31737742964897
 20
3.517551494052796
 30
0.0
 11
48.31012474615607
 21
3.517551494052796
 31
0.0
  0
LINE
  5
19B
330
2
100
AcDbEntity
  8
PDF_几何图形
100
AcDbLine
 10
48.31012474615607
 20
3.517551494052796
 30
0.0
 11
48.30287206266318
 21
3.517551494052796
 31
0.0
  0
LINE
  5
19C
330
2
100
AcDbEntity
  8
PDF_几何图形
100
AcDbLine
 10
48.30287206266318
 20
3.517551494052796
 30
0.0
 11
48.30287206266318
 21
3.510298810559908
 31
0.0
  0
LINE
  5
19D
330
2
100
AcDbEntity
  8
PDF_几何图形
100
AcDbLine
 10
48.30287206266318
 20
3.510298810559908
 30
0.0
 11
48.30287206266318
 21
3.503046127067009
 31
0.0
  0
LINE
  5
19E
330
2
100
AcDbEntity
  8
PDF_几何图形
100
AcDbLine
 10
48.30287206266318
 20
3.503046127067009
 30
0.0
 11
48.31012474615607
 21
3.481288076588334
 31
0.0
  0
LINE
  5
19F
330
2
100
AcDbEntity
  8
PDF_几何图形
100
AcDbLine
 10
48.31012474615607
 20
3.481288076588334
 30
0.0
 11
48.31012474615607
 21
3.474035393095444
 31
0.0
  0
LINE
  5
1A0
330
2
100
AcDbEntity
  8
PDF_几何图形
100
AcDbLine
 10
48.31012474615607
 20
3.474035393095444
 30
0.0
 11
48.31012474615607
 21
3.466782709602546
 31
0.0
  0
LINE
  5
1A1
330
2
100
AcDbEntity
  8
PDF_几何图形
100
AcDbLine
 10
48.31012474615607
 20
3.466782709602546
 30
0.0
 11
48.31737742964897
 21
3.466782709602546
 31
0.0
  0
LINE
  5
1A2
330
2
100
AcDbEntity
  8
PDF_几何图形
100
AcDbLine
 10
48.31737742964897
 20
3.466782709602546
 30
0.0
 11
48.32463011314185
 21
3.466782709602546
 31
0.0
  0
LINE
  5
1A3
330
2
100
AcDbEntity
  8
PDF_几何图形
100
AcDbLine
 10
49.97824194952129
 20
3.416013925152306
 30
0.0
 11
49.97824194952129
 21
3.416013925152306
 31
0.0
  0
LINE
  5
1A4
330
2
100
AcDbEntity
  8
PDF_几何图形
100
AcDbLine
 10
48.04902814041195
 20
4.540179866550619
 30
0.0
 11
48.04902814041195
 21
4.532927183057729
 31
0.0
  0
LINE
  5
1A5
330
2
100
AcDbEntity
  8
PDF_几何图形
100
AcDbLine
 10
48.12880765883376
 20
4.569190600522193
 30
0.0
 11
48.12880765883376
 21
4.569190600522193
 31
0.0
  0
LINE
  5
1A6
330
2
100
AcDbEntity
  8
PDF_几何图形
100
AcDbLine
 10
44.19785320568609
 20
0.1740644038294163
 30
0.0
 11
44.19785320568609
 21
0.1450536698578423
 31
0.0
  0
LINE
  5
1A7
330
2
100
AcDbEntity
  8
PDF_几何图形
100
AcDbLine
 10
44.19785320568609
 20
0.1450536698578423
 30
0.0
 11
44.20510588917897
 21
0.1160429358862775
 31
0.0
  0
LINE
  5
1A8
330
2
100
AcDbEntity
  8
PDF_几何图形
100
AcDbLine
 10
44.20510588917897
 20
0.1160429358862775
 30
0.0
 11
44.22686393965766
 21
0.1015375689004905
 31
0.0
  0
LINE
  5
1A9
330
2
100
AcDbEntity
  8
PDF_几何图形
100
AcDbLine
 10
44.22686393965766
 20
0.1015375689004905
 30
0.0
 11
44.24862199013634
 21
0.0942848854076017
 31
0.0
  0
LINE
  5
1AA
330
2
100
AcDbEntity
  8
PDF_几何图形
100
AcDbLine
 10
44.24862199013634
 20
0.0942848854076017
 30
0.0
 11
44.2776327241079
 21
0.1015375689004905
 31
0.0
  0
LINE
  5
1AB
330
2
100
AcDbEntity
  8
PDF_几何图形
100
AcDbLine
 10
44.2776327241079
 20
0.1015375689004905
 30
0.0
 11
44.29939077458658
 21
0.1232956193791664
 31
0.0
  0
LINE
  5
1AC
330
2
100
AcDbEntity
  8
PDF_几何图形
100
AcDbLine
 10
44.29939077458658
 20
0.1232956193791664
 30
0.0
 11
44.32840150855816
 21
0.1450536698578423
 31
0.0
  0
LINE
  5
1AD
330
2
100
AcDbEntity
  8
PDF_几何图形
100
AcDbLine
 10
44.32840150855816
 20
0.1450536698578423
 30
0.0
 11
45.51058891789961
 21
1.682622570351033
 31
0.0
  0
LINE
  5
1AE
330
2
100
AcDbEntity
  8
PDF_几何图形
100
AcDbLine
 10
48.23034522773426
 20
2.959094865100086
 30
0.0
 11
17.74901302917934
 21
20.5542461580055
 31
0.0
  0
LINE
  5
1AF
330
2
100
AcDbEntity
  8
PDF_几何图形
100
AcDbLine
 10
9.48651000870322
 20
25.32637075718016
 30
0.0
 11
4.235567159849138
 21
28.35799245720917
 31
0.0
  0
LINE
  5
1B0
330
2
100
AcDbEntity
  8
PDF_几何图形
100
AcDbLine
 10
48.31012474615607
 20
3.12171887975045
 30
0.0
 11
17.93446318795824
 21
20.66065198681307
 31
0.0
  0
LINE
  5
1B1
330
2
100
AcDbEntity
  8
PDF_几何图形
100
AcDbLine
 10
4.315346678270961
 20
28.53930954453149
 30
0.0
 11
9.48651000870322
 21
25.55120394545982
 31
0.0
  0
LINE
  5
1B2
330
2
100
AcDbEntity
  8
PDF_几何图形
100
AcDbLine
 10
48.27386132869161
 20
3.336234406730491
 30
0.0
 11
18.10003466255496
 21
20.75565201322102
 31
0.0
  0
LINE
  5
1B3
330
2
100
AcDbEntity
  8
PDF_几何图形
100
AcDbLine
 10
4.097766173484185
 20
29.03974470554106
 30
0.0
 11
4.090513489991287
 21
29.03974470554106
 31
0.0
  0
LINE
  5
1B4
330
2
100
AcDbEntity
  8
PDF_几何图形
100
AcDbLine
 10
4.090513489991287
 20
29.03974470554106
 30
0.0
 11
4.083260806498397
 21
29.03974470554106
 31
0.0
  0
LINE
  5
1B5
330
2
100
AcDbEntity
  8
PDF_几何图形
100
AcDbLine
 10
4.083260806498397
 20
29.03974470554106
 30
0.0
 11
4.076008123005508
 21
29.03974470554106
 31
0.0
  0
LINE
  5
1B6
330
2
100
AcDbEntity
  8
PDF_几何图形
100
AcDbLine
 10
4.076008123005508
 20
29.03974470554106
 30
0.0
 11
4.06875543951261
 21
29.03974470554106
 31
0.0
  0
LINE
  5
1B7
330
2
100
AcDbEntity
  8
PDF_几何图形
100
AcDbLine
 10
1.689875253843911
 20
27.63272410791994
 30
0.0
 11
1.59559036843632
 21
27.17580504786771
 31
0.0
  0
LINE
  5
1B8
330
2
100
AcDbEntity
  8
PDF_几何图形
100
AcDbLine
 10
1.59559036843632
 20
27.17580504786771
 30
0.0
 11
1.59559036843632
 21
27.16855236437482
 31
0.0
  0
LINE
  5
1B9
330
2
100
AcDbEntity
  8
PDF_几何图形
100
AcDbLine
 10
1.59559036843632
 20
27.16855236437482
 30
0.0
 11
1.59559036843632
 21
27.16129968088193
 31
0.0
  0
LINE
  5
1BA
330
2
100
AcDbEntity
  8
PDF_几何图形
100
AcDbLine
 10
1.59559036843632
 20
27.16129968088193
 30
0.0
 11
1.59559036843632
 21
27.0960255294459
 31
0.0
  0
LINE
  5
1BB
330
2
100
AcDbEntity
  8
PDF_几何图形
100
AcDbLine
 10
1.59559036843632
 20
27.0960255294459
 30
0.0
 11
1.59559036843632
 21
27.08877284595301
 31
0.0
  0
LINE
  5
1BC
330
2
100
AcDbEntity
  8
PDF_几何图形
100
AcDbLine
 10
4.148534957934434
 20
28.48128807658834
 30
0.0
 11
4.155787641427322
 21
28.47403539309544
 31
0.0
  0
LINE
  5
1BD
330
2
100
AcDbEntity
  8
PDF_几何图形
100
AcDbLine
 10
4.155787641427322
 20
28.47403539309544
 30
0.0
 11
4.155787641427322
 21
28.46678270960256
 31
0.0
  0
LINE
  5
1BE
330
2
100
AcDbEntity
  8
PDF_几何图形
100
AcDbLine
 10
4.155787641427322
 20
28.46678270960256
 30
0.0
 11
4.155787641427322
 21
28.45953002610966
 31
0.0
  0
LINE
  5
1BF
330
2
100
AcDbEntity
  8
PDF_几何图形
100
AcDbLine
 10
4.155787641427322
 20
28.45953002610966
 30
0.0
 11
4.155787641427322
 21
28.44502465912388
 31
0.0
  0
LINE
  5
1C0
330
2
100
AcDbEntity
  8
PDF_几何图形
100
AcDbLine
 10
4.155787641427322
 20
28.44502465912388
 30
0.0
 11
4.148534957934434
 21
28.43777197563099
 31
0.0
  0
LINE
  5
1C1
330
2
100
AcDbEntity
  8
PDF_几何图形
100
AcDbLine
 10
4.148534957934434
 20
28.43777197563099
 30
0.0
 11
4.148534957934434
 21
28.43051929213809
 31
0.0
  0
LINE
  5
1C2
330
2
100
AcDbEntity
  8
PDF_几何图形
100
AcDbLine
 10
4.148534957934434
 20
28.43051929213809
 30
0.0
 11
4.141282274441537
 21
28.4232666086452
 31
0.0
  0
LINE
  5
1C3
330
2
100
AcDbEntity
  8
PDF_几何图形
100
AcDbLine
 10
4.141282274441537
 20
28.4232666086452
 30
0.0
 11
4.134029590948648
 21
28.41601392515231
 31
0.0
  0
ARC
  5
1C4
330
2
100
AcDbEntity
  8
PDF_几何图形
100
AcDbCircle
 10
1.528450600288079
 20
30.08560021831091
 30
0.0
 40
3.094601794556906
100
AcDbArc
 50
272.7211968083103
 51
327.3493225948062
  0
LINE
  5
1C5
330
2
100
AcDbEntity
  8
PDF_几何图形
100
AcDbLine
 10
4.206556425877573
 20
28.58282564548884
 30
0.0
 11
4.155787641427322
 21
28.48854076008123
 31
0.0
  0
LINE
  5
1C6
330
2
100
AcDbEntity
  8
PDF_几何图形
100
AcDbLine
 10
4.148534957934434
 20
28.48128807658834
 30
0.0
 11
4.155787641427322
 21
28.48854076008123
 31
0.0
  0
LINE
  5
1C7
330
2
100
AcDbEntity
  8
PDF_几何图形
100
AcDbLine
 10
4.206556425877573
 20
28.58282564548884
 30
0.0
 11
4.213809109370461
 21
28.58282564548884
 31
0.0
  0
LINE
  5
1C8
330
2
100
AcDbEntity
  8
PDF_几何图形
100
AcDbLine
 10
4.213809109370461
 20
28.58282564548884
 30
0.0
 11
4.213809109370461
 21
28.59007832898172
 31
0.0
  0
LINE
  5
1C9
330
2
100
AcDbEntity
  8
PDF_几何图形
100
AcDbLine
 10
4.213809109370461
 20
28.59007832898172
 30
0.0
 11
4.213809109370461
 21
28.59733101247462
 31
0.0
  0
LINE
  5
1CA
330
2
100
AcDbEntity
  8
PDF_几何图形
100
AcDbLine
 10
4.213809109370461
 20
28.66985784740354
 30
0.0
 11
4.213809109370461
 21
28.66260516391065
 31
0.0
  0
LINE
  5
1CB
330
2
100
AcDbEntity
  8
PDF_几何图形
100
AcDbLine
 10
4.213809109370461
 20
28.66260516391065
 30
0.0
 11
4.213809109370461
 21
28.59733101247462
 31
0.0
  0
LINE
  5
1CC
330
2
100
AcDbEntity
  8
PDF_几何图形
100
AcDbLine
 10
4.213809109370461
 20
28.66260516391065
 30
0.0
 11
4.213809109370461
 21
28.66985784740354
 31
0.0
  0
LINE
  5
1CD
330
2
100
AcDbEntity
  8
PDF_几何图形
100
AcDbLine
 10
4.213809109370461
 20
28.66985784740354
 30
0.0
 11
4.213809109370461
 21
28.67711053089644
 31
0.0
  0
LINE
  5
1CE
330
2
100
AcDbEntity
  8
PDF_几何图形
100
AcDbLine
 10
4.141282274441537
 20
28.94545982013346
 30
0.0
 11
4.213809109370461
 21
28.67711053089644
 31
0.0
  0
LINE
  5
1CF
330
2
100
AcDbEntity
  8
PDF_几何图形
100
AcDbLine
 10
4.06875543951261
 20
29.03974470554106
 30
0.0
 11
4.06875543951261
 21
29.03974470554106
 31
0.0
  0
LINE
  5
1D0
330
2
100
AcDbEntity
  8
PDF_几何图形
100
AcDbLine
 10
1.59559036843632
 20
27.17580504786771
 30
0.0
 11
1.59559036843632
 21
27.16855236437482
 31
0.0
  0
LINE
  5
1D1
330
2
100
AcDbEntity
  8
PDF_几何图形
100
AcDbLine
 10
1.689875253843911
 20
27.63272410791994
 30
0.0
 11
1.689875253843911
 21
27.63272410791994
 31
0.0
  0
LINE
  5
1D2
330
2
100
AcDbEntity
  8
PDF_几何图形
100
AcDbLine
 10
1.59559036843632
 20
27.0960255294459
 30
0.0
 11
1.59559036843632
 21
27.08877284595301
 31
0.0
  0
LINE
  5
1D3
330
2
100
AcDbEntity
  8
PDF_几何图形
100
AcDbLine
 10
1.59559036843632
 20
27.16129968088193
 30
0.0
 11
1.59559036843632
 21
27.16129968088193
 31
0.0
  0
LINE
  5
1D4
330
2
100
AcDbEntity
  8
PDF_几何图形
100
AcDbLine
 10
48.35364084711342
 20
2.959094865100086
 30
0.0
 11
48.35364084711342
 21
2.951842181607196
 31
0.0
  0
LINE
  5
1D5
330
2
100
AcDbEntity
  8
PDF_几何图形
100
AcDbLine
 10
48.35364084711342
 20
2.951842181607196
 30
0.0
 11
48.35364084711342
 21
2.944589498114308
 31
0.0
  0
LINE
  5
1D6
330
2
100
AcDbEntity
  8
PDF_几何图形
100
AcDbLine
 10
45.8079489411082
 20
1.515810850014504
 30
0.0
 11
45.86597040905134
 21
1.479547432550043
 31
0.0
  0
LINE
  5
1D7
330
2
100
AcDbEntity
  8
PDF_几何图形
100
AcDbLine
 10
48.35364084711342
 20
2.959094865100086
 30
0.0
 11
48.35364084711342
 21
2.966347548592984
 31
0.0
  0
LINE
  5
1D8
330
2
100
AcDbEntity
  8
PDF_几何图形
100
AcDbLine
 10
48.41166231505656
 20
3.08239048447926
 30
0.0
 11
48.41166231505656
 21
3.075137800986363
 31
0.0
  0
LINE
  5
1D9
330
2
100
AcDbEntity
  8
PDF_几何图形
100
AcDbLine
 10
48.41166231505656
 20
3.08239048447926
 30
0.0
 11
48.41166231505656
 21
3.147664635915288
 31
0.0
  0
LINE
  5
1DA
330
2
100
AcDbEntity
  8
PDF_几何图形
100
AcDbLine
 10
48.35364084711342
 20
2.973600232085873
 30
0.0
 11
48.35364084711342
 21
2.973600232085873
 31
0.0
  0
LINE
  5
1DB
330
2
100
AcDbEntity
  8
PDF_几何图形
100
AcDbLine
 10
48.41166231505656
 20
3.08239048447926
 30
0.0
 11
48.41166231505656
 21
3.08239048447926
 31
0.0
  0
LINE
  5
1DC
330
2
100
AcDbEntity
  8
PDF_几何图形
100
AcDbLine
 10
48.41166231505656
 20
3.162170002901075
 30
0.0
 11
48.41166231505656
 21
3.154917319408187
 31
0.0
  0
LINE
  5
1DD
330
2
100
AcDbEntity
  8
PDF_几何图形
100
AcDbLine
 10
48.41166231505656
 20
3.154917319408187
 30
0.0
 11
48.41166231505656
 21
3.147664635915288
 31
0.0
  0
LINE
  5
1DE
330
2
100
AcDbEntity
  8
PDF_几何图形
100
AcDbLine
 10
48.41166231505656
 20
3.147664635915288
 30
0.0
 11
48.41166231505656
 21
3.147664635915288
 31
0.0
  0
LINE
  5
1DF
330
2
100
AcDbEntity
  8
PDF_几何图形
100
AcDbLine
 10
48.41166231505656
 20
3.154917319408187
 30
0.0
 11
48.41166231505656
 21
3.162170002901075
 31
0.0
  0
LINE
  5
1E0
330
2
100
AcDbEntity
  8
PDF_几何图形
100
AcDbLine
 10
48.41166231505656
 20
3.162170002901075
 30
0.0
 11
48.33188279663477
 21
3.437771975630991
 31
0.0
  0
LINE
  5
1E1
330
2
100
AcDbEntity
  8
PDF_几何图形
100
AcDbLine
 10
10.95155207426747
 20
24.99274731650711
 30
0.0
 11
18.1462140992167
 21
20.83695967507978
 31
0.0
  0
LINE
  5
1E2
330
2
100
AcDbEntity
  8
PDF_几何图形
100
AcDbLine
 10
18.10269799825935
 20
20.75718015665796
 30
0.0
 11
16.77545691906004
 21
19.99564838990427
 31
0.0
  0
LINE
  5
1E3
330
2
100
AcDbEntity
  8
PDF_几何图形
100
AcDbLine
 10
14.95503336234406
 20
21.01827676240209
 30
0.0
 11
13.86713083841021
 21
21.64926022628373
 31
0.0
  0
LINE
  5
1E4
330
2
100
AcDbEntity
  8
PDF_几何图形
100
AcDbLine
 10
15.00580214679431
 20
22.54134029590948
 30
0.0
 11
15.02756019727298
 21
22.5340876124166
 31
0.0
  0
LINE
  5
1E5
330
2
100
AcDbEntity
  8
PDF_几何图形
100
AcDbLine
 10
15.02756019727298
 20
22.5340876124166
 30
0.0
 11
15.13635044966637
 21
22.49057151145925
 31
0.0
  0
LINE
  5
1E6
330
2
100
AcDbEntity
  8
PDF_几何图形
100
AcDbLine
 10
15.13635044966637
 20
22.49057151145925
 30
0.0
 11
15.23788801856686
 21
22.439802727009
 31
0.0
  0
LINE
  5
1E7
330
2
100
AcDbEntity
  8
PDF_几何图形
100
AcDbLine
 10
15.23788801856686
 20
22.439802727009
 30
0.0
 11
16.32579054250071
 21
21.80881926312736
 31
0.0
  0
LINE
  5
1E8
330
2
100
AcDbEntity
  8
PDF_几何图形
100
AcDbLine
 10
10.96605744125325
 20
25.72264932469459
 30
0.0
 11
9.537278793153461
 21
25.92109080359733
 31
0.0
  0
LINE
  5
1E9
330
2
100
AcDbEntity
  8
PDF_几何图形
100
AcDbLine
 10
15.16536118363793
 20
22.46156077748767
 30
0.0
 11
15.20162460110241
 21
22.41804467653032
 31
0.0
  0
LINE
  5
1EA
330
2
100
AcDbEntity
  8
PDF_几何图形
100
AcDbLine
 10
15.20162460110241
 20
22.41804467653032
 30
0.0
 11
15.22338265158109
 21
22.37452857557297
 31
0.0
  0
LINE
  5
1EB
330
2
100
AcDbEntity
  8
PDF_几何图形
100
AcDbLine
 10
15.22338265158109
 20
22.37452857557297
 30
0.0
 11
15.22338265158109
 21
22.236727589208
 31
0.0
  0
LINE
  5
1EC
330
2
100
AcDbEntity
  8
PDF_几何图形
100
AcDbLine
 10
15.22338265158109
 20
22.236727589208
 30
0.0
 11
15.17261386713084
 21
22.11343196982884
 31
0.0
  0
LINE
  5
1ED
330
2
100
AcDbEntity
  8
PDF_几何图形
100
AcDbLine
 10
15.17261386713084
 20
22.11343196982884
 30
0.0
 11
15.10008703220191
 21
22.02639976791413
 31
0.0
  0
LINE
  5
1EE
330
2
100
AcDbEntity
  8
PDF_几何图形
100
AcDbLine
 10
14.96228604583696
 20
21.89585146504207
 30
0.0
 11
14.86074847693646
 21
21.85233536408471
 31
0.0
  0
LINE
  5
1EF
330
2
100
AcDbEntity
  8
PDF_几何图形
100
AcDbLine
 10
14.17174354511169
 20
21.88134609805628
 30
0.0
 11
14.14273281114011
 21
21.89585146504207
 31
0.0
  0
LINE
  5
1F0
330
2
100
AcDbEntity
  8
PDF_几何图形
100
AcDbLine
 10
14.14273281114011
 20
21.89585146504207
 30
0.0
 11
14.04844792573251
 21
21.968378299971
 31
0.0
  0
LINE
  5
1F1
330
2
100
AcDbEntity
  8
PDF_几何图形
100
AcDbLine
 10
14.04844792573251
 20
21.968378299971
 30
0.0
 11
13.99042645778937
 21
22.04815781839281
 31
0.0
  0
LINE
  5
1F2
330
2
100
AcDbEntity
  8
PDF_几何图形
100
AcDbLine
 10
13.99042645778937
 20
22.04815781839281
 30
0.0
 11
13.9686684073107
 21
22.13519002030752
 31
0.0
  0
LINE
  5
1F3
330
2
100
AcDbEntity
  8
PDF_几何图形
100
AcDbLine
 10
13.9686684073107
 20
22.13519002030752
 30
0.0
 11
13.99042645778937
 21
22.22222222222223
 31
0.0
  0
LINE
  5
1F4
330
2
100
AcDbEntity
  8
PDF_几何图形
100
AcDbLine
 10
13.99042645778937
 20
22.22222222222223
 30
0.0
 11
14.04844792573251
 21
22.30200174064405
 31
0.0
  0
LINE
  5
1F5
330
2
100
AcDbEntity
  8
PDF_几何图形
100
AcDbLine
 10
14.04844792573251
 20
22.30200174064405
 30
0.0
 11
14.14273281114011
 21
22.37452857557297
 31
0.0
  0
LINE
  5
1F6
330
2
100
AcDbEntity
  8
PDF_几何图形
100
AcDbLine
 10
14.01218450826806
 20
22.01189440092835
 30
0.0
 11
13.93240498984624
 21
22.07716855236438
 31
0.0
  0
LINE
  5
1F7
330
2
100
AcDbEntity
  8
PDF_几何图形
100
AcDbLine
 10
13.93240498984624
 20
22.07716855236438
 30
0.0
 11
13.85987815491731
 21
22.18595880475776
 31
0.0
  0
LINE
  5
1F8
330
2
100
AcDbEntity
  8
PDF_几何图形
100
AcDbLine
 10
13.85987815491731
 20
22.18595880475776
 30
0.0
 11
13.85262547142442
 21
22.30200174064405
 31
0.0
  0
LINE
  5
1F9
330
2
100
AcDbEntity
  8
PDF_几何图形
100
AcDbLine
 10
13.85262547142442
 20
22.30200174064405
 30
0.0
 11
13.88888888888888
 21
22.39628662605165
 31
0.0
  0
LINE
  5
1FA
330
2
100
AcDbEntity
  8
PDF_几何图形
100
AcDbLine
 10
13.88888888888888
 20
22.39628662605165
 30
0.0
 11
13.91789962286046
 21
22.43255004351611
 31
0.0
  0
LINE
  5
1FB
330
2
100
AcDbEntity
  8
PDF_几何图形
100
AcDbLine
 10
14.10646939367565
 20
22.46156077748767
 30
0.0
 11
14.00493182477516
 21
22.38903394255875
 31
0.0
  0
LINE
  5
1FC
330
2
100
AcDbEntity
  8
PDF_几何图形
100
AcDbLine
 10
14.00493182477516
 20
22.38903394255875
 30
0.0
 11
13.93965767333913
 21
22.30200174064405
 31
0.0
  0
LINE
  5
1FD
330
2
100
AcDbEntity
  8
PDF_几何图形
100
AcDbLine
 10
13.93965767333913
 20
22.30200174064405
 30
0.0
 11
13.91789962286046
 21
22.20771685523644
 31
0.0
  0
LINE
  5
1FE
330
2
100
AcDbEntity
  8
PDF_几何图形
100
AcDbLine
 10
13.91789962286046
 20
22.20771685523644
 30
0.0
 11
13.93965767333913
 21
22.11343196982884
 31
0.0
  0
LINE
  5
1FF
330
2
100
AcDbEntity
  8
PDF_几何图形
100
AcDbLine
 10
13.93965767333913
 20
22.11343196982884
 30
0.0
 11
14.00493182477516
 21
22.02639976791413
 31
0.0
  0
LINE
  5
200
330
2
100
AcDbEntity
  8
PDF_几何图形
100
AcDbLine
 10
14.52712503626341
 20
21.80156657963447
 30
0.0
 11
14.67217870612126
 21
21.71453437771976
 31
0.0
  0
LINE
  5
201
330
2
100
AcDbEntity
  8
PDF_几何图形
100
AcDbLine
 10
15.83260806498405
 20
22.04815781839281
 30
0.0
 11
15.89788221642007
 21
22.04090513489991
 31
0.0
  0
LINE
  5
202
330
2
100
AcDbEntity
  8
PDF_几何图形
100
AcDbLine
 10
15.83260806498405
 20
22.04815781839281
 30
0.0
 11
15.83260806498405
 21
22.04815781839281
 31
0.0
  0
LINE
  5
203
330
2
100
AcDbEntity
  8
PDF_几何图形
100
AcDbLine
 10
15.83260806498405
 20
22.04815781839281
 30
0.0
 11
15.83260806498405
 21
22.04815781839281
 31
0.0
  0
LINE
  5
204
330
2
100
AcDbEntity
  8
PDF_几何图形
100
AcDbLine
 10
16.18798955613575
 20
21.3881636205396
 30
0.0
 11
16.26051639106468
 21
21.44618508848274
 31
0.0
  0
LINE
  5
205
330
2
100
AcDbEntity
  8
PDF_几何图形
100
AcDbLine
 10
16.26051639106468
 20
21.44618508848274
 30
0.0
 11
16.32579054250071
 21
21.55497534087613
 31
0.0
  0
LINE
  5
206
330
2
100
AcDbEntity
  8
PDF_几何图形
100
AcDbLine
 10
16.32579054250071
 20
21.55497534087613
 30
0.0
 11
16.34029590948651
 21
21.67101827676241
 31
0.0
  0
LINE
  5
207
330
2
100
AcDbEntity
  8
PDF_几何图形
100
AcDbLine
 10
16.34029590948651
 20
21.67101827676241
 30
0.0
 11
16.30403249202204
 21
21.76530316217001
 31
0.0
  0
LINE
  5
208
330
2
100
AcDbEntity
  8
PDF_几何图形
100
AcDbLine
 10
16.30403249202204
 20
21.76530316217001
 30
0.0
 11
16.26776907455758
 21
21.80881926312736
 31
0.0
  0
LINE
  5
209
330
2
100
AcDbEntity
  8
PDF_几何图形
100
AcDbLine
 10
14.67217870612126
 20
21.71453437771976
 30
0.0
 11
14.8172323759791
 21
21.63475485929794
 31
0.0
  0
LINE
  5
20A
330
2
100
AcDbEntity
  8
PDF_几何图形
100
AcDbLine
 10
14.8172323759791
 20
21.63475485929794
 30
0.0
 11
14.92602262837249
 21
21.56948070786191
 31
0.0
  0
LINE
  5
20B
330
2
100
AcDbEntity
  8
PDF_几何图形
100
AcDbLine
 10
14.92602262837249
 20
21.56948070786191
 30
0.0
 11
14.93327531186538
 21
21.64926022628373
 31
0.0
  0
LINE
  5
20C
330
2
100
AcDbEntity
  8
PDF_几何图形
100
AcDbLine
 10
14.93327531186538
 20
21.64926022628373
 30
0.0
 11
14.97679141282273
 21
21.72903974470555
 31
0.0
  0
LINE
  5
20D
330
2
100
AcDbEntity
  8
PDF_几何图形
100
AcDbLine
 10
14.97679141282273
 20
21.72903974470555
 30
0.0
 11
15.04931824775166
 21
21.80881926312736
 31
0.0
  0
LINE
  5
20E
330
2
100
AcDbEntity
  8
PDF_几何图形
100
AcDbLine
 10
15.04931824775166
 20
21.80881926312736
 30
0.0
 11
15.15810850014505
 21
21.88859878154918
 31
0.0
  0
LINE
  5
20F
330
2
100
AcDbEntity
  8
PDF_几何图形
100
AcDbLine
 10
15.15810850014505
 20
21.88859878154918
 30
0.0
 11
15.30316217000289
 21
21.95387293298521
 31
0.0
  0
LINE
  5
210
330
2
100
AcDbEntity
  8
PDF_几何图形
100
AcDbLine
 10
15.30316217000289
 20
21.95387293298521
 30
0.0
 11
15.46997389033942
 21
22.00464171743545
 31
0.0
  0
LINE
  5
211
330
2
100
AcDbEntity
  8
PDF_几何图形
100
AcDbLine
 10
15.46997389033942
 20
22.00464171743545
 30
0.0
 11
15.65129097766172
 21
22.04090513489991
 31
0.0
  0
LINE
  5
212
330
2
100
AcDbEntity
  8
PDF_几何图形
100
AcDbLine
 10
15.65129097766172
 20
22.04090513489991
 30
0.0
 11
15.83260806498405
 21
22.04815781839281
 31
0.0
  0
LINE
  5
213
330
2
100
AcDbEntity
  8
PDF_几何图形
100
AcDbLine
 10
15.23063533507396
 20
21.74354511169132
 30
0.0
 11
15.13635044966637
 21
21.67101827676241
 31
0.0
  0
LINE
  5
214
330
2
100
AcDbEntity
  8
PDF_几何图形
100
AcDbLine
 10
15.13635044966637
 20
21.67101827676241
 30
0.0
 11
15.07832898172323
 21
21.59123875834059
 31
0.0
  0
LINE
  5
215
330
2
100
AcDbEntity
  8
PDF_几何图形
100
AcDbLine
 10
15.07832898172323
 20
21.59123875834059
 30
0.0
 11
15.06382361473745
 21
21.50420655642588
 31
0.0
  0
LINE
  5
216
330
2
100
AcDbEntity
  8
PDF_几何图形
100
AcDbLine
 10
15.06382361473745
 20
21.50420655642588
 30
0.0
 11
15.07832898172323
 21
21.41717435451118
 31
0.0
  0
LINE
  5
217
330
2
100
AcDbEntity
  8
PDF_几何图形
100
AcDbLine
 10
15.13635044966637
 20
21.33739483608936
 30
0.0
 11
15.23063533507396
 21
21.26486800116043
 31
0.0
  0
LINE
  5
218
330
2
100
AcDbEntity
  8
PDF_几何图形
100
AcDbLine
 10
15.23063533507396
 20
21.26486800116043
 30
0.0
 11
15.25964606904554
 21
21.25036263417465
 31
0.0
  0
LINE
  5
219
330
2
100
AcDbEntity
  8
PDF_几何图形
100
AcDbLine
 10
15.94865100087032
 20
21.22135190020308
 30
0.0
 11
16.0501885697708
 21
21.26486800116043
 31
0.0
  0
LINE
  5
21A
330
2
100
AcDbEntity
  8
PDF_几何图形
100
AcDbLine
 10
15.09283434870901
 20
21.3954163040325
 30
0.0
 11
15.03481288076588
 21
21.4824485059472
 31
0.0
  0
LINE
  5
21B
330
2
100
AcDbEntity
  8
PDF_几何图形
100
AcDbLine
 10
15.03481288076588
 20
21.4824485059472
 30
0.0
 11
15.0130548302872
 21
21.5767333913548
 31
0.0
  0
LINE
  5
21C
330
2
100
AcDbEntity
  8
PDF_几何图形
100
AcDbLine
 10
15.0130548302872
 20
21.5767333913548
 30
0.0
 11
15.03481288076588
 21
21.67101827676241
 31
0.0
  0
LINE
  5
21D
330
2
100
AcDbEntity
  8
PDF_几何图形
100
AcDbLine
 10
15.03481288076588
 20
21.67101827676241
 30
0.0
 11
15.09283434870901
 21
21.75805047867712
 31
0.0
  0
LINE
  5
21E
330
2
100
AcDbEntity
  8
PDF_几何图形
100
AcDbLine
 10
15.09283434870901
 20
21.75805047867712
 30
0.0
 11
15.19437191760951
 21
21.83782999709893
 31
0.0
  0
LINE
  5
21F
330
2
100
AcDbEntity
  8
PDF_几何图形
100
AcDbLine
 10
15.12184508268058
 20
21.34464751958225
 30
0.0
 11
15.06382361473745
 21
21.38091093704671
 31
0.0
  0
LINE
  5
220
330
2
100
AcDbEntity
  8
PDF_几何图形
100
AcDbLine
 10
15.06382361473745
 20
21.38091093704671
 30
0.0
 11
15.0203075137801
 21
21.41717435451118
 31
0.0
  0
LINE
  5
221
330
2
100
AcDbEntity
  8
PDF_几何图形
100
AcDbLine
 10
15.0203075137801
 20
21.41717435451118
 30
0.0
 11
14.99854946330142
 21
21.43893240498985
 31
0.0
  0
LINE
  5
222
330
2
100
AcDbEntity
  8
PDF_几何图形
100
AcDbLine
 10
14.99854946330142
 20
21.43893240498985
 30
0.0
 11
14.98404409631563
 21
21.45343777197564
 31
0.0
  0
LINE
  5
223
330
2
100
AcDbEntity
  8
PDF_几何图形
100
AcDbLine
 10
14.98404409631563
 20
21.45343777197564
 30
0.0
 11
14.94052799535828
 21
21.51145923991878
 31
0.0
  0
LINE
  5
224
330
2
100
AcDbEntity
  8
PDF_几何图形
100
AcDbLine
 10
14.94052799535828
 20
21.51145923991878
 30
0.0
 11
14.94052799535828
 21
21.51871192341166
 31
0.0
  0
LINE
  5
225
330
2
100
AcDbEntity
  8
PDF_几何图形
100
AcDbLine
 10
14.94052799535828
 20
21.51871192341166
 30
0.0
 11
14.93327531186538
 21
21.54046997389034
 31
0.0
  0
LINE
  5
226
330
2
100
AcDbEntity
  8
PDF_几何图形
100
AcDbLine
 10
14.93327531186538
 20
21.54046997389034
 30
0.0
 11
14.92602262837249
 21
21.56948070786191
 31
0.0
  0
LINE
  5
227
330
2
100
AcDbEntity
  8
PDF_几何图形
100
AcDbLine
 10
11.40847113431969
 20
24.09341456338846
 30
0.0
 11
10.93704670728169
 21
23.82506527415144
 31
0.0
  0
LINE
  5
228
330
2
100
AcDbEntity
  8
PDF_几何图形
100
AcDbLine
 10
10.93704670728169
 20
23.75979112271541
 30
0.0
 11
11.95242239628662
 21
23.17232375979112
 31
0.0
  0
LINE
  5
229
330
2
100
AcDbEntity
  8
PDF_几何图形
100
AcDbLine
 10
12.06121264868001
 20
23.17232375979112
 30
0.0
 11
12.53263707571801
 21
23.44067304902814
 31
0.0
  0
LINE
  5
22A
330
2
100
AcDbEntity
  8
PDF_几何图形
100
AcDbLine
 10
12.53263707571801
 20
23.50594720046418
 30
0.0
 11
11.51726138671308
 21
24.09341456338846
 31
0.0
  0
LINE
  5
22B
330
2
100
AcDbEntity
  8
PDF_几何图形
100
AcDbLine
 10
12.2497824194952
 20
26.55932695097186
 30
0.0
 11
12.2497824194952
 21
28.67711053089644
 31
0.0
  0
LINE
  5
22C
330
2
100
AcDbEntity
  8
PDF_几何图形
100
AcDbLine
 10
24.89120974760661
 20
19.26312735712214
 30
0.0
 11
12.2497824194952
 21
26.55932695097187
 31
0.0
  0
LINE
  5
22D
330
2
100
AcDbEntity
  8
PDF_几何图形
100
AcDbLine
 10
5.541050188569765
 20
28.75689004931825
 30
0.0
 11
4.134029590948648
 21
28.95271250362635
 31
0.0
  0
LINE
  5
22E
330
2
100
AcDbEntity
  8
PDF_几何图形
100
AcDbLine
 10
4.134029590948648
 20
28.95271250362635
 30
0.0
 11
4.126776907455758
 21
28.95271250362635
 31
0.0
  0
LINE
  5
22F
330
2
100
AcDbEntity
  8
PDF_几何图形
100
AcDbLine
 10
3.974470554105008
 20
30.05512039454599
 30
0.0
 11
3.981723237597906
 21
30.05512039454599
 31
0.0
  0
LINE
  5
230
330
2
100
AcDbEntity
  8
PDF_几何图形
100
AcDbLine
 10
3.981723237597906
 20
30.05512039454599
 30
0.0
 11
3.988975921090804
 21
30.05512039454599
 31
0.0
  0
LINE
  5
231
330
2
100
AcDbEntity
  8
PDF_几何图形
100
AcDbLine
 10
3.988975921090804
 20
30.05512039454599
 30
0.0
 11
5.657093124456043
 21
28.9962286045837
 31
0.0
  0
LINE
  5
232
330
2
100
AcDbEntity
  8
PDF_几何图形
100
AcDbLine
 10
4.083260806498397
 20
29.10501885697708
 30
0.0
 11
1.602843051929208
 21
27.67624020887728
 31
0.0
  0
LINE
  5
233
330
2
100
AcDbEntity
  8
PDF_几何图形
100
AcDbLine
 10
1.602843051929208
 20
27.67624020887728
 30
0.0
 11
1.573832317957634
 21
27.50217580504787
 31
0.0
  0
LINE
  5
234
330
2
100
AcDbEntity
  8
PDF_几何图形
100
AcDbLine
 10
3.321729039744695
 20
29.34435741224253
 30
0.0
 11
3.299970989266019
 21
29.35886277922833
 31
0.0
  0
LINE
  5
235
330
2
100
AcDbEntity
  8
PDF_几何图形
100
AcDbLine
 10
3.307223672758917
 20
29.39512619669278
 30
0.0
 11
3.336234406730491
 21
29.380620829707
 31
0.0
  0
LINE
  5
236
330
2
100
AcDbEntity
  8
PDF_几何图形
100
AcDbLine
 10
3.343487090223371
 20
29.4676530316217
 30
0.0
 11
3.307223672758917
 21
29.48941108210038
 31
0.0
  0
LINE
  5
237
330
2
100
AcDbEntity
  8
PDF_几何图形
100
AcDbLine
 10
1.559326950971857
 20
27.46591238758341
 30
0.0
 11
0.1523063533507311
 21
25.64548883086743
 31
0.0
  0
LINE
  5
238
330
2
100
AcDbEntity
  8
PDF_几何图形
100
AcDbLine
 10
0.1523063533507311
 20
25.64548883086743
 30
0.0
 11
0.1160429358862775
 21
25.60922541340297
 31
0.0
  0
LINE
  5
239
330
2
100
AcDbEntity
  8
PDF_几何图形
100
AcDbLine
 10
0.1160429358862775
 20
25.60922541340297
 30
0.0
 11
0.0870322019147035
 21
25.59472004641718
 31
0.0
  0
LINE
  5
23A
330
2
100
AcDbEntity
  8
PDF_几何图形
100
AcDbLine
 10
0.0870322019147035
 20
25.59472004641718
 30
0.0
 11
0.0507687844502499
 21
25.58746736292429
 31
0.0
  0
LINE
  5
23B
330
2
100
AcDbEntity
  8
PDF_几何图形
100
AcDbLine
 10
0.0507687844502499
 20
25.58746736292429
 30
0.0
 11
0.0362634174644536
 21
25.58746736292429
 31
0.0
  0
LINE
  5
23C
330
2
100
AcDbEntity
  8
PDF_几何图形
100
AcDbLine
 10
1.559326950971857
 20
27.46591238758341
 30
0.0
 11
1.566579634464745
 21
27.4731650710763
 31
0.0
  0
LINE
  5
23D
330
2
100
AcDbEntity
  8
PDF_几何图形
100
AcDbLine
 10
1.566579634464745
 20
27.4731650710763
 30
0.0
 11
1.566579634464745
 21
27.48767043806209
 31
0.0
  0
LINE
  5
23E
330
2
100
AcDbEntity
  8
PDF_几何图形
100
AcDbLine
 10
1.566579634464745
 20
27.48767043806209
 30
0.0
 11
1.573832317957634
 21
27.49492312155498
 31
0.0
  0
LINE
  5
23F
330
2
100
AcDbEntity
  8
PDF_几何图形
100
AcDbLine
 10
1.573832317957634
 20
27.49492312155498
 30
0.0
 11
1.573832317957634
 21
27.50217580504787
 31
0.0
  0
LINE
  5
240
330
2
100
AcDbEntity
  8
PDF_几何图形
100
AcDbLine
 10
44.4662024949231
 20
0.0652741514360369
 30
0.0
 11
45.65564258775746
 21
1.602843051929217
 31
0.0
  0
LINE
  5
241
330
2
100
AcDbEntity
  8
PDF_几何图形
100
AcDbLine
 10
49.77516681172033
 20
3.321729039744715
 30
0.0
 11
18.13170873223092
 21
21.5839860748477
 31
0.0
  0
LINE
  5
242
330
2
100
AcDbEntity
  8
PDF_几何图形
100
AcDbLine
 10
10.97331012474615
 20
25.72526834928924
 30
0.0
 11
5.758630693356542
 21
28.73513199883957
 31
0.0
  0
LINE
  5
243
330
2
100
AcDbEntity
  8
0
100
AcDbLine
 10
1.59559036843631
 20
27.08152016246011
 30
0.0
 11
1.602843051929208
 21
27.07426747896722
 31
0.0
  0
ARC
  5
244
330
2
100
AcDbEntity
  8
0
100
AcDbCircle
 10
1.677811553787772
 20
27.01868767795372
 30
0.0
 40
0.0260692683586862
100
AcDbArc
 50
201.8309240923117
 51
248.1690759076951
  0
ARC
  5
245
330
2
100
AcDbEntity
  8
0
100
AcDbCircle
 10
44.293400198413
 20
0.1608211441629466
 30
0.0
 40
0.0989998635331483
100
AcDbArc
 50
206.8917154755231
 51
243.108284524474
  0
ARC
  5
246
330
2
100
AcDbEntity
  8
0
100
AcDbCircle
 10
48.0990867342841
 20
4.526720938217967
 30
0.0
 40
0.0518363344799808
100
AcDbArc
 50
55.01507818376696
 51
164.9511348600303
  0
LINE
  5
247
330
2
100
AcDbEntity
  8
0
100
AcDbLine
 10
48.04902814041195
 20
4.532927183057729
 30
0.0
 11
48.05628082390485
 21
4.496663765593266
 31
0.0
  0
ARC
  5
248
330
2
100
AcDbEntity
  8
0
100
AcDbCircle
 10
48.0442425470641
 20
3.151273450522261
 30
0.0
 40
0.2675197496400732
100
AcDbArc
 50
314.0798017292858
 51
353.6572317035002
  0
ARC
  5
249
330
2
100
AcDbEntity
  8
0
100
AcDbCircle
 10
48.05229909863076
 20
3.188456866007926
 30
0.0
 40
0.2663231558305715
100
AcDbArc
 50
345.4875571085358
 51
33.70248815467319
  0
ARC
  5
24A
330
2
100
AcDbEntity
  8
0
100
AcDbCircle
 10
48.03853942966682
 20
3.391562305265399
 30
0.0
 40
0.241738645063049
100
AcDbArc
 50
346.7691608936513
 51
31.41139294799683
  0
ARC
  5
24B
330
2
100
AcDbEntity
  8
0
100
AcDbCircle
 10
24.90554424768378
 20
19.30633967390622
 30
0.0
 40
0.0581931277757326
100
AcDbArc
 50
277.3290485421862
 51
0.2991011263900254
  0
ARC
  5
24C
330
2
100
AcDbEntity
  8
0
100
AcDbCircle
 10
24.911719103641
 20
19.31114217665093
 30
0.0
 40
0.0522116517582817
100
AcDbArc
 50
246.870424933636
 51
355.0570881305031
  0
LINE
  5
24D
330
2
100
AcDbEntity
  8
0
100
AcDbLine
 10
10.95155207426747
 20
24.99274731650711
 30
0.0
 11
9.48651000870322
 21
24.14949857051948
 31
0.0
  0
ARC
  5
24E
330
2
100
AcDbEntity
  8
0
100
AcDbCircle
 10
9.532636696645383
 20
25.87028641910673
 30
0.0
 40
0.0510160224190314
100
AcDbArc
 50
84.779268768581
 51
154.710493825322
  0
ARC
  5
24F
330
2
100
AcDbEntity
  8
0
100
AcDbCircle
 10
10.97321095554418
 20
25.70125801964954
 30
0.0
 40
0.0222286117794313
100
AcDbArc
 50
48.92736842720513
 51
193.0001446369353
  0
ARC
  5
250
330
2
100
AcDbEntity
  8
0
100
AcDbCircle
 10
16.72467689384833
 20
20.06097874514759
 30
0.0
 40
0.0827445845763896
100
AcDbArc
 50
254.7626305655945
 51
307.8572343824494
  0
ARC
  5
251
330
2
100
AcDbEntity
  8
0
100
AcDbCircle
 10
18.06190100821978
 20
20.83097659843337
 30
0.0
 40
0.0843226494780589
100
AcDbArc
 50
298.9351953913276
 51
359.1372915445275
  0
ARC
  5
252
330
2
100
AcDbEntity
  8
0
100
AcDbCircle
 10
18.06280823904848
 20
21.53684363214392
 30
0.0
 40
0.0834846564636961
100
AcDbArc
 50
2.489552921984009
 51
55.61965527616678
  0
ARC
  5
253
330
2
100
AcDbEntity
  8
0
100
AcDbCircle
 10
9.421316897545283
 20
26.93663213607082
 30
0.0
 40
0.117047069113141
100
AcDbArc
 50
111.8683561683079
 51
187.2005539927718
  0
ELLIPSE
  5
254
330
2
100
AcDbEntity
  8
0
100
AcDbEllipse
 10
12.26791412822744
 20
23.47693646649261
 30
0.0
 11
-0.1269219611256158
 21
0.0
 31
0.0
210
0.0
220
0.0
230
1.0
 40
0.6292204441584076
 41
0.0
 42
6.283185307179585
  0
ARC
  5
255
330
2
100
AcDbEntity
  8
0
100
AcDbCircle
 10
12.00681752248331
 20
23.27418047494639
 30
0.0
 40
0.1154712958971906
100
AcDbArc
 50
241.8961896633262
 51
298.1038103366726
  0
LINE
  5
256
330
2
100
AcDbEntity
  8
0
100
AcDbLine
 10
12.5471424427038
 20
23.44067304902814
 30
0.0
 11
12.06121264868002
 21
23.17232375979113
 31
0.0
  0
LINE
  5
257
330
2
100
AcDbEntity
  8
0
100
AcDbLine
 10
10.90803597331012
 20
23.7670438062083
 30
0.0
 11
11.95242239628662
 21
23.17232375979112
 31
0.0
  0
ARC
  5
258
330
2
100
AcDbEntity
  8
0
100
AcDbCircle
 10
11.46286626051638
 20
23.94373511606045
 30
0.0
 40
0.2266244508944953
100
AcDbArc
 50
66.41940412429653
 51
113.5805958757029
  0
ARC
  5
259
330
2
100
AcDbEntity
  8
0
100
AcDbCircle
 10
11.46286626051639
 20
23.98268861434321
 30
0.0
 40
0.1233655768272694
100
AcDbArc
 50
63.83700292688871
 51
116.1629970731119
  0
ARC
  5
25A
330
2
100
AcDbEntity
  8
0
100
AcDbCircle
 10
10.95610120893592
 20
23.82829599773721
 30
0.0
 40
0.0778594749716245
100
AcDbArc
 50
135.2743168171024
 51
231.8783519328999
  0
ARC
  5
25B
330
2
100
AcDbEntity
  8
0
100
AcDbCircle
 10
10.9551508851979
 20
23.79242819843343
 30
0.0
 40
0.0373221109993131
100
AcDbArc
 50
119.017658294966
 51
240.9823417050417
  0
ARC
  5
25C
330
2
100
AcDbEntity
  8
0
100
AcDbCircle
 10
12.50888634500587
 20
23.51099176276548
 30
0.0
 40
0.0800515490964845
100
AcDbArc
 50
298.5478992454773
 51
41.43614115163948
  0
ARC
  5
25D
330
2
100
AcDbEntity
  8
0
100
AcDbCircle
 10
12.51115604461401
 20
23.47331012474616
 30
0.0
 40
0.0390719005004156
100
AcDbArc
 50
303.3520646946044
 51
56.64793530539519
  0
ELLIPSE
  5
25E
330
2
100
AcDbEntity
  8
0
100
AcDbEllipse
 10
11.95242239628661
 20
23.65100087032202
 30
0.0
 11
-0.1015375689004951
 21
0.0
 31
0.0
210
0.0
220
0.0
230
1.0
 40
0.5714285714285566
 41
0.0
 42
6.283185307179585
  0
ELLIPSE
  5
25F
330
2
100
AcDbEntity
  8
0
100
AcDbEllipse
 10
11.69857847403538
 20
23.80330722367276
 30
0.0
 11
-0.1015375689004951
 21
0.0
 31
0.0
210
0.0
220
0.0
230
1.0
 40
0.5714285714285566
 41
0.0
 42
6.283185307179585
  0
ELLIPSE
  5
260
330
2
100
AcDbEntity
  8
0
100
AcDbEllipse
 10
11.44473455178415
 20
23.94836089353061
 30
0.0
 11
-0.1015375689004951
 21
0.0
 31
0.0
210
0.0
220
0.0
230
1.0
 40
0.5714285714285566
 41
0.0
 42
6.283185307179585
  0
ELLIPSE
  5
261
330
2
100
AcDbEntity
  8
0
100
AcDbEllipse
 10
11.24165941398317
 20
23.69934636811743
 30
0.0
 11
-0.1162679796034728
 21
0.00056683849648
 31
0.0
210
0.0
220
0.0
230
1.0
 40
0.5742759161303771
 41
0.0
 42
6.283185307179585
  0
ELLIPSE
  5
262
330
2
100
AcDbEntity
  8
0
100
AcDbEllipse
 10
11.24165941398317
 20
23.69451697127937
 30
0.0
 11
-0.0890111544615112
 21
0.000320850113935
 31
0.0
210
0.0
220
0.0
230
1.0
 40
0.5080137417603891
 41
0.0
 42
6.283185307179585
  0
ARC
  5
263
330
2
100
AcDbEntity
  8
0
100
AcDbCircle
 10
11.15598577165483
 20
23.74891209747606
 30
0.0
 40
0.0395810732528442
100
AcDbArc
 50
140.1091934920773
 51
219.8908065079229
  0
ARC
  5
264
330
2
100
AcDbEntity
  8
0
100
AcDbCircle
 10
11.31368778955464
 20
23.74528575572962
 30
0.0
 40
0.0570290887697422
100
AcDbArc
 50
320.5150287515958
 51
39.48497124840466
  0
ARC
  5
265
330
2
100
AcDbEntity
  8
0
100
AcDbCircle
 10
11.24573858813835
 20
23.64738925848173
 30
0.0
 40
0.1747420002649639
100
AcDbArc
 50
50.15316098918345
 51
133.4266602273066
  0
LINE
  5
266
330
2
100
AcDbEntity
  8
PDF_几何图形
100
AcDbLine
 10
11.76332256550673
 20
23.4889576679817
 30
0.0
 11
11.76332256550673
 21
23.57437961906831
 31
0.0
  0
LINE
  5
267
330
2
100
AcDbEntity
  8
PDF_几何图形
100
AcDbLine
 10
11.48997232202956
 20
23.56583742395965
 30
0.0
 11
11.48997232202956
 21
23.4889576679817
 31
0.0
  0
LINE
  5
268
330
2
100
AcDbEntity
  8
PDF_几何图形
100
AcDbLine
 10
11.48997232202956
 20
23.50604205819902
 30
0.0
 11
11.48997232202956
 21
23.49749986309035
 31
0.0
  0
ELLIPSE
  5
269
330
2
100
AcDbEntity
  8
0
100
AcDbEllipse
 10
11.62664744376815
 20
23.47756133103297
 30
0.0
 11
-0.1369401777474603
 21
0.0006676211690167
 31
0.0
210
0.0
220
0.0
230
1.0
 40
0.5742759161303771
 41
0.0
 42
6.283185307179585
  0
ELLIPSE
  5
26A
330
2
100
AcDbEntity
  8
0
100
AcDbEllipse
 10
11.62664744376815
 20
23.47187327776437
 30
0.0
 11
-0.1048371473817363
 21
0.0003778965780811
 31
0.0
210
0.0
220
0.0
230
1.0
 40
0.5080137417603891
 41
0.0
 42
6.283185307179585
  0
ARC
  5
26B
330
2
100
AcDbEntity
  8
0
100
AcDbCircle
 10
11.52574121103986
 20
23.53593974107933
 30
0.0
 40
0.0466185034363307
100
AcDbArc
 50
140.1091934920773
 51
219.8908065079228
  0
ARC
  5
26C
330
2
100
AcDbEntity
  8
0
100
AcDbCircle
 10
11.71148231048947
 20
23.531668643525
 30
0.0
 40
0.0671687388009874
100
AcDbArc
 50
320.5150287515958
 51
39.48497124840464
  0
ARC
  5
26D
330
2
100
AcDbEntity
  8
0
100
AcDbCircle
 10
11.63145188636514
 20
23.41636635841005
 30
0.0
 40
0.2058107542406815
100
AcDbArc
 50
50.15316098918345
 51
133.4266602273066
  0
LINE
  5
26E
330
2
100
AcDbEntity
  8
0
100
AcDbLine
 10
15.12909776617348
 20
21.34464751958224
 30
0.0
 11
15.13635044966637
 21
21.33739483608936
 31
0.0
  0
LINE
  5
26F
330
2
100
AcDbEntity
  8
0
100
AcDbLine
 10
15.09283434870901
 20
21.3954163040325
 30
0.0
 11
15.12909776617348
 21
21.34464751958224
 31
0.0
  0
LINE
  5
270
330
2
100
AcDbEntity
  8
0
100
AcDbLine
 10
16.16624528788234
 20
21.88860649218527
 30
0.0
 11
15.89788221642007
 21
22.04090513489991
 31
0.0
  0
ARC
  5
271
330
2
100
AcDbEntity
  8
0
100
AcDbCircle
 10
15.14236522651941
 20
22.36291725438157
 30
0.0
 40
0.111633536417019
100
AcDbArc
 50
9.728607775321439
 51
66.36547728832031
  0
ARC
  5
272
330
2
100
AcDbEntity
  8
0
100
AcDbCircle
 10
14.912095472599
 20
22.29958598493344
 30
0.0
 40
0.3500838937316395
100
AcDbArc
 50
338.5305386732326
 51
13.57908886869577
  0
ARC
  5
273
330
2
100
AcDbEntity
  8
0
100
AcDbCircle
 10
14.7727411520736
 20
22.41701776714106
 30
0.0
 40
0.5259880676089371
100
AcDbArc
 50
303.0250332993419
 51
332.1691456713072
  0
ELLIPSE
  5
274
330
2
100
AcDbEntity
  8
0
100
AcDbEllipse
 10
14.55250942848854
 20
22.06991586887149
 30
0.0
 11
-0.3082390484479216
 21
0.0
 31
0.0
210
0.0
220
0.0
230
1.0
 40
0.5648284180780184
 41
0.0
 42
6.283185307179585
  0
ELLIPSE
  5
275
330
2
100
AcDbEntity
  8
0
100
AcDbEllipse
 10
15.64041195242239
 20
21.43893240498985
 30
0.0
 11
-0.3082390484479305
 21
0.0
 31
0.0
210
0.0
220
0.0
230
1.0
 40
0.5643400241568629
 41
0.0
 42
6.283185307179585
  0
ELLIPSE
  5
276
330
2
100
AcDbEntity
  8
0
100
AcDbEllipse
 10
3.633594429939069
 20
29.32078619089063
 30
0.0
 11
0.0725268349289214
 21
0.1396141572381779
 31
0.0
210
0.0
220
0.0
230
0.9999999999999998
 40
0.6249983397507501
 41
0.0
 42
6.283185307179585
  0
ELLIPSE
  5
277
330
2
100
AcDbEntity
  8
0
100
AcDbEllipse
 10
2.03619089062953
 20
28.40150855816652
 30
0.0
 11
0.0888453727879375
 21
0.1595590368436319
 31
0.0
210
0.0
220
0.0
230
1.0
 40
0.5810085836692287
 41
0.0
 42
6.283185307179585
  0
ELLIPSE
  5
278
330
2
100
AcDbEntity
  8
0
100
AcDbEllipse
 10
15.95046417174354
 20
25.65274151436032
 30
0.0
 11
-0.1359878154917382
 21
0.2465912387583415
 31
0.0
210
0.0
220
0.0
230
1.0
 40
0.5822363886812556
 41
0.0
 42
6.283185307179585
  0
ELLIPSE
  5
279
330
2
100
AcDbEntity
  8
0
100
AcDbEllipse
 10
15.84542172383476
 20
25.59718773059441
 30
0.0
 11
-0.1359878154917382
 21
0.2465912387583415
 31
0.0
210
0.0
220
0.0
230
1.0
 40
0.5822363886812556
 41
6.272925355671731
 42
9.458420668521963
  0
LINE
  5
27A
330
2
100
AcDbEntity
  8
0
100
AcDbLine
 10
15.8144763562518
 20
25.89933275311866
 30
0.0
 11
15.7109141062272
 21
25.84457832904385
 31
0.0
  0
LINE
  5
27B
330
2
100
AcDbEntity
  8
PDF_几何图形
100
AcDbLine
 10
24.47446398664942
 20
20.45057082649397
 30
0.0
 11
24.57475406476041
 21
20.50332184546619
 31
0.0
  0
ELLIPSE
  5
27C
330
2
100
AcDbEntity
  8
0
100
AcDbEllipse
 10
24.43876624926867
 20
20.74991308422454
 30
0.0
 11
-0.1359878154917382
 21
0.2465912387583415
 31
0.0
210
0.0
220
0.0
230
1.0
 40
0.5822363886812556
 41
0.0
 42
6.283185307179585
  0
ELLIPSE
  5
27D
330
2
100
AcDbEntity
  8
0
100
AcDbEllipse
 10
24.33372380135989
 20
20.69435930045864
 30
0.0
 11
-0.1359878154917382
 21
0.2465912387583415
 31
0.0
210
0.0
220
0.0
230
1.0
 40
0.5822363886812556
 41
6.272925355671731
 42
9.458420668521963
  0
LINE
  5
27E
330
2
100
AcDbEntity
  8
0
100
AcDbLine
 10
24.30277843377693
 20
20.99650432298288
 30
0.0
 11
24.19921618375233
 21
20.94174989890807
 31
0.0
  0
ENDSEC
  0
SECTION
  2
OBJECTS
  0
DICTIONARY
  5
A
330
0
100
AcDbDictionary
281
     1
  3
ACAD_CIP_PREVIOUS_PRODUCT_INFO
350
2B7
  3
ACAD_COLOR
350
3B
  3
ACAD_DETAILVIEWSTYLE
350
2B3
  3
ACAD_GROUP
350
32
  3
ACAD_LAYOUT
350
17
  3
ACAD_MATERIAL
350
C
  3
ACAD_MLEADERSTYLE
350
3E
  3
ACAD_MLINESTYLE
350
33
  3
ACAD_PLOTSETTINGS
350
34
  3
ACAD_PLOTSTYLENAME
350
9
  3
ACAD_SCALELIST
350
3C
  3
ACAD_SECTIONVIEWSTYLE
350
2B1
  3
ACAD_TABLESTYLE
350
3D
  3
ACAD_VISUALSTYLE
350
2C
  3
ACDB_RECOMPOSE_DATA
350
343
  3
AcDbVariableDictionary
350
3F
  3
AcDsDecomposeData
350
349
  0
DICTIONARY
  5
1F
330
1E
100
AcDbDictionary
280
     1
281
     1
  3
ACAD_LAYERSTATES
360
20
  0
DICTIONARY
  5
7
330
6
100
AcDbDictionary
280
     1
281
     1
  0
DICTIONARY
  5
3
330
2
100
AcDbDictionary
280
     1
281
     1
  3
ACAD_SORTENTS
360
27F
  0
XRECORD
  5
2B7
102
{ACAD_REACTORS
330
A
102
}
330
A
100
AcDbXrecord
280
     1
300
ACD
300
2021
300

  0
DICTIONARY
  5
3B
102
{ACAD_REACTORS
330
A
102
}
330
A
100
AcDbDictionary
281
     1
  0
DICTIONARY
  5
2B3
102
{ACAD_REACTORS
330
A
102
}
330
A
100
AcDbDictionary
281
     1
  3
Metric50
350
2B4
  0
DICTIONARY
  5
32
102
{ACAD_REACTORS
330
A
102
}
330
A
100
AcDbDictionary
281
     1
  0
DICTIONARY
  5
17
102
{ACAD_REACTORS
330
A
102
}
330
A
100
AcDbDictionary
281
     1
  3
Model
350
16
  3
布局1
350
1D
  0
DICTIONARY
  5
C
102
{ACAD_REACTORS
330
A
102
}
330
A
100
AcDbDictionary
281
     1
  3
ByBlock
350
38
  3
ByLayer
350
35
  3
Global
350
B
  0
DICTIONARY
  5
3E
102
{ACAD_REACTORS
330
A
102
}
330
A
100
AcDbDictionary
281
     1
  3
Standard
350
2B0
  0
DICTIONARY
  5
33
102
{ACAD_REACTORS
330
A
102
}
330
A
100
AcDbDictionary
281
     1
  3
Standard
350
4B
  0
DICTIONARY
  5
34
102
{ACAD_REACTORS
330
A
102
}
330
A
100
AcDbDictionary
281
     1
  0
ACDBDICTIONARYWDFLT
  5
9
102
{ACAD_REACTORS
330
A
102
}
330
A
100
AcDbDictionary
281
     1
  3
Normal
350
8
100
AcDbDictionaryWithDefault
340
8
  0
DICTIONARY
  5
3C
102
{ACAD_REACTORS
330
A
102
}
330
A
100
AcDbDictionary
281
     1
  3
A0
350
50
  3
A1
350
51
  3
A2
350
52
  3
A3
350
53
  3
A4
350
54
  3
A5
350
55
  3
A6
350
56
  3
A7
350
57
  3
A8
350
58
  3
A9
350
59
  3
B0
350
5A
  3
B1
350
5B
  3
B2
350
5C
  3
B3
350
5D
  3
B4
350
5E
  3
B5
350
5F
  3
B6
350
60
  0
DICTIONARY
  5
2B1
102
{ACAD_REACTORS
330
A
102
}
330
A
100
AcDbDictionary
281
     1
  3
Metric50
350
2B2
  0
DICTIONARY
  5
3D
102
{ACAD_REACTORS
330
A
102
}
330
A
100
AcDbDictionary
281
     1
  3
Standard
350
4C
  0
DICTIONARY
  5
2C
102
{ACAD_REACTORS
330
A
102
}
330
A
100
AcDbDictionary
281
     1
  3
2dWireframe
350
2B
  3
Basic
350
29F
  3
Brighten
350
2A3
  3
ColorChange
350
2A7
  3
Conceptual
350
2A1
  3
Dim
350
2A2
  3
EdgeColorOff
350
2AF
  3
Facepattern
350
2A6
  3
Flat
350
29B
  3
FlatWithEdges
350
29C
  3
Gouraud
350
29D
  3
GouraudWithEdges
350
29E
  3
Hidden
350
2A0
  3
JitterOff
350
2AD
  3
Linepattern
350
2A5
  3
OverhangOff
350
2AE
  3
Realistic
350
4E
  3
Shaded
350
2AC
  3
Shaded with edges
350
2AB
  3
Shades of Gray
350
2A8
  3
Sketchy
350
2A9
  3
Thicken
350
2A4
  3
Wireframe
350
4F
  3
X-Ray
350
2AA
  0
XRECORD
  5
343
102
{ACAD_REACTORS
330
A
102
}
330
A
100
AcDbXrecord
280
     1
 90
        1
330
4C
  0
DICTIONARY
  5
3F
102
{ACAD_REACTORS
330
A
102
}
330
A
100
AcDbDictionary
281
     1
  3
CANNOSCALE
350
40
  3
CENTEREXE
350
41
  3
CENTERLTYPEFILE
350
42
  3
CMLEADERSTYLE
350
43
  3
CTABLESTYLE
350
44
  3
CVIEWDETAILSTYLE
350
45
  3
CVIEWSECTIONSTYLE
350
46
  3
DIMASSOC
350
47
  3
HIDETEXT
350
48
  3
LAYEREVAL
350
49
  3
LAYERNOTIFY
350
4A
  3
LIGHTINGUNITS
350
281
  3
MSLTSCALE
350
280
  0
DICTIONARY
  5
349
102
{ACAD_REACTORS
330
A
102
}
330
A
100
AcDbDictionary
281
     1
  3
AcDsRecords
350
34B
  3
AcDsSchemas
350
34A
1001
ACAD
1070
     2
  0
DICTIONARY
  5
20
102
{ACAD_REACTORS
330
1F
102
}
330
1F
100
AcDbDictionary
281
     1
  0
SORTENTSTABLE
  5
27F
102
{ACAD_REACTORS
330
3
102
}
330
3
100
AcDbSortentsTable
330
2
  0
ACDBDETAILVIEWSTYLE
  5
2B4
102
{ACAD_XDICTIONARY
360
37E
102
}
102
{ACAD_REACTORS
330
2B3
102
}
330
2B3
100
AcDbModelDocViewStyle
 70
     0
  3
Metric50
290
     0
100
AcDbDetailViewStyle
 70
     0
 71
     0
 90
        3
 71
     1
340
22
 62
   256
 40
5.0
340
0
 62
   256
 40
5.0
300

 40
0.0
280
     1
 71
     2
340
14
 90
       25
 62
   256
 71
     3
340
22
 62
   256
 40
5.0
 90
        0
 40
15.0
 90
        1
300
%<\AcVar ViewDetailId>% (%<\AcVar ViewScale \f "%sn">%)
 71
     4
340
14
 90
       25
 62
   256
340
14
 90
       25
 62
   256
280
     0
  0
LAYOUT
  5
16
102
{ACAD_XDICTIONARY
360
18
102
}
102
{ACAD_REACTORS
330
17
102
}
330
17
100
AcDbPlotSettings
  1

  2
none_device
  4
ISO_A4_(210.00_x_297.00_MM)
  6

 40
7.5
 41
20.0
 42
7.5
 43
20.0
 44
210.0
 45
297.0
 46
11.54999923706054
 47
-13.65000009536743
 48
0.0
 49
0.0
140
0.0
141
0.0
142
1.0
143
8.704084754739808
 70
 11952
 72
     1
 73
     0
 74
     0
  7

 75
     0
147
0.1148885871608098
 76
     0
 77
     2
 78
   300
148
0.0
149
0.0
100
AcDbLayout
  1
Model
 70
     1
 71
     0
 10
0.0
 20
0.0
 11
12.0
 21
9.0
 12
0.0
 22
0.0
 32
0.0
 14
0.0
 24
0.0
 34
0.0
 15
0.0
 25
0.0
 35
0.0
146
0.0
 13
0.0
 23
0.0
 33
0.0
 16
1.0
 26
0.0
 36
0.0
 17
0.0
 27
1.0
 37
0.0
 76
     0
330
2
331
2A
1001
ACAD_PSEXT
1000
None
1000
None
1000
Not applicable
1000
The layout will not be plotted unless a new plotter configuration name is selected.
1070
     0
  0
LAYOUT
  5
1D
102
{ACAD_REACTORS
330
17
102
}
330
17
100
AcDbPlotSettings
  1

  2
C:\Documents and Settings\basas\Application Data\Autodesk\AutoCAD 2005\R16.1\enu\plotters\Default Windows System Printer.pc3
  4

  6

 40
0.0
 41
0.0
 42
0.0
 43
0.0
 44
0.0
 45
0.0
 46
0.0
 47
0.0
 48
0.0
 49
0.0
140
0.0
141
0.0
142
1.0
143
1.0
 70
   688
 72
     0
 73
     0
 74
     5
  7

 75
    16
147
1.0
 76
     0
 77
     2
 78
   300
148
0.0
149
0.0
100
AcDbLayout
  1
布局1
 70
     1
 71
     1
 10
0.0
 20
0.0
 11
12.0
 21
9.0
 12
0.0
 22
0.0
 32
0.0
 14
0.0
 24
0.0
 34
0.0
 15
0.0
 25
0.0
 35
0.0
146
0.0
 13
0.0
 23
0.0
 33
0.0
 16
1.0
 26
0.0
 36
0.0
 17
0.0
 27
1.0
 37
0.0
 76
     0
330
1A
  0
MATERIAL
  5
38
102
{ACAD_XDICTIONARY
360
39
102
}
102
{ACAD_REACTORS
330
C
102
}
330
C
100
AcDbMaterial
  1
ByBlock
  0
MATERIAL
  5
35
102
{ACAD_XDICTIONARY
360
36
102
}
102
{ACAD_REACTORS
330
C
102
}
330
C
100
AcDbMaterial
  1
ByLayer
  0
MATERIAL
  5
B
102
{ACAD_XDICTIONARY
360
D
102
}
102
{ACAD_REACTORS
330
C
102
}
330
C
100
AcDbMaterial
  1
Global
 43
0.0007999999797903
 43
0.0
 43
0.0
 43
0.0
 43
0.0
 43
0.0007999999797903
 43
0.0
 43
0.0
 43
0.0
 43
0.0
 43
1.0
 43
0.0
 43
0.0
 43
0.0
 43
0.0
 43
1.0
 49
0.0007999999797903
 49
0.0
 49
0.0
 49
0.0
 49
0.0
 49
0.0007999999797903
 49
0.0
 49
0.0
 49
0.0
 49
0.0
 49
1.0
 49
0.0
 49
0.0
 49
0.0
 49
0.0
 49
1.0
142
0.0007999999797903
142
0.0
142
0.0
142
0.0
142
0.0
142
0.0007999999797903
142
0.0
142
0.0
142
0.0
142
0.0
142
1.0
142
0.0
142
0.0
142
0.0
142
0.0
142
1.0
144
0.0007999999797903
144
0.0
144
0.0
144
0.0
144
0.0
144
0.0007999999797903
144
0.0
144
0.0
144
0.0
144
0.0
144
1.0
144
0.0
144
0.0
144
0.0
144
0.0
144
1.0
1001
ACAD
1070
    -1
1070
     3
1070
     0
1000

1071
        0
1070
     0
  0
MLEADERSTYLE
  5
2B0
102
{ACAD_REACTORS
330
3E
102
}
330
3E
100
AcDbMLeaderStyle
179
     2
170
     2
171
     1
172
     0
 90
        2
 40
0.0
 41
0.0
173
     1
 91
-1056964608
340
25
 92
       -2
290
     1
 42
2.0
291
     1
 43
0.36
  3
Standard
 44
4.0
300

342
22
174
     1
178
     6
175
     1
176
     0
 93
-1056964608
 45
4.0
292
     0
297
     0
 46
4.0
 94
-1056964608
 47
1.0
 49
1.0
140
1.0
293
     1
141
0.0
294
     1
177
     0
142
1.0
295
     0
296
     0
143
0.125
271
     0
272
     9
273
     9
  0
MLINESTYLE
  5
4B
102
{ACAD_REACTORS
330
33
102
}
330
33
100
AcDbMlineStyle
  2
STANDARD
 70
     0
  3

 62
   256
 51
90.0
 52
90.0
 71
     2
 49
0.5
 62
   256
  6
BYLAYER
 49
-0.5
 62
   256
  6
BYLAYER
  0
ACDBPLACEHOLDER
  5
8
102
{ACAD_REACTORS
330
9
102
}
330
9
  0
SCALE
  5
50
102
{ACAD_REACTORS
330
3C
102
}
330
3C
100
AcDbScale
 70
     0
300
1:1
140
1.0
141
1.0
290
     1
  0
SCALE
  5
51
102
{ACAD_REACTORS
330
3C
102
}
330
3C
100
AcDbScale
 70
     0
300
1:2
140
1.0
141
2.0
290
     0
  0
SCALE
  5
52
102
{ACAD_REACTORS
330
3C
102
}
330
3C
100
AcDbScale
 70
     0
300
1:4
140
1.0
141
4.0
290
     0
  0
SCALE
  5
53
102
{ACAD_REACTORS
330
3C
102
}
330
3C
100
AcDbScale
 70
     0
300
1:5
140
1.0
141
5.0
290
     0
  0
SCALE
  5
54
102
{ACAD_REACTORS
330
3C
102
}
330
3C
100
AcDbScale
 70
     0
300
1:8
140
1.0
141
8.0
290
     0
  0
SCALE
  5
55
102
{ACAD_REACTORS
330
3C
102
}
330
3C
100
AcDbScale
 70
     0
300
1:10
140
1.0
141
10.0
290
     0
  0
SCALE
  5
56
102
{ACAD_REACTORS
330
3C
102
}
330
3C
100
AcDbScale
 70
     0
300
1:16
140
1.0
141
16.0
290
     0
  0
SCALE
  5
57
102
{ACAD_REACTORS
330
3C
102
}
330
3C
100
AcDbScale
 70
     0
300
1:20
140
1.0
141
20.0
290
     0
  0
SCALE
  5
58
102
{ACAD_REACTORS
330
3C
102
}
330
3C
100
AcDbScale
 70
     0
300
1:30
140
1.0
141
30.0
290
     0
  0
SCALE
  5
59
102
{ACAD_REACTORS
330
3C
102
}
330
3C
100
AcDbScale
 70
     0
300
1:40
140
1.0
141
40.0
290
     0
  0
SCALE
  5
5A
102
{ACAD_REACTORS
330
3C
102
}
330
3C
100
AcDbScale
 70
     0
300
1:50
140
1.0
141
50.0
290
     0
  0
SCALE
  5
5B
102
{ACAD_REACTORS
330
3C
102
}
330
3C
100
AcDbScale
 70
     0
300
1:100
140
1.0
141
100.0
290
     0
  0
SCALE
  5
5C
102
{ACAD_REACTORS
330
3C
102
}
330
3C
100
AcDbScale
 70
     0
300
2:1
140
2.0
141
1.0
290
     0
  0
SCALE
  5
5D
102
{ACAD_REACTORS
330
3C
102
}
330
3C
100
AcDbScale
 70
     0
300
4:1
140
4.0
141
1.0
290
     0
  0
SCALE
  5
5E
102
{ACAD_REACTORS
330
3C
102
}
330
3C
100
AcDbScale
 70
     0
300
8:1
140
8.0
141
1.0
290
     0
  0
SCALE
  5
5F
102
{ACAD_REACTORS
330
3C
102
}
330
3C
100
AcDbScale
 70
     0
300
10:1
140
10.0
141
1.0
290
     0
  0
SCALE
  5
60
102
{ACAD_REACTORS
330
3C
102
}
330
3C
100
AcDbScale
 70
     0
300
100:1
140
100.0
141
1.0
290
     0
  0
ACDBSECTIONVIEWSTYLE
  5
2B2
102
{ACAD_XDICTIONARY
360
37C
102
}
102
{ACAD_REACTORS
330
2B1
102
}
330
2B1
100
AcDbModelDocViewStyle
 70
     0
  3
Metric50
290
     0
100
AcDbSectionViewStyle
 70
     0
 71
     0
 90
      102
 71
     1
340
22
 62
   256
 40
5.0
340
0
340
0
 62
   256
 40
5.0
300
I, O, Q, S, X, Z
 40
10.0
 90
        0
 40
2.5
 90
        0
 71
     2
340
14
 90
       25
 62
   256
340
14
 90
       50
 62
   256
 40
5.0
 40
2.5
 40
5.0
 71
     3
340
22
 62
   256
 40
5.0
 90
        0
 40
15.0
 90
        1
300
%<\AcVar ViewSectionStartId>%-%<\AcVar ViewSectionEndId>% (%<\AcVar ViewScale \f "%sn">%)
 71
     4
 62
   256
 62
   257
300
ANSI31
 40
1.0
 90
        0
290
     0
290
     0
 90
        6
 40
0.0
 40
1.570796326794896
 40
0.2617993877991494
 40
1.308996938995747
 40
-0.2617993877991494
 40
1.832595714594046
  0
TABLESTYLE
  5
4C
102
{ACAD_XDICTIONARY
360
4D
102
}
102
{ACAD_REACTORS
330
3D
102
}
330
3D
100
AcDbTableStyle
280
     0
  3
Standard
 70
     0
 71
     0
 40
1.5
 41
1.5
280
     0
281
     0
  7
Standard
140
4.5
170
     2
 62
     0
 63
     7
283
     0
 90
      512
 91
        0
  1

274
    -2
284
     1
 64
     0
275
    -2
285
     1
 65
     0
276
    -2
286
     1
 66
     0
277
    -2
287
     1
 67
     0
278
    -2
288
     1
 68
     0
279
    -2
289
     1
 69
     0
  7
Standard
140
6.0
170
     5
 62
     0
 63
     7
283
     0
 90
      512
 91
        0
  1

274
    -2
284
     1
 64
     0
275
    -2
285
     1
 65
     0
276
    -2
286
     1
 66
     0
277
    -2
287
     1
 67
     0
278
    -2
288
     1
 68
     0
279
    -2
289
     1
 69
     0
  7
Standard
140
4.5
170
     5
 62
     0
 63
     7
283
     0
 90
      512
 91
        0
  1

274
    -2
284
     1
 64
     0
275
    -2
285
     1
 65
     0
276
    -2
286
     1
 66
     0
277
    -2
287
     1
 67
     0
278
    -2
288
     1
 68
     0
279
    -2
289
     1
 69
     0
  0
VISUALSTYLE
  5
2B
102
{ACAD_XDICTIONARY
360
34C
102
}
102
{ACAD_REACTORS
330
2C
102
}
330
2C
100
AcDbVisualStyle
  2

 70
     4
177
     2
291
     0
 71
     0
176
     1
 72
     2
176
     1
 73
     1
176
     1
 90
        0
176
     1
 40
0.6
176
     1
 41
30.0
176
     1
 63
     7
421
 16777215
176
     1
 74
     1
176
     1
 91
        4
176
     1
 64
     7
176
     1
 65
   257
176
     1
 75
     1
176
     1
175
     1
176
     1
 42
1.0
176
     1
 92
        0
176
     1
 66
   257
176
     1
 43
1.0
176
     1
 76
     1
176
     1
 77
     6
176
     1
 78
     2
176
     1
 67
     7
176
     1
 79
     5
176
     1
170
     0
176
     1
171
     0
176
     1
290
     0
176
     1
 93
        1
176
     1
 44
0.0
176
     1
173
     0
176
     1
1001
ACAD
1000
AcDbSavedByObjectVersion
1070
     0
  0
VISUALSTYLE
  5
29F
102
{ACAD_XDICTIONARY
360
35A
102
}
102
{ACAD_REACTORS
330
2C
102
}
330
2C
100
AcDbVisualStyle
  2
Basic
 70
     7
177
     2
291
     1
 71
     1
176
     1
 72
     0
176
     1
 73
     1
176
     1
 90
        0
176
     1
 40
0.6
176
     1
 41
30.0
176
     1
 63
     7
421
 16777215
176
     1
 74
     0
176
     1
 91
        4
176
     1
 64
     7
176
     1
 65
   257
176
     1
 75
     1
176
     1
175
     1
176
     1
 42
1.0
176
     1
 92
        8
176
     1
 66
     7
176
     1
 43
1.0
176
     1
 76
     1
176
     1
 77
     6
176
     1
 78
     2
176
     1
 67
     7
176
     1
 79
     5
176
     1
170
     0
176
     1
171
     0
176
     1
290
     0
176
     1
 93
        1
176
     1
 44
0.0
176
     1
173
     0
176
     1
1001
ACAD
1000
AcDbSavedByObjectVersion
1070
     0
  0
VISUALSTYLE
  5
2A3
102
{ACAD_XDICTIONARY
360
362
102
}
102
{ACAD_REACTORS
330
2C
102
}
330
2C
100
AcDbVisualStyle
  2
Brighten
 70
    12
177
     2
291
     1
 71
     2
176
     1
 72
     2
176
     1
 73
     0
176
     1
 90
        0
176
     1
 40
0.6
176
     1
 41
30.0
176
     1
 63
     7
421
 16777215
176
     1
 74
     1
176
     1
 91
        4
176
     1
 64
     7
176
     1
 65
   257
176
     1
 75
     1
176
     1
175
     1
176
     1
 42
1.0
176
     1
 92
        8
176
     1
 66
     7
176
     1
 43
1.0
176
     1
 76
     1
176
     1
 77
     6
176
     1
 78
     2
176
     1
 67
     7
176
     1
 79
     5
176
     1
170
     0
176
     1
171
     0
176
     1
290
     0
176
     1
 93
        1
176
     1
 44
50.0
176
     1
173
     0
176
     1
1001
ACAD
1000
AcDbSavedByObjectVersion
1070
     0
  0
VISUALSTYLE
  5
2A7
102
{ACAD_XDICTIONARY
360
36A
102
}
102
{ACAD_REACTORS
330
2C
102
}
330
2C
100
AcDbVisualStyle
  2
ColorChange
 70
    16
177
     2
291
     1
 71
     2
176
     1
 72
     2
176
     1
 73
     3
176
     1
 90
        0
176
     1
 40
0.6
176
     1
 41
30.0
176
     1
 63
     8
421
  8421504
176
     1
 74
     1
176
     1
 91
        4
176
     1
 64
     7
176
     1
 65
   257
176
     1
 75
     1
176
     1
175
     1
176
     1
 42
1.0
176
     1
 92
        8
176
     1
 66
     8
424
  8421504
176
     1
 43
1.0
176
     1
 76
     1
176
     1
 77
     6
176
     1
 78
     2
176
     1
 67
     7
176
     1
 79
     5
176
     1
170
     0
176
     1
171
     0
176
     1
290
     0
176
     1
 93
        1
176
     1
 44
0.0
176
     1
173
     0
176
     1
1001
ACAD
1000
AcDbSavedByObjectVersion
1070
     0
  0
VISUALSTYLE
  5
2A1
102
{ACAD_XDICTIONARY
360
35E
102
}
102
{ACAD_REACTORS
330
2C
102
}
330
2C
100
AcDbVisualStyle
  2
Conceptual
 70
     9
177
     2
291
     0
 71
     3
176
     1
 72
     2
176
     1
 73
     0
176
     1
 90
        0
176
     1
 40
0.6
176
     1
 41
30.0
176
     1
 63
     7
421
 16777215
176
     1
 74
     2
176
     1
 91
        2
176
     1
 64
     7
176
     1
 65
   257
176
     1
 75
     1
176
     1
175
     1
176
     1
 42
179.0
176
     1
 92
        8
176
     1
 66
     7
176
     1
 43
1.0
176
     1
 76
     1
176
     1
 77
     6
176
     1
 78
     2
176
     1
 67
     7
176
     1
 79
     3
176
     1
170
     0
176
     1
171
     0
176
     1
290
     0
176
     1
 93
        1
176
     1
 44
0.0
176
     1
173
     0
176
     1
1001
ACAD
1000
AcDbSavedByObjectVersion
1070
     0
  0
VISUALSTYLE
  5
2A2
102
{ACAD_XDICTIONARY
360
360
102
}
102
{ACAD_REACTORS
330
2C
102
}
330
2C
100
AcDbVisualStyle
  2
Dim
 70
    11
177
     2
291
     1
 71
     2
176
     1
 72
     2
176
     1
 73
     0
176
     1
 90
        0
176
     1
 40
0.6
176
     1
 41
30.0
176
     1
 63
     7
421
 16777215
176
     1
 74
     1
176
     1
 91
        4
176
     1
 64
     7
176
     1
 65
   257
176
     1
 75
     1
176
     1
175
     1
176
     1
 42
1.0
176
     1
 92
        8
176
     1
 66
     7
176
     1
 43
1.0
176
     1
 76
     1
176
     1
 77
     6
176
     1
 78
     2
176
     1
 67
     7
176
     1
 79
     5
176
     1
170
     0
176
     1
171
     0
176
     1
290
     0
176
     1
 93
        1
176
     1
 44
-50.0
176
     1
173
     0
176
     1
1001
ACAD
1000
AcDbSavedByObjectVersion
1070
     0
  0
VISUALSTYLE
  5
2AF
102
{ACAD_XDICTIONARY
360
37A
102
}
102
{ACAD_REACTORS
330
2C
102
}
330
2C
100
AcDbVisualStyle
  2
EdgeColorOff
 70
    22
177
     2
291
     1
 71
     2
176
     0
 72
     2
176
     0
 73
     0
176
     0
 90
        0
176
     0
 40
0.6
176
     0
 41
30.0
176
     0
 63
     7
421
 16777215
176
     0
 74
     1
176
     0
 91
        4
176
     0
 64
     7
176
     0
 65
   257
176
     0
 75
     1
176
     0
175
     1
176
     0
 42
1.0
176
     0
 92
        8
176
     2
 66
     7
176
     0
 43
1.0
176
     0
 76
     1
176
     0
 77
     6
176
     0
 78
     2
176
     0
 67
     7
176
     0
 79
     5
176
     0
170
     0
176
     0
171
     0
176
     0
290
     0
176
     0
 93
        1
176
     0
 44
0.0
176
     0
173
     0
176
     0
1001
ACAD
1000
AcDbSavedByObjectVersion
1070
     0
  0
VISUALSTYLE
  5
2A6
102
{ACAD_XDICTIONARY
360
368
102
}
102
{ACAD_REACTORS
330
2C
102
}
330
2C
100
AcDbVisualStyle
  2
Facepattern
 70
    15
177
     2
291
     1
 71
     2
176
     1
 72
     2
176
     1
 73
     0
176
     1
 90
        0
176
     1
 40
0.6
176
     1
 41
30.0
176
     1
 63
     7
421
 16777215
176
     1
 74
     1
176
     1
 91
        4
176
     1
 64
     7
176
     1
 65
   257
176
     1
 75
     1
176
     1
175
     1
176
     1
 42
1.0
176
     1
 92
        8
176
     1
 66
     7
176
     1
 43
1.0
176
     1
 76
     1
176
     1
 77
     6
176
     1
 78
     2
176
     1
 67
     7
176
     1
 79
     5
176
     1
170
     0
176
     1
171
     0
176
     1
290
     0
176
     1
 93
        1
176
     1
 44
0.0
176
     1
173
     0
176
     1
1001
ACAD
1000
AcDbSavedByObjectVersion
1070
     0
  0
VISUALSTYLE
  5
29B
102
{ACAD_XDICTIONARY
360
352
102
}
102
{ACAD_REACTORS
330
2C
102
}
330
2C
100
AcDbVisualStyle
  2
Flat
 70
     0
177
     2
291
     1
 71
     2
176
     1
 72
     1
176
     1
 73
     1
176
     1
 90
        2
176
     1
 40
0.6
176
     1
 41
30.0
176
     1
 63
     7
421
 16777215
176
     1
 74
     0
176
     1
 91
        0
176
     1
 64
     7
176
     1
 65
   257
176
     1
 75
     1
176
     1
175
     1
176
     1
 42
1.0
176
     1
 92
        8
176
     1
 66
     7
176
     1
 43
1.0
176
     1
 76
     1
176
     1
 77
     6
176
     1
 78
     2
176
     1
 67
     7
176
     1
 79
     5
176
     1
170
     0
176
     1
171
     0
176
     1
290
     0
176
     1
 93
       13
176
     1
 44
0.0
176
     1
173
     0
176
     1
1001
ACAD
1000
AcDbSavedByObjectVersion
1070
     0
  0
VISUALSTYLE
  5
29C
102
{ACAD_XDICTIONARY
360
354
102
}
102
{ACAD_REACTORS
330
2C
102
}
330
2C
100
AcDbVisualStyle
  2
FlatWithEdges
 70
     1
177
     2
291
     1
 71
     2
176
     1
 72
     1
176
     1
 73
     1
176
     1
 90
        2
176
     1
 40
0.6
176
     1
 41
30.0
176
     1
 63
     7
421
 16777215
176
     1
 74
     1
176
     1
 91
        0
176
     1
 64
     7
176
     1
 65
   257
176
     1
 75
     1
176
     1
175
     1
176
     1
 42
1.0
176
     1
 92
        0
176
     1
 66
   257
176
     1
 43
1.0
176
     1
 76
     1
176
     1
 77
     6
176
     1
 78
     2
176
     1
 67
     7
176
     1
 79
     5
176
     1
170
     0
176
     1
171
     0
176
     1
290
     0
176
     1
 93
       13
176
     1
 44
0.0
176
     1
173
     0
176
     1
1001
ACAD
1000
AcDbSavedByObjectVersion
1070
     0
  0
VISUALSTYLE
  5
29D
102
{ACAD_XDICTIONARY
360
356
102
}
102
{ACAD_REACTORS
330
2C
102
}
330
2C
100
AcDbVisualStyle
  2
Gouraud
 70
     2
177
     2
291
     1
 71
     2
176
     1
 72
     2
176
     1
 73
     1
176
     1
 90
        2
176
     1
 40
0.6
176
     1
 41
30.0
176
     1
 63
     7
421
 16777215
176
     1
 74
     0
176
     1
 91
        0
176
     1
 64
     7
176
     1
 65
   257
176
     1
 75
     1
176
     1
175
     1
176
     1
 42
1.0
176
     1
 92
        0
176
     1
 66
     7
176
     1
 43
1.0
176
     1
 76
     1
176
     1
 77
     6
176
     1
 78
     2
176
     1
 67
     7
176
     1
 79
     5
176
     1
170
     0
176
     1
171
     0
176
     1
290
     0
176
     1
 93
       13
176
     1
 44
0.0
176
     1
173
     0
176
     1
1001
ACAD
1000
AcDbSavedByObjectVersion
1070
     0
  0
VISUALSTYLE
  5
29E
102
{ACAD_XDICTIONARY
360
358
102
}
102
{ACAD_REACTORS
330
2C
102
}
330
2C
100
AcDbVisualStyle
  2
GouraudWithEdges
 70
     3
177
     2
291
     1
 71
     2
176
     1
 72
     2
176
     1
 73
     1
176
     1
 90
        2
176
     1
 40
0.6
176
     1
 41
30.0
176
     1
 63
     7
421
 16777215
176
     1
 74
     1
176
     1
 91
        0
176
     1
 64
     7
176
     1
 65
   257
176
     1
 75
     1
176
     1
175
     1
176
     1
 42
1.0
176
     1
 92
        0
176
     1
 66
   257
176
     1
 43
1.0
176
     1
 76
     1
176
     1
 77
     6
176
     1
 78
     2
176
     1
 67
     7
176
     1
 79
     5
176
     1
170
     0
176
     1
171
     0
176
     1
290
     0
176
     1
 93
       13
176
     1
 44
0.0
176
     1
173
     0
176
     1
1001
ACAD
1000
AcDbSavedByObjectVersion
1070
     0
  0
VISUALSTYLE
  5
2A0
102
{ACAD_XDICTIONARY
360
35C
102
}
102
{ACAD_REACTORS
330
2C
102
}
330
2C
100
AcDbVisualStyle
  2
Hidden
 70
     6
177
     2
291
     0
 71
     1
176
     1
 72
     2
176
     1
 73
     2
176
     1
 90
        0
176
     1
 40
0.6
176
     1
 41
30.0
176
     1
 63
     7
421
 16777215
176
     1
 74
     2
176
     1
 91
        2
176
     1
 64
     7
176
     1
 65
   257
176
     1
 75
     2
176
     1
175
     1
176
     1
 42
40.0
176
     1
 92
        0
176
     1
 66
   257
176
     1
 43
1.0
176
     1
 76
     1
176
     1
 77
     6
176
     1
 78
     2
176
     1
 67
     7
176
     1
 79
     3
176
     1
170
     0
176
     1
171
     0
176
     1
290
     0
176
     1
 93
        1
176
     1
 44
0.0
176
     1
173
     0
176
     1
1001
ACAD
1000
AcDbSavedByObjectVersion
1070
     0
  0
VISUALSTYLE
  5
2AD
102
{ACAD_XDICTIONARY
360
376
102
}
102
{ACAD_REACTORS
330
2C
102
}
330
2C
100
AcDbVisualStyle
  2
JitterOff
 70
    20
177
     2
291
     1
 71
     2
176
     0
 72
     2
176
     0
 73
     0
176
     0
 90
        0
176
     0
 40
0.6
176
     0
 41
30.0
176
     0
 63
     7
421
 16777215
176
     0
 74
     1
176
     0
 91
        4
176
     0
 64
     7
176
     0
 65
   257
176
     0
 75
     1
176
     0
175
     1
176
     0
 42
1.0
176
     0
 92
       10
176
     2
 66
     7
176
     0
 43
1.0
176
     0
 76
     1
176
     0
 77
     6
176
     0
 78
     2
176
     0
 67
     7
176
     0
 79
     5
176
     0
170
     0
176
     0
171
     0
176
     0
290
     0
176
     0
 93
        1
176
     0
 44
0.0
176
     0
173
     0
176
     0
1001
ACAD
1000
AcDbSavedByObjectVersion
1070
     0
  0
VISUALSTYLE
  5
2A5
102
{ACAD_XDICTIONARY
360
366
102
}
102
{ACAD_REACTORS
330
2C
102
}
330
2C
100
AcDbVisualStyle
  2
Linepattern
 70
    14
177
     2
291
     1
 71
     2
176
     1
 72
     2
176
     1
 73
     0
176
     1
 90
        0
176
     1
 40
0.6
176
     1
 41
30.0
176
     1
 63
     7
421
 16777215
176
     1
 74
     1
176
     1
 91
        4
176
     1
 64
     7
176
     1
 65
   257
176
     1
 75
     7
176
     1
175
     7
176
     1
 42
1.0
176
     1
 92
        8
176
     1
 66
     7
176
     1
 43
1.0
176
     1
 76
     1
176
     1
 77
     6
176
     1
 78
     2
176
     1
 67
     7
176
     1
 79
     5
176
     1
170
     0
176
     1
171
     0
176
     1
290
     0
176
     1
 93
        1
176
     1
 44
0.0
176
     1
173
     0
176
     1
1001
ACAD
1000
AcDbSavedByObjectVersion
1070
     0
  0
VISUALSTYLE
  5
2AE
102
{ACAD_XDICTIONARY
360
378
102
}
102
{ACAD_REACTORS
330
2C
102
}
330
2C
100
AcDbVisualStyle
  2
OverhangOff
 70
    21
177
     2
291
     1
 71
     2
176
     0
 72
     2
176
     0
 73
     0
176
     0
 90
        0
176
     0
 40
0.6
176
     0
 41
30.0
176
     0
 63
     7
421
 16777215
176
     0
 74
     1
176
     0
 91
        4
176
     0
 64
     7
176
     0
 65
   257
176
     0
 75
     1
176
     0
175
     1
176
     0
 42
1.0
176
     0
 92
        9
176
     2
 66
     7
176
     0
 43
1.0
176
     0
 76
     1
176
     0
 77
     6
176
     0
 78
     2
176
     0
 67
     7
176
     0
 79
     5
176
     0
170
     0
176
     0
171
     0
176
     0
290
     0
176
     0
 93
        1
176
     0
 44
0.0
176
     0
173
     0
176
     0
1001
ACAD
1000
AcDbSavedByObjectVersion
1070
     0
  0
VISUALSTYLE
  5
4E
102
{ACAD_XDICTIONARY
360
34E
102
}
102
{ACAD_REACTORS
330
2C
102
}
330
2C
100
AcDbVisualStyle
  2

 70
     8
177
     2
291
     0
 71
     2
176
     1
 72
     3
176
     1
 73
     0
176
     1
 90
        2
176
     1
 40
0.6
176
     1
 41
30.0
176
     1
 63
     7
421
 16777215
176
     1
 74
     0
176
     1
 91
        0
176
     1
 64
     7
176
     1
 65
   257
176
     1
 75
     1
176
     1
175
     1
176
     1
 42
1.0
176
     1
 92
        8
176
     1
 66
   257
176
     1
 43
1.0
176
     1
 76
     1
176
     1
 77
     6
176
     1
 78
     2
176
     1
 67
     7
176
     1
 79
     3
176
     1
170
     0
176
     1
171
     0
176
     1
290
     0
176
     1
 93
       13
176
     1
 44
0.0
176
     1
173
     0
176
     1
1001
ACAD
1000
AcDbSavedByObjectVersion
1070
     0
  0
VISUALSTYLE
  5
2AC
102
{ACAD_XDICTIONARY
360
374
102
}
102
{ACAD_REACTORS
330
2C
102
}
330
2C
100
AcDbVisualStyle
  2
Shaded
 70
    27
177
     2
291
     0
 71
     2
176
     1
 72
     2
176
     1
 73
     1
176
     1
 90
        2
176
     1
 40
0.6
176
     1
 41
30.0
176
     1
 63
     7
421
 16777215
176
     1
 74
     0
176
     1
 91
        4
176
     1
 64
     7
176
     1
 65
   257
176
     1
 75
     1
176
     1
175
     1
176
     1
 42
1.0
176
     1
 92
        8
176
     1
 66
   257
176
     1
 43
1.0
176
     1
 76
     1
176
     1
 77
     6
176
     1
 78
     2
176
     1
 67
     8
425
  7895160
176
     1
 79
     3
176
     1
170
     0
176
     1
171
     0
176
     1
290
     0
176
     1
 93
        5
176
     1
 44
0.0
176
     1
173
     0
176
     1
1001
ACAD
1000
AcDbSavedByObjectVersion
1070
     0
  0
VISUALSTYLE
  5
2AB
102
{ACAD_XDICTIONARY
360
372
102
}
102
{ACAD_REACTORS
330
2C
102
}
330
2C
100
AcDbVisualStyle
  2
Shaded with edges
 70
    26
177
     2
291
     0
 71
     2
176
     1
 72
     2
176
     1
 73
     1
176
     1
 90
        2
176
     1
 40
0.6
176
     1
 41
30.0
176
     1
 63
     7
421
 16777215
176
     1
 74
     1
176
     1
 91
        2
176
     1
 64
     7
176
     1
 65
   257
176
     1
 75
     2
176
     1
175
     1
176
     1
 42
1.0
176
     1
 92
        8
176
     1
 66
   257
176
     1
 43
1.0
176
     1
 76
     1
176
     1
 77
     6
176
     1
 78
     2
176
     1
 67
     7
176
     1
 79
     3
176
     1
170
     0
176
     1
171
     0
176
     1
290
     0
176
     1
 93
        5
176
     1
 44
0.0
176
     1
173
     0
176
     1
1001
ACAD
1000
AcDbSavedByObjectVersion
1070
     0
  0
VISUALSTYLE
  5
2A8
102
{ACAD_XDICTIONARY
360
36C
102
}
102
{ACAD_REACTORS
330
2C
102
}
330
2C
100
AcDbVisualStyle
  2
Shades of Gray
 70
    23
177
     2
291
     0
 71
     2
176
     1
 72
     2
176
     1
 73
     3
176
     1
 90
        0
176
     1
 40
0.6
176
     1
 41
30.0
176
     1
 63
     7
421
 16777215
176
     1
 74
     2
176
     1
 91
        2
176
     1
 64
     7
176
     1
 65
     7
176
     1
 75
     1
176
     1
175
     1
176
     1
 42
40.0
176
     1
 92
        8
176
     1
 66
     7
176
     1
 43
1.0
176
     1
 76
     1
176
     1
 77
     6
176
     1
 78
     2
176
     1
 67
     7
176
     1
 79
     3
176
     1
170
     0
176
     1
171
     0
176
     1
290
     0
176
     1
 93
        1
176
     1
 44
0.0
176
     1
173
     0
176
     1
1001
ACAD
1000
AcDbSavedByObjectVersion
1070
     0
  0
VISUALSTYLE
  5
2A9
102
{ACAD_XDICTIONARY
360
36E
102
}
102
{ACAD_REACTORS
330
2C
102
}
330
2C
100
AcDbVisualStyle
  2
Sketchy
 70
    24
177
     2
291
     0
 71
     1
176
     1
 72
     2
176
     1
 73
     2
176
     1
 90
        0
176
     1
 40
0.6
176
     1
 41
30.0
176
     1
 63
     7
421
 16777215
176
     1
 74
     2
176
     1
 91
        2
176
     1
 64
     7
176
     1
 65
     7
176
     1
 75
     1
176
     1
175
     1
176
     1
 42
40.0
176
     1
 92
       11
176
     1
 66
     7
176
     1
 43
1.0
176
     1
 76
     1
176
     1
 77
     6
176
     1
 78
     2
176
     1
 67
     7
176
     1
 79
     6
176
     1
170
     0
176
     1
171
     0
176
     1
290
     0
176
     1
 93
        1
176
     1
 44
0.0
176
     1
173
     0
176
     1
1001
ACAD
1000
AcDbSavedByObjectVersion
1070
     0
  0
VISUALSTYLE
  5
2A4
102
{ACAD_XDICTIONARY
360
364
102
}
102
{ACAD_REACTORS
330
2C
102
}
330
2C
100
AcDbVisualStyle
  2
Thicken
 70
    13
177
     2
291
     1
 71
     2
176
     1
 72
     2
176
     1
 73
     0
176
     1
 90
        0
176
     1
 40
0.6
176
     1
 41
30.0
176
     1
 63
     7
421
 16777215
176
     1
 74
     1
176
     1
 91
        4
176
     1
 64
     7
176
     1
 65
   257
176
     1
 75
     1
176
     1
175
     1
176
     1
 42
1.0
176
     1
 92
       12
176
     1
 66
     7
176
     1
 43
1.0
176
     1
 76
     1
176
     1
 77
     6
176
     1
 78
     2
176
     1
 67
     7
176
     1
 79
     5
176
     1
170
     0
176
     1
171
     0
176
     1
290
     0
176
     1
 93
        1
176
     1
 44
0.0
176
     1
173
     0
176
     1
1001
ACAD
1000
AcDbSavedByObjectVersion
1070
     0
  0
VISUALSTYLE
  5
4F
102
{ACAD_XDICTIONARY
360
350
102
}
102
{ACAD_REACTORS
330
2C
102
}
330
2C
100
AcDbVisualStyle
  2

 70
     5
177
     2
291
     0
 71
     0
176
     1
 72
     2
176
     1
 73
     0
176
     1
 90
        0
176
     1
 40
0.6
176
     1
 41
30.0
176
     1
 63
     7
421
 16777215
176
     1
 74
     1
176
     1
 91
        4
176
     1
 64
     7
176
     1
 65
   257
176
     1
 75
     1
176
     1
175
     1
176
     1
 42
1.0
176
     1
 92
        0
176
     1
 66
   257
176
     1
 43
1.0
176
     1
 76
     1
176
     1
 77
     6
176
     1
 78
     2
176
     1
 67
     7
176
     1
 79
     3
176
     1
170
     0
176
     1
171
     0
176
     1
290
     0
176
     1
 93
        1
176
     1
 44
0.0
176
     1
173
     0
176
     1
1001
ACAD
1000
AcDbSavedByObjectVersion
1070
     0
  0
VISUALSTYLE
  5
2AA
102
{ACAD_XDICTIONARY
360
370
102
}
102
{ACAD_REACTORS
330
2C
102
}
330
2C
100
AcDbVisualStyle
  2
X-Ray
 70
    25
177
     2
291
     0
 71
     2
176
     1
 72
     2
176
     1
 73
     1
176
     1
 90
        1
176
     1
 40
0.5
176
     1
 41
30.0
176
     1
 63
     7
421
 16777215
176
     1
 74
     1
176
     1
 91
        0
176
     1
 64
     7
176
     1
 65
   257
176
     1
 75
     1
176
     1
175
     1
176
     1
 42
1.0
176
     1
 92
        8
176
     1
 66
     7
176
     1
 43
1.0
176
     1
 76
     1
176
     1
 77
     6
176
     1
 78
     2
176
     1
 67
     7
176
     1
 79
     3
176
     1
170
     0
176
     1
171
     0
176
     1
290
     0
176
     1
 93
       13
176
     1
 44
0.0
176
     1
173
     0
176
     1
1001
ACAD
1000
AcDbSavedByObjectVersion
1070
     0
  0
DICTIONARYVAR
  5
40
102
{ACAD_REACTORS
330
3F
102
}
330
3F
100
DictionaryVariables
280
     0
  1
1:1
  0
DICTIONARYVAR
  5
41
102
{ACAD_REACTORS
330
3F
102
}
330
3F
100
DictionaryVariables
280
     0
  1
3.500000
  0
DICTIONARYVAR
  5
42
102
{ACAD_REACTORS
330
3F
102
}
330
3F
100
DictionaryVariables
280
     0
  1
acadiso.lin
  0
DICTIONARYVAR
  5
43
102
{ACAD_REACTORS
330
3F
102
}
330
3F
100
DictionaryVariables
280
     0
  1
STANDARD
  0
DICTIONARYVAR
  5
44
102
{ACAD_REACTORS
330
3F
102
}
330
3F
100
DictionaryVariables
280
     0
  1
STANDARD
  0
DICTIONARYVAR
  5
45
102
{ACAD_REACTORS
330
3F
102
}
330
3F
100
DictionaryVariables
280
     0
  1
Metric50
  0
DICTIONARYVAR
  5
46
102
{ACAD_REACTORS
330
3F
102
}
330
3F
100
DictionaryVariables
280
     0
  1
Metric50
  0
DICTIONARYVAR
  5
47
102
{ACAD_REACTORS
330
3F
102
}
330
3F
100
DictionaryVariables
280
     0
  1
2
  0
DICTIONARYVAR
  5
48
102
{ACAD_REACTORS
330
3F
102
}
330
3F
100
DictionaryVariables
280
     0
  1
1
  0
DICTIONARYVAR
  5
49
102
{ACAD_REACTORS
330
3F
102
}
330
3F
100
DictionaryVariables
280
     0
  1
0
  0
DICTIONARYVAR
  5
4A
102
{ACAD_REACTORS
330
3F
102
}
330
3F
100
DictionaryVariables
280
     0
  1
0
  0
DICTIONARYVAR
  5
281
102
{ACAD_REACTORS
330
3F
102
}
330
3F
100
DictionaryVariables
280
     0
  1
2
  0
DICTIONARYVAR
  5
280
102
{ACAD_REACTORS
330
3F
102
}
330
3F
100
DictionaryVariables
280
     0
  1
1
  0
DICTIONARY
  5
34B
102
{ACAD_REACTORS
330
349
102
}
330
349
100
AcDbDictionary
281
     1
  0
DICTIONARY
  5
34A
102
{ACAD_REACTORS
330
349
102
}
330
349
100
AcDbDictionary
281
     1
  3
1245525067584
350
344
  3
1245525067600
350
345
  3
1245525067616
350
346
  3
1245525067632
350
347
  3
1245525082112
350
348
  0
DICTIONARY
  5
37E
330
2B4
100
AcDbDictionary
280
     1
281
     1
  3
ACAD_XREC_ROUNDTRIP
360
37F
  0
DICTIONARY
  5
18
330
16
100
AcDbDictionary
280
     1
281
     1
  0
DICTIONARY
  5
39
330
38
100
AcDbDictionary
280
     1
281
     1
  3
ACAD_XREC_ROUNDTRIP
360
293
  3
FBXASSET
360
3A
  0
DICTIONARY
  5
36
330
35
100
AcDbDictionary
280
     1
281
     1
  3
ACAD_XREC_ROUNDTRIP
360
292
  3
FBXASSET
360
37
  0
DICTIONARY
  5
D
330
B
100
AcDbDictionary
280
     1
281
     1
  3
ACAD_XREC_ROUNDTRIP
360
28F
  3
BUMPTILE
360
E
  3
DIFFUSETILE
360
F
  3
FBXASSET
360
10
  3
OPACITYTILE
360
11
  3
REFLECTIONTILE
360
12
  0
DICTIONARY
  5
37C
330
2B2
100
AcDbDictionary
280
     1
281
     1
  3
ACAD_XREC_ROUNDTRIP
360
37D
  0
DICTIONARY
  5
4D
330
4C
100
AcDbDictionary
280
     1
281
     1
  3
ACAD_ROUNDTRIP_2008_TABLESTYLE_CELLSTYLEMAP
360
342
  0
DICTIONARY
  5
34C
330
2B
100
AcDbDictionary
280
     1
281
     1
  3
ACAD_XREC_ROUNDTRIP
360
34D
  0
DICTIONARY
  5
35A
330
29F
100
AcDbDictionary
280
     1
281
     1
  3
ACAD_XREC_ROUNDTRIP
360
35B
  0
DICTIONARY
  5
362
330
2A3
100
AcDbDictionary
280
     1
281
     1
  3
ACAD_XREC_ROUNDTRIP
360
363
  0
DICTIONARY
  5
36A
330
2A7
100
AcDbDictionary
280
     1
281
     1
  3
ACAD_XREC_ROUNDTRIP
360
36B
  0
DICTIONARY
  5
35E
330
2A1
100
AcDbDictionary
280
     1
281
     1
  3
ACAD_XREC_ROUNDTRIP
360
35F
  0
DICTIONARY
  5
360
330
2A2
100
AcDbDictionary
280
     1
281
     1
  3
ACAD_XREC_ROUNDTRIP
360
361
  0
DICTIONARY
  5
37A
330
2AF
100
AcDbDictionary
280
     1
281
     1
  3
ACAD_XREC_ROUNDTRIP
360
37B
  0
DICTIONARY
  5
368
330
2A6
100
AcDbDictionary
280
     1
281
     1
  3
ACAD_XREC_ROUNDTRIP
360
369
  0
DICTIONARY
  5
352
330
29B
100
AcDbDictionary
280
     1
281
     1
  3
ACAD_XREC_ROUNDTRIP
360
353
  0
DICTIONARY
  5
354
330
29C
100
AcDbDictionary
280
     1
281
     1
  3
ACAD_XREC_ROUNDTRIP
360
355
  0
DICTIONARY
  5
356
330
29D
100
AcDbDictionary
280
     1
281
     1
  3
ACAD_XREC_ROUNDTRIP
360
357
  0
DICTIONARY
  5
358
330
29E
100
AcDbDictionary
280
     1
281
     1
  3
ACAD_XREC_ROUNDTRIP
360
359
  0
DICTIONARY
  5
35C
330
2A0
100
AcDbDictionary
280
     1
281
     1
  3
ACAD_XREC_ROUNDTRIP
360
35D
  0
DICTIONARY
  5
376
330
2AD
100
AcDbDictionary
280
     1
281
     1
  3
ACAD_XREC_ROUNDTRIP
360
377
  0
DICTIONARY
  5
366
330
2A5
100
AcDbDictionary
280
     1
281
     1
  3
ACAD_XREC_ROUNDTRIP
360
367
  0
DICTIONARY
  5
378
330
2AE
100
AcDbDictionary
280
     1
281
     1
  3
ACAD_XREC_ROUNDTRIP
360
379
  0
DICTIONARY
  5
34E
330
4E
100
AcDbDictionary
280
     1
281
     1
  3
ACAD_XREC_ROUNDTRIP
360
34F
  0
DICTIONARY
  5
374
330
2AC
100
AcDbDictionary
280
     1
281
     1
  3
ACAD_XREC_ROUNDTRIP
360
375
  0
DICTIONARY
  5
372
330
2AB
100
AcDbDictionary
280
     1
281
     1
  3
ACAD_XREC_ROUNDTRIP
360
373
  0
DICTIONARY
  5
36C
330
2A8
100
AcDbDictionary
280
     1
281
     1
  3
ACAD_XREC_ROUNDTRIP
360
36D
  0
DICTIONARY
  5
36E
330
2A9
100
AcDbDictionary
280
     1
281
     1
  3
ACAD_XREC_ROUNDTRIP
360
36F
  0
DICTIONARY
  5
364
330
2A4
100
AcDbDictionary
280
     1
281
     1
  3
ACAD_XREC_ROUNDTRIP
360
365
  0
DICTIONARY
  5
350
330
4F
100
AcDbDictionary
280
     1
281
     1
  3
ACAD_XREC_ROUNDTRIP
360
351
  0
DICTIONARY
  5
370
330
2AA
100
AcDbDictionary
280
     1
281
     1
  3
ACAD_XREC_ROUNDTRIP
360
371
  0
XRECORD
  5
344
102
{ACAD_REACTORS
330
34A
102
}
330
34A
100
AcDbXrecord
280
     1
  1
AcDb_Thumbnail_Schema
102
{ATTRRECORD
341
345
  2
AcDbDs::TreatedAsObjectData
280
     1
291
     1
102
ATTRRECORD}
102
{ATTRRECORD
341
346
  2
AcDbDs::Legacy
280
     1
291
     1
102
ATTRRECORD}
  2
AcDbDs::ID
280
    10
 91
        8
102
{ATTRRECORD
341
347
  2
AcDs:Indexable
280
     1
291
     1
102
ATTRRECORD}
102
{ATTRRECORD
341
348
  2
AcDbDs::HandleAttribute
280
     7
282
     1
102
ATTRRECORD}
  2
Thumbnail_Data
280
    15
 91
        0
  0
XRECORD
  5
345
102
{ACAD_REACTORS
330
34A
102
}
330
34A
100
AcDbXrecord
280
     1
  1
AcDbDs::TreatedAsObjectDataSchema
  2
AcDbDs::TreatedAsObjectData
280
     1
 91
        0
  0
XRECORD
  5
346
102
{ACAD_REACTORS
330
34A
102
}
330
34A
100
AcDbXrecord
280
     1
  1
AcDbDs::LegacySchema
  2
AcDbDs::Legacy
280
     1
 91
        0
  0
XRECORD
  5
347
102
{ACAD_REACTORS
330
34A
102
}
330
34A
100
AcDbXrecord
280
     1
  1
AcDbDs::IndexedPropertySchema
  2
AcDs:Indexable
280
     1
 91
        0
  0
XRECORD
  5
348
102
{ACAD_REACTORS
330
34A
102
}
330
34A
100
AcDbXrecord
280
     1
  1
AcDbDs::HandleAttributeSchema
  2
AcDbDs::HandleAttribute
280
     7
 91
        1
284
     1
  0
XRECORD
  5
37F
102
{ACAD_REACTORS
330
37E
102
}
330
37E
100
AcDbXrecord
280
     1
102
DISPLAYNAME
  1
Metric50
102
FLAGS
 90
        0
  0
XRECORD
  5
293
102
{ACAD_REACTORS
330
39
102
}
330
39
100
AcDbXrecord
280
     1
102
MATERIAL
148
0.0
149
0.0
149
0.0
 93
        0
 94
       63
282
     0
 72
     1
 77
     1
171
     1
175
     1
179
     1
273
     0
  0
XRECORD
  5
3A
102
{ACAD_REACTORS
330
39
102
}
330
39
100
AcDbXrecord
280
     1
 70
     1
 90
429727718
  1
D62C5603-E3A1-4AEA-B7FB-FE5D8D0755AF
310
504B03040A0000080000CC70623B3DEE336E79000000790000001B0000006175746F6465736B2D64657369676E2D7061636B6167652E786D6C3C3F786D6C2076657273696F6E3D22312E302220656E636F64696E673D227574662D3822203F3E3C666F726D6174733E3C666F726D61743E687474703A2F2F736368656D612E
310
6175746F6465736B2E636F6D2F64657369676E2D7061636B6167652F323030393C2F666F726D61743E3C2F666F726D6174733E504B0304140006080800CC70623BD486FD9CA0000000F4000000130000005B436F6E74656E745F54797065735D2E786D6C7D8EC10E82300C865F65E91D8A1E8C310C0EEA1BF002731658846E
310
D98AC1B77784ABF1D8FE5FBFBF75BBCE937A534CCEB38643598122B6FEE978D0B0485F9C41B54DDD7D022595594E1A469170414C76A4D9A4D207E29CF43ECE46F218070CC6BECC4078ACAA135ACF422C856C0E68EA1BF5669944DDD7BCDE7B1F8E415D77AECB980613C2E4AC91FC167A2B244592486606FC29C8FD7F045B9A
310
EF7053A7E60B504B0304140006080800CC70623B853B8169EB0000007C01000008000000636F72652E786D6C8D90416EC3201045AF62CDB6C206821CC7C244919D9CA01740401C94182C03558F5F9C3852BBEB6A467FFE9B197D7EFC9E1EC5975982F5AE035262288C535E5B377690E21535501C055FBC8FBF6C503839990E
310
5619041F179FE64D52DE45E362569DD7661365082642A11EB9E920A89B99642953CC8E702F67A9EE7234257977194EC9EAE275C4EABCCF5EAD5940D4AC6F0E35A568B8F43562CD7046CD199FD07E60174276A7BE677B5EADB0E0D14EEFFB6A31321A0D82627C4084204C3F096B71DD52F6819B16635EADF63F509AF53FA164
310
5DDCD1EDDD17164090FCC8732078B56691CB33A85CD7DCC40F504B0304140006080800CC70623B55019EA25F0000007C00000007000000636E782E786D6C4DCB3B0E80201045D1AD90E915ED2CF8AC45050C11660C8261F98AB1B07AC9C97D42D718D865D3E909258CFD00CCE24AC6E326A164D74DC0B4128928FF32603847
310
2BA13128B1252AC747C6BAB984FC68F0B87FE8960A5C09FE86CFB69FBA01504B0304140006080800CC70623BDBABAAF470010000D40300000C0000006662782F636F72652E786D6CC553D16E823014FD95A6AF4B694182CC941A83FA05FB810A9511A125A5257EFE2E82712ECEB8A7F100CD39F7F69E734AF9FADC366850B6
310
AF8DCE7018308C942E4C59EB2AC3DE1D498AD15A706B8CFB56869196ADCAF00863C12B6B7C374385D14E6907A836A59A41D9F7CA615434B0C8705F7CAA5606D23BA8E84F41278B93AC54100640439DE0BDB320004D43C63716C7C399D30917DCFBBA9CD9BA8469F5B156168B24CED3F7248AC8769F27244EB73B92EED8862C
310
B7F13E0C179B3C8F979C8ECD82BBBABDAA2BAC924E9558448CBD9330242CFA08E3154B5651FCC6D215639C8EE5774DBE2B5F6CF2B5768B68963BB5F5588420E442FC700B1139D4CB01F450C1E918227C2E09DF070D8140C84E1E9AAB8F1340832A9CB13130A5F1376A908D57309505ECF2A0DF179C4E9D30F5B239B87E3823
310
7A79C6F31DE1A8A5AEC08474B03C7837EAE4938639B44E5932B833D2C6B6B279CDC613877FA26EE21F4A2A4C63EC7F29A2F301D1F9F7A0E37D145F504B0304140006080800CC70623B9C113CC27E0000009D0000000B0000006662782F636E782E786D6C4DCCDF0A83201C86E15B91DFB94BFB330DD428C8FB886521330DA7
310
6397BF1A1DECE883878F57749FCDA1B7892F1BBC047A23808C7F84D9FA55424E0BE6803A256208E9EF06C84F9B91703228B1C690F78B66B34CD9A5439DF5CF0BFBF65E35BCA1B8D6A5C6F540381E886698B5741C695F9503EBA150A2F8958E3DC3EA0B504B0304140006080800CC70623B7DF2F77C2A010000120200003100
310
00006662782F41393633353835312D344632462D344230382D423046372D3739314545314133324237412F636F72652E786D6C8D51DB8EC22014FC15C2939B0D2DB4B45643319AE817EC0F6041255A68B86CFCFC856D4D76DF7CE190393373060EDB3DC707F856CE6B6B7A480A0C81328395DA5C7B18C3057510EC3873D686
310
3F34088C18550F330C39BB3A1BA7051AAC09CA84841A2BD5020AEF55806078A44B0FFD7053A328440C89E1EFC52486BBB8AA8214A99D789CF9E05200300FC927E4FB4D5B375D43103D5527440FB843077C5AA3F5861C8F645F5787F59E95B390B318B55CE45AA638FAA2957BD7248B390B7A7CC51F9C124149C82B8C378810
310
84AB2F42B7B8DD56F413775B8C5999E9FF4471926F8AA236A1AE96B8B3CC434E5839373893369E1FAF30EA395917409EB7F26AF8801C171837A4A6AC9C89E9F9C9B1A58BA30FD6A5EF5DDDCF894B9AD9B6A59C957943A9FCAE2FD5BC4DFE03504B0304140006080800CC70623BAD7543B64E01000033030000300000006662
310
782F41393633353835312D344632462D344230382D423046372D3739314545314133324237412F636E782E786D6CD593CD6EC32010845F0571AD6CE3D48AD20813A9873E410FBD12D82434182C7EAAE6EDBB2424CD25871E7B41D6EC30B3FA84F9E67BB2E40B4234DE8DB46F1925E094D7C6ED479AD3AE5951B2113C789FEE
310
6C943839C1488B4C05DF079FE72A69D8C96C13AAD6B8631503449F83828872B949AC57D26200B826A308D316B4064D6E46FCDA41C05550DC9E483A00797BFD207EFB092A45DE9514C1BBD22178396BD39D891265658C238DEA00936C654E5E433CB65A26D9F6EDB5EBC14EBF49A45CB856E66048291F6939A9A81BB5C89177
310
38143CA680F4AA299D66A042CEB3354A2684DC9D8D178FE0D9B8B41CAAD720F880EE7EF93C0C18769E099ECC04D5A102C8049A8A05632F4DDF376CF1DE0F6BB65C2F8627B65A33C6BB62177CEBBDAD973006829F89F22E814B54F4BC2BE347F8AA8F681390B50FA73F804400B5F542E796F19FF974E7F78DB802FE05E20750
310
4B0304140006080800CC70623BE75B7789680500003C100000340000006662782F41393633353835312D344632462D344230382D423046372D3739314545314133324237412F6F626A656374732E786D6CAD575B8F9B3818FD2B887D06C22499CB8AA1CA655245D5B455A356FB305264C061D8018C6C3393D95FBFC7600890
310
A4CD5EF210B0B1BFEBF98E3F7B1FF6596ABC522E1296DF9BAE3D320D9A872C4AF2F8DE2CE5CEBA358D0FBEC719939D65A691938CDE9B6ADAF4BD98B3B2D05311DD91329583D9D5FC0F438434A7A611A644887B5384CF34233629258BA878B12322891DEFF6B66BD70BFB62634E8AE781D082709A4B588AF91C528CDA28B73F
310
1C998EEF39EABBEFA97FBD6A7C7E9553F9D3D79FE442923C3C523610337627CB87ABE99D359D4CC6D6E4FACAB5E6ABF9D2726FC6A3C5F56271377BB88362213924694B38DD99FE47C48627A1E7D49F5A8BB5E1A74C0A599ED3B0F21F1E56366B89112D681E218F0915D0D6F17AD41FBA2A369DCF6335D62ABBD39779D5DDD1
310
11D4D8DE3CBB96B2E04FB8202E41051754A1AA8E8F76B4C6DFE810B580B1547F4B84911149794252234D024EF8BBE963A95AE27B3D310A9D5C215C7960FAEE415ED75694C6AFB17BCACA5D99A60A9AA65F217B0BFC53292ACB92BF283FAD0D3621576592CB5BED907C2FA8E9DF794E35E97BEA31BED21FEB401ABB94C44839
310
DCACBF0E1C5DA8DA5B2F4DFFD32AD86F543D9E565E7056502E157C00AD2671CD534549AB752FCA9CDA00677A313F04E51B22FF19E57B300579E3C97EB29F682D92935CEC18CF901B7B54FD8C51F362B56FC72FE0B3C1EAE335EDCCBF5AEC39ADB17DC238973F804BA5E6F6BFE7AF1FB32E523BE9F3BD571418E3631DCA4D48
310
5250CF639223210A9446CA30052EDF057BD35F8329C1ECD84552BF0DC8D18BE7BCE23BFE6BD960AB4A7DE79923A103BEBD80F911CBAA2C60DB19B01CF164A5583B772EE6D3FFA56666CBCDA74DC97724A48F9A58967497E489C4D979006FD7A05E227A1EBDD0F737C623387A9C844D3709995625106D157315F8B8392CD4E0
310
A0B9A720C4BE9829CEF37EA1E13111214D53925356365ADA634861B52519DD27A00AEB808EAF0628E6F435519D446F45CF2C9CF5214F0A15B2F6D06B79DA3EE3CBF7F56780D2F4E7EF73A0F5E5B02A38D07DC852C6B7C1FBB6664213E0C39E3EBA7FF4E1AD23EA2829407C85E586727488B751B2DB9502BC7B228A3FD68B6E
310
A65A22397E690AA8D158D7E404EC8CDA235CC3B7D1898680131CEC2CDF2638C65196279577750F15884AEE19F94199155B92B13297978469D4F8D358DF0AEF7631E28DC8F0D9F437D5D39A83B2231A1D52D543813A824EF8D44BCFF2FA6A31BD1E8DAD87F1CCB526B3879935BF59CDADD5C37479BB1CDD4CA7B3556B516589
310
EF352754B706114D9C885EC9131DE6EFEB43D99AFE2391C2F958179413D7CFEF6B1B6DB1E7600F00DE6E5C67454A339A4BA2E0FBA85ED26F045D454F463DBFCE484C2F90F2E5E3666003662ED8F755951A7D1BECD5B30B550B2785C8E7320B7292A4838DDA71BBC863ED7613CAF659337A3354231D4FF4A182A54904C2898C
310
98B28C4AD0CE056CCF332A80986E571EE9DBC305BB5FEB7E509220A58D25CF042D712A806AC0AD0C657FDEF80D2D9CEAA2EE4D1C76F60BFE74219A06527D6F82DF6412526107381E55E353090704D085B52408A8913C4ED159D79BDA71BB4BC506F4831350EB6F975CD22D69BF7AC49B91A2C0A9DDA3D5CA36AD20FC478E37
310
E61844E2352865EBCB61A275A65283CAAA9DD27703B4102F5AF51EF5F573B75CBB5AD38BC845F7A49F82A0966A49C2E3EA5EA0ECD326CD965F1DB402C6FA8B51A4658C5C5E2EC9E214602E55810345408596591009A82E7E7FFACA19EEA299B14A0081A705CB3296EBC14CDF658DCD336EA6D1136881AAEB87B81AB9EE53D5
310
F5EB8BC8362082DA24122F98680A4E7930C01A0079749CEA14382A0783E5EBA5A10F8C098456A03D6A4AEB6BB881E2513747552A5DB22C7EDAF83BD5528081A365F7FF06504B0304140006080000CC70623B000000000000000000000000350000006662782F41393633353835312D344632462D344230382D423046372D37
310
39314545314133324237412F76657274696365732E62696E504B0304140006080800CC70623BF270F1330600000004000000360000006662782F41393633353835312D344632462D344230382D423046372D3739314545314133324237412F747269616E676C65732E62696E636660600000504B0304140006080000CC7062
310
3B000000000000000000000000370000006662782F41393633353835312D344632462D344230382D423046372D3739314545314133324237412F617474726962757465732E62696E504B0304140006080800CC70623B08DA0BD19000000041010000360000006662782F41393633353835312D344632462D344230382D4230
310
46372D3739314545314133324237412F6469726563746F72792E786D6C858F410AC3201045AF22B36F53E9A60B35CBEEBAE80D244E44489C6234F4F835464A48035D0DF398FF9F8AF63D0E6CC63039F212F8F9020C7D47C6792B21C5FE7403D62A1188E2E60C98D7234A5830286103A55745067B9D86B8A3CF9C7F90C11DE6
310
07FB144396D7B6A82D282E9A152AD114D5EF2CB866EEE831B8EEA07A7BB5A8D7D61A2BAAEB7FD5F70921FF497D00504B0304140006080800CC70623BEDD1DC58FD000000A00100003B0000006662782F41393633353835312D344632462D344230382D423046372D3739314545314133324237412F7265736F75726365732F
310
636F72652E786D6C8D504B6E833010BD0A9A6D65B00922041947112427E8052C33A156828DFCA97AFC9A40A576D7CDCCE87D344F8F9FBFE667F689CE6B6B3A6039850C8DB2A336530731DC4903D95970676DF82583CCC8193B5861107C72362E3BA4AC096842428D1D7107A5F7182053CF7474E0D507CE32973124857FE48B
310
540F3961CEF244279DE03EB81420DB9EAC1384436FA353E879B1B182C7A8C75DA3C7F453DF353A1075D537A7BA6464B8F535A99AE14A9A2BBD90E350DD183B5CFABE3AF262350B1EF4FC9351399401471025A527C218A1E53BAB5A5AB765F5469B96525EACF23FA6B88CFF34456DC2A1DCE36E360F82A5202F42F062ED2BAD
310
579969AFDD8A6F504B010214000A0000080000CC70623B3DEE336E79000000790000001B00000000000000000000000000000000006175746F6465736B2D64657369676E2D7061636B6167652E786D6C504B01021400140006080800CC70623BD486FD9CA0000000F40000001300000000000000000000000000B20000005B
310
436F6E74656E745F54797065735D2E786D6C504B01021400140006080800CC70623B853B8169EB0000007C010000080000000000000000000000000083010000636F72652E786D6C504B01021400140006080800CC70623B55019EA25F0000007C000000070000000000000000000000000094020000636E782E786D6C504B
310
01021400140006080800CC70623BDBABAAF470010000D40300000C00000000000000000000000000180300006662782F636F72652E786D6C504B01021400140006080800CC70623B9C113CC27E0000009D0000000B00000000000000000000000000B20400006662782F636E782E786D6C504B01021400140006080800CC70
310
623B7DF2F77C2A010000120200003100000000000000000000000000590500006662782F41393633353835312D344632462D344230382D423046372D3739314545314133324237412F636F72652E786D6C504B01021400140006080800CC70623BAD7543B64E010000330300003000000000000000000000000000D2060000
310
6662782F41393633353835312D344632462D344230382D423046372D3739314545314133324237412F636E782E786D6C504B01021400140006080800CC70623BE75B7789680500003C10000034000000000000000000000000006E0800006662782F41393633353835312D344632462D344230382D423046372D3739314545
310
314133324237412F6F626A656374732E786D6C504B01021400140006080000CC70623B0000000000000000000000003500000000000000000000000000280E00006662782F41393633353835312D344632462D344230382D423046372D3739314545314133324237412F76657274696365732E62696E504B01021400140006
310
080800CC70623BF270F133060000000400000036000000000000000000000000007B0E00006662782F41393633353835312D344632462D344230382D423046372D3739314545314133324237412F747269616E676C65732E62696E504B01021400140006080000CC70623B0000000000000000000000003700000000000000
310
000000000000D50E00006662782F41393633353835312D344632462D344230382D423046372D3739314545314133324237412F617474726962757465732E62696E504B01021400140006080800CC70623B08DA0BD1900000004101000036000000000000000000000000002A0F00006662782F41393633353835312D344632
310
462D344230382D423046372D3739314545314133324237412F6469726563746F72792E786D6C504B01021400140006080800CC70623BEDD1DC58FD000000A00100003B000000000000000000000000000E1000006662782F41393633353835312D344632462D344230382D423046372D3739314545314133324237412F7265
310
736F75726365732F636F72652E786D6C504B0506000000000E000E0080040000641100000000
  0
XRECORD
  5
292
102
{ACAD_REACTORS
330
36
102
}
330
36
100
AcDbXrecord
280
     1
102
MATERIAL
148
0.0
149
0.0
149
0.0
 93
        0
 94
       63
282
     0
 72
     1
 77
     1
171
     1
175
     1
179
     1
273
     0
  0
XRECORD
  5
37
102
{ACAD_REACTORS
330
36
102
}
330
36
100
AcDbXrecord
280
     1
 70
     1
 90
429727718
  1
30362254-06B7-45E0-A893-8CFA70E3D6BC
310
504B03040A0000080000CC70623B3DEE336E79000000790000001B0000006175746F6465736B2D64657369676E2D7061636B6167652E786D6C3C3F786D6C2076657273696F6E3D22312E302220656E636F64696E673D227574662D3822203F3E3C666F726D6174733E3C666F726D61743E687474703A2F2F736368656D612E
310
6175746F6465736B2E636F6D2F64657369676E2D7061636B6167652F323030393C2F666F726D61743E3C2F666F726D6174733E504B0304140006080800CC70623BD486FD9CA0000000F4000000130000005B436F6E74656E745F54797065735D2E786D6C7D8EC10E82300C865F65E91D8A1E8C310C0EEA1BF002731658846E
310
D98AC1B77784ABF1D8FE5FBFBF75BBCE937A534CCEB38643598122B6FEE978D0B0485F9C41B54DDD7D022595594E1A469170414C76A4D9A4D207E29CF43ECE46F218070CC6BECC4078ACAA135ACF422C856C0E68EA1BF5669944DDD7BCDE7B1F8E415D77AECB980613C2E4AC91FC167A2B244592486606FC29C8FD7F045B9A
310
EF7053A7E60B504B0304140006080800CC70623B1EC5D7A3EB0000007C01000008000000636F72652E786D6C8D90416EC3201045AF82665B6103C6756C6122AB4D4ED00B204C5C94182C03558F5F9C3852BBEB6A467FFE9B197D71FC9E6FE8CBACC17AD7032D0820E3B41FAD9B7A48F1820F808E52ACDEC75F36404ECDA687
310
4D0629A6D5A76597B477D1B89855E747B38B2A041301E95B6E7A08FAD3CCAA50296647B8168BD2573599823EBB0CA76447F43862C7BCCF5EAC59410E4DDD9C7973C2755553CCCFA4C603E3040F1565ED3B1FDE4E432BCA0D9622DAF9795FAF464533826484B498524CD807E51D79ED187F21878E10516EF63F505AC67F42C9
310
BA58B1FDDD071640D2FCC87D2045B96591CB3DA85CB7DCE40F504B0304140006080800CC70623B55019EA25F0000007C00000007000000636E782E786D6C4DCB3B0E80201045D1AD90E915ED2CF8AC45050C11660C8261F98AB1B07AC9C97D42D718D865D3E909258CFD00CCE24AC6E326A164D74DC0B4128928FF32603847
310
2BA13128B1252AC747C6BAB984FC68F0B87FE8960A5C09FE86CFB69FBA01504B0304140006080800CC70623B8C9102E971010000D40300000C0000006662782F636F72652E786D6CC5535B6E833010BC8AE5DF0A6C08340F1947A84D4ED00B38C6A128602363A31CBFCB234A53A551FA553EC09AD9F5CE8C31DB9E9B1AF5CA
310
7695D1198E428A91D2D214952E33ECDD315861B4E5CC1AE3BE9561A445A3323CC098B3D21ADFCE9034DA29ED00D5A6503328BA4E398C640D8B0C77F253352214DE4145770A5B214FA2546114020D759C75CE8200340D19DE981F0F6746269C33EFAB6266AB02A655C74A59CCF365BADC27CB5D902ED22848F6340DF238A141
310
BE88E2F57B92BFEDF23523433367AE6A2EEAA455C2A902F398D2751045018D3FA264435F3771F242571B4A1919CA6F9A7C5B3CD9E42BED16F12C776AEB308F40C848FC700B1139D4891EF410CEC810227CC6846F8386402064270EF5C5C709A05E49676C024C61FC95EA45ED154CA5211D1FF4FB8291A913A68E9B83EBBB33
310
E2A7673CDE118E5AE8124C0807CB8377834E366998436B950D7A7746DAD846D4CFD978E0F04FD455FC5D49D2D4C6FE9722321F10997F0F32DC47FE05504B0304140006080800CC70623BFFEA85907E0000009D0000000B0000006662782F636E782E786D6C4DCCD10A83201886E15B91FFDC95D95A811AB6F23E625948A6C3
310
E9D8E5AF46073BFAE0E1E365ED67B3E8ADC3CB78C7815C7240DA3DFC64DCC221C519D7805AC182F7F1EF06C88D9BE6703008B6049F9E274D7A1E938DBB5AE3D6131B2589BA0D3D965551E0B2EA732C9B9A624AAEB41E3A557677029960D9AFB4EF11165F504B0304140006080800CC70623B4FEEA4082C0100001202000031
310
0000006662782F39464131463745442D413632322D343644302D413938332D3331353338454246344243312F636F72652E786D6C8D515B6EC32010BC0AE2AB55850DD871ED0813254D72825EC00192A2C460F1A872FC42ED48ED5F7E00CDCECCCEB26C731F6FE05B39AFADE921293004CA082BB5B9F43086336A21D870E6AC
310
0D7F68109861543DCC30E4ECE26C9C164858139409093556AA051CBC570102714B8F1E7AF1A5C6A11862480C7F2DA6415C878B2A4891CA89C7990F2E050073937C42DE1DB7E4F87ED8A36D4329AA9B3D46DBAEAD504556557BD81DEBDD0761E52CE42C462D17B996298E3E6BE59E35C962CE821E1FF18553435012728A7187
310
0841987E927A8D9B35ADDF70BBC6989599FE4F1427F9A4286A132ABAC49D651EF234CD5CE04CDA78BA3DC2A8FB645D00B9DF8B57E215725C60BCA2A463E54C4CE327C7A65E1C7DB02E7DEFCBF594B864C5CA6CDBD49C957943E9FA5D5FBAF336F90F504B0304140006080800CC70623BAD7543B64E01000033030000300000
310
006662782F39464131463745442D413632322D343644302D413938332D3331353338454246344243312F636E782E786D6CD593CD6EC32010845F0571AD6CE3D48AD20813A9873E410FBD12D82434182C7EAAE6EDBB2424CD25871E7B41D6EC30B3FA84F9E67BB2E40B4234DE8DB46F1925E094D7C6ED479AD3AE5951B2113C
310
789FEE6C943839C1488B4C05DF079FE72A69D8C96C13AAD6B8631503449F83828872B949AC57D26200B826A308D316B4064D6E46FCDA41C05550DC9E483A00797BFD207EFB092A45DE9514C1BBD22178396BD39D891265658C238DEA00936C654E5E433CB65A26D9F6EDB5EBC14EBF49A45CB856E66048291F6939A9A81BB5
310
C8917738143CA680F4AA299D66A042CEB3354A2684DC9D8D178FE0D9B8B41CAAD720F880EE7EF93C0C18769E099ECC04D5A102C8049A8A05632F4DDF376CF1DE0F6BB65C2F8627B65A33C6BB62177CEBBDAD973006829F89F22E814B54F4BC2BE347F8AA8F681390B50FA73F804400B5F542E796F19FF974E7F78DB802FE05
310
E207504B0304140006080800CC70623B16AB87BA640500003C100000340000006662782F39464131463745442D413632322D343644302D413938332D3331353338454246344243312F6F626A656374732E786D6CAD575B6FA33818FD2B887DE6924B3BED8A326A92B68A663B534DD4D13E548A0C38942D60649B369D5FBFC7
310
600890A493BDE42160637FD7F31D7FF63E6FB3D478A55C242CBF3247B66B1A340F5994E4F19559CA8D75611A9F7D8F33263BCB4C232719BD32D5B4E97B316765A1A722BA21652A07B3B7B33F0D11D29C9A46981221AE4C113ED38CD8A4942CA2E2C58E882476BCD9DA23BB5ED8171B73523C0F841684D35CC252CCE79062D4
310
468DFA43D7747CCF51DF7D4FFDEB5593E3AB9CCA9FBEFE241792E4E19EB28198C968BAB8199F5D5A67D3E9C49A9E8F47D6EC76B6B0469F26EEFC7C3EBFBCBEB98462213924694B38DD98FE1D62C393D073EA4FADC5DAF04326852CCF6958F90F0F2B9BB5C48816348F90C7840A68EB78EDF68723159BCEE7891A6B95DDE9D3
310
BCEAEEE8086A6C6F9E5D4B59F0175C10A7A0820BAA5055C7473B5AE3CFDD452D602CD5DF12616444529E90D448938013FE6EFA58AA96F85E4F8C42275708571E98FE6827AF6B2B4AE3D7D83D64E5A64C53054DD3AF90BD06FEA9149565C94FCA0F6B834DC85599E4F2423B24DF0B6AFA979E534DFA9E7A4CC6FA631D486393
310
921829879BF5D781A373557BCB85E97FB90DB62B558F8795179C15944B051F40AB495CF35451D26A4727654E6D8033BD98EF82F21D91FF8AF2DD9982BCF1643BDD4EB516C9492E368C67C88DED563FC36D5EACF66DFF057C3658BDBFA69DF9578B3DA735B64F18C7F20770A9D45CFCF7FCF563D6456A277DBEF78A02637CA2
310
43B90A490AEAB94F72244481D24819A6C0E59B606BFA4B3025981DBB48EAB701D97BF19C577CC77F2D1B6C55A9EF3C732474C0B727303F625995056C3B02963D9EAC146BE78EC5FCEC7FA999EBC5EACBAAE41B12D27B4D2C0BBA49F244E2ECDC81B76B502F113D8F5EE8FB1BE3111CDD4FC2AA9B844CAB1288B68AB90A7CDC
310
1C166AB0D3DC5310625FCC14E779BFD0709F8890A629C9292B1B2DED31A4B0DA928CEE135085754027E3018A397D4D5427D15BD1330B677DC8934285AC3DF45A9EB68FF8F2B8FC0A509AFEECFD0FF2DE25CC6047F7214B195F07EFEB9A094D800F7BFAE8FED187B78EA8A3A400F115961BCAD1215E47C966530AF0EE8128FE
310
58CEBB996A8964FFA529A046635D9353B0336A8F700DDF46271A024E70B0B37C9DE01847591E54DED53D54202AB947E4076556AC49C6CA5C9E1226B7F1A7B1BE15DEED62C41B91E1B3E9AFAAA735036547343A925075041DF0A9979E893B391F8FCFA6967B3EFB644DCF6E5CEBFAE272625DCC6FAF3FB93793C5F90CE1EF57
310
407342756B10D1C489E8953CD1617E5CEECAD6F4EF8914CE5D5D504E5C3F1F9736DA62CFC11E00BCDDB8CC8A9466349744C1F75EBDA4DF09BA8A9E8C7A7E9991989E20E5DBDD6A6003664ED8F7A04A8DBE0DF6EAD9B9AA858342E47399053949D2C146EDB85DE4B176BB0965FBAC19BD19AA918E27FA50C1D22402E144464C
310
59462568E704B6E71915404CB72B8FF4EDE184DDAF753F284990D2C6926782963815403548A70C657FDEF80D2D9CEAA2AE4C1C76F60BFE74219A06527D6582DF6412526107381E55E353090704D085B52408D0933C4ED159D79BDA71BB4BC506F4831350EB6F979CD22D69BF7AC49B91A2C0A9DDA3D5CA36AD20FC478E37E6
310
1844E2352865EBCB6EA275A652E3836BE04EFB400BF1A2556F515F1FBB35B2AB35BD889C744FFA1004B5544B121E57F70215746DD2F5E2C1412B602CBF19455AC6C8E5E9922C4E01E65215385004546899059180EAFCF7A707CE7017CD8CDB0410789AB32C63B91E5CEBBBACB17AC6CD347A022D5075FD106377347AAABA7E
310
7D11590744509B44E205134DC1290F06580320F78E537D3D73540E06CB970B431F185308AD40BBD794D6D77003C5A36E8EAA54BA64597CD8F83BD552A080A365F7FF06504B0304140006080000CC70623B000000000000000000000000350000006662782F39464131463745442D413632322D343644302D413938332D3331
310
353338454246344243312F76657274696365732E62696E504B0304140006080800CC70623BF270F1330600000004000000360000006662782F39464131463745442D413632322D343644302D413938332D3331353338454246344243312F747269616E676C65732E62696E636660600000504B0304140006080000CC70623B
310
000000000000000000000000370000006662782F39464131463745442D413632322D343644302D413938332D3331353338454246344243312F617474726962757465732E62696E504B0304140006080800CC70623B08DA0BD19000000041010000360000006662782F39464131463745442D413632322D343644302D413938
310
332D3331353338454246344243312F6469726563746F72792E786D6C858F410AC3201045AF22B36F53E9A60B35CBEEBAE80D244E44489C6234F4F835464A48035D0DF398FF9F8AF63D0E6CC63039F212F8F9020C7D47C6792B21C5FE7403D62A1188E2E60C98D7234A5830286103A55745067B9D86B8A3CF9C7F90C11DE607
310
FB144396D7B6A82D282E9A152AD114D5EF2CB866EEE831B8EEA07A7BB5A8D7D61A2BAAEB7FD5F70921FF497D00504B0304140006080800CC70623B0D6EF93BFE000000A00100003B0000006662782F39464131463745442D413632322D343644302D413938332D3331353338454246344243312F7265736F75726365732F63
310
6F72652E786D6C8D50596E833010BD0A9ADFCA60B334011947A8694ED00B586642AC041B79A97AFC9A40A5F6AF3F33A3B7689E1E3F7DCD8FEC139DD7D6F4C0720A191A65476DA61E62B892236427C19DB5E1970C322367EC618541F0C9D9B8EC90B226A009093576C41D94DE63804C3DD2D18357379C652E63480A7FCF17A9
310
EE72C29CE5894E3AC17D702940B63D59270887DE46A7D0F36263058F518FBB468FE9A7BE6A7420864373B8D4873369AA8691FA421B3294352543C5CAF65C0F6FEF43CB8BD52C78D0F34F46E550061C419494B6843142CB0F5677F4B52BEB177AEC28E5C52AFF638ACBF84F53D42654E51E77B379102C05791282176B5F693D
310
CB4C7BED567C03504B010214000A0000080000CC70623B3DEE336E79000000790000001B00000000000000000000000000000000006175746F6465736B2D64657369676E2D7061636B6167652E786D6C504B01021400140006080800CC70623BD486FD9CA0000000F40000001300000000000000000000000000B20000005B
310
436F6E74656E745F54797065735D2E786D6C504B01021400140006080800CC70623B1EC5D7A3EB0000007C010000080000000000000000000000000083010000636F72652E786D6C504B01021400140006080800CC70623B55019EA25F0000007C000000070000000000000000000000000094020000636E782E786D6C504B
310
01021400140006080800CC70623B8C9102E971010000D40300000C00000000000000000000000000180300006662782F636F72652E786D6C504B01021400140006080800CC70623BFFEA85907E0000009D0000000B00000000000000000000000000B30400006662782F636E782E786D6C504B01021400140006080800CC70
310
623B4FEEA4082C0100001202000031000000000000000000000000005A0500006662782F39464131463745442D413632322D343644302D413938332D3331353338454246344243312F636F72652E786D6C504B01021400140006080800CC70623BAD7543B64E010000330300003000000000000000000000000000D5060000
310
6662782F39464131463745442D413632322D343644302D413938332D3331353338454246344243312F636E782E786D6C504B01021400140006080800CC70623B16AB87BA640500003C1000003400000000000000000000000000710800006662782F39464131463745442D413632322D343644302D413938332D3331353338
310
454246344243312F6F626A656374732E786D6C504B01021400140006080000CC70623B0000000000000000000000003500000000000000000000000000270E00006662782F39464131463745442D413632322D343644302D413938332D3331353338454246344243312F76657274696365732E62696E504B01021400140006
310
080800CC70623BF270F133060000000400000036000000000000000000000000007A0E00006662782F39464131463745442D413632322D343644302D413938332D3331353338454246344243312F747269616E676C65732E62696E504B01021400140006080000CC70623B0000000000000000000000003700000000000000
310
000000000000D40E00006662782F39464131463745442D413632322D343644302D413938332D3331353338454246344243312F617474726962757465732E62696E504B01021400140006080800CC70623B08DA0BD190000000410100003600000000000000000000000000290F00006662782F39464131463745442D413632
310
322D343644302D413938332D3331353338454246344243312F6469726563746F72792E786D6C504B01021400140006080800CC70623B0D6EF93BFE000000A00100003B000000000000000000000000000D1000006662782F39464131463745442D413632322D343644302D413938332D3331353338454246344243312F7265
310
736F75726365732F636F72652E786D6C504B0506000000000E000E0080040000641100000000
  0
XRECORD
  5
28F
102
{ACAD_REACTORS
330
D
102
}
330
D
100
AcDbXrecord
280
     1
102
MATERIAL
148
0.0
149
0.0
149
0.0
 93
        0
 94
       63
282
     0
 72
     1
 77
     1
171
     1
175
     1
179
     1
273
     0
  0
XRECORD
  5
E
102
{ACAD_REACTORS
330
D
102
}
330
D
100
AcDbXrecord
280
     1
270
     1
271
     1
  0
XRECORD
  5
F
102
{ACAD_REACTORS
330
D
102
}
330
D
100
AcDbXrecord
280
     1
270
     1
271
     1
  0
XRECORD
  5
10
102
{ACAD_REACTORS
330
D
102
}
330
D
100
AcDbXrecord
280
     1
 70
     0
 90
1673772943
  1
ECE7A1D2-D628-4531-984C-D00F80459256
310
504B03040A0000080000CC70623B3DEE336E79000000790000001B0000006175746F6465736B2D64657369676E2D7061636B6167652E786D6C3C3F786D6C2076657273696F6E3D22312E302220656E636F64696E673D227574662D3822203F3E3C666F726D6174733E3C666F726D61743E687474703A2F2F736368656D612E
310
6175746F6465736B2E636F6D2F64657369676E2D7061636B6167652F323030393C2F666F726D61743E3C2F666F726D6174733E504B0304140006080800CC70623BD486FD9CA0000000F4000000130000005B436F6E74656E745F54797065735D2E786D6C7D8EC10E82300C865F65E91D8A1E8C310C0EEA1BF002731658846E
310
D98AC1B77784ABF1D8FE5FBFBF75BBCE937A534CCEB38643598122B6FEE978D0B0485F9C41B54DDD7D022595594E1A469170414C76A4D9A4D207E29CF43ECE46F218070CC6BECC4078ACAA135ACF422C856C0E68EA1BF5669944DDD7BCDE7B1F8E415D77AECB980613C2E4AC91FC167A2B244592486606FC29C8FD7F045B9A
310
EF7053A7E60B504B0304140006080800CC70623BD9DDAED0EC0000007C01000008000000636F72652E786D6C8D90416EC3201045AF82665B61836D9CD8C2444DD39CA01740405C94182C03558F5F9C3852BBEB6A467FFE9B197D7EF89E6EE8CB2CC17A37002D0820E394D7D68D03A478C17B4007C117EFE32F1B20272733C0
310
2A83E0E3E2D3BC49CABB685CCCAAF3DA6CA20CC14440EA969B0182FA34932C648AD911AEC52CD5558EA6A0CF2EC329598D1E47ACCEFBECC59A050463A7EA5833865FEBDD0E37353BE3EE8DBDE3F6786A48D375FBF6CC78B9C282473B3DEFABC5C86834888A900E538A49F5419B9EB47DD5BC907D4F082F57FB1F28CDFA9F50
310
B22ED6D5F6EE030B20687EE43E10BC5CB3C8E51E54AE6B6EE207504B0304140006080800CC70623B55019EA25F0000007C00000007000000636E782E786D6C4DCB3B0E80201045D1AD90E915ED2CF8AC45050C11660C8261F98AB1B07AC9C97D42D718D865D3E909258CFD00CCE24AC6E326A164D74DC0B4128928FF326038
310
472BA13128B1252AC747C6BAB984FC68F0B87FE8960A5C09FE86CFB69FBA01504B0304140006080800CC70623BA24EB22D72010000D40300000C0000006662782F636F72652E786D6CC5535B6E833010BC8AE5DF0A6C5E49888CA3A6694ED00B38E05014B091B1518EDFE511A5A9D228FD2A1F60CDEC7A67C6986DCE4D8D7A
310
69BA4AAB0C073EC548AA5C17952A33ECECD15B61B4E1CC686DBF9561A44423333CC098B3D268D7CE50AE9595CA02AA74216750749DB418E5352C32DCE59FB211BE70162ABA93DF8AFC244AE9073ED050C759670D0840D390E18DF9F1706664C23973AE2A66B62A605A75ACA4C13C4976E1364A12EF355A2EBD384AF65EFA96
310
BC7B8BED2EA6719AAE16FB8491A199335B351775B991C2CA02F390D2D40B028F861F41BCA68B7518BFD0D59A524686F29B26D7164F36B94AD9289CE54E6D1DE6010819891F6E21228B3AD1831EC219194284CF98F06DD01008846CC5A1BEF83801D4CBDC6A1303536877A57A513B0953A94FC707FDBE6064EA84A9E3E6E0FA
310
EE8CF0E9198F7784A316AA0413C2C2F2E0ECA0934D1AE6D05A69BCDE9E91D2A611F573361E38FC1375157F5752AE6B6DFE4B11990F88CCBF0719EE23FF02504B0304140006080800CC70623B408A7D3B7C0000009D0000000B0000006662782F636E782E786D6C4DCCD10A83201886E15B91FFDC552A92A0064DBC8F581632
310
D3703A76F9ABD1C18E3E78F878E5F0D9027ABBFCF2292AE86E2D20171F69F6715550CB827B40839639A5F2770314A7CD293819B45C73AAFB45B35BA61ACAA1C1C7E7855C58C15BC331339661262CC762340413D68D77DA5B42298546CBE6573AF60CEB2F504B0304140006080800CC70623B449FB9BD290100001202000031
310
0000006662782F36394639363044362D344446342D343946362D394244322D3234314243333846323333332F636F72652E786D6C8D515B6EC32010BC0AE22B55850D98B871848994463E412FE002495162B07854397EA176A4F62F3F2C9A9D991D587EB84F37F0AD7D30CEF6905418026DA553C65E7A98E219ED203808EE9D
310
8B7F6810D871D23D2C3014FCE25D9A57483A1BB58D19B54EE9151C43D0110279CB971E06F9A5A7B11A53CC8C70ADE6515EC78BAE4895DB992778883E0700CB907242D17643D7E2538BD869608875438BBAE38922CAC8F1BDD90DB4691A5E2F42C153326A951B95E398B3D1FE599322163C9AE9115F7A3D46ADA0A018778810
310
84E907617BDCEE297BC5BB3DC6BC2EF47FA234AB2745C9D8D8D035EE220B50105E2F0DC1954B9FB747187D9F9D8FA0CCDB042D5FA0C015C65B42DF78BD10F3F3B363CB56C7109DCFDFBBB97E662ED92EB62D13BC2E1BCAE5777DB9966D8A1F504B0304140006080800CC70623BAD7543B64E01000033030000300000006662
310
782F36394639363044362D344446342D343946362D394244322D3234314243333846323333332F636E782E786D6CD593CD6EC32010845F0571AD6CE3D48AD20813A9873E410FBD12D82434182C7EAAE6EDBB2424CD25871E7B41D6EC30B3FA84F9E67BB2E40B4234DE8DB46F1925E094D7C6ED479AD3AE5951B2113C789FEE
310
6C943839C1488B4C05DF079FE72A69D8C96C13AAD6B8631503449F83828872B949AC57D26200B826A308D316B4064D6E46FCDA41C05550DC9E483A00797BFD207EFB092A45DE9514C1BBD22178396BD39D891265658C238DEA00936C654E5E433CB65A26D9F6EDB5EBC14EBF49A45CB856E66048291F6939A9A81BB5C89177
310
38143CA680F4AA299D66A042CEB3354A2684DC9D8D178FE0D9B8B41CAAD720F880EE7EF93C0C18769E099ECC04D5A102C8049A8A05632F4DDF376CF1DE0F6BB65C2F8627B65A33C6BB62177CEBBDAD973006829F89F22E814B54F4BC2BE347F8AA8F681390B50FA73F804400B5F542E796F19FF974E7F78DB802FE05E20750
310
4B0304140006080800CC70623B8D05915C650500003B100000340000006662782F36394639363044362D344446342D343946362D394244322D3234314243333846323333332F6F626A656374732E786D6CAD575B6FA33814FE2B887D06429276DA1565D4266D158D3A339A6846FB502932E050B66023DB74D2FDF5FB190C01
310
9276B2973C046C8ECFF53B17071F77456EBD502133CEAE6CDF9DD81665314F32965ED995DA3A17B6F5310C04E7AA47665B8C14F4CAD6DB7618A48257A5D94AE89654B91AEDDEDDFC61C998326A5B714EA4BCB265FC440BE2924AF184CA6737218AB8E976E7FA6E4338649B0A523E8D98964450A6A029F619B8588D52FE7039
310
B1BD30F0F4F730D0FF866AF6369557DB33949F31A9088B0F848DD8CCFCF9F2767A76E99CCDE733677E3EF59D9BBB9BA5E37F984D16E78BC5E5F5ED25044B25C0C96822E8D60EEFE11B91C581D77CEA34368A1F5329E68CD1B8B61F16D63A1B8E092D294B10C78C4A48EB593D192E7DED9BDEE7995E1B91FDEDD3ACEA9FE831
310
6A756F9F7D4D79F4274C90A7A04248AA51D5F8C718DAE06FB2F75AC4796EBE65D22A88A22223B995679120E2D50E41AA49C260C046A35368846B0BECD0DFF3EBEB8AD4F835768F69B9ADF25C43D30E6B646F807FAA64AD59F61715C7A54127C4AACA98BA3006A9D792DAE165E0D59B61A01FB3A9F9D838D2DAE62445C86166
310
F37564E842E7DE6A69879FEEA2DD5AE7E371E1A5E025154AC307D06A03D73EB5978C58FFA4C8E9033066E0F3BD53BEC1F39F91BE7B55103791EDE6BBB991A2046172CB4581D8B893FA674DDA17A77B3B7C413D1B511FD2743BFF8A38F03A658705E3ADF8015C3A3417FF3D7E439FF591DA0B5F18BC20C1B8981957AE6392A3
310
F43C640C01D1A0B4728E2DD4F26DB4B3C3152A252A3B4E913CEC1C72F012782FF88EFF8637AA552DBEF76408E8A8DE9E50F9E1CB3A2DA0DB1B6039A893B56063DC5B3E3FFB5F72E67AB9FEB4AEC496C4F4C1149625DD662C53E89D7BF0F6151A046260D1337DFDC94502430F83B0EE07A130A224BCAD7DAE1D9FB6CD422FF6
310
920702629C4BB9AE79C12F243C6432A6794E18E5552BA56B431AAB5D91317302B2B071E86C3A42B1A02F999E24061403B5D0EB639195DA655DD3EBEAB4FB862DDF579F014AD0E73C22F99E28DA57FB98E75C6CA2D74D53086D600F4786E0FE3144B771A8A7B900F03594DB8A633CBC49B2EDB69228BB479CF863B5E807AAAB
310
23872F6DFEB4129B949CA33823F58830E86D65621E10047D9DB34D862E8EAC3C2ABC2F7B2C40D67CDFE01F5545B92105AF983AC54D93D69E56FB8E797F88913F898A9FEC705D3F9D1B54EC8426FB500D40A03BD0119B06E1B95DDC7EB8F6975367793EBD70E66733DFB9BC982F9CE564727731999F5D4ECFCE3B8D6A4DC2A0
310
6D50FD148437D110834A64C6CDDF57FBACB5C307A2A477DFE4939736CFEF2B175371E0E10CF0DD1D5C15654E0BCA14D1E87DD02FF93782A162C0A3D95F1524A52770F972BF1EE9809D13CE7DD599467F8ECE9ADD85CE85A34CD45355448C64F9E8A031DC2D596ACC6E5DD93D9B82DE2EF5CAF81363A8E47996A0DE24564A79
310
4115AACE09C55E14540231FDA13C319787134EBF34E3A022514E5B4D9E0826E25C02D5805B15ABE1BEF51B26383D445DD9E875EE33FE4C22DA16427D65A3BCA92CA6D28DD01DF5DC53330704308475351050232CCD31583787BA75774AFB06E5070DD0C8EF484E19968C5D83BA5B90B244D31E54D55A372320FE4786B7EA58
310
44E135AA5467CB7EA333A61683CC6A8C3257034C10CF46F40EF9F5BE59BE5BD30C3C72D235E95D10345C1D45445A5F0BB47E46A5EBE5570F9380B5FA629579952296A773720405982B9DE04011506178964401AA8BDF1FBF0A8EAB6861DD6580C0E38217056766716DAEB2D6FA0917D3E4116581EADB879C4E7CFFB11EFACD
310
3D641311495D92C8676CB409A72D18610D803CE8A626049E8EC1887CB5B44CC39883690DDA8399B4B9855B481E7D71D4A9D22F96E5BB73BF5793020C02137BF837504B0304140006080000CC70623B000000000000000000000000350000006662782F36394639363044362D344446342D343946362D394244322D32343142
310
43333846323333332F76657274696365732E62696E504B0304140006080800CC70623BF270F1330600000004000000360000006662782F36394639363044362D344446342D343946362D394244322D3234314243333846323333332F747269616E676C65732E62696E636660600000504B0304140006080000CC70623B0000
310
00000000000000000000370000006662782F36394639363044362D344446342D343946362D394244322D3234314243333846323333332F617474726962757465732E62696E504B0304140006080800CC70623B08DA0BD19000000041010000360000006662782F36394639363044362D344446342D343946362D394244322D
310
3234314243333846323333332F6469726563746F72792E786D6C858F410AC3201045AF22B36F53E9A60B35CBEEBAE80D244E44489C6234F4F835464A48035D0DF398FF9F8AF63D0E6CC63039F212F8F9020C7D47C6792B21C5FE7403D62A1188E2E60C98D7234A5830286103A55745067B9D86B8A3CF9C7F90C11DE607FB14
310
4396D7B6A82D282E9A152AD114D5EF2CB866EEE831B8EEA07A7BB5A8D7D61A2BAAEB7FD5F70921FF497D00504B0304140006080800CC70623BCA768048FE000000A00100003B0000006662782F36394639363044362D344446342D343946362D394244322D3234314243333846323333332F7265736F75726365732F636F72
310
652E786D6C8D50596E833010BD0A9ADFCA60D600328E9AA639412F609909B1126CE4A5EAF16B0295DABFFECC8CDEA2797AECF8353F924FB44E193D409E5248504B332A3D0D10FC95B4901C39B3C6F85F3248B49871801506CE266BC2B243D2688FDA47549B11775038871E12F988C7004EDE7016A9083E2ADC3D5D84BC8B09
310
D33C8D74D471E6BC8D0192EDC93A815B742658898E651BCB59086ADC356A8C3FD555A1055ED7E7E254D615792D0F075295F585746FF53B694EE78A565DD736979A65AB9933AFE69F8CD2A2F038022F28ED489E135A7CE4554F9BBEA85E68DB53CAB255FEC71496F19FA6A0B42F8B3DEE6673C0F318E4497096AD7DC5F52C33
310
EEB55BFE0D504B010214000A0000080000CC70623B3DEE336E79000000790000001B00000000000000000000000000000000006175746F6465736B2D64657369676E2D7061636B6167652E786D6C504B01021400140006080800CC70623BD486FD9CA0000000F40000001300000000000000000000000000B20000005B436F
310
6E74656E745F54797065735D2E786D6C504B01021400140006080800CC70623BD9DDAED0EC0000007C010000080000000000000000000000000083010000636F72652E786D6C504B01021400140006080800CC70623B55019EA25F0000007C000000070000000000000000000000000095020000636E782E786D6C504B0102
310
1400140006080800CC70623BA24EB22D72010000D40300000C00000000000000000000000000190300006662782F636F72652E786D6C504B01021400140006080800CC70623B408A7D3B7C0000009D0000000B00000000000000000000000000B50400006662782F636E782E786D6C504B01021400140006080800CC70623B
310
449FB9BD290100001202000031000000000000000000000000005A0500006662782F36394639363044362D344446342D343946362D394244322D3234314243333846323333332F636F72652E786D6C504B01021400140006080800CC70623BAD7543B64E010000330300003000000000000000000000000000D20600006662
310
782F36394639363044362D344446342D343946362D394244322D3234314243333846323333332F636E782E786D6C504B01021400140006080800CC70623B8D05915C650500003B10000034000000000000000000000000006E0800006662782F36394639363044362D344446342D343946362D394244322D32343142433338
310
46323333332F6F626A656374732E786D6C504B01021400140006080000CC70623B0000000000000000000000003500000000000000000000000000250E00006662782F36394639363044362D344446342D343946362D394244322D3234314243333846323333332F76657274696365732E62696E504B010214001400060808
310
00CC70623BF270F13306000000040000003600000000000000000000000000780E00006662782F36394639363044362D344446342D343946362D394244322D3234314243333846323333332F747269616E676C65732E62696E504B01021400140006080000CC70623B00000000000000000000000037000000000000000000
310
00000000D20E00006662782F36394639363044362D344446342D343946362D394244322D3234314243333846323333332F617474726962757465732E62696E504B01021400140006080800CC70623B08DA0BD190000000410100003600000000000000000000000000270F00006662782F36394639363044362D344446342D
310
343946362D394244322D3234314243333846323333332F6469726563746F72792E786D6C504B01021400140006080800CC70623BCA768048FE000000A00100003B000000000000000000000000000B1000006662782F36394639363044362D344446342D343946362D394244322D3234314243333846323333332F7265736F
310
75726365732F636F72652E786D6C504B0506000000000E000E0080040000621100000000
  0
XRECORD
  5
11
102
{ACAD_REACTORS
330
D
102
}
330
D
100
AcDbXrecord
280
     1
270
     1
271
     1
  0
XRECORD
  5
12
102
{ACAD_REACTORS
330
D
102
}
330
D
100
AcDbXrecord
280
     1
270
     1
271
     1
  0
XRECORD
  5
37D
102
{ACAD_REACTORS
330
37C
102
}
330
37C
100
AcDbXrecord
280
     1
102
DISPLAYNAME
  1
Metric50
102
FLAGS
 90
        0
  0
CELLSTYLEMAP
  5
342
102
{ACAD_REACTORS
330
4D
102
}
330
4D
100
AcDbCellStyleMap
 90
        3
300
CELLSTYLE
  1
TABLEFORMAT_BEGIN
 90
        5
170
     1
 91
        0
 92
    32768
 62
   257
 93
        1
300
CONTENTFORMAT
  1
CONTENTFORMAT_BEGIN
 90
        0
 91
        0
 92
      512
 93
        0
300

 40
0.0
140
1.0
 94
        5
 62
     0
340
22
144
6.0
309
CONTENTFORMAT_END
171
     1
301
MARGIN
  1
CELLMARGIN_BEGIN
 40
1.5
 40
1.5
 40
1.5
 40
1.5
 40
0.18
 40
0.18
309
CELLMARGIN_END
 94
        6
 95
        1
302
GRIDFORMAT
  1
GRIDFORMAT_BEGIN
 90
        0
 91
        1
 62
     0
 92
       -2
340
25
 93
        0
 40
1.125
309
GRIDFORMAT_END
 95
        2
302
GRIDFORMAT
  1
GRIDFORMAT_BEGIN
 90
        0
 91
        1
 62
     0
 92
       -2
340
25
 93
        0
 40
1.125
309
GRIDFORMAT_END
 95
        4
302
GRIDFORMAT
  1
GRIDFORMAT_BEGIN
 90
        0
 91
        1
 62
     0
 92
       -2
340
25
 93
        0
 40
1.125
309
GRIDFORMAT_END
 95
        8
302
GRIDFORMAT
  1
GRIDFORMAT_BEGIN
 90
        0
 91
        1
 62
     0
 92
       -2
340
25
 93
        0
 40
1.125
309
GRIDFORMAT_END
 95
       16
302
GRIDFORMAT
  1
GRIDFORMAT_BEGIN
 90
        0
 91
        1
 62
     0
 92
       -2
340
25
 93
        0
 40
1.125
309
GRIDFORMAT_END
 95
       32
302
GRIDFORMAT
  1
GRIDFORMAT_BEGIN
 90
        0
 91
        1
 62
     0
 92
       -2
340
25
 93
        0
 40
1.125
309
GRIDFORMAT_END
309
TABLEFORMAT_END
  1
CELLSTYLE_BEGIN
 90
        1
 91
        1
300
_TITLE
309
CELLSTYLE_END
300
CELLSTYLE
  1
TABLEFORMAT_BEGIN
 90
        5
170
     1
 91
        0
 92
        0
 62
   257
 93
        1
300
CONTENTFORMAT
  1
CONTENTFORMAT_BEGIN
 90
        0
 91
        0
 92
      512
 93
        0
300

 40
0.0
140
1.0
 94
        5
 62
     0
340
22
144
4.5
309
CONTENTFORMAT_END
171
     1
301
MARGIN
  1
CELLMARGIN_BEGIN
 40
1.5
 40
1.5
 40
1.5
 40
1.5
 40
0.18
 40
0.18
309
CELLMARGIN_END
 94
        6
 95
        1
302
GRIDFORMAT
  1
GRIDFORMAT_BEGIN
 90
        0
 91
        1
 62
     0
 92
       -2
340
25
 93
        0
 40
1.125
309
GRIDFORMAT_END
 95
        2
302
GRIDFORMAT
  1
GRIDFORMAT_BEGIN
 90
        0
 91
        1
 62
     0
 92
       -2
340
25
 93
        0
 40
1.125
309
GRIDFORMAT_END
 95
        4
302
GRIDFORMAT
  1
GRIDFORMAT_BEGIN
 90
        0
 91
        1
 62
     0
 92
       -2
340
25
 93
        0
 40
1.125
309
GRIDFORMAT_END
 95
        8
302
GRIDFORMAT
  1
GRIDFORMAT_BEGIN
 90
        0
 91
        1
 62
     0
 92
       -2
340
25
 93
        0
 40
1.125
309
GRIDFORMAT_END
 95
       16
302
GRIDFORMAT
  1
GRIDFORMAT_BEGIN
 90
        0
 91
        1
 62
     0
 92
       -2
340
25
 93
        0
 40
1.125
309
GRIDFORMAT_END
 95
       32
302
GRIDFORMAT
  1
GRIDFORMAT_BEGIN
 90
        0
 91
        1
 62
     0
 92
       -2
340
25
 93
        0
 40
1.125
309
GRIDFORMAT_END
309
TABLEFORMAT_END
  1
CELLSTYLE_BEGIN
 90
        2
 91
        1
300
_HEADER
309
CELLSTYLE_END
300
CELLSTYLE
  1
TABLEFORMAT_BEGIN
 90
        5
170
     1
 91
        0
 92
        0
 62
   257
 93
        1
300
CONTENTFORMAT
  1
CONTENTFORMAT_BEGIN
 90
        0
 91
        0
 92
      512
 93
        0
300

 40
0.0
140
1.0
 94
        2
 62
     0
340
22
144
4.5
309
CONTENTFORMAT_END
171
     1
301
MARGIN
  1
CELLMARGIN_BEGIN
 40
1.5
 40
1.5
 40
1.5
 40
1.5
 40
0.18
 40
0.18
309
CELLMARGIN_END
 94
        6
 95
        1
302
GRIDFORMAT
  1
GRIDFORMAT_BEGIN
 90
        0
 91
        1
 62
     0
 92
       -2
340
25
 93
        0
 40
1.125
309
GRIDFORMAT_END
 95
        2
302
GRIDFORMAT
  1
GRIDFORMAT_BEGIN
 90
        0
 91
        1
 62
     0
 92
       -2
340
25
 93
        0
 40
1.125
309
GRIDFORMAT_END
 95
        4
302
GRIDFORMAT
  1
GRIDFORMAT_BEGIN
 90
        0
 91
        1
 62
     0
 92
       -2
340
25
 93
        0
 40
1.125
309
GRIDFORMAT_END
 95
        8
302
GRIDFORMAT
  1
GRIDFORMAT_BEGIN
 90
        0
 91
        1
 62
     0
 92
       -2
340
25
 93
        0
 40
1.125
309
GRIDFORMAT_END
 95
       16
302
GRIDFORMAT
  1
GRIDFORMAT_BEGIN
 90
        0
 91
        1
 62
     0
 92
       -2
340
25
 93
        0
 40
1.125
309
GRIDFORMAT_END
 95
       32
302
GRIDFORMAT
  1
GRIDFORMAT_BEGIN
 90
        0
 91
        1
 62
     0
 92
       -2
340
25
 93
        0
 40
1.125
309
GRIDFORMAT_END
309
TABLEFORMAT_END
  1
CELLSTYLE_BEGIN
 90
        3
 91
        2
300
_DATA
309
CELLSTYLE_END
  0
XRECORD
  5
34D
102
{ACAD_REACTORS
330
34C
102
}
330
34C
100
AcDbXrecord
280
     1
102
RTVSPost2010Prop28
280
     1
102
RTVSPost2010PropOp28
 70
     1
102
RTVSPost2010Prop29
280
     1
102
RTVSPost2010PropOp29
 70
     1
102
RTVSPost2010Prop30
280
     0
102
RTVSPost2010PropOp30
 70
     1
102
RTVSPost2010Prop31
280
     0
102
RTVSPost2010PropOp31
 70
     1
102
RTVSPost2010Prop32
280
     0
102
RTVSPost2010PropOp32
 70
     1
102
RTVSPost2010Prop33
280
     0
102
RTVSPost2010PropOp33
 70
     1
102
RTVSPost2010Prop34
280
     0
102
RTVSPost2010PropOp34
 70
     1
102
RTVSPost2010Prop35
280
     0
102
RTVSPost2010PropOp35
 70
     1
102
RTVSPost2010Prop36
280
     0
102
RTVSPost2010PropOp36
 70
     1
102
RTVSPost2010Prop37
 90
       50
102
RTVSPost2010PropOp37
 70
     1
102
RTVSPost2010Prop38
140
0.0
102
RTVSPost2010PropOp38
 70
     1
102
RTVSPost2010Prop39
140
1.0
102
RTVSPost2010PropOp39
 70
     1
102
RTVSPost2010Prop40
 90
        0
102
RTVSPost2010PropOp40
 70
     1
102
RTVSPost2010Prop41ColorIndex
 90
       18
102
RTVSPost2010Prop41ColorRGB
 90
        0
102
RTVSPost2010PropOp41
 70
     1
102
RTVSPost2010Prop42
 90
       50
102
RTVSPost2010PropOp42
 70
     1
102
RTVSPost2010Prop43
 90
        3
102
RTVSPost2010PropOp43
 70
     1
102
RTVSPost2010Prop44ColorIndex
 90
        5
102
RTVSPost2010Prop44ColorRGB
 90
      255
102
RTVSPost2010PropOp44
 70
     1
102
RTVSPost2010Prop45
280
     0
102
RTVSPost2010PropOp45
 70
     1
102
RTVSPost2010Prop46
 90
       50
102
RTVSPost2010PropOp46
 70
     1
102
RTVSPost2010Prop47
 90
       50
102
RTVSPost2010PropOp47
 70
     1
102
RTVSPost2010Prop48
 90
       50
102
RTVSPost2010PropOp48
 70
     1
102
RTVSPost2010Prop49
280
     0
102
RTVSPost2010PropOp49
 70
     1
102
RTVSPost2010Prop50
 90
       50
102
RTVSPost2010PropOp50
 70
     1
102
RTVSPost2010Prop51ColorIndex
 90
      256
102
RTVSPost2010Prop51ColorRGB
 90
-16777216
102
RTVSPost2010PropOp51
 70
     0
102
RTVSPost2010Prop52
140
1.0
102
RTVSPost2010PropOp52
 70
     0
102
RTVSPost2010Prop53
 90
        2
102
RTVSPost2010PropOp53
 70
     1
102
RTVSPost2010Prop54
  1
strokes_ogs.tif
102
RTVSPost2010PropOp54
 70
     1
102
RTVSPost2010Prop55
280
     0
102
RTVSPost2010PropOp55
 70
     1
102
RTVSPost2010Prop56
140
1.0
102
RTVSPost2010PropOp56
 70
     1
102
RTVSPost2010Prop57
140
1.0
102
RTVSPost2010PropOp57
 70
     1
  0
XRECORD
  5
35B
102
{ACAD_REACTORS
330
35A
102
}
330
35A
100
AcDbXrecord
280
     1
102
RTVSPost2010Prop28
280
     0
102
RTVSPost2010PropOp28
 70
     1
102
RTVSPost2010Prop29
280
     1
102
RTVSPost2010PropOp29
 70
     1
102
RTVSPost2010Prop30
280
     1
102
RTVSPost2010PropOp30
 70
     1
102
RTVSPost2010Prop31
280
     0
102
RTVSPost2010PropOp31
 70
     1
102
RTVSPost2010Prop32
280
     0
102
RTVSPost2010PropOp32
 70
     1
102
RTVSPost2010Prop33
280
     0
102
RTVSPost2010PropOp33
 70
     1
102
RTVSPost2010Prop34
280
     0
102
RTVSPost2010PropOp34
 70
     1
102
RTVSPost2010Prop35
280
     0
102
RTVSPost2010PropOp35
 70
     1
102
RTVSPost2010Prop36
280
     0
102
RTVSPost2010PropOp36
 70
     1
102
RTVSPost2010Prop37
 90
       50
102
RTVSPost2010PropOp37
 70
     1
102
RTVSPost2010Prop38
140
0.0
102
RTVSPost2010PropOp38
 70
     1
102
RTVSPost2010Prop39
140
1.0
102
RTVSPost2010PropOp39
 70
     1
102
RTVSPost2010Prop40
 90
        0
102
RTVSPost2010PropOp40
 70
     1
102
RTVSPost2010Prop41ColorIndex
 90
       18
102
RTVSPost2010Prop41ColorRGB
 90
        0
102
RTVSPost2010PropOp41
 70
     1
102
RTVSPost2010Prop42
 90
       50
102
RTVSPost2010PropOp42
 70
     1
102
RTVSPost2010Prop43
 90
        3
102
RTVSPost2010PropOp43
 70
     1
102
RTVSPost2010Prop44ColorIndex
 90
        5
102
RTVSPost2010Prop44ColorRGB
 90
      255
102
RTVSPost2010PropOp44
 70
     1
102
RTVSPost2010Prop45
280
     0
102
RTVSPost2010PropOp45
 70
     1
102
RTVSPost2010Prop46
 90
       50
102
RTVSPost2010PropOp46
 70
     1
102
RTVSPost2010Prop47
 90
       50
102
RTVSPost2010PropOp47
 70
     1
102
RTVSPost2010Prop48
 90
       50
102
RTVSPost2010PropOp48
 70
     1
102
RTVSPost2010Prop49
280
     0
102
RTVSPost2010PropOp49
 70
     1
102
RTVSPost2010Prop50
 90
       50
102
RTVSPost2010PropOp50
 70
     1
102
RTVSPost2010Prop51ColorIndex
 90
      256
102
RTVSPost2010Prop51ColorRGB
 90
-16777216
102
RTVSPost2010PropOp51
 70
     0
102
RTVSPost2010Prop52
140
1.0
102
RTVSPost2010PropOp52
 70
     0
102
RTVSPost2010Prop53
 90
        2
102
RTVSPost2010PropOp53
 70
     1
102
RTVSPost2010Prop54
  1
strokes_ogs.tif
102
RTVSPost2010PropOp54
 70
     1
102
RTVSPost2010Prop55
280
     0
102
RTVSPost2010PropOp55
 70
     1
102
RTVSPost2010Prop56
140
1.0
102
RTVSPost2010PropOp56
 70
     1
102
RTVSPost2010Prop57
140
1.0
102
RTVSPost2010PropOp57
 70
     1
  0
XRECORD
  5
363
102
{ACAD_REACTORS
330
362
102
}
330
362
100
AcDbXrecord
280
     1
102
RTVSPost2010Prop28
280
     0
102
RTVSPost2010PropOp28
 70
     1
102
RTVSPost2010Prop29
280
     1
102
RTVSPost2010PropOp29
 70
     1
102
RTVSPost2010Prop30
280
     1
102
RTVSPost2010PropOp30
 70
     1
102
RTVSPost2010Prop31
280
     0
102
RTVSPost2010PropOp31
 70
     1
102
RTVSPost2010Prop32
280
     0
102
RTVSPost2010PropOp32
 70
     1
102
RTVSPost2010Prop33
280
     0
102
RTVSPost2010PropOp33
 70
     1
102
RTVSPost2010Prop34
280
     0
102
RTVSPost2010PropOp34
 70
     1
102
RTVSPost2010Prop35
280
     0
102
RTVSPost2010PropOp35
 70
     1
102
RTVSPost2010Prop36
280
     0
102
RTVSPost2010PropOp36
 70
     1
102
RTVSPost2010Prop37
 90
       50
102
RTVSPost2010PropOp37
 70
     1
102
RTVSPost2010Prop38
140
0.0
102
RTVSPost2010PropOp38
 70
     1
102
RTVSPost2010Prop39
140
1.0
102
RTVSPost2010PropOp39
 70
     1
102
RTVSPost2010Prop40
 90
        0
102
RTVSPost2010PropOp40
 70
     1
102
RTVSPost2010Prop41ColorIndex
 90
       18
102
RTVSPost2010Prop41ColorRGB
 90
        0
102
RTVSPost2010PropOp41
 70
     1
102
RTVSPost2010Prop42
 90
       50
102
RTVSPost2010PropOp42
 70
     1
102
RTVSPost2010Prop43
 90
        3
102
RTVSPost2010PropOp43
 70
     1
102
RTVSPost2010Prop44ColorIndex
 90
        5
102
RTVSPost2010Prop44ColorRGB
 90
      255
102
RTVSPost2010PropOp44
 70
     1
102
RTVSPost2010Prop45
280
     0
102
RTVSPost2010PropOp45
 70
     1
102
RTVSPost2010Prop46
 90
       50
102
RTVSPost2010PropOp46
 70
     1
102
RTVSPost2010Prop47
 90
       50
102
RTVSPost2010PropOp47
 70
     1
102
RTVSPost2010Prop48
 90
       50
102
RTVSPost2010PropOp48
 70
     1
102
RTVSPost2010Prop49
280
     0
102
RTVSPost2010PropOp49
 70
     1
102
RTVSPost2010Prop50
 90
       50
102
RTVSPost2010PropOp50
 70
     1
102
RTVSPost2010Prop51ColorIndex
 90
      256
102
RTVSPost2010Prop51ColorRGB
 90
-16777216
102
RTVSPost2010PropOp51
 70
     0
102
RTVSPost2010Prop52
140
1.0
102
RTVSPost2010PropOp52
 70
     0
102
RTVSPost2010Prop53
 90
        2
102
RTVSPost2010PropOp53
 70
     1
102
RTVSPost2010Prop54
  1
strokes_ogs.tif
102
RTVSPost2010PropOp54
 70
     1
102
RTVSPost2010Prop55
280
     0
102
RTVSPost2010PropOp55
 70
     1
102
RTVSPost2010Prop56
140
1.0
102
RTVSPost2010PropOp56
 70
     1
102
RTVSPost2010Prop57
140
1.0
102
RTVSPost2010PropOp57
 70
     1
  0
XRECORD
  5
36B
102
{ACAD_REACTORS
330
36A
102
}
330
36A
100
AcDbXrecord
280
     1
102
RTVSPost2010Prop28
280
     0
102
RTVSPost2010PropOp28
 70
     1
102
RTVSPost2010Prop29
280
     1
102
RTVSPost2010PropOp29
 70
     1
102
RTVSPost2010Prop30
280
     1
102
RTVSPost2010PropOp30
 70
     1
102
RTVSPost2010Prop31
280
     0
102
RTVSPost2010PropOp31
 70
     1
102
RTVSPost2010Prop32
280
     0
102
RTVSPost2010PropOp32
 70
     1
102
RTVSPost2010Prop33
280
     0
102
RTVSPost2010PropOp33
 70
     1
102
RTVSPost2010Prop34
280
     0
102
RTVSPost2010PropOp34
 70
     1
102
RTVSPost2010Prop35
280
     0
102
RTVSPost2010PropOp35
 70
     1
102
RTVSPost2010Prop36
280
     0
102
RTVSPost2010PropOp36
 70
     1
102
RTVSPost2010Prop37
 90
       50
102
RTVSPost2010PropOp37
 70
     1
102
RTVSPost2010Prop38
140
0.0
102
RTVSPost2010PropOp38
 70
     1
102
RTVSPost2010Prop39
140
1.0
102
RTVSPost2010PropOp39
 70
     1
102
RTVSPost2010Prop40
 90
        0
102
RTVSPost2010PropOp40
 70
     1
102
RTVSPost2010Prop41ColorIndex
 90
       18
102
RTVSPost2010Prop41ColorRGB
 90
        0
102
RTVSPost2010PropOp41
 70
     1
102
RTVSPost2010Prop42
 90
       50
102
RTVSPost2010PropOp42
 70
     1
102
RTVSPost2010Prop43
 90
        3
102
RTVSPost2010PropOp43
 70
     1
102
RTVSPost2010Prop44ColorIndex
 90
        5
102
RTVSPost2010Prop44ColorRGB
 90
      255
102
RTVSPost2010PropOp44
 70
     1
102
RTVSPost2010Prop45
280
     0
102
RTVSPost2010PropOp45
 70
     1
102
RTVSPost2010Prop46
 90
       50
102
RTVSPost2010PropOp46
 70
     1
102
RTVSPost2010Prop47
 90
       50
102
RTVSPost2010PropOp47
 70
     1
102
RTVSPost2010Prop48
 90
       50
102
RTVSPost2010PropOp48
 70
     1
102
RTVSPost2010Prop49
280
     0
102
RTVSPost2010PropOp49
 70
     1
102
RTVSPost2010Prop50
 90
       50
102
RTVSPost2010PropOp50
 70
     1
102
RTVSPost2010Prop51ColorIndex
 90
      256
102
RTVSPost2010Prop51ColorRGB
 90
-16777216
102
RTVSPost2010PropOp51
 70
     0
102
RTVSPost2010Prop52
140
1.0
102
RTVSPost2010PropOp52
 70
     0
102
RTVSPost2010Prop53
 90
        2
102
RTVSPost2010PropOp53
 70
     1
102
RTVSPost2010Prop54
  1
strokes_ogs.tif
102
RTVSPost2010PropOp54
 70
     1
102
RTVSPost2010Prop55
280
     0
102
RTVSPost2010PropOp55
 70
     1
102
RTVSPost2010Prop56
140
1.0
102
RTVSPost2010PropOp56
 70
     1
102
RTVSPost2010Prop57
140
1.0
102
RTVSPost2010PropOp57
 70
     1
  0
XRECORD
  5
35F
102
{ACAD_REACTORS
330
35E
102
}
330
35E
100
AcDbXrecord
280
     1
102
RTVSPost2010Prop28
280
     0
102
RTVSPost2010PropOp28
 70
     1
102
RTVSPost2010Prop29
280
     1
102
RTVSPost2010PropOp29
 70
     1
102
RTVSPost2010Prop30
280
     1
102
RTVSPost2010PropOp30
 70
     1
102
RTVSPost2010Prop31
280
     0
102
RTVSPost2010PropOp31
 70
     1
102
RTVSPost2010Prop32
280
     0
102
RTVSPost2010PropOp32
 70
     1
102
RTVSPost2010Prop33
280
     0
102
RTVSPost2010PropOp33
 70
     1
102
RTVSPost2010Prop34
280
     0
102
RTVSPost2010PropOp34
 70
     1
102
RTVSPost2010Prop35
280
     0
102
RTVSPost2010PropOp35
 70
     1
102
RTVSPost2010Prop36
280
     0
102
RTVSPost2010PropOp36
 70
     1
102
RTVSPost2010Prop37
 90
       50
102
RTVSPost2010PropOp37
 70
     1
102
RTVSPost2010Prop38
140
0.0
102
RTVSPost2010PropOp38
 70
     1
102
RTVSPost2010Prop39
140
1.0
102
RTVSPost2010PropOp39
 70
     1
102
RTVSPost2010Prop40
 90
        0
102
RTVSPost2010PropOp40
 70
     1
102
RTVSPost2010Prop41ColorIndex
 90
       18
102
RTVSPost2010Prop41ColorRGB
 90
        0
102
RTVSPost2010PropOp41
 70
     1
102
RTVSPost2010Prop42
 90
       50
102
RTVSPost2010PropOp42
 70
     1
102
RTVSPost2010Prop43
 90
        3
102
RTVSPost2010PropOp43
 70
     1
102
RTVSPost2010Prop44ColorIndex
 90
        5
102
RTVSPost2010Prop44ColorRGB
 90
      255
102
RTVSPost2010PropOp44
 70
     1
102
RTVSPost2010Prop45
280
     0
102
RTVSPost2010PropOp45
 70
     1
102
RTVSPost2010Prop46
 90
       50
102
RTVSPost2010PropOp46
 70
     1
102
RTVSPost2010Prop47
 90
       50
102
RTVSPost2010PropOp47
 70
     1
102
RTVSPost2010Prop48
 90
       50
102
RTVSPost2010PropOp48
 70
     1
102
RTVSPost2010Prop49
280
     0
102
RTVSPost2010PropOp49
 70
     1
102
RTVSPost2010Prop50
 90
       50
102
RTVSPost2010PropOp50
 70
     1
102
RTVSPost2010Prop51ColorIndex
 90
      256
102
RTVSPost2010Prop51ColorRGB
 90
-16777216
102
RTVSPost2010PropOp51
 70
     0
102
RTVSPost2010Prop52
140
1.0
102
RTVSPost2010PropOp52
 70
     0
102
RTVSPost2010Prop53
 90
        2
102
RTVSPost2010PropOp53
 70
     1
102
RTVSPost2010Prop54
  1
strokes_ogs.tif
102
RTVSPost2010PropOp54
 70
     1
102
RTVSPost2010Prop55
280
     0
102
RTVSPost2010PropOp55
 70
     1
102
RTVSPost2010Prop56
140
1.0
102
RTVSPost2010PropOp56
 70
     1
102
RTVSPost2010Prop57
140
1.0
102
RTVSPost2010PropOp57
 70
     1
  0
XRECORD
  5
361
102
{ACAD_REACTORS
330
360
102
}
330
360
100
AcDbXrecord
280
     1
102
RTVSPost2010Prop28
280
     0
102
RTVSPost2010PropOp28
 70
     1
102
RTVSPost2010Prop29
280
     1
102
RTVSPost2010PropOp29
 70
     1
102
RTVSPost2010Prop30
280
     1
102
RTVSPost2010PropOp30
 70
     1
102
RTVSPost2010Prop31
280
     0
102
RTVSPost2010PropOp31
 70
     1
102
RTVSPost2010Prop32
280
     0
102
RTVSPost2010PropOp32
 70
     1
102
RTVSPost2010Prop33
280
     0
102
RTVSPost2010PropOp33
 70
     1
102
RTVSPost2010Prop34
280
     0
102
RTVSPost2010PropOp34
 70
     1
102
RTVSPost2010Prop35
280
     0
102
RTVSPost2010PropOp35
 70
     1
102
RTVSPost2010Prop36
280
     0
102
RTVSPost2010PropOp36
 70
     1
102
RTVSPost2010Prop37
 90
       50
102
RTVSPost2010PropOp37
 70
     1
102
RTVSPost2010Prop38
140
0.0
102
RTVSPost2010PropOp38
 70
     1
102
RTVSPost2010Prop39
140
1.0
102
RTVSPost2010PropOp39
 70
     1
102
RTVSPost2010Prop40
 90
        0
102
RTVSPost2010PropOp40
 70
     1
102
RTVSPost2010Prop41ColorIndex
 90
       18
102
RTVSPost2010Prop41ColorRGB
 90
        0
102
RTVSPost2010PropOp41
 70
     1
102
RTVSPost2010Prop42
 90
       50
102
RTVSPost2010PropOp42
 70
     1
102
RTVSPost2010Prop43
 90
        3
102
RTVSPost2010PropOp43
 70
     1
102
RTVSPost2010Prop44ColorIndex
 90
        5
102
RTVSPost2010Prop44ColorRGB
 90
      255
102
RTVSPost2010PropOp44
 70
     1
102
RTVSPost2010Prop45
280
     0
102
RTVSPost2010PropOp45
 70
     1
102
RTVSPost2010Prop46
 90
       50
102
RTVSPost2010PropOp46
 70
     1
102
RTVSPost2010Prop47
 90
       50
102
RTVSPost2010PropOp47
 70
     1
102
RTVSPost2010Prop48
 90
       50
102
RTVSPost2010PropOp48
 70
     1
102
RTVSPost2010Prop49
280
     0
102
RTVSPost2010PropOp49
 70
     1
102
RTVSPost2010Prop50
 90
       50
102
RTVSPost2010PropOp50
 70
     1
102
RTVSPost2010Prop51ColorIndex
 90
      256
102
RTVSPost2010Prop51ColorRGB
 90
-16777216
102
RTVSPost2010PropOp51
 70
     0
102
RTVSPost2010Prop52
140
1.0
102
RTVSPost2010PropOp52
 70
     0
102
RTVSPost2010Prop53
 90
        2
102
RTVSPost2010PropOp53
 70
     1
102
RTVSPost2010Prop54
  1
strokes_ogs.tif
102
RTVSPost2010PropOp54
 70
     1
102
RTVSPost2010Prop55
280
     0
102
RTVSPost2010PropOp55
 70
     1
102
RTVSPost2010Prop56
140
1.0
102
RTVSPost2010PropOp56
 70
     1
102
RTVSPost2010Prop57
140
1.0
102
RTVSPost2010PropOp57
 70
     1
  0
XRECORD
  5
37B
102
{ACAD_REACTORS
330
37A
102
}
330
37A
100
AcDbXrecord
280
     1
102
RTVSPost2010Prop28
280
     0
102
RTVSPost2010PropOp28
 70
     1
102
RTVSPost2010Prop29
280
     1
102
RTVSPost2010PropOp29
 70
     1
102
RTVSPost2010Prop30
280
     1
102
RTVSPost2010PropOp30
 70
     1
102
RTVSPost2010Prop31
280
     0
102
RTVSPost2010PropOp31
 70
     1
102
RTVSPost2010Prop32
280
     0
102
RTVSPost2010PropOp32
 70
     1
102
RTVSPost2010Prop33
280
     0
102
RTVSPost2010PropOp33
 70
     1
102
RTVSPost2010Prop34
280
     0
102
RTVSPost2010PropOp34
 70
     1
102
RTVSPost2010Prop35
280
     0
102
RTVSPost2010PropOp35
 70
     1
102
RTVSPost2010Prop36
280
     0
102
RTVSPost2010PropOp36
 70
     1
102
RTVSPost2010Prop37
 90
       50
102
RTVSPost2010PropOp37
 70
     0
102
RTVSPost2010Prop38
140
0.0
102
RTVSPost2010PropOp38
 70
     0
102
RTVSPost2010Prop39
140
1.0
102
RTVSPost2010PropOp39
 70
     0
102
RTVSPost2010Prop40
 90
        0
102
RTVSPost2010PropOp40
 70
     0
102
RTVSPost2010Prop41ColorIndex
 90
       18
102
RTVSPost2010Prop41ColorRGB
 90
        0
102
RTVSPost2010PropOp41
 70
     0
102
RTVSPost2010Prop42
 90
       50
102
RTVSPost2010PropOp42
 70
     0
102
RTVSPost2010Prop43
 90
        3
102
RTVSPost2010PropOp43
 70
     0
102
RTVSPost2010Prop44ColorIndex
 90
        5
102
RTVSPost2010Prop44ColorRGB
 90
      255
102
RTVSPost2010PropOp44
 70
     0
102
RTVSPost2010Prop45
280
     0
102
RTVSPost2010PropOp45
 70
     1
102
RTVSPost2010Prop46
 90
       50
102
RTVSPost2010PropOp46
 70
     0
102
RTVSPost2010Prop47
 90
       50
102
RTVSPost2010PropOp47
 70
     0
102
RTVSPost2010Prop48
 90
       50
102
RTVSPost2010PropOp48
 70
     0
102
RTVSPost2010Prop49
280
     0
102
RTVSPost2010PropOp49
 70
     1
102
RTVSPost2010Prop50
 90
       50
102
RTVSPost2010PropOp50
 70
     0
102
RTVSPost2010Prop51ColorIndex
 90
      256
102
RTVSPost2010Prop51ColorRGB
 90
-16777216
102
RTVSPost2010PropOp51
 70
     0
102
RTVSPost2010Prop52
140
1.0
102
RTVSPost2010PropOp52
 70
     0
102
RTVSPost2010Prop53
 90
        2
102
RTVSPost2010PropOp53
 70
     0
102
RTVSPost2010Prop54
  1
strokes_ogs.tif
102
RTVSPost2010PropOp54
 70
     0
102
RTVSPost2010Prop55
280
     0
102
RTVSPost2010PropOp55
 70
     1
102
RTVSPost2010Prop56
140
1.0
102
RTVSPost2010PropOp56
 70
     0
102
RTVSPost2010Prop57
140
1.0
102
RTVSPost2010PropOp57
 70
     0
  0
XRECORD
  5
369
102
{ACAD_REACTORS
330
368
102
}
330
368
100
AcDbXrecord
280
     1
102
RTVSPost2010Prop28
280
     0
102
RTVSPost2010PropOp28
 70
     1
102
RTVSPost2010Prop29
280
     1
102
RTVSPost2010PropOp29
 70
     1
102
RTVSPost2010Prop30
280
     1
102
RTVSPost2010PropOp30
 70
     1
102
RTVSPost2010Prop31
280
     0
102
RTVSPost2010PropOp31
 70
     1
102
RTVSPost2010Prop32
280
     0
102
RTVSPost2010PropOp32
 70
     1
102
RTVSPost2010Prop33
280
     0
102
RTVSPost2010PropOp33
 70
     1
102
RTVSPost2010Prop34
280
     0
102
RTVSPost2010PropOp34
 70
     1
102
RTVSPost2010Prop35
280
     0
102
RTVSPost2010PropOp35
 70
     1
102
RTVSPost2010Prop36
280
     0
102
RTVSPost2010PropOp36
 70
     1
102
RTVSPost2010Prop37
 90
       50
102
RTVSPost2010PropOp37
 70
     1
102
RTVSPost2010Prop38
140
0.0
102
RTVSPost2010PropOp38
 70
     1
102
RTVSPost2010Prop39
140
1.0
102
RTVSPost2010PropOp39
 70
     1
102
RTVSPost2010Prop40
 90
        0
102
RTVSPost2010PropOp40
 70
     1
102
RTVSPost2010Prop41ColorIndex
 90
       18
102
RTVSPost2010Prop41ColorRGB
 90
        0
102
RTVSPost2010PropOp41
 70
     1
102
RTVSPost2010Prop42
 90
       50
102
RTVSPost2010PropOp42
 70
     1
102
RTVSPost2010Prop43
 90
        3
102
RTVSPost2010PropOp43
 70
     1
102
RTVSPost2010Prop44ColorIndex
 90
        5
102
RTVSPost2010Prop44ColorRGB
 90
      255
102
RTVSPost2010PropOp44
 70
     1
102
RTVSPost2010Prop45
280
     0
102
RTVSPost2010PropOp45
 70
     1
102
RTVSPost2010Prop46
 90
       50
102
RTVSPost2010PropOp46
 70
     1
102
RTVSPost2010Prop47
 90
       50
102
RTVSPost2010PropOp47
 70
     1
102
RTVSPost2010Prop48
 90
       50
102
RTVSPost2010PropOp48
 70
     1
102
RTVSPost2010Prop49
280
     0
102
RTVSPost2010PropOp49
 70
     1
102
RTVSPost2010Prop50
 90
       50
102
RTVSPost2010PropOp50
 70
     1
102
RTVSPost2010Prop51ColorIndex
 90
      256
102
RTVSPost2010Prop51ColorRGB
 90
-16777216
102
RTVSPost2010PropOp51
 70
     0
102
RTVSPost2010Prop52
140
1.0
102
RTVSPost2010PropOp52
 70
     0
102
RTVSPost2010Prop53
 90
        2
102
RTVSPost2010PropOp53
 70
     1
102
RTVSPost2010Prop54
  1
strokes_ogs.tif
102
RTVSPost2010PropOp54
 70
     1
102
RTVSPost2010Prop55
280
     0
102
RTVSPost2010PropOp55
 70
     1
102
RTVSPost2010Prop56
140
1.0
102
RTVSPost2010PropOp56
 70
     1
102
RTVSPost2010Prop57
140
1.0
102
RTVSPost2010PropOp57
 70
     1
  0
XRECORD
  5
353
102
{ACAD_REACTORS
330
352
102
}
330
352
100
AcDbXrecord
280
     1
102
RTVSPost2010Prop28
280
     0
102
RTVSPost2010PropOp28
 70
     1
102
RTVSPost2010Prop29
280
     1
102
RTVSPost2010PropOp29
 70
     1
102
RTVSPost2010Prop30
280
     1
102
RTVSPost2010PropOp30
 70
     1
102
RTVSPost2010Prop31
280
     0
102
RTVSPost2010PropOp31
 70
     1
102
RTVSPost2010Prop32
280
     0
102
RTVSPost2010PropOp32
 70
     1
102
RTVSPost2010Prop33
280
     0
102
RTVSPost2010PropOp33
 70
     1
102
RTVSPost2010Prop34
280
     0
102
RTVSPost2010PropOp34
 70
     1
102
RTVSPost2010Prop35
280
     0
102
RTVSPost2010PropOp35
 70
     1
102
RTVSPost2010Prop36
280
     0
102
RTVSPost2010PropOp36
 70
     1
102
RTVSPost2010Prop37
 90
       50
102
RTVSPost2010PropOp37
 70
     1
102
RTVSPost2010Prop38
140
0.0
102
RTVSPost2010PropOp38
 70
     1
102
RTVSPost2010Prop39
140
1.0
102
RTVSPost2010PropOp39
 70
     1
102
RTVSPost2010Prop40
 90
        0
102
RTVSPost2010PropOp40
 70
     1
102
RTVSPost2010Prop41ColorIndex
 90
       18
102
RTVSPost2010Prop41ColorRGB
 90
        0
102
RTVSPost2010PropOp41
 70
     1
102
RTVSPost2010Prop42
 90
       50
102
RTVSPost2010PropOp42
 70
     1
102
RTVSPost2010Prop43
 90
        3
102
RTVSPost2010PropOp43
 70
     1
102
RTVSPost2010Prop44ColorIndex
 90
        5
102
RTVSPost2010Prop44ColorRGB
 90
      255
102
RTVSPost2010PropOp44
 70
     1
102
RTVSPost2010Prop45
280
     0
102
RTVSPost2010PropOp45
 70
     1
102
RTVSPost2010Prop46
 90
       50
102
RTVSPost2010PropOp46
 70
     1
102
RTVSPost2010Prop47
 90
       50
102
RTVSPost2010PropOp47
 70
     1
102
RTVSPost2010Prop48
 90
       50
102
RTVSPost2010PropOp48
 70
     1
102
RTVSPost2010Prop49
280
     0
102
RTVSPost2010PropOp49
 70
     1
102
RTVSPost2010Prop50
 90
       50
102
RTVSPost2010PropOp50
 70
     1
102
RTVSPost2010Prop51ColorIndex
 90
      256
102
RTVSPost2010Prop51ColorRGB
 90
-16777216
102
RTVSPost2010PropOp51
 70
     0
102
RTVSPost2010Prop52
140
1.0
102
RTVSPost2010PropOp52
 70
     0
102
RTVSPost2010Prop53
 90
        2
102
RTVSPost2010PropOp53
 70
     1
102
RTVSPost2010Prop54
  1
strokes_ogs.tif
102
RTVSPost2010PropOp54
 70
     1
102
RTVSPost2010Prop55
280
     0
102
RTVSPost2010PropOp55
 70
     1
102
RTVSPost2010Prop56
140
1.0
102
RTVSPost2010PropOp56
 70
     1
102
RTVSPost2010Prop57
140
1.0
102
RTVSPost2010PropOp57
 70
     1
  0
XRECORD
  5
355
102
{ACAD_REACTORS
330
354
102
}
330
354
100
AcDbXrecord
280
     1
102
RTVSPost2010Prop28
280
     0
102
RTVSPost2010PropOp28
 70
     1
102
RTVSPost2010Prop29
280
     1
102
RTVSPost2010PropOp29
 70
     1
102
RTVSPost2010Prop30
280
     1
102
RTVSPost2010PropOp30
 70
     1
102
RTVSPost2010Prop31
280
     0
102
RTVSPost2010PropOp31
 70
     1
102
RTVSPost2010Prop32
280
     0
102
RTVSPost2010PropOp32
 70
     1
102
RTVSPost2010Prop33
280
     0
102
RTVSPost2010PropOp33
 70
     1
102
RTVSPost2010Prop34
280
     0
102
RTVSPost2010PropOp34
 70
     1
102
RTVSPost2010Prop35
280
     0
102
RTVSPost2010PropOp35
 70
     1
102
RTVSPost2010Prop36
280
     0
102
RTVSPost2010PropOp36
 70
     1
102
RTVSPost2010Prop37
 90
       50
102
RTVSPost2010PropOp37
 70
     1
102
RTVSPost2010Prop38
140
0.0
102
RTVSPost2010PropOp38
 70
     1
102
RTVSPost2010Prop39
140
1.0
102
RTVSPost2010PropOp39
 70
     1
102
RTVSPost2010Prop40
 90
        0
102
RTVSPost2010PropOp40
 70
     1
102
RTVSPost2010Prop41ColorIndex
 90
       18
102
RTVSPost2010Prop41ColorRGB
 90
        0
102
RTVSPost2010PropOp41
 70
     1
102
RTVSPost2010Prop42
 90
       50
102
RTVSPost2010PropOp42
 70
     1
102
RTVSPost2010Prop43
 90
        3
102
RTVSPost2010PropOp43
 70
     1
102
RTVSPost2010Prop44ColorIndex
 90
        5
102
RTVSPost2010Prop44ColorRGB
 90
      255
102
RTVSPost2010PropOp44
 70
     1
102
RTVSPost2010Prop45
280
     0
102
RTVSPost2010PropOp45
 70
     1
102
RTVSPost2010Prop46
 90
       50
102
RTVSPost2010PropOp46
 70
     1
102
RTVSPost2010Prop47
 90
       50
102
RTVSPost2010PropOp47
 70
     1
102
RTVSPost2010Prop48
 90
       50
102
RTVSPost2010PropOp48
 70
     1
102
RTVSPost2010Prop49
280
     0
102
RTVSPost2010PropOp49
 70
     1
102
RTVSPost2010Prop50
 90
       50
102
RTVSPost2010PropOp50
 70
     1
102
RTVSPost2010Prop51ColorIndex
 90
      256
102
RTVSPost2010Prop51ColorRGB
 90
-16777216
102
RTVSPost2010PropOp51
 70
     0
102
RTVSPost2010Prop52
140
1.0
102
RTVSPost2010PropOp52
 70
     0
102
RTVSPost2010Prop53
 90
        2
102
RTVSPost2010PropOp53
 70
     1
102
RTVSPost2010Prop54
  1
strokes_ogs.tif
102
RTVSPost2010PropOp54
 70
     1
102
RTVSPost2010Prop55
280
     0
102
RTVSPost2010PropOp55
 70
     1
102
RTVSPost2010Prop56
140
1.0
102
RTVSPost2010PropOp56
 70
     1
102
RTVSPost2010Prop57
140
1.0
102
RTVSPost2010PropOp57
 70
     1
  0
XRECORD
  5
357
102
{ACAD_REACTORS
330
356
102
}
330
356
100
AcDbXrecord
280
     1
102
RTVSPost2010Prop28
280
     0
102
RTVSPost2010PropOp28
 70
     1
102
RTVSPost2010Prop29
280
     1
102
RTVSPost2010PropOp29
 70
     1
102
RTVSPost2010Prop30
280
     1
102
RTVSPost2010PropOp30
 70
     1
102
RTVSPost2010Prop31
280
     0
102
RTVSPost2010PropOp31
 70
     1
102
RTVSPost2010Prop32
280
     0
102
RTVSPost2010PropOp32
 70
     1
102
RTVSPost2010Prop33
280
     0
102
RTVSPost2010PropOp33
 70
     1
102
RTVSPost2010Prop34
280
     0
102
RTVSPost2010PropOp34
 70
     1
102
RTVSPost2010Prop35
280
     0
102
RTVSPost2010PropOp35
 70
     1
102
RTVSPost2010Prop36
280
     0
102
RTVSPost2010PropOp36
 70
     1
102
RTVSPost2010Prop37
 90
       50
102
RTVSPost2010PropOp37
 70
     1
102
RTVSPost2010Prop38
140
0.0
102
RTVSPost2010PropOp38
 70
     1
102
RTVSPost2010Prop39
140
1.0
102
RTVSPost2010PropOp39
 70
     1
102
RTVSPost2010Prop40
 90
        0
102
RTVSPost2010PropOp40
 70
     1
102
RTVSPost2010Prop41ColorIndex
 90
       18
102
RTVSPost2010Prop41ColorRGB
 90
        0
102
RTVSPost2010PropOp41
 70
     1
102
RTVSPost2010Prop42
 90
       50
102
RTVSPost2010PropOp42
 70
     1
102
RTVSPost2010Prop43
 90
        3
102
RTVSPost2010PropOp43
 70
     1
102
RTVSPost2010Prop44ColorIndex
 90
        5
102
RTVSPost2010Prop44ColorRGB
 90
      255
102
RTVSPost2010PropOp44
 70
     1
102
RTVSPost2010Prop45
280
     0
102
RTVSPost2010PropOp45
 70
     1
102
RTVSPost2010Prop46
 90
       50
102
RTVSPost2010PropOp46
 70
     1
102
RTVSPost2010Prop47
 90
       50
102
RTVSPost2010PropOp47
 70
     1
102
RTVSPost2010Prop48
 90
       50
102
RTVSPost2010PropOp48
 70
     1
102
RTVSPost2010Prop49
280
     0
102
RTVSPost2010PropOp49
 70
     1
102
RTVSPost2010Prop50
 90
       50
102
RTVSPost2010PropOp50
 70
     1
102
RTVSPost2010Prop51ColorIndex
 90
      256
102
RTVSPost2010Prop51ColorRGB
 90
-16777216
102
RTVSPost2010PropOp51
 70
     0
102
RTVSPost2010Prop52
140
1.0
102
RTVSPost2010PropOp52
 70
     0
102
RTVSPost2010Prop53
 90
        2
102
RTVSPost2010PropOp53
 70
     1
102
RTVSPost2010Prop54
  1
strokes_ogs.tif
102
RTVSPost2010PropOp54
 70
     1
102
RTVSPost2010Prop55
280
     0
102
RTVSPost2010PropOp55
 70
     1
102
RTVSPost2010Prop56
140
1.0
102
RTVSPost2010PropOp56
 70
     1
102
RTVSPost2010Prop57
140
1.0
102
RTVSPost2010PropOp57
 70
     1
  0
XRECORD
  5
359
102
{ACAD_REACTORS
330
358
102
}
330
358
100
AcDbXrecord
280
     1
102
RTVSPost2010Prop28
280
     0
102
RTVSPost2010PropOp28
 70
     1
102
RTVSPost2010Prop29
280
     1
102
RTVSPost2010PropOp29
 70
     1
102
RTVSPost2010Prop30
280
     1
102
RTVSPost2010PropOp30
 70
     1
102
RTVSPost2010Prop31
280
     0
102
RTVSPost2010PropOp31
 70
     1
102
RTVSPost2010Prop32
280
     0
102
RTVSPost2010PropOp32
 70
     1
102
RTVSPost2010Prop33
280
     0
102
RTVSPost2010PropOp33
 70
     1
102
RTVSPost2010Prop34
280
     0
102
RTVSPost2010PropOp34
 70
     1
102
RTVSPost2010Prop35
280
     0
102
RTVSPost2010PropOp35
 70
     1
102
RTVSPost2010Prop36
280
     0
102
RTVSPost2010PropOp36
 70
     1
102
RTVSPost2010Prop37
 90
       50
102
RTVSPost2010PropOp37
 70
     1
102
RTVSPost2010Prop38
140
0.0
102
RTVSPost2010PropOp38
 70
     1
102
RTVSPost2010Prop39
140
1.0
102
RTVSPost2010PropOp39
 70
     1
102
RTVSPost2010Prop40
 90
        0
102
RTVSPost2010PropOp40
 70
     1
102
RTVSPost2010Prop41ColorIndex
 90
       18
102
RTVSPost2010Prop41ColorRGB
 90
        0
102
RTVSPost2010PropOp41
 70
     1
102
RTVSPost2010Prop42
 90
       50
102
RTVSPost2010PropOp42
 70
     1
102
RTVSPost2010Prop43
 90
        3
102
RTVSPost2010PropOp43
 70
     1
102
RTVSPost2010Prop44ColorIndex
 90
        5
102
RTVSPost2010Prop44ColorRGB
 90
      255
102
RTVSPost2010PropOp44
 70
     1
102
RTVSPost2010Prop45
280
     0
102
RTVSPost2010PropOp45
 70
     1
102
RTVSPost2010Prop46
 90
       50
102
RTVSPost2010PropOp46
 70
     1
102
RTVSPost2010Prop47
 90
       50
102
RTVSPost2010PropOp47
 70
     1
102
RTVSPost2010Prop48
 90
       50
102
RTVSPost2010PropOp48
 70
     1
102
RTVSPost2010Prop49
280
     0
102
RTVSPost2010PropOp49
 70
     1
102
RTVSPost2010Prop50
 90
       50
102
RTVSPost2010PropOp50
 70
     1
102
RTVSPost2010Prop51ColorIndex
 90
      256
102
RTVSPost2010Prop51ColorRGB
 90
-16777216
102
RTVSPost2010PropOp51
 70
     0
102
RTVSPost2010Prop52
140
1.0
102
RTVSPost2010PropOp52
 70
     0
102
RTVSPost2010Prop53
 90
        2
102
RTVSPost2010PropOp53
 70
     1
102
RTVSPost2010Prop54
  1
strokes_ogs.tif
102
RTVSPost2010PropOp54
 70
     1
102
RTVSPost2010Prop55
280
     0
102
RTVSPost2010PropOp55
 70
     1
102
RTVSPost2010Prop56
140
1.0
102
RTVSPost2010PropOp56
 70
     1
102
RTVSPost2010Prop57
140
1.0
102
RTVSPost2010PropOp57
 70
     1
  0
XRECORD
  5
35D
102
{ACAD_REACTORS
330
35C
102
}
330
35C
100
AcDbXrecord
280
     1
102
RTVSPost2010Prop28
280
     0
102
RTVSPost2010PropOp28
 70
     1
102
RTVSPost2010Prop29
280
     1
102
RTVSPost2010PropOp29
 70
     1
102
RTVSPost2010Prop30
280
     1
102
RTVSPost2010PropOp30
 70
     1
102
RTVSPost2010Prop31
280
     0
102
RTVSPost2010PropOp31
 70
     1
102
RTVSPost2010Prop32
280
     0
102
RTVSPost2010PropOp32
 70
     1
102
RTVSPost2010Prop33
280
     0
102
RTVSPost2010PropOp33
 70
     1
102
RTVSPost2010Prop34
280
     0
102
RTVSPost2010PropOp34
 70
     1
102
RTVSPost2010Prop35
280
     0
102
RTVSPost2010PropOp35
 70
     1
102
RTVSPost2010Prop36
280
     0
102
RTVSPost2010PropOp36
 70
     1
102
RTVSPost2010Prop37
 90
       50
102
RTVSPost2010PropOp37
 70
     1
102
RTVSPost2010Prop38
140
0.0
102
RTVSPost2010PropOp38
 70
     1
102
RTVSPost2010Prop39
140
1.0
102
RTVSPost2010PropOp39
 70
     1
102
RTVSPost2010Prop40
 90
        0
102
RTVSPost2010PropOp40
 70
     1
102
RTVSPost2010Prop41ColorIndex
 90
       18
102
RTVSPost2010Prop41ColorRGB
 90
        0
102
RTVSPost2010PropOp41
 70
     1
102
RTVSPost2010Prop42
 90
       50
102
RTVSPost2010PropOp42
 70
     1
102
RTVSPost2010Prop43
 90
        3
102
RTVSPost2010PropOp43
 70
     1
102
RTVSPost2010Prop44ColorIndex
 90
        5
102
RTVSPost2010Prop44ColorRGB
 90
      255
102
RTVSPost2010PropOp44
 70
     1
102
RTVSPost2010Prop45
280
     0
102
RTVSPost2010PropOp45
 70
     1
102
RTVSPost2010Prop46
 90
       50
102
RTVSPost2010PropOp46
 70
     1
102
RTVSPost2010Prop47
 90
       50
102
RTVSPost2010PropOp47
 70
     1
102
RTVSPost2010Prop48
 90
       50
102
RTVSPost2010PropOp48
 70
     1
102
RTVSPost2010Prop49
280
     0
102
RTVSPost2010PropOp49
 70
     1
102
RTVSPost2010Prop50
 90
       50
102
RTVSPost2010PropOp50
 70
     1
102
RTVSPost2010Prop51ColorIndex
 90
      256
102
RTVSPost2010Prop51ColorRGB
 90
-16777216
102
RTVSPost2010PropOp51
 70
     0
102
RTVSPost2010Prop52
140
1.0
102
RTVSPost2010PropOp52
 70
     0
102
RTVSPost2010Prop53
 90
        2
102
RTVSPost2010PropOp53
 70
     1
102
RTVSPost2010Prop54
  1
strokes_ogs.tif
102
RTVSPost2010PropOp54
 70
     1
102
RTVSPost2010Prop55
280
     0
102
RTVSPost2010PropOp55
 70
     1
102
RTVSPost2010Prop56
140
1.0
102
RTVSPost2010PropOp56
 70
     1
102
RTVSPost2010Prop57
140
1.0
102
RTVSPost2010PropOp57
 70
     1
  0
XRECORD
  5
377
102
{ACAD_REACTORS
330
376
102
}
330
376
100
AcDbXrecord
280
     1
102
RTVSPost2010Prop28
280
     0
102
RTVSPost2010PropOp28
 70
     1
102
RTVSPost2010Prop29
280
     1
102
RTVSPost2010PropOp29
 70
     1
102
RTVSPost2010Prop30
280
     1
102
RTVSPost2010PropOp30
 70
     1
102
RTVSPost2010Prop31
280
     0
102
RTVSPost2010PropOp31
 70
     1
102
RTVSPost2010Prop32
280
     0
102
RTVSPost2010PropOp32
 70
     1
102
RTVSPost2010Prop33
280
     0
102
RTVSPost2010PropOp33
 70
     1
102
RTVSPost2010Prop34
280
     0
102
RTVSPost2010PropOp34
 70
     1
102
RTVSPost2010Prop35
280
     0
102
RTVSPost2010PropOp35
 70
     1
102
RTVSPost2010Prop36
280
     0
102
RTVSPost2010PropOp36
 70
     1
102
RTVSPost2010Prop37
 90
       50
102
RTVSPost2010PropOp37
 70
     0
102
RTVSPost2010Prop38
140
0.0
102
RTVSPost2010PropOp38
 70
     0
102
RTVSPost2010Prop39
140
1.0
102
RTVSPost2010PropOp39
 70
     0
102
RTVSPost2010Prop40
 90
        0
102
RTVSPost2010PropOp40
 70
     0
102
RTVSPost2010Prop41ColorIndex
 90
       18
102
RTVSPost2010Prop41ColorRGB
 90
        0
102
RTVSPost2010PropOp41
 70
     0
102
RTVSPost2010Prop42
 90
       50
102
RTVSPost2010PropOp42
 70
     0
102
RTVSPost2010Prop43
 90
        3
102
RTVSPost2010PropOp43
 70
     0
102
RTVSPost2010Prop44ColorIndex
 90
        5
102
RTVSPost2010Prop44ColorRGB
 90
      255
102
RTVSPost2010PropOp44
 70
     0
102
RTVSPost2010Prop45
280
     0
102
RTVSPost2010PropOp45
 70
     1
102
RTVSPost2010Prop46
 90
       50
102
RTVSPost2010PropOp46
 70
     0
102
RTVSPost2010Prop47
 90
       50
102
RTVSPost2010PropOp47
 70
     0
102
RTVSPost2010Prop48
 90
       50
102
RTVSPost2010PropOp48
 70
     0
102
RTVSPost2010Prop49
280
     0
102
RTVSPost2010PropOp49
 70
     1
102
RTVSPost2010Prop50
 90
       50
102
RTVSPost2010PropOp50
 70
     0
102
RTVSPost2010Prop51ColorIndex
 90
      256
102
RTVSPost2010Prop51ColorRGB
 90
-16777216
102
RTVSPost2010PropOp51
 70
     0
102
RTVSPost2010Prop52
140
1.0
102
RTVSPost2010PropOp52
 70
     0
102
RTVSPost2010Prop53
 90
        2
102
RTVSPost2010PropOp53
 70
     0
102
RTVSPost2010Prop54
  1
strokes_ogs.tif
102
RTVSPost2010PropOp54
 70
     0
102
RTVSPost2010Prop55
280
     0
102
RTVSPost2010PropOp55
 70
     1
102
RTVSPost2010Prop56
140
1.0
102
RTVSPost2010PropOp56
 70
     0
102
RTVSPost2010Prop57
140
1.0
102
RTVSPost2010PropOp57
 70
     0
  0
XRECORD
  5
367
102
{ACAD_REACTORS
330
366
102
}
330
366
100
AcDbXrecord
280
     1
102
RTVSPost2010Prop28
280
     0
102
RTVSPost2010PropOp28
 70
     1
102
RTVSPost2010Prop29
280
     1
102
RTVSPost2010PropOp29
 70
     1
102
RTVSPost2010Prop30
280
     1
102
RTVSPost2010PropOp30
 70
     1
102
RTVSPost2010Prop31
280
     0
102
RTVSPost2010PropOp31
 70
     1
102
RTVSPost2010Prop32
280
     0
102
RTVSPost2010PropOp32
 70
     1
102
RTVSPost2010Prop33
280
     0
102
RTVSPost2010PropOp33
 70
     1
102
RTVSPost2010Prop34
280
     0
102
RTVSPost2010PropOp34
 70
     1
102
RTVSPost2010Prop35
280
     0
102
RTVSPost2010PropOp35
 70
     1
102
RTVSPost2010Prop36
280
     0
102
RTVSPost2010PropOp36
 70
     1
102
RTVSPost2010Prop37
 90
       50
102
RTVSPost2010PropOp37
 70
     1
102
RTVSPost2010Prop38
140
0.0
102
RTVSPost2010PropOp38
 70
     1
102
RTVSPost2010Prop39
140
1.0
102
RTVSPost2010PropOp39
 70
     1
102
RTVSPost2010Prop40
 90
        0
102
RTVSPost2010PropOp40
 70
     1
102
RTVSPost2010Prop41ColorIndex
 90
       18
102
RTVSPost2010Prop41ColorRGB
 90
        0
102
RTVSPost2010PropOp41
 70
     1
102
RTVSPost2010Prop42
 90
       50
102
RTVSPost2010PropOp42
 70
     1
102
RTVSPost2010Prop43
 90
        3
102
RTVSPost2010PropOp43
 70
     1
102
RTVSPost2010Prop44ColorIndex
 90
        5
102
RTVSPost2010Prop44ColorRGB
 90
      255
102
RTVSPost2010PropOp44
 70
     1
102
RTVSPost2010Prop45
280
     0
102
RTVSPost2010PropOp45
 70
     1
102
RTVSPost2010Prop46
 90
       50
102
RTVSPost2010PropOp46
 70
     1
102
RTVSPost2010Prop47
 90
       50
102
RTVSPost2010PropOp47
 70
     1
102
RTVSPost2010Prop48
 90
       50
102
RTVSPost2010PropOp48
 70
     1
102
RTVSPost2010Prop49
280
     0
102
RTVSPost2010PropOp49
 70
     1
102
RTVSPost2010Prop50
 90
       50
102
RTVSPost2010PropOp50
 70
     1
102
RTVSPost2010Prop51ColorIndex
 90
      256
102
RTVSPost2010Prop51ColorRGB
 90
-16777216
102
RTVSPost2010PropOp51
 70
     0
102
RTVSPost2010Prop52
140
1.0
102
RTVSPost2010PropOp52
 70
     0
102
RTVSPost2010Prop53
 90
        2
102
RTVSPost2010PropOp53
 70
     1
102
RTVSPost2010Prop54
  1
strokes_ogs.tif
102
RTVSPost2010PropOp54
 70
     1
102
RTVSPost2010Prop55
280
     0
102
RTVSPost2010PropOp55
 70
     1
102
RTVSPost2010Prop56
140
1.0
102
RTVSPost2010PropOp56
 70
     1
102
RTVSPost2010Prop57
140
1.0
102
RTVSPost2010PropOp57
 70
     1
  0
XRECORD
  5
379
102
{ACAD_REACTORS
330
378
102
}
330
378
100
AcDbXrecord
280
     1
102
RTVSPost2010Prop28
280
     0
102
RTVSPost2010PropOp28
 70
     1
102
RTVSPost2010Prop29
280
     1
102
RTVSPost2010PropOp29
 70
     1
102
RTVSPost2010Prop30
280
     1
102
RTVSPost2010PropOp30
 70
     1
102
RTVSPost2010Prop31
280
     0
102
RTVSPost2010PropOp31
 70
     1
102
RTVSPost2010Prop32
280
     0
102
RTVSPost2010PropOp32
 70
     1
102
RTVSPost2010Prop33
280
     0
102
RTVSPost2010PropOp33
 70
     1
102
RTVSPost2010Prop34
280
     0
102
RTVSPost2010PropOp34
 70
     1
102
RTVSPost2010Prop35
280
     0
102
RTVSPost2010PropOp35
 70
     1
102
RTVSPost2010Prop36
280
     0
102
RTVSPost2010PropOp36
 70
     1
102
RTVSPost2010Prop37
 90
       50
102
RTVSPost2010PropOp37
 70
     0
102
RTVSPost2010Prop38
140
0.0
102
RTVSPost2010PropOp38
 70
     0
102
RTVSPost2010Prop39
140
1.0
102
RTVSPost2010PropOp39
 70
     0
102
RTVSPost2010Prop40
 90
        0
102
RTVSPost2010PropOp40
 70
     0
102
RTVSPost2010Prop41ColorIndex
 90
       18
102
RTVSPost2010Prop41ColorRGB
 90
        0
102
RTVSPost2010PropOp41
 70
     0
102
RTVSPost2010Prop42
 90
       50
102
RTVSPost2010PropOp42
 70
     0
102
RTVSPost2010Prop43
 90
        3
102
RTVSPost2010PropOp43
 70
     0
102
RTVSPost2010Prop44ColorIndex
 90
        5
102
RTVSPost2010Prop44ColorRGB
 90
      255
102
RTVSPost2010PropOp44
 70
     0
102
RTVSPost2010Prop45
280
     0
102
RTVSPost2010PropOp45
 70
     1
102
RTVSPost2010Prop46
 90
       50
102
RTVSPost2010PropOp46
 70
     0
102
RTVSPost2010Prop47
 90
       50
102
RTVSPost2010PropOp47
 70
     0
102
RTVSPost2010Prop48
 90
       50
102
RTVSPost2010PropOp48
 70
     0
102
RTVSPost2010Prop49
280
     0
102
RTVSPost2010PropOp49
 70
     1
102
RTVSPost2010Prop50
 90
       50
102
RTVSPost2010PropOp50
 70
     0
102
RTVSPost2010Prop51ColorIndex
 90
      256
102
RTVSPost2010Prop51ColorRGB
 90
-16777216
102
RTVSPost2010PropOp51
 70
     0
102
RTVSPost2010Prop52
140
1.0
102
RTVSPost2010PropOp52
 70
     0
102
RTVSPost2010Prop53
 90
        2
102
RTVSPost2010PropOp53
 70
     0
102
RTVSPost2010Prop54
  1
strokes_ogs.tif
102
RTVSPost2010PropOp54
 70
     0
102
RTVSPost2010Prop55
280
     0
102
RTVSPost2010PropOp55
 70
     1
102
RTVSPost2010Prop56
140
1.0
102
RTVSPost2010PropOp56
 70
     0
102
RTVSPost2010Prop57
140
1.0
102
RTVSPost2010PropOp57
 70
     0
  0
XRECORD
  5
34F
102
{ACAD_REACTORS
330
34E
102
}
330
34E
100
AcDbXrecord
280
     1
102
RTVSPost2010Prop28
280
     0
102
RTVSPost2010PropOp28
 70
     1
102
RTVSPost2010Prop29
280
     1
102
RTVSPost2010PropOp29
 70
     1
102
RTVSPost2010Prop30
280
     1
102
RTVSPost2010PropOp30
 70
     1
102
RTVSPost2010Prop31
280
     0
102
RTVSPost2010PropOp31
 70
     1
102
RTVSPost2010Prop32
280
     0
102
RTVSPost2010PropOp32
 70
     1
102
RTVSPost2010Prop33
280
     0
102
RTVSPost2010PropOp33
 70
     1
102
RTVSPost2010Prop34
280
     0
102
RTVSPost2010PropOp34
 70
     1
102
RTVSPost2010Prop35
280
     0
102
RTVSPost2010PropOp35
 70
     1
102
RTVSPost2010Prop36
280
     0
102
RTVSPost2010PropOp36
 70
     1
102
RTVSPost2010Prop37
 90
       50
102
RTVSPost2010PropOp37
 70
     1
102
RTVSPost2010Prop38
140
0.0
102
RTVSPost2010PropOp38
 70
     1
102
RTVSPost2010Prop39
140
1.0
102
RTVSPost2010PropOp39
 70
     1
102
RTVSPost2010Prop40
 90
        0
102
RTVSPost2010PropOp40
 70
     1
102
RTVSPost2010Prop41ColorIndex
 90
       18
102
RTVSPost2010Prop41ColorRGB
 90
        0
102
RTVSPost2010PropOp41
 70
     1
102
RTVSPost2010Prop42
 90
       50
102
RTVSPost2010PropOp42
 70
     1
102
RTVSPost2010Prop43
 90
        3
102
RTVSPost2010PropOp43
 70
     1
102
RTVSPost2010Prop44ColorIndex
 90
        5
102
RTVSPost2010Prop44ColorRGB
 90
      255
102
RTVSPost2010PropOp44
 70
     1
102
RTVSPost2010Prop45
280
     0
102
RTVSPost2010PropOp45
 70
     1
102
RTVSPost2010Prop46
 90
       50
102
RTVSPost2010PropOp46
 70
     1
102
RTVSPost2010Prop47
 90
       50
102
RTVSPost2010PropOp47
 70
     1
102
RTVSPost2010Prop48
 90
       50
102
RTVSPost2010PropOp48
 70
     1
102
RTVSPost2010Prop49
280
     0
102
RTVSPost2010PropOp49
 70
     1
102
RTVSPost2010Prop50
 90
       50
102
RTVSPost2010PropOp50
 70
     1
102
RTVSPost2010Prop51ColorIndex
 90
      256
102
RTVSPost2010Prop51ColorRGB
 90
-16777216
102
RTVSPost2010PropOp51
 70
     0
102
RTVSPost2010Prop52
140
1.0
102
RTVSPost2010PropOp52
 70
     0
102
RTVSPost2010Prop53
 90
        2
102
RTVSPost2010PropOp53
 70
     1
102
RTVSPost2010Prop54
  1
strokes_ogs.tif
102
RTVSPost2010PropOp54
 70
     1
102
RTVSPost2010Prop55
280
     0
102
RTVSPost2010PropOp55
 70
     1
102
RTVSPost2010Prop56
140
1.0
102
RTVSPost2010PropOp56
 70
     1
102
RTVSPost2010Prop57
140
1.0
102
RTVSPost2010PropOp57
 70
     1
  0
XRECORD
  5
375
102
{ACAD_REACTORS
330
374
102
}
330
374
100
AcDbXrecord
280
     1
102
RTVSPost2010Prop28
280
     0
102
RTVSPost2010PropOp28
 70
     1
102
RTVSPost2010Prop29
280
     1
102
RTVSPost2010PropOp29
 70
     1
102
RTVSPost2010Prop30
280
     1
102
RTVSPost2010PropOp30
 70
     1
102
RTVSPost2010Prop31
280
     0
102
RTVSPost2010PropOp31
 70
     1
102
RTVSPost2010Prop32
280
     0
102
RTVSPost2010PropOp32
 70
     1
102
RTVSPost2010Prop33
280
     0
102
RTVSPost2010PropOp33
 70
     1
102
RTVSPost2010Prop34
280
     0
102
RTVSPost2010PropOp34
 70
     1
102
RTVSPost2010Prop35
280
     0
102
RTVSPost2010PropOp35
 70
     1
102
RTVSPost2010Prop36
280
     0
102
RTVSPost2010PropOp36
 70
     1
102
RTVSPost2010Prop37
 90
       50
102
RTVSPost2010PropOp37
 70
     1
102
RTVSPost2010Prop38
140
0.0
102
RTVSPost2010PropOp38
 70
     1
102
RTVSPost2010Prop39
140
1.0
102
RTVSPost2010PropOp39
 70
     1
102
RTVSPost2010Prop40
 90
        0
102
RTVSPost2010PropOp40
 70
     1
102
RTVSPost2010Prop41ColorIndex
 90
       18
102
RTVSPost2010Prop41ColorRGB
 90
        0
102
RTVSPost2010PropOp41
 70
     1
102
RTVSPost2010Prop42
 90
       50
102
RTVSPost2010PropOp42
 70
     1
102
RTVSPost2010Prop43
 90
        3
102
RTVSPost2010PropOp43
 70
     1
102
RTVSPost2010Prop44ColorIndex
 90
        5
102
RTVSPost2010Prop44ColorRGB
 90
      255
102
RTVSPost2010PropOp44
 70
     1
102
RTVSPost2010Prop45
280
     0
102
RTVSPost2010PropOp45
 70
     1
102
RTVSPost2010Prop46
 90
       50
102
RTVSPost2010PropOp46
 70
     1
102
RTVSPost2010Prop47
 90
       50
102
RTVSPost2010PropOp47
 70
     1
102
RTVSPost2010Prop48
 90
       50
102
RTVSPost2010PropOp48
 70
     1
102
RTVSPost2010Prop49
280
     0
102
RTVSPost2010PropOp49
 70
     1
102
RTVSPost2010Prop50
 90
       50
102
RTVSPost2010PropOp50
 70
     1
102
RTVSPost2010Prop51ColorIndex
 90
      256
102
RTVSPost2010Prop51ColorRGB
 90
-16777216
102
RTVSPost2010PropOp51
 70
     0
102
RTVSPost2010Prop52
140
1.0
102
RTVSPost2010PropOp52
 70
     0
102
RTVSPost2010Prop53
 90
        2
102
RTVSPost2010PropOp53
 70
     1
102
RTVSPost2010Prop54
  1
strokes_ogs.tif
102
RTVSPost2010PropOp54
 70
     1
102
RTVSPost2010Prop55
280
     0
102
RTVSPost2010PropOp55
 70
     1
102
RTVSPost2010Prop56
140
1.0
102
RTVSPost2010PropOp56
 70
     1
102
RTVSPost2010Prop57
140
1.0
102
RTVSPost2010PropOp57
 70
     1
  0
XRECORD
  5
373
102
{ACAD_REACTORS
330
372
102
}
330
372
100
AcDbXrecord
280
     1
102
RTVSPost2010Prop28
280
     0
102
RTVSPost2010PropOp28
 70
     1
102
RTVSPost2010Prop29
280
     1
102
RTVSPost2010PropOp29
 70
     1
102
RTVSPost2010Prop30
280
     1
102
RTVSPost2010PropOp30
 70
     1
102
RTVSPost2010Prop31
280
     0
102
RTVSPost2010PropOp31
 70
     1
102
RTVSPost2010Prop32
280
     0
102
RTVSPost2010PropOp32
 70
     1
102
RTVSPost2010Prop33
280
     0
102
RTVSPost2010PropOp33
 70
     1
102
RTVSPost2010Prop34
280
     0
102
RTVSPost2010PropOp34
 70
     1
102
RTVSPost2010Prop35
280
     0
102
RTVSPost2010PropOp35
 70
     1
102
RTVSPost2010Prop36
280
     0
102
RTVSPost2010PropOp36
 70
     1
102
RTVSPost2010Prop37
 90
       50
102
RTVSPost2010PropOp37
 70
     1
102
RTVSPost2010Prop38
140
0.0
102
RTVSPost2010PropOp38
 70
     1
102
RTVSPost2010Prop39
140
1.0
102
RTVSPost2010PropOp39
 70
     1
102
RTVSPost2010Prop40
 90
        0
102
RTVSPost2010PropOp40
 70
     1
102
RTVSPost2010Prop41ColorIndex
 90
       18
102
RTVSPost2010Prop41ColorRGB
 90
        0
102
RTVSPost2010PropOp41
 70
     1
102
RTVSPost2010Prop42
 90
       50
102
RTVSPost2010PropOp42
 70
     1
102
RTVSPost2010Prop43
 90
        3
102
RTVSPost2010PropOp43
 70
     1
102
RTVSPost2010Prop44ColorIndex
 90
        5
102
RTVSPost2010Prop44ColorRGB
 90
      255
102
RTVSPost2010PropOp44
 70
     1
102
RTVSPost2010Prop45
280
     0
102
RTVSPost2010PropOp45
 70
     1
102
RTVSPost2010Prop46
 90
       50
102
RTVSPost2010PropOp46
 70
     1
102
RTVSPost2010Prop47
 90
       50
102
RTVSPost2010PropOp47
 70
     1
102
RTVSPost2010Prop48
 90
       50
102
RTVSPost2010PropOp48
 70
     1
102
RTVSPost2010Prop49
280
     0
102
RTVSPost2010PropOp49
 70
     1
102
RTVSPost2010Prop50
 90
       50
102
RTVSPost2010PropOp50
 70
     1
102
RTVSPost2010Prop51ColorIndex
 90
      256
102
RTVSPost2010Prop51ColorRGB
 90
-16777216
102
RTVSPost2010PropOp51
 70
     0
102
RTVSPost2010Prop52
140
1.0
102
RTVSPost2010PropOp52
 70
     0
102
RTVSPost2010Prop53
 90
        2
102
RTVSPost2010PropOp53
 70
     1
102
RTVSPost2010Prop54
  1
strokes_ogs.tif
102
RTVSPost2010PropOp54
 70
     1
102
RTVSPost2010Prop55
280
     0
102
RTVSPost2010PropOp55
 70
     1
102
RTVSPost2010Prop56
140
1.0
102
RTVSPost2010PropOp56
 70
     1
102
RTVSPost2010Prop57
140
1.0
102
RTVSPost2010PropOp57
 70
     1
  0
XRECORD
  5
36D
102
{ACAD_REACTORS
330
36C
102
}
330
36C
100
AcDbXrecord
280
     1
102
RTVSPost2010Prop28
280
     0
102
RTVSPost2010PropOp28
 70
     1
102
RTVSPost2010Prop29
280
     1
102
RTVSPost2010PropOp29
 70
     1
102
RTVSPost2010Prop30
280
     1
102
RTVSPost2010PropOp30
 70
     1
102
RTVSPost2010Prop31
280
     0
102
RTVSPost2010PropOp31
 70
     1
102
RTVSPost2010Prop32
280
     0
102
RTVSPost2010PropOp32
 70
     1
102
RTVSPost2010Prop33
280
     0
102
RTVSPost2010PropOp33
 70
     1
102
RTVSPost2010Prop34
280
     0
102
RTVSPost2010PropOp34
 70
     1
102
RTVSPost2010Prop35
280
     0
102
RTVSPost2010PropOp35
 70
     1
102
RTVSPost2010Prop36
280
     0
102
RTVSPost2010PropOp36
 70
     1
102
RTVSPost2010Prop37
 90
       50
102
RTVSPost2010PropOp37
 70
     1
102
RTVSPost2010Prop38
140
0.0
102
RTVSPost2010PropOp38
 70
     1
102
RTVSPost2010Prop39
140
1.0
102
RTVSPost2010PropOp39
 70
     1
102
RTVSPost2010Prop40
 90
        0
102
RTVSPost2010PropOp40
 70
     1
102
RTVSPost2010Prop41ColorIndex
 90
       18
102
RTVSPost2010Prop41ColorRGB
 90
        0
102
RTVSPost2010PropOp41
 70
     1
102
RTVSPost2010Prop42
 90
       50
102
RTVSPost2010PropOp42
 70
     1
102
RTVSPost2010Prop43
 90
        3
102
RTVSPost2010PropOp43
 70
     1
102
RTVSPost2010Prop44ColorIndex
 90
        5
102
RTVSPost2010Prop44ColorRGB
 90
      255
102
RTVSPost2010PropOp44
 70
     1
102
RTVSPost2010Prop45
280
     0
102
RTVSPost2010PropOp45
 70
     1
102
RTVSPost2010Prop46
 90
       50
102
RTVSPost2010PropOp46
 70
     1
102
RTVSPost2010Prop47
 90
       50
102
RTVSPost2010PropOp47
 70
     1
102
RTVSPost2010Prop48
 90
       50
102
RTVSPost2010PropOp48
 70
     1
102
RTVSPost2010Prop49
280
     0
102
RTVSPost2010PropOp49
 70
     1
102
RTVSPost2010Prop50
 90
       50
102
RTVSPost2010PropOp50
 70
     1
102
RTVSPost2010Prop51ColorIndex
 90
      256
102
RTVSPost2010Prop51ColorRGB
 90
-16777216
102
RTVSPost2010PropOp51
 70
     0
102
RTVSPost2010Prop52
140
1.0
102
RTVSPost2010PropOp52
 70
     0
102
RTVSPost2010Prop53
 90
        2
102
RTVSPost2010PropOp53
 70
     1
102
RTVSPost2010Prop54
  1
strokes_ogs.tif
102
RTVSPost2010PropOp54
 70
     1
102
RTVSPost2010Prop55
280
     0
102
RTVSPost2010PropOp55
 70
     1
102
RTVSPost2010Prop56
140
1.0
102
RTVSPost2010PropOp56
 70
     1
102
RTVSPost2010Prop57
140
1.0
102
RTVSPost2010PropOp57
 70
     1
  0
XRECORD
  5
36F
102
{ACAD_REACTORS
330
36E
102
}
330
36E
100
AcDbXrecord
280
     1
102
RTVSPost2010Prop28
280
     0
102
RTVSPost2010PropOp28
 70
     1
102
RTVSPost2010Prop29
280
     1
102
RTVSPost2010PropOp29
 70
     1
102
RTVSPost2010Prop30
280
     1
102
RTVSPost2010PropOp30
 70
     1
102
RTVSPost2010Prop31
280
     0
102
RTVSPost2010PropOp31
 70
     1
102
RTVSPost2010Prop32
280
     0
102
RTVSPost2010PropOp32
 70
     1
102
RTVSPost2010Prop33
280
     0
102
RTVSPost2010PropOp33
 70
     1
102
RTVSPost2010Prop34
280
     0
102
RTVSPost2010PropOp34
 70
     1
102
RTVSPost2010Prop35
280
     0
102
RTVSPost2010PropOp35
 70
     1
102
RTVSPost2010Prop36
280
     0
102
RTVSPost2010PropOp36
 70
     1
102
RTVSPost2010Prop37
 90
       50
102
RTVSPost2010PropOp37
 70
     1
102
RTVSPost2010Prop38
140
0.0
102
RTVSPost2010PropOp38
 70
     1
102
RTVSPost2010Prop39
140
1.0
102
RTVSPost2010PropOp39
 70
     1
102
RTVSPost2010Prop40
 90
        0
102
RTVSPost2010PropOp40
 70
     1
102
RTVSPost2010Prop41ColorIndex
 90
       18
102
RTVSPost2010Prop41ColorRGB
 90
        0
102
RTVSPost2010PropOp41
 70
     1
102
RTVSPost2010Prop42
 90
       50
102
RTVSPost2010PropOp42
 70
     1
102
RTVSPost2010Prop43
 90
        3
102
RTVSPost2010PropOp43
 70
     1
102
RTVSPost2010Prop44ColorIndex
 90
        5
102
RTVSPost2010Prop44ColorRGB
 90
      255
102
RTVSPost2010PropOp44
 70
     1
102
RTVSPost2010Prop45
280
     0
102
RTVSPost2010PropOp45
 70
     1
102
RTVSPost2010Prop46
 90
       50
102
RTVSPost2010PropOp46
 70
     1
102
RTVSPost2010Prop47
 90
       50
102
RTVSPost2010PropOp47
 70
     1
102
RTVSPost2010Prop48
 90
       50
102
RTVSPost2010PropOp48
 70
     1
102
RTVSPost2010Prop49
280
     0
102
RTVSPost2010PropOp49
 70
     1
102
RTVSPost2010Prop50
 90
       50
102
RTVSPost2010PropOp50
 70
     1
102
RTVSPost2010Prop51ColorIndex
 90
      256
102
RTVSPost2010Prop51ColorRGB
 90
-16777216
102
RTVSPost2010PropOp51
 70
     0
102
RTVSPost2010Prop52
140
1.0
102
RTVSPost2010PropOp52
 70
     0
102
RTVSPost2010Prop53
 90
        2
102
RTVSPost2010PropOp53
 70
     1
102
RTVSPost2010Prop54
  1
strokes_ogs.tif
102
RTVSPost2010PropOp54
 70
     1
102
RTVSPost2010Prop55
280
     0
102
RTVSPost2010PropOp55
 70
     1
102
RTVSPost2010Prop56
140
1.0
102
RTVSPost2010PropOp56
 70
     1
102
RTVSPost2010Prop57
140
1.0
102
RTVSPost2010PropOp57
 70
     1
  0
XRECORD
  5
365
102
{ACAD_REACTORS
330
364
102
}
330
364
100
AcDbXrecord
280
     1
102
RTVSPost2010Prop28
280
     0
102
RTVSPost2010PropOp28
 70
     1
102
RTVSPost2010Prop29
280
     1
102
RTVSPost2010PropOp29
 70
     1
102
RTVSPost2010Prop30
280
     1
102
RTVSPost2010PropOp30
 70
     1
102
RTVSPost2010Prop31
280
     0
102
RTVSPost2010PropOp31
 70
     1
102
RTVSPost2010Prop32
280
     0
102
RTVSPost2010PropOp32
 70
     1
102
RTVSPost2010Prop33
280
     0
102
RTVSPost2010PropOp33
 70
     1
102
RTVSPost2010Prop34
280
     0
102
RTVSPost2010PropOp34
 70
     1
102
RTVSPost2010Prop35
280
     0
102
RTVSPost2010PropOp35
 70
     1
102
RTVSPost2010Prop36
280
     0
102
RTVSPost2010PropOp36
 70
     1
102
RTVSPost2010Prop37
 90
       50
102
RTVSPost2010PropOp37
 70
     1
102
RTVSPost2010Prop38
140
0.0
102
RTVSPost2010PropOp38
 70
     1
102
RTVSPost2010Prop39
140
1.0
102
RTVSPost2010PropOp39
 70
     1
102
RTVSPost2010Prop40
 90
        0
102
RTVSPost2010PropOp40
 70
     1
102
RTVSPost2010Prop41ColorIndex
 90
       18
102
RTVSPost2010Prop41ColorRGB
 90
        0
102
RTVSPost2010PropOp41
 70
     1
102
RTVSPost2010Prop42
 90
       50
102
RTVSPost2010PropOp42
 70
     1
102
RTVSPost2010Prop43
 90
        3
102
RTVSPost2010PropOp43
 70
     1
102
RTVSPost2010Prop44ColorIndex
 90
        5
102
RTVSPost2010Prop44ColorRGB
 90
      255
102
RTVSPost2010PropOp44
 70
     1
102
RTVSPost2010Prop45
280
     0
102
RTVSPost2010PropOp45
 70
     1
102
RTVSPost2010Prop46
 90
       50
102
RTVSPost2010PropOp46
 70
     1
102
RTVSPost2010Prop47
 90
       50
102
RTVSPost2010PropOp47
 70
     1
102
RTVSPost2010Prop48
 90
       50
102
RTVSPost2010PropOp48
 70
     1
102
RTVSPost2010Prop49
280
     0
102
RTVSPost2010PropOp49
 70
     1
102
RTVSPost2010Prop50
 90
       50
102
RTVSPost2010PropOp50
 70
     1
102
RTVSPost2010Prop51ColorIndex
 90
      256
102
RTVSPost2010Prop51ColorRGB
 90
-16777216
102
RTVSPost2010PropOp51
 70
     0
102
RTVSPost2010Prop52
140
1.0
102
RTVSPost2010PropOp52
 70
     0
102
RTVSPost2010Prop53
 90
        2
102
RTVSPost2010PropOp53
 70
     1
102
RTVSPost2010Prop54
  1
strokes_ogs.tif
102
RTVSPost2010PropOp54
 70
     1
102
RTVSPost2010Prop55
280
     0
102
RTVSPost2010PropOp55
 70
     1
102
RTVSPost2010Prop56
140
1.0
102
RTVSPost2010PropOp56
 70
     1
102
RTVSPost2010Prop57
140
1.0
102
RTVSPost2010PropOp57
 70
     1
  0
XRECORD
  5
351
102
{ACAD_REACTORS
330
350
102
}
330
350
100
AcDbXrecord
280
     1
102
RTVSPost2010Prop28
280
     0
102
RTVSPost2010PropOp28
 70
     1
102
RTVSPost2010Prop29
280
     1
102
RTVSPost2010PropOp29
 70
     1
102
RTVSPost2010Prop30
280
     1
102
RTVSPost2010PropOp30
 70
     1
102
RTVSPost2010Prop31
280
     0
102
RTVSPost2010PropOp31
 70
     1
102
RTVSPost2010Prop32
280
     0
102
RTVSPost2010PropOp32
 70
     1
102
RTVSPost2010Prop33
280
     0
102
RTVSPost2010PropOp33
 70
     1
102
RTVSPost2010Prop34
280
     0
102
RTVSPost2010PropOp34
 70
     1
102
RTVSPost2010Prop35
280
     0
102
RTVSPost2010PropOp35
 70
     1
102
RTVSPost2010Prop36
280
     0
102
RTVSPost2010PropOp36
 70
     1
102
RTVSPost2010Prop37
 90
       50
102
RTVSPost2010PropOp37
 70
     1
102
RTVSPost2010Prop38
140
0.0
102
RTVSPost2010PropOp38
 70
     1
102
RTVSPost2010Prop39
140
1.0
102
RTVSPost2010PropOp39
 70
     1
102
RTVSPost2010Prop40
 90
        0
102
RTVSPost2010PropOp40
 70
     1
102
RTVSPost2010Prop41ColorIndex
 90
       18
102
RTVSPost2010Prop41ColorRGB
 90
        0
102
RTVSPost2010PropOp41
 70
     1
102
RTVSPost2010Prop42
 90
       50
102
RTVSPost2010PropOp42
 70
     1
102
RTVSPost2010Prop43
 90
        3
102
RTVSPost2010PropOp43
 70
     1
102
RTVSPost2010Prop44ColorIndex
 90
        5
102
RTVSPost2010Prop44ColorRGB
 90
      255
102
RTVSPost2010PropOp44
 70
     1
102
RTVSPost2010Prop45
280
     0
102
RTVSPost2010PropOp45
 70
     1
102
RTVSPost2010Prop46
 90
       50
102
RTVSPost2010PropOp46
 70
     1
102
RTVSPost2010Prop47
 90
       50
102
RTVSPost2010PropOp47
 70
     1
102
RTVSPost2010Prop48
 90
       50
102
RTVSPost2010PropOp48
 70
     1
102
RTVSPost2010Prop49
280
     0
102
RTVSPost2010PropOp49
 70
     1
102
RTVSPost2010Prop50
 90
       50
102
RTVSPost2010PropOp50
 70
     1
102
RTVSPost2010Prop51ColorIndex
 90
      256
102
RTVSPost2010Prop51ColorRGB
 90
-16777216
102
RTVSPost2010PropOp51
 70
     0
102
RTVSPost2010Prop52
140
1.0
102
RTVSPost2010PropOp52
 70
     0
102
RTVSPost2010Prop53
 90
        2
102
RTVSPost2010PropOp53
 70
     1
102
RTVSPost2010Prop54
  1
strokes_ogs.tif
102
RTVSPost2010PropOp54
 70
     1
102
RTVSPost2010Prop55
280
     0
102
RTVSPost2010PropOp55
 70
     1
102
RTVSPost2010Prop56
140
1.0
102
RTVSPost2010PropOp56
 70
     1
102
RTVSPost2010Prop57
140
1.0
102
RTVSPost2010PropOp57
 70
     1
  0
XRECORD
  5
371
102
{ACAD_REACTORS
330
370
102
}
330
370
100
AcDbXrecord
280
     1
102
RTVSPost2010Prop28
280
     0
102
RTVSPost2010PropOp28
 70
     1
102
RTVSPost2010Prop29
280
     1
102
RTVSPost2010PropOp29
 70
     1
102
RTVSPost2010Prop30
280
     1
102
RTVSPost2010PropOp30
 70
     1
102
RTVSPost2010Prop31
280
     0
102
RTVSPost2010PropOp31
 70
     1
102
RTVSPost2010Prop32
280
     0
102
RTVSPost2010PropOp32
 70
     1
102
RTVSPost2010Prop33
280
     0
102
RTVSPost2010PropOp33
 70
     1
102
RTVSPost2010Prop34
280
     0
102
RTVSPost2010PropOp34
 70
     1
102
RTVSPost2010Prop35
280
     0
102
RTVSPost2010PropOp35
 70
     1
102
RTVSPost2010Prop36
280
     0
102
RTVSPost2010PropOp36
 70
     1
102
RTVSPost2010Prop37
 90
       50
102
RTVSPost2010PropOp37
 70
     1
102
RTVSPost2010Prop38
140
0.0
102
RTVSPost2010PropOp38
 70
     1
102
RTVSPost2010Prop39
140
1.0
102
RTVSPost2010PropOp39
 70
     1
102
RTVSPost2010Prop40
 90
        0
102
RTVSPost2010PropOp40
 70
     1
102
RTVSPost2010Prop41ColorIndex
 90
       18
102
RTVSPost2010Prop41ColorRGB
 90
        0
102
RTVSPost2010PropOp41
 70
     1
102
RTVSPost2010Prop42
 90
       50
102
RTVSPost2010PropOp42
 70
     1
102
RTVSPost2010Prop43
 90
        3
102
RTVSPost2010PropOp43
 70
     1
102
RTVSPost2010Prop44ColorIndex
 90
        5
102
RTVSPost2010Prop44ColorRGB
 90
      255
102
RTVSPost2010PropOp44
 70
     1
102
RTVSPost2010Prop45
280
     0
102
RTVSPost2010PropOp45
 70
     1
102
RTVSPost2010Prop46
 90
       50
102
RTVSPost2010PropOp46
 70
     1
102
RTVSPost2010Prop47
 90
       50
102
RTVSPost2010PropOp47
 70
     1
102
RTVSPost2010Prop48
 90
       50
102
RTVSPost2010PropOp48
 70
     1
102
RTVSPost2010Prop49
280
     0
102
RTVSPost2010PropOp49
 70
     1
102
RTVSPost2010Prop50
 90
       50
102
RTVSPost2010PropOp50
 70
     1
102
RTVSPost2010Prop51ColorIndex
 90
      256
102
RTVSPost2010Prop51ColorRGB
 90
-16777216
102
RTVSPost2010PropOp51
 70
     0
102
RTVSPost2010Prop52
140
1.0
102
RTVSPost2010PropOp52
 70
     0
102
RTVSPost2010Prop53
 90
        2
102
RTVSPost2010PropOp53
 70
     1
102
RTVSPost2010Prop54
  1
strokes_ogs.tif
102
RTVSPost2010PropOp54
 70
     1
102
RTVSPost2010Prop55
280
     0
102
RTVSPost2010PropOp55
 70
     1
102
RTVSPost2010Prop56
140
1.0
102
RTVSPost2010PropOp56
 70
     1
102
RTVSPost2010Prop57
140
1.0
102
RTVSPost2010PropOp57
 70
     1
  0
ENDSEC
  0
EOF
