  0
SECTION
  2
HEADER
  9
$ACADVER
  1
AC1018
  9
$ACADMAINTVER
 70
   104
  9
$DWGCODEPAGE
  3
ANSI_932
  9
$INSBASE
 10
0.0
 20
0.0
 30
0.0
  9
$EXTMIN
 10
0.2582365124183354
 20
0.2652391950283004
 30
-0.0000000349181948
  9
$EXTMAX
 10
50.25978479291345
 20
30.94660665786058
 30
0.0000000814935747
  9
$LIMMIN
 10
-13.12609842584243
 20
-11.95782185503731
  9
$LIMMAX
 10
62.79840273468335
 20
38.71592057362887
  9
$ORTHOMODE
 70
     0
  9
$REGENMODE
 70
     1
  9
$FILLMODE
 70
     1
  9
$QTEXTMODE
 70
     0
  9
$MIRRTEXT
 70
     0
  9
$LTSCALE
 40
1.0
  9
$ATTMODE
 70
     1
  9
$TEXTSIZE
 40
2.5
  9
$TRACEWID
 40
1.0
  9
$TEXTSTYLE
  7
Standard
  9
$CLAYER
  8
0
  9
$CELTYPE
  6
ByLayer
  9
$CECOLOR
 62
   256
  9
$CELTSCALE
 40
1.0
  9
$DISPSILH
 70
     0
  9
$DIMSCALE
 40
1.0
  9
$DIMASZ
 40
2.5
  9
$DIMEXO
 40
0.625
  9
$DIMDLI
 40
3.75
  9
$DIMRND
 40
0.0
  9
$DIMDLE
 40
0.0
  9
$DIMEXE
 40
1.25
  9
$DIMTP
 40
0.0
  9
$DIMTM
 40
0.0
  9
$DIMTXT
 40
2.5
  9
$DIMCEN
 40
2.5
  9
$DIMTSZ
 40
0.0
  9
$DIMTOL
 70
     0
  9
$DIMLIM
 70
     0
  9
$DIMTIH
 70
     0
  9
$DIMTOH
 70
     0
  9
$DIMSE1
 70
     0
  9
$DIMSE2
 70
     0
  9
$DIMTAD
 70
     1
  9
$DIMZIN
 70
     8
  9
$DIMBLK
  1

  9
$DIMASO
 70
     1
  9
$DIMSHO
 70
     1
  9
$DIMPOST
  1

  9
$DIMAPOST
  1

  9
$DIMALT
 70
     0
  9
$DIMALTD
 70
     3
  9
$DIMALTF
 40
0.03937007874016
  9
$DIMLFAC
 40
1.0
  9
$DIMTOFL
 70
     1
  9
$DIMTVP
 40
0.0
  9
$DIMTIX
 70
     0
  9
$DIMSOXD
 70
     0
  9
$DIMSAH
 70
     0
  9
$DIMBLK1
  1

  9
$DIMBLK2
  1

  9
$DIMSTYLE
  2
ISO-25
  9
$DIMCLRD
 70
     0
  9
$DIMCLRE
 70
     0
  9
$DIMCLRT
 70
     0
  9
$DIMTFAC
 40
1.0
  9
$DIMGAP
 40
0.625
  9
$DIMJUST
 70
     0
  9
$DIMSD1
 70
     0
  9
$DIMSD2
 70
     0
  9
$DIMTOLJ
 70
     0
  9
$DIMTZIN
 70
     8
  9
$DIMALTZ
 70
     0
  9
$DIMALTTZ
 70
     0
  9
$DIMUPT
 70
     0
  9
$DIMDEC
 70
     2
  9
$DIMTDEC
 70
     2
  9
$DIMALTU
 70
     2
  9
$DIMALTTD
 70
     3
  9
$DIMTXSTY
  7
Standard
  9
$DIMAUNIT
 70
     0
  9
$DIMADEC
 70
     0
  9
$DIMALTRND
 40
0.0
  9
$DIMAZIN
 70
     0
  9
$DIMDSEP
 70
    44
  9
$DIMATFIT
 70
     3
  9
$DIMFRAC
 70
     0
  9
$DIMLDRBLK
  1

  9
$DIMLUNIT
 70
     2
  9
$DIMLWD
 70
    -2
  9
$DIMLWE
 70
    -2
  9
$DIMTMOVE
 70
     0
  9
$LUNITS
 70
     2
  9
$LUPREC
 70
     4
  9
$SKETCHINC
 40
1.0
  9
$FILLETRAD
 40
0.0
  9
$AUNITS
 70
     0
  9
$AUPREC
 70
     0
  9
$MENU
  1
.
  9
$ELEVATION
 40
0.0
  9
$PELEVATION
 40
0.0
  9
$THICKNESS
 40
0.0
  9
$LIMCHECK
 70
     0
  9
$CHAMFERA
 40
0.0
  9
$CHAMFERB
 40
0.0
  9
$CHAMFERC
 40
0.0
  9
$CHAMFERD
 40
0.0
  9
$SKPOLY
 70
     0
  9
$TDCREATE
 40
2459040.616724537
  9
$TDUCREATE
 40
2459040.283391204
  9
$TDUPDATE
 40
2459040.685578704
  9
$TDUUPDATE
 40
2459040.352245370
  9
$TDINDWG
 40
0.0037847222
  9
$TDUSRTIMER
 40
0.0037847222
  9
$USRTIMER
 70
     1
  9
$ANGBASE
 50
0.0
  9
$ANGDIR
 70
     0
  9
$PDMODE
 70
     0
  9
$PDSIZE
 40
0.0
  9
$PLINEWID
 40
0.0
  9
$SPLFRAME
 70
     0
  9
$SPLINETYPE
 70
     6
  9
$SPLINESEGS
 70
     8
  9
$HANDSEED
  5
208
  9
$SURFTAB1
 70
     6
  9
$SURFTAB2
 70
     6
  9
$SURFTYPE
 70
     6
  9
$SURFU
 70
     6
  9
$SURFV
 70
     6
  9
$UCSBASE
  2

  9
$UCSNAME
  2

  9
$UCSORG
 10
0.0
 20
0.0
 30
0.0
  9
$UCSXDIR
 10
1.0
 20
0.0
 30
0.0
  9
$UCSYDIR
 10
0.0
 20
1.0
 30
0.0
  9
$UCSORTHOREF
  2

  9
$UCSORTHOVIEW
 70
     0
  9
$UCSORGTOP
 10
0.0
 20
0.0
 30
0.0
  9
$UCSORGBOTTOM
 10
0.0
 20
0.0
 30
0.0
  9
$UCSORGLEFT
 10
0.0
 20
0.0
 30
0.0
  9
$UCSORGRIGHT
 10
0.0
 20
0.0
 30
0.0
  9
$UCSORGFRONT
 10
0.0
 20
0.0
 30
0.0
  9
$UCSORGBACK
 10
0.0
 20
0.0
 30
0.0
  9
$PUCSBASE
  2

  9
$PUCSNAME
  2

  9
$PUCSORG
 10
0.0
 20
0.0
 30
0.0
  9
$PUCSXDIR
 10
1.0
 20
0.0
 30
0.0
  9
$PUCSYDIR
 10
0.0
 20
1.0
 30
0.0
  9
$PUCSORTHOREF
  2

  9
$PUCSORTHOVIEW
 70
     0
  9
$PUCSORGTOP
 10
0.0
 20
0.0
 30
0.0
  9
$PUCSORGBOTTOM
 10
0.0
 20
0.0
 30
0.0
  9
$PUCSORGLEFT
 10
0.0
 20
0.0
 30
0.0
  9
$PUCSORGRIGHT
 10
0.0
 20
0.0
 30
0.0
  9
$PUCSORGFRONT
 10
0.0
 20
0.0
 30
0.0
  9
$PUCSORGBACK
 10
0.0
 20
0.0
 30
0.0
  9
$USERI1
 70
     0
  9
$USERI2
 70
     0
  9
$USERI3
 70
     0
  9
$USERI4
 70
     0
  9
$USERI5
 70
     0
  9
$USERR1
 40
0.0
  9
$USERR2
 40
0.0
  9
$USERR3
 40
0.0
  9
$USERR4
 40
0.0
  9
$USERR5
 40
0.0
  9
$WORLDVIEW
 70
     1
  9
$SHADEDGE
 70
     3
  9
$SHADEDIF
 70
    70
  9
$TILEMODE
 70
     1
  9
$MAXACTVP
 70
    64
  9
$PINSBASE
 10
0.0
 20
0.0
 30
0.0
  9
$PLIMCHECK
 70
     0
  9
$PEXTMIN
 10
0.0
 20
0.0
 30
0.0
  9
$PEXTMAX
 10
0.0
 20
0.0
 30
0.0
  9
$PLIMMIN
 10
0.0
 20
0.0
  9
$PLIMMAX
 10
12.0
 20
9.0
  9
$UNITMODE
 70
     0
  9
$VISRETAIN
 70
     1
  9
$PLINEGEN
 70
     0
  9
$PSLTSCALE
 70
     1
  9
$TREEDEPTH
 70
  3020
  9
$CMLSTYLE
  2
Standard
  9
$CMLJUST
 70
     0
  9
$CMLSCALE
 40
20.0
  9
$PROXYGRAPHICS
 70
     1
  9
$MEASUREMENT
 70
     1
  9
$CELWEIGHT
370
    -1
  9
$ENDCAPS
280
     0
  9
$JOINSTYLE
280
     0
  9
$LWDISPLAY
290
     0
  9
$INSUNITS
 70
     4
  9
$HYPERLINKBASE
  1

  9
$STYLESHEET
  1

  9
$XEDIT
290
     1
  9
$CEPSNTYPE
380
     0
  9
$PSTYLEMODE
290
     1
  9
$FINGERPRINTGUID
  2
{22F0F681-7451-5E49-A37A-21CADC1CA967}
  9
$VERSIONGUID
  2
{9BC441A4-820A-C944-AC79-C54F3D4C5AF6}
  9
$EXTNAMES
290
     1
  9
$PSVPSCALE
 40
0.0
  9
$OLESTARTUP
290
     0
  9
$SORTENTS
280
   127
  9
$INDEXCTL
280
     0
  9
$HIDETEXT
280
     1
  9
$XCLIPFRAME
290
     0
  9
$HALOGAP
280
     0
  9
$OBSCOLOR
 70
   257
  9
$OBSLTYPE
280
     0
  9
$INTERSECTIONDISPLAY
280
     0
  9
$INTERSECTIONCOLOR
 70
   257
  9
$DIMASSOC
280
     2
  9
$PROJECTNAME
  1

  0
ENDSEC
  0
SECTION
  2
CLASSES
  0
CLASS
  1
ACDBDICTIONARYWDFLT
  2
AcDbDictionaryWithDefault
  3
ObjectDBX Classes
 90
        0
 91
        1
280
     0
281
     0
  0
CLASS
  1
DICTIONARYVAR
  2
AcDbDictionaryVar
  3
ObjectDBX Classes
 90
        0
 91
       12
280
     0
281
     0
  0
CLASS
  1
TABLESTYLE
  2
AcDbTableStyle
  3
ObjectDBX Classes
 90
     4095
 91
        1
280
     0
281
     0
  0
CLASS
  1
MATERIAL
  2
AcDbMaterial
  3
ObjectDBX Classes
 90
     1153
 91
        3
280
     0
281
     0
  0
CLASS
  1
VISUALSTYLE
  2
AcDbVisualStyle
  3
ObjectDBX Classes
 90
     4095
 91
        3
280
     0
281
     0
  0
CLASS
  1
SCALE
  2
AcDbScale
  3
ObjectDBX Classes
 90
     1153
 91
       17
280
     0
281
     0
  0
CLASS
  1
MLEADERSTYLE
  2
AcDbMLeaderStyle
  3
ACDB_MLEADERSTYLE_CLASS
 90
     4095
 91
        0
280
     0
281
     0
  0
CLASS
  1
CELLSTYLEMAP
  2
AcDbCellStyleMap
  3
ObjectDBX Classes
 90
     1152
 91
        1
280
     0
281
     0
  0
CLASS
  1
EXACXREFPANELOBJECT
  2
ExAcXREFPanelObject
  3
EXAC_ESW
 90
     1025
 91
        0
280
     1
281
     0
  0
CLASS
  1
NPOCOLLECTION
  2
AcDbImpNonPersistentObjectsCollection
  3
ObjectDBX Classes
 90
     1153
 91
        0
280
     0
281
     0
  0
CLASS
  1
LAYER_INDEX
  2
AcDbLayerIndex
  3
ObjectDBX Classes
 90
        0
 91
        0
280
     0
281
     0
  0
CLASS
  1
SPATIAL_INDEX
  2
AcDbSpatialIndex
  3
ObjectDBX Classes
 90
        0
 91
        0
280
     0
281
     0
  0
CLASS
  1
IDBUFFER
  2
AcDbIdBuffer
  3
ObjectDBX Classes
 90
        0
 91
        0
280
     0
281
     0
  0
CLASS
  1
ACDBSECTIONVIEWSTYLE
  2
AcDbSectionViewStyle
  3
ObjectDBX Classes
 90
     1025
 91
        0
280
     0
281
     0
  0
CLASS
  1
ACDBDETAILVIEWSTYLE
  2
AcDbDetailViewStyle
  3
ObjectDBX Classes
 90
     1025
 91
        0
280
     0
281
     0
  0
CLASS
  1
DIMASSOC
  2
AcDbDimAssoc
  3
"AcDbDimAssoc|Product Desc:     AcDim ARX App For Dimension|Company:          Autodesk, Inc.|WEB Address:      www.autodesk.com"
 90
        0
 91
        0
280
     0
281
     0
  0
ENDSEC
  0
SECTION
  2
TABLES
  0
TABLE
  2
VPORT
  5
29
330
0
100
AcDbSymbolTable
 70
     1
  0
VPORT
  5
2A
330
29
100
AcDbSymbolTableRecord
100
AcDbViewportTableRecord
  2
*Active
 70
     0
 10
0.0
 20
0.0
 11
1.0
 21
1.0
 12
24.83615215442047
 22
13.37904935929578
 13
0.0
 23
0.0
 14
10.0
 24
10.0
 15
10.0
 25
10.0
 16
0.0
 26
0.0
 36
1.0
 17
0.0
 27
0.0
 37
0.0
 40
51.13094912727069
 41
2.396084337349397
 42
50.0
 43
0.0
 44
0.0
 50
0.0
 51
0.0
 71
     0
 72
  1000
 73
     1
 74
     3
 75
     0
 76
     1
 77
     0
 78
     0
281
     0
 65
     1
110
0.0
120
0.0
130
0.0
111
1.0
121
0.0
131
0.0
112
0.0
122
1.0
132
0.0
 79
     0
146
0.0
1001
ACAD_NAV_VCDISPLAY
1070
     3
  0
ENDTAB
  0
TABLE
  2
LTYPE
  5
24
330
0
100
AcDbSymbolTable
 70
     1
  0
LTYPE
  5
25
330
24
100
AcDbSymbolTableRecord
100
AcDbLinetypeTableRecord
  2
ByBlock
 70
     0
  3

 72
    65
 73
     0
 40
0.0
  0
LTYPE
  5
26
330
24
100
AcDbSymbolTableRecord
100
AcDbLinetypeTableRecord
  2
ByLayer
 70
     0
  3

 72
    65
 73
     0
 40
0.0
  0
LTYPE
  5
14
330
24
100
AcDbSymbolTableRecord
100
AcDbLinetypeTableRecord
  2
Continuous
 70
     0
  3
Solid line
 72
    65
 73
     0
 40
0.0
  0
ENDTAB
  0
TABLE
  2
LAYER
  5
1E
102
{ACAD_XDICTIONARY
360
1F
102
}
330
0
100
AcDbSymbolTable
 70
     1
  0
LAYER
  5
5
102
{ACAD_XDICTIONARY
360
6
102
}
330
1E
100
AcDbSymbolTableRecord
100
AcDbLayerTableRecord
  2
0
 70
     0
 62
     7
  6
Continuous
370
    -3
390
7
  0
ENDTAB
  0
TABLE
  2
STYLE
  5
21
330
0
100
AcDbSymbolTable
 70
     1
  0
STYLE
  5
22
330
21
100
AcDbSymbolTableRecord
100
AcDbTextStyleTableRecord
  2
Standard
 70
     0
 40
0.0
 41
1.0
 50
0.0
 71
     0
 42
2.5
  3
arial.ttf
  4

1001
ACAD
1000
Arial
1071
       34
  0
ENDTAB
  0
TABLE
  2
VIEW
  5
27
330
0
100
AcDbSymbolTable
 70
     0
  0
ENDTAB
  0
TABLE
  2
UCS
  5
28
330
0
100
AcDbSymbolTable
 70
     0
  0
ENDTAB
  0
TABLE
  2
APPID
  5
2E
330
0
100
AcDbSymbolTable
 70
     3
  0
APPID
  5
13
330
2E
100
AcDbSymbolTableRecord
100
AcDbRegAppTableRecord
  2
ACAD
 70
     0
  0
APPID
  5
19
330
2E
100
AcDbSymbolTableRecord
100
AcDbRegAppTableRecord
  2
ACAD_PSEXT
 70
     0
  0
APPID
  5
2D
330
2E
100
AcDbSymbolTableRecord
100
AcDbRegAppTableRecord
  2
ACAD_NAV_VCDISPLAY
 70
     0
  0
ENDTAB
  0
TABLE
  2
DIMSTYLE
  5
2F
330
0
100
AcDbSymbolTable
 70
     1
100
AcDbDimStyleTable
 71
     1
340
30
  0
DIMSTYLE
105
30
330
2F
100
AcDbSymbolTableRecord
100
AcDbDimStyleTableRecord
  2
ISO-25
 70
     0
 41
2.5
 42
0.625
 43
3.75
 44
1.25
 73
     0
 74
     0
 77
     1
 78
     8
140
2.5
141
2.5
143
0.03937007874016
147
0.625
171
     3
172
     1
271
     2
272
     2
274
     3
278
    44
283
     0
284
     8
340
22
  0
ENDTAB
  0
TABLE
  2
BLOCK_RECORD
  5
1
330
0
100
AcDbSymbolTable
 70
     0
  0
BLOCK_RECORD
  5
2
102
{ACAD_XDICTIONARY
360
3
102
}
330
1
100
AcDbSymbolTableRecord
100
AcDbBlockTableRecord
  2
*Model_Space
340
16
  0
BLOCK_RECORD
  5
1A
330
1
100
AcDbSymbolTableRecord
100
AcDbBlockTableRecord
  2
*Paper_Space
340
1D
  0
ENDTAB
  0
ENDSEC
  0
SECTION
  2
BLOCKS
  0
BLOCK
  5
4
330
2
100
AcDbEntity
  8
0
100
AcDbBlockBegin
  2
*Model_Space
 70
     0
 10
0.0
 20
0.0
 30
0.0
  3
*Model_Space
  1

  0
ENDBLK
  5
15
330
2
100
AcDbEntity
  8
0
100
AcDbBlockEnd
  0
BLOCK
  5
1B
330
1A
100
AcDbEntity
 67
     1
  8
0
100
AcDbBlockBegin
  2
*Paper_Space
 70
     0
 10
0.0
 20
0.0
 30
0.0
  3
*Paper_Space
  1

  0
ENDBLK
  5
1C
330
1A
100
AcDbEntity
 67
     1
  8
0
100
AcDbBlockEnd
  0
ENDSEC
  0
SECTION
  2
ENTITIES
  0
SPLINE
  5
57
330
2
100
AcDbEntity
  8
0
100
AcDbSpline
210
0.0
220
0.0
230
1.0
 70
     8
 71
     3
 72
    76
 73
    72
 74
     0
 42
0.000000001
 43
0.0000000001
 40
0.0
 40
0.0
 40
0.0
 40
0.0
 40
0.0008936326973088
 40
0.0155689958156195
 40
0.0302684168134078
 40
0.0449968950649641
 40
0.0597563918551486
 40
0.0745461572427593
 40
0.0893634023600235
 40
0.1042040747477625
 40
0.1190636105240309
 40
0.1339374663138783
 40
0.1488215435815779
 40
0.1637123252208129
 40
0.1786069754817124
 40
0.1935032767707004
 40
0.2083992472011278
 40
0.2232937537378941
 40
0.2381861076120547
 40
0.2530758636982388
 40
0.2679628098345023
 40
0.2828468544208648
 40
0.2977280086254273
 40
0.3126063847696366
 40
0.3274821373627886
 40
0.3423554355028927
 40
0.3572264467020287
 40
0.3720954196546598
 40
0.3869625562022572
 40
0.4018280684888926
 40
0.4166921719680405
 40
0.4315550856761356
 40
0.4464169944011263
 40
0.4612781266918092
 40
0.4761386831499739
 40
0.4909988481639119
 40
0.5058588411998945
 40
0.520718840527315
 40
0.5355789896236284
 40
0.5504394794047549
 40
0.5653005085457129
 40
0.5801622793346205
 40
0.595024994796916
 40
0.6098888653312427
 40
0.6247541083134497
 40
0.639620934250027
 40
0.6544895765041721
 40
0.6693602531859582
 40
0.6842331866734536
 40
0.6991086155579258
 40
0.7139867434622489
 40
0.7288677911579936
 40
0.7437518976638568
 40
0.7586392168833768
 40
0.7735298004827741
 40
0.788423610537445
 40
0.8033205155403019
 40
0.8182201216755359
 40
0.8331218527480045
 40
0.8480247511602682
 40
0.8629269856641798
 40
0.8778264386142723
 40
0.892720417213728
 40
0.9076055044913122
 40
0.922477630326302
 40
0.937332206543809
 40
0.9521644168424458
 40
0.966969732054874
 40
0.9817446732147056
 40
0.99648762301202
 40
1.0
 40
1.0
 40
1.0
 40
1.0
 10
3.226434118520611
 20
10.79764051206734
 30
0.0
 10
3.228461778965787
 20
10.78722644514113
 30
0.0
 10
3.263787967322203
 20
10.60579109157085
 30
0.0
 10
3.372793174885328
 20
10.25594009462693
 30
0.0
 10
3.556527291933905
 20
9.749396277951159
 30
0.0
 10
3.788053165332569
 20
9.247688381428801
 30
0.0
 10
4.060901829621018
 20
8.751310568826561
 30
0.0
 10
4.376289755578274
 20
8.261319950844022
 30
0.0
 10
4.733246235931042
 20
7.778655673928925
 30
0.0
 10
5.131229564511756
 20
7.304294345437097
 30
0.0
 10
5.569449556013009
 20
6.839189996774154
 30
0.0
 10
6.047043816624298
 20
6.384267790015107
 30
0.0
 10
6.563063618332312
 20
5.940418716288326
 30
0.0
 10
7.116477639433144
 20
5.508490826470056
 30
0.0
 10
7.706193502069472
 20
5.089293673981902
 30
0.0
 10
8.331048586441545
 20
4.683598544162686
 30
0.0
 10
8.989831311986092
 20
4.292141661125048
 30
0.0
 10
9.681270105033046
 20
3.915619484561548
 30
0.0
 10
10.4040540653157
 20
3.554693925712741
 30
0.0
 10
11.15682640249566
 20
3.209996456100136
 30
0.0
 10
11.93817978478544
 20
2.882127689811478
 30
0.0
 10
12.74665896658043
 20
2.57165749644093
 30
0.0
 10
13.58076546917261
 20
2.279126827590325
 30
0.0
 10
14.4389591422507
 20
2.005047515619402
 30
0.0
 10
15.31965222068877
 20
1.749895227053874
 30
0.0
 10
16.22122494943781
 20
1.514121098195236
 30
0.0
 10
17.1420117141677
 20
1.298134656093026
 30
0.0
 10
18.08031915109278
 20
1.102318096151577
 30
0.0
 10
19.03441911382548
 20
0.9270151695507852
 30
0.0
 10
20.00255598919244
 20
0.7725369571428804
 30
0.0
 10
20.98294688833732
 20
0.6391558997147229
 30
0.0
 10
21.97378590185346
 20
0.5271065789664586
 30
0.0
 10
22.97325025141885
 20
0.4365909394268856
 30
0.0
 10
23.97949836399484
 20
0.3677664980225956
 30
0.0
 10
24.99067812345197
 20
0.3207580956876349
 30
0.0
 10
26.00492691399967
 20
0.2956466747643758
 30
0.0
 10
27.0203767160256
 20
0.2924784216700163
 30
0.0
 10
28.03515632138558
 20
0.3112566461028555
 30
0.0
 10
29.04739451442715
 20
0.3519514806079656
 30
0.0
 10
30.05522688537206
 20
0.4144841781131225
 30
0.0
 10
31.05679589025463
 20
0.4987492732555049
 30
0.0
 10
32.05025943577588
 20
0.60459043004185
 30
0.0
 10
33.03378623789896
 20
0.7318248978919489
 30
0.0
 10
34.00556952702664
 20
0.880220109931319
 30
0.0
 10
34.96381689220224
 20
1.049519569657999
 30
0.0
 10
35.90676992201971
 20
1.239417109632557
 30
0.0
 10
36.83269032040046
 20
1.449582217695583
 30
0.0
 10
37.73987678420102
 20
1.679642382446461
 30
0.0
 10
38.62666098011978
 20
1.929193614413186
 30
0.0
 10
39.49141115113286
 20
2.197799462599524
 30
0.0
 10
40.33253520167884
 20
2.484992279087353
 30
0.0
 10
41.14848560867804
 20
2.790271241862738
 30
0.0
 10
41.93775578676464
 20
3.113109293142408
 30
0.0
 10
42.69888913478568
 20
3.452948013993871
 30
0.0
 10
43.43047602890571
 20
3.809202994090302
 30
0.0
 10
44.1311543385617
 20
4.181264237691665
 30
0.0
 10
44.79961328231754
 20
4.568494499586488
 30
0.0
 10
45.4345948394429
 20
4.970230238721834
 30
0.0
 10
46.03489110745448
 20
5.385780921839367
 30
0.0
 10
46.59933844079636
 20
5.814424469366294
 30
0.0
 10
47.12682501081784
 20
6.255404312811606
 30
0.0
 10
47.6162987490517
 20
6.707925892744473
 30
0.0
 10
48.06675832052357
 20
7.171160048212572
 30
0.0
 10
48.47728383079967
 20
7.644230408030459
 30
0.0
 10
48.84698719386509
 20
8.126216189652513
 30
0.0
 10
49.17518437449917
 20
8.616135893452993
 30
0.0
 10
49.46086605218577
 20
9.112991182009132
 30
0.0
 10
49.70468534626221
 20
9.615629975277457
 30
0.0
 10
49.90163913801806
 20
10.12330004624706
 30
0.0
 10
50.02615106828104
 20
10.50443673375846
 30
0.0
 10
50.0710894177731
 20
10.7169562579872
 30
0.0
 10
50.07973568450336
 20
10.75784562114002
 30
0.0
  0
LINE
  5
58
330
2
100
AcDbEntity
  8
0
100
AcDbLine
 10
50.25855064782629
 20
12.21241750599055
 30
0.0
 11
50.25855064782629
 21
13.02992280425392
 31
0.0
  0
LINE
  5
59
330
2
100
AcDbEntity
  8
0
100
AcDbLine
 10
3.059858232879421
 20
13.02992293253998
 30
0.0
 11
3.059858232879421
 21
12.21241763427661
 31
0.0
  0
SPLINE
  5
5A
330
2
100
AcDbEntity
  8
0
100
AcDbSpline
210
0.0
220
0.0
230
1.0
 70
     8
 71
     3
 72
    64
 73
    60
 74
     0
 42
0.000000001
 43
0.0000000001
 40
0.0
 40
0.0
 40
0.0
 40
0.0
 40
0.0180047931234771
 40
0.0360839900301229
 40
0.0540995783462877
 40
0.0720508080798088
 40
0.0899441917779645
 40
0.107789983374073
 40
0.1255995252319396
 40
0.14338337663999
 40
0.161150452036408
 40
0.1789078208050599
 40
0.1966607890152978
 40
0.2144129051295718
 40
0.2321662515395921
 40
0.2499228189568785
 40
0.2676837983073936
 40
0.2854498199494248
 40
0.3032211615641096
 40
0.3209978104372465
 40
0.3387795629918764
 40
0.3565661161298458
 40
0.3743570846981815
 40
0.3921520571996154
 40
0.4099505815720459
 40
0.4277522132788953
 40
0.4455565071670229
 40
0.4633630219418156
 40
0.4811713291198011
 40
0.4989810000395973
 40
0.5167916143805088
 40
0.5346027741831402
 40
0.5524140577015329
 40
0.5702249659248532
 40
0.5880350487898891
 40
0.6058438968997905
 40
0.623651091339145
 40
0.6414562115245018
 40
0.6592587865343705
 40
0.6770583804491884
 40
0.6948545274518392
 40
0.7126467615564078
 40
0.7304345992882199
 40
0.7482175970149994
 40
0.7659953160255947
 40
0.7837673848224829
 40
0.8015335385514774
 40
0.8192936486443509
 40
0.8370478357521847
 40
0.8547965623851741
 40
0.8725407880999259
 40
0.8902821598817434
 40
0.9080228901045018
 40
0.9257657494708388
 40
0.9435155394238988
 40
0.9612787630402721
 40
0.9790638188505536
 40
0.9959946380518763
 40
1.0
 40
1.0
 40
1.0
 40
1.0
 10
9.044618372981902
 20
13.06017317415086
 30
0.0
 10
9.077147215768883
 20
13.2020372509068
 30
0.0
 10
9.142339324934885
 20
13.48635164964426
 30
0.0
 10
9.29505726347001
 20
13.91028464870708
 30
0.0
 10
9.487566456788501
 20
14.33100045690778
 30
0.0
 10
9.722897328748507
 20
14.74637103619735
 30
0.0
 10
9.999313637047924
 20
15.15550196070886
 30
0.0
 10
10.31640158915036
 20
15.5575102408817
 30
0.0
 10
10.67335794843174
 20
15.95153350561483
 30
0.0
 10
11.06941198197036
 20
16.33669763560362
 30
0.0
 10
11.50369371514765
 20
16.71211059438036
 30
0.0
 10
11.97524039674244
 20
17.07686795469224
 30
0.0
 10
12.48298991346091
 20
17.43005645849339
 30
0.0
 10
13.0257589592854
 20
17.77076876803236
 30
0.0
 10
13.60226887224127
 20
18.09811333199389
 30
0.0
 10
14.21113991876073
 20
18.41122811954187
 30
0.0
 10
14.85090570067775
 20
18.70928649118934
 30
0.0
 10
15.52001183128817
 20
18.99149624995112
 30
0.0
 10
16.21681564265315
 20
19.25710857003326
 30
0.0
 10
16.93960317488233
 20
19.50541514326586
 30
0.0
 10
17.68658502785194
 20
19.73575711933878
 30
0.0
 10
18.45590706584187
 20
19.94752523047649
 30
0.0
 10
19.24566145600547
 20
20.14015638664766
 30
0.0
 10
20.05388074527915
 20
20.31314565199696
 30
0.0
 10
20.87855551704119
 20
20.46603598581805
 30
0.0
 10
21.71763237611451
 20
20.59842631827021
 30
0.0
 10
22.56902206493425
 20
20.70997043022488
 30
0.0
 10
23.43060516239808
 20
20.80037650120162
 30
0.0
 10
24.30023712067242
 20
20.86940761607457
 30
0.0
 10
25.17575309933425
 20
20.91688307063465
 30
0.0
 10
26.0549737377693
 20
20.94268085169538
 30
0.0
 10
26.93571106043574
 20
20.94673026738291
 30
0.0
 10
27.81577136077848
 20
20.92902177886011
 30
0.0
 10
28.69296170327951
 20
20.88959937595648
 30
0.0
 10
29.56509667857112
 20
20.8285661814949
 30
0.0
 10
30.43000450633204
 20
20.74607975042854
 30
0.0
 10
31.28553169954745
 20
20.64235389502938
 30
0.0
 10
32.12954726988721
 20
20.51765858721197
 30
0.0
 10
32.95994884314936
 20
20.37231936418816
 30
0.0
 10
33.77466671774686
 20
20.20671579399482
 30
0.0
 10
34.57166987983536
 20
20.02128148733184
 30
0.0
 10
35.34897338511774
 20
19.81650640972803
 30
0.0
 10
36.10463794256815
 20
19.59292966295018
 30
0.0
 10
36.83678298813607
 20
19.35114646266537
 30
0.0
 10
37.54358487941551
 20
19.09180016715149
 30
0.0
 10
38.22328630977928
 20
18.81558514721847
 30
0.0
 10
38.87420751454718
 20
18.52324746234051
 30
0.0
 10
39.49473667998584
 20
18.21557423333238
 30
0.0
 10
40.08335568076436
 20
17.89340203254192
 30
0.0
 10
40.63863113182525
 20
17.55760495953275
 30
0.0
 10
41.15923459833111
 20
17.20909640958159
 30
0.0
 10
41.64393217961047
 20
16.84881918952938
 30
0.0
 10
42.0915953743579
 20
16.4777466276679
 30
0.0
 10
42.50122432895384
 20
16.09686841197416
 30
0.0
 10
42.87189767073729
 20
15.70716854589108
 30
0.0
 10
43.20296507325369
 20
15.30962223228309
 30
0.0
 10
43.48854870413215
 20
14.91184316287181
 30
0.0
 10
43.67084498787356
 20
14.61466070085193
 30
0.0
 10
43.75874599265782
 20
14.45291548853661
 30
0.0
 10
43.77556259054892
 20
14.42197153968202
 30
0.0
  0
SPLINE
  5
5B
330
2
100
AcDbEntity
  8
0
100
AcDbSpline
210
0.0
220
0.0
230
1.0
 70
     8
 71
     3
 72
    11
 73
     7
 74
     0
 42
0.000000001
 43
0.0000000001
 40
0.0
 40
0.0
 40
0.0
 40
0.0
 40
0.1682979636292962
 40
0.4920648347918469
 40
0.8166065203696415
 40
1.0
 40
1.0
 40
1.0
 40
1.0
 10
43.77556259054892
 20
14.42197153968202
 30
0.0
 10
43.81303381298424
 20
14.34986219802617
 30
0.0
 10
43.92259111528008
 20
14.13903094063201
 30
0.0
 10
44.07062018701629
 20
13.78629756486718
 30
0.0
 10
44.19327702081104
 20
13.42523561883658
 30
0.0
 10
44.23892940821565
 20
13.20362071606083
 30
0.0
 10
44.2554125162047
 20
13.12360513347889
 30
0.0
  0
LINE
  5
5C
330
2
100
AcDbEntity
  8
0
100
AcDbLine
 10
43.33752232615307
 20
23.58524791899234
 30
0.0
 11
46.67497327810511
 21
21.9165222918035
 31
0.0
  0
LINE
  5
5D
330
2
100
AcDbEntity
  8
0
100
AcDbLine
 10
44.43047778071412
 20
24.53830909363233
 30
0.0
 11
41.09302682876204
 21
26.20703472084477
 31
0.0
  0
LINE
  5
5E
330
2
100
AcDbEntity
  8
0
100
AcDbLine
 10
43.5991427750292
 20
22.35519452321256
 30
0.0
 11
43.5991427750292
 21
23.27789193130163
 31
0.0
  0
LINE
  5
5F
330
2
100
AcDbEntity
  8
0
100
AcDbLine
 10
43.5991427750292
 20
24.95397677328108
 30
0.0
 11
43.5991427750292
 21
28.07068409522577
 31
0.0
  0
LINE
  5
60
330
2
100
AcDbEntity
  8
0
100
AcDbLine
 10
7.57503238856905
 20
20.9039063806366
 30
0.0
 11
6.964235698839673
 21
19.76414550533424
 31
0.0
  0
LINE
  5
61
330
2
100
AcDbEntity
  8
0
100
AcDbLine
 10
7.57503238856905
 20
21.41484710580739
 30
0.0
 11
6.964235698839673
 21
20.27508623050504
 31
0.0
  0
LINE
  5
62
330
2
100
AcDbEntity
  8
0
100
AcDbLine
 10
7.57503238856905
 20
21.92578821165923
 30
0.0
 11
6.964235698839673
 21
20.78602733635689
 31
0.0
  0
LINE
  5
63
330
2
100
AcDbEntity
  8
0
100
AcDbLine
 10
7.57503238856905
 20
22.43672855614898
 30
0.0
 11
6.964235698839673
 21
21.29696768084663
 31
0.0
  0
LINE
  5
64
330
2
100
AcDbEntity
  8
0
100
AcDbLine
 10
7.57503238856905
 20
22.94766966200082
 30
0.0
 11
6.964235698839673
 21
21.80790878669847
 31
0.0
  0
LINE
  5
65
330
2
100
AcDbEntity
  8
0
100
AcDbLine
 10
6.35859545892622
 20
23.14463110096572
 30
0.0
 11
6.35859545892622
 21
20.63212782134915
 31
0.0
  0
LINE
  5
66
330
2
100
AcDbEntity
  8
0
100
AcDbLine
 10
6.35859545892622
 20
19.0765694979123
 30
0.0
 11
6.35859545892622
 21
19.04686575324877
 31
0.0
  0
LINE
  5
67
330
2
100
AcDbEntity
  8
0
100
AcDbLine
 10
7.57503238856905
 20
23.45861000649057
 30
0.0
 11
6.964235698839673
 21
22.31884913118822
 31
0.0
  0
LINE
  5
68
330
2
100
AcDbEntity
  8
0
100
AcDbLine
 10
7.57503238856905
 20
23.96955111234241
 30
0.0
 11
6.964235698839673
 21
22.82979023701646
 31
0.0
  0
LINE
  5
69
330
2
100
AcDbEntity
  8
0
100
AcDbLine
 10
7.57503238856905
 20
24.48049221819426
 30
0.0
 11
6.964235698839673
 21
23.3407313428683
 31
0.0
  0
LINE
  5
6A
330
2
100
AcDbEntity
  8
0
100
AcDbLine
 10
35.76266373920112
 20
6.462343632067053
 30
0.0
 11
35.76266373920112
 21
13.44761499322226
 31
0.0
  0
ARC
  5
6B
330
2
100
AcDbEntity
  8
0
100
AcDbCircle
 10
44.27210348954075
 20
12.21225531785585
 30
0.0
 40
5.985758841333105
100
AcDbArc
 50
346.3407201926997
 51
13.13685789269923
  0
ARC
  5
6C
330
2
100
AcDbEntity
  8
0
100
AcDbCircle
 10
9.047775705451792
 20
12.21259925335774
 30
0.0
 40
5.987212401773496
100
AcDbArc
 50
166.1714601885008
 51
193.2758261917003
  0
LWPOLYLINE
  5
6D
330
2
100
AcDbEntity
  8
0
100
AcDbPolyline
 90
      138
 70
   128
 43
0.0
 10
49.22647005951573
 20
15.03148152673227
 10
48.9255114756762
 20
15.54561846842811
 10
48.57772749115738
 20
16.05231585730646
 10
48.18384751188302
 20
16.55050812084638
 10
47.74470068476142
 20
17.0391473724669
 10
47.26121085115404
 20
17.51720603487761
 10
46.73439535244168
 20
17.98367906903679
 10
46.16536072300235
 20
18.43758521767181
 10
45.55530483553343
 20
18.87796979538265
 10
44.90550851483507
 20
19.3039067508471
 10
44.21734176232669
 20
19.71450063831019
 10
43.4922488039732
 20
20.10888734491601
 10
42.7317566876212
 20
20.48623842810236
 10
41.93746362199557
 20
20.84575909821061
 10
41.11103941538792
 20
21.1866941932738
 10
40.25422445994054
 20
21.50832667769703
 10
39.36881772106615
 20
21.80997967385427
 10
38.456682620741
 20
22.09101907047709
 10
37.51973616474368
 20
22.35085343130139
 10
36.55995097403945
 20
22.58893699773036
 10
35.57934463951634
 20
22.80476917269304
 10
34.57997841776735
 20
22.99789525614168
 10
33.56395541066058
 20
23.16790984175274
 10
32.53341083023115
 20
23.31445460252949
 10
31.49051357514129
 20
23.43722214268722
 10
30.43745479708028
 20
23.53595355556937
 10
29.37645163066465
 20
23.61044165390245
 10
28.30973315133178
 20
23.66052999868281
 10
27.23954334755938
 20
23.68611329732141
 10
26.16813390274597
 20
23.68713643666041
 10
25.09775679417276
 20
23.6635989523355
 10
24.03066362669965
 20
23.61554947851639
 10
22.96909826233548
 20
23.5430893113609
 10
21.9152929231836
 20
23.44637097665263
 10
20.87146421084571
 20
23.32559769647938
 10
19.83980758672371
 20
23.1810226498656
 10
18.82249213235114
 20
23.0129510011598
 10
17.82165692569006
 20
22.82173668403366
 10
16.83940743989441
 20
22.60778009887021
 10
15.87780965900182
 20
22.3715318749952
 10
14.93888512719203
 20
22.11348947709117
 10
14.02460824994202
 20
21.83419502320179
 10
13.13690241174479
 20
21.53423658498518
 10
12.2776341537495
 20
21.21424376701344
 10
11.4486096549337
 20
20.87489087595264
 10
10.65157455156845
 20
20.5168896151254
 10
9.888203078380231
 20
20.14099491102442
 10
9.160101315065935
 20
19.74799715672654
 10
8.468801242065866
 20
19.33872141562719
 10
7.815755584342638
 20
18.91402855085793
 10
7.20233702325742
 20
18.47481329950895
 10
6.629837985332157
 20
18.02199787307644
 10
6.099459874977128
 20
17.55653506582683
 10
5.612318352531898
 20
17.07940350094453
 10
5.169440786692294
 20
16.59160728919095
 10
4.771755958658445
 20
16.09417146403585
 10
4.420099384825808
 20
15.58814223955089
 10
4.11521468196002
 20
15.07458446302549
 10
3.857737721203582
 20
14.55457721649709
 10
3.648214294381252
 20
14.02921481833093
 10
3.487082797177313
 20
13.49960177281851
 10
3.374681932717439
 20
12.96685198188846
 10
3.311250492283507
 20
12.4320857577363
 10
3.296917620064185
 20
11.89642760840322
 10
3.331718220483573
 20
11.36100466131626
 10
3.415575413833736
 20
10.82694203739165
 10
3.548314862659003
 20
10.29536329144586
 10
3.729657730584216
 20
9.767386567649584
 10
3.959220363275123
 20
9.24412179800232
 10
4.236522134395115
 20
8.726669648597857
 10
4.560979832359048
 20
8.21611840701216
 10
4.931909025744238
 20
7.713541434612364
 10
5.348532036919532
 20
7.219995874303753
 10
5.809972201126825
 20
6.736519776436183
 10
6.315256944166081
 20
6.264129752368339
 10
6.863327724965179
 20
5.803819405370767
 10
7.453027187930613
 20
5.356556130271396
 10
8.083118982881909
 20
4.923281493593703
 10
8.752275998323352
 20
4.504906016307828
 10
9.459091006802106
 20
4.102309689995296
 10
10.20207984225349
 20
3.716339444544892
 10
10.97967551666035
 20
3.347806539480924
 10
11.79024826748515
 20
2.997486519478412
 10
12.63208925644539
 20
2.666115665139479
 10
13.50342869095569
 20
2.354391145350684
 10
14.40243718951536
 20
2.062968469828045
 10
15.32722091394195
 20
1.79246038183566
 10
16.27583505085176
 20
1.543435478803991
 10
17.24628635925652
 20
1.31641855367077
 10
18.2365333534582
 20
1.111885158417636
 10
19.24449251942363
 20
0.9302669876945572
 10
20.26804489727937
 20
0.7719463896827512
 10
21.30503868970017
 20
0.6372548950765814
 10
22.35329259772376
 20
0.5264754844616092
 10
23.41060176511941
 20
0.43984338465087
 10
24.47474272320603
 20
0.377538539761936
 10
25.54347696837154
 20
0.3396933717438115
 10
26.61455842406804
 20
0.3263864988446505
 10
27.68573331875605
 20
0.3376463599521076
 10
28.75474964912431
 20
0.3734488417026758
 10
29.81935924182301
 20
0.4337193750948388
 10
30.87732227290389
 20
0.5183317205710459
 10
31.92641494877002
 20
0.6271062667173554
 10
32.96443083984585
 20
0.7598147596195082
 10
33.98918630210211
 20
0.9161792089861071
 10
34.99852683117977
 20
1.095870008909018
 10
35.99032957163769
 20
1.298509004480475
 10
36.96250883667449
 20
1.523670231396528
 10
37.91302008870117
 20
1.770880449160696
 10
38.83986474640972
 20
2.039618875024941
 10
39.74109300468283
 20
2.32932211250071
 10
40.61480996169188
 20
2.639379511349876
 10
41.45917755899938
 20
2.969138888396693
 10
42.27242179958411
 20
3.317907494605321
 10
43.05282977588102
 20
3.684951616911721
 10
43.79876280144865
 20
4.069499247663649
 10
44.508649950837
 20
4.470741949582612
 10
45.18100040313089
 20
4.887835599426476
 10
45.81439822496078
 20
5.319903329506328
 10
46.40751301586082
 20
5.766036043945785
 10
46.95909808793341
 20
6.225295815193318
 10
47.46799085986376
 20
6.696716847205918
 10
47.93312259226396
 20
7.17930768972857
 10
48.35351362558428
 20
7.672053330801091
 10
48.72828288772353
 20
8.173917835802191
 10
49.05664019051796
 20
8.683845135714832
 10
49.3378945994619
 20
9.200763789002305
 10
49.57145681488166
 20
9.723585935425575
 10
49.75683281715091
 20
10.25121236072265
 10
49.8936359827129
 20
10.78253366472893
 10
49.98157530125734
 20
11.31643186832746
 10
50.02046759737342
 20
11.85178478133404
 10
50.01023016819097
 20
12.38746615379249
 10
49.95088598415716
 20
12.92234955832678
 10
49.84255904081486
 20
13.45531027030089
 10
49.68547684537142
 20
13.98522742130638
 10
49.47996922209971
 20
14.51098622823855
 10
49.22647005951573
 20
15.03148152673227
  0
ARC
  5
6E
330
2
100
AcDbEntity
  8
0
100
AcDbCircle
 10
43.82259498853193
 20
12.96815969205497
 30
0.0
 40
6.436252009545241
100
AcDbArc
 50
0.5498261982006574
 51
28.95305304939969
  0
LWPOLYLINE
  5
6F
330
2
100
AcDbEntity
  8
0
100
AcDbPolyline
 90
       65
 70
   128
 43
0.0
 10
3.059858232879421
 20
13.02992293253998
 10
3.061387165393386
 20
13.16423075810953
 10
3.098068559645413
 20
13.70111415153478
 10
3.183582646615768
 20
14.23660650175001
 10
3.317754376974481
 20
14.76959762915141
 10
3.500305506501158
 20
15.29898309696526
 10
3.730855611824498
 20
15.82366571270912
 10
4.008930127344716
 20
16.34255751490278
 10
4.333949122706153
 20
16.85458373063144
 10
4.705241800088005
 20
17.3586828974127
 10
5.122035954476684
 20
17.85380954691418
 10
5.583470195342491
 20
18.33893857276781
 10
6.088587835848415
 20
18.81306304666262
 10
6.636340273220566
 20
19.2752014973743
 10
7.225593676661219
 20
19.72439562129828
 10
7.855125013525746
 20
20.15971430078112
 10
8.523630935467616
 20
20.58025570479276
 10
9.229726473984506
 20
20.98514802435296
 10
9.971946677929706
 20
21.3735515122463
 10
10.74875374013718
 20
21.74466216822534
 10
11.55853836269082
 20
22.09770919148486
 10
12.3996212113522
 20
22.43196245676937
 10
13.2702585877578
 20
22.74672872346866
 10
14.16864700844736
 20
23.04135497969233
 10
15.09292396273327
 20
23.3152312741441
 10
16.04117349319072
 20
23.56778964350795
 10
17.01143122998831
 20
23.79850660720579
 10
18.001684784879
 20
24.00690413039239
 10
19.0098823493388
 20
24.19255077586301
 10
20.03393482535169
 20
24.35506016917562
 10
21.07171893308946
 20
24.49409687595
 10
22.12108378543009
 20
24.60937273200421
 10
23.17985513376316
 20
24.70064741202805
 10
24.24583739168108
 20
24.76773325156672
 10
25.31682220366565
 20
24.81049093412219
 10
26.39058875551386
 20
24.82883135292932
 10
27.46491237250005
 20
24.8227167630287
 10
28.53756582352297
 20
24.79216004567501
 10
29.60632617567754
 20
24.73722380655889
 10
30.66897855457453
 20
24.65802269970522
 10
31.72331963256008
 20
24.55472116446117
 10
32.767164938259
 20
24.42753167433019
 10
33.79834997796864
 20
24.27671943786741
 10
34.81473897140516
 20
24.10259628795941
 10
35.81422348638702
 20
23.90552322923193
 10
36.79473229606943
 20
23.68590902827223
 10
37.75423483662616
 20
23.44420885659578
 10
38.69074081309328
 20
23.18092332755709
 10
39.60230999555213
 20
22.89659889874201
 10
40.48705279618047
 20
22.59182339845215
 10
41.34313377153722
 20
22.2672296804885
 10
42.16878182918494
 20
21.92349016536286
 10
42.96228275160621
 20
21.56131720398758
 10
43.72199414837139
 20
21.18146235034359
 10
44.44633901217209
 20
20.78471140252624
 10
45.13381839565838
 20
20.3718879213606
 10
45.78300565001234
 20
19.94384699764892
 10
46.39255537193224
 20
19.50147554055472
 10
46.96120578461773
 20
19.04569123156166
 10
47.48777738880759
 20
18.57743824780017
 10
47.97117851313362
 20
18.09768709571915
 10
48.41040650857791
 20
17.60743238179729
 10
48.8045512102609
 20
17.10768974953695
 10
49.15279692040003
 20
16.59949557630674
 10
49.45442270068213
 20
16.08390303048083
  0
ARC
  5
70
330
2
100
AcDbEntity
  8
0
100
AcDbCircle
 10
13.42400132832083
 20
12.21239767182569
 30
0.0
 40
4.464185437575254
100
AcDbArc
 50
168.6003806561994
 51
191.4824779635999
  0
ARC
  5
71
330
2
100
AcDbEntity
  8
0
100
AcDbCircle
 10
39.87244915602828
 20
12.21245110166574
 30
0.0
 40
4.485732192685111
100
AcDbArc
 50
348.0491598493007
 51
12.20646321250044
  0
LWPOLYLINE
  5
72
330
2
100
AcDbEntity
  8
0
100
AcDbPolyline
 90
       59
 70
   128
 43
0.0
 10
44.2628780527586
 20
13.13211116685989
 10
44.26175384888932
 20
13.12675308880883
 10
44.14080420339216
 20
12.66739801639258
 10
43.97193670102764
 20
12.21183695027583
 10
43.75561770612712
 20
11.7613192162203
 10
43.4924377517133
 20
11.31707982998139
 10
43.18311975931762
 20
10.8803360479806
 10
42.82851122957907
 20
10.45228495568827
 10
42.4295832876034
 20
10.0341001541574
 10
41.98742956149859
 20
9.626927059128322
 10
41.50326193647493
 20
9.231882332024852
 10
40.9784085842996
 20
8.85004906523932
 10
40.41430660905604
 20
8.482473521528845
 10
39.81250318493917
 20
8.130163010900222
 10
39.17464797446994
 20
7.794083054629255
 10
38.50248786680861
 20
7.475155315149757
 10
37.79786670553644
 20
7.174253008623781
 10
37.06271520413576
 20
6.892202739625689
 10
36.2990482479948
 20
6.629775948101831
 10
35.50895925293676
 20
6.387691794249058
 10
34.69461361439531
 20
6.16661537074628
 10
33.85824337058771
 20
5.967151526781922
 10
33.00214137909288
 20
5.789846818280347
 10
32.12865370464639
 20
5.635187577994472
 10
31.24017479722752
 20
5.503597449161762
 10
30.3391393638311
 20
5.395438116753528
 10
29.42801760760597
 20
5.311005029149463
 10
28.50930682625189
 20
5.250529913049223
 10
27.58552510415035
 20
5.214178108138561
 10
26.65920467021048
 20
5.202049497422867
 10
25.73288337541367
 20
5.214178275741124
 10
24.80910159983599
 20
5.250529804799018
 10
23.8903914549799
 20
5.311004627559403
 10
22.97926932276998
 20
5.395438378729861
 10
22.07823385461171
 20
5.503597876191922
 10
21.18975508215753
 20
5.635187853398837
 10
20.31626751815595
 20
5.789846849596663
 10
19.46016533354768
 20
5.967151114454138
 10
18.62379573053311
 20
6.166615085453781
 10
17.80944954045137
 20
6.387691948494389
 10
17.01936008624443
 20
6.629775761006218
 10
16.25569355269696
 20
6.892202437105676
 10
15.52054246525243
 20
7.17425342472746
 10
14.81592144397158
 20
7.475155136785901
 10
14.14376153145325
 20
7.794082742008716
 10
13.50590605247063
 20
8.130162795862981
 10
12.90410143946592
 20
8.482473376487272
 10
12.34000090144611
 20
8.850049127187602
 10
11.81514731839839
 20
9.231882605258082
 10
11.33097901069285
 20
9.626927102787107
 10
10.88882616368728
 20
10.03409992205783
 10
10.48989847573498
 20
10.45228504397343
 10
10.1352890587318
 20
10.88033603969724
 10
9.82597057818366
 20
11.31707987692049
 10
9.562790320494633
 20
11.76131933062992
 10
9.34647165572537
 20
12.21183704733994
 10
9.177605480517254
 20
12.66739792546431
 10
9.05665524831676
 20
13.12675331614133
 10
9.048246004856171
 20
13.16766945966254
  0
LINE
  5
73
330
2
100
AcDbEntity
  8
0
100
AcDbLine
 10
43.71703553956757
 20
23.64166167316944
 30
0.0
 11
43.8699651155727
 21
23.74184627304221
 31
0.0
  0
LINE
  5
74
330
2
100
AcDbEntity
  8
0
100
AcDbLine
 10
43.8699651155727
 20
23.74184627304221
 30
0.0
 11
47.20741629506965
 21
22.07312022125393
 31
0.0
  0
LINE
  5
75
330
2
100
AcDbEntity
  8
0
100
AcDbLine
 10
47.05448818989379
 20
21.97293627350187
 30
0.0
 11
47.20741629506965
 21
22.07312022125393
 31
0.0
  0
LINE
  5
76
330
2
100
AcDbEntity
  8
0
100
AcDbLine
 10
43.8699651155727
 20
23.74184627304221
 30
0.0
 11
43.85948218437468
 21
23.83798308016747
 31
0.0
  0
LINE
  5
77
330
2
100
AcDbEntity
  8
0
100
AcDbLine
 10
43.85948218437468
 20
23.83798308016747
 30
0.0
 11
47.19693313632674
 21
22.16925745295503
 31
0.0
  0
LINE
  5
78
330
2
100
AcDbEntity
  8
0
100
AcDbLine
 10
47.20741629506965
 20
22.07312022125393
 30
0.0
 11
47.19693313632674
 21
22.16925745295503
 31
0.0
  0
ARC
  5
79
330
2
100
AcDbEntity
  8
0
100
AcDbCircle
 10
43.48993367184465
 20
23.90047270590715
 30
0.0
 40
0.3443231171347136
100
AcDbArc
 50
227.0840306541997
 51
311.2663494455
  0
ARC
  5
7A
330
2
100
AcDbEntity
  8
0
100
AcDbCircle
 10
46.81518153597532
 20
22.27806259735277
 30
0.0
 40
0.3877753835824237
100
AcDbArc
 50
248.8033040423002
 51
308.1066340105993
  0
ARC
  5
7B
330
2
100
AcDbEntity
  8
0
100
AcDbCircle
 10
43.51730144530735
 20
23.95347448099125
 30
0.0
 40
0.2869357159606518
100
AcDbArc
 50
227.083975801901
 51
311.2666129032994
  0
LINE
  5
7C
330
2
100
AcDbEntity
  8
0
100
AcDbLine
 10
39.4202432021321
 20
23.78532308065512
 30
0.0
 11
39.107899102561
 21
23.33860159325579
 31
0.0
  0
ARC
  5
7D
330
2
100
AcDbEntity
  8
0
100
AcDbCircle
 10
39.36327473642702
 20
23.83659712641606
 30
0.0
 40
0.0766448553687288
100
AcDbArc
 50
318.0114391490992
 51
32.90841219100101
  0
LINE
  5
7E
330
2
100
AcDbEntity
  8
0
100
AcDbLine
 10
39.107899102561
 20
24.16539794840725
 30
0.0
 11
39.42762116646161
 21
23.87823810138737
 31
0.0
  0
LINE
  5
7F
330
2
100
AcDbEntity
  8
0
100
AcDbLine
 10
39.107899102561
 20
24.16539794840725
 30
0.0
 11
39.107899102561
 21
24.34130549776306
 31
0.0
  0
ARC
  5
80
330
2
100
AcDbEntity
  8
0
100
AcDbCircle
 10
39.19167267103815
 20
24.36080483486522
 30
0.0
 40
0.0860129927678712
100
AcDbArc
 50
193.1029955044997
 51
226.4068151052989
  0
LINE
  5
81
330
2
100
AcDbEntity
  8
0
100
AcDbLine
 10
39.49038266481063
 20
23.9769526246423
 30
0.0
 11
39.13236383955642
 21
24.29850959080388
 31
0.0
  0
ARC
  5
82
330
2
100
AcDbEntity
  8
0
100
AcDbCircle
 10
39.3188050499255
 20
23.86590842648451
 30
0.0
 40
0.2043763486288005
100
AcDbArc
 50
318.0093958850987
 51
32.91074785440019
  0
LINE
  5
83
330
2
100
AcDbEntity
  8
0
100
AcDbLine
 10
39.1423386091963
 20
23.25953650777064
 30
0.0
 11
39.47070870007522
 21
23.72917886511201
 31
0.0
  0
ARC
  5
84
330
2
100
AcDbEntity
  8
0
100
AcDbCircle
 10
39.16589777268296
 20
23.24100753677207
 30
0.0
 40
0.0299726033273673
100
AcDbArc
 50
141.815416946901
 51
196.8588174922997
  0
LINE
  5
85
330
2
100
AcDbEntity
  8
0
100
AcDbLine
 10
39.23515530457443
 20
23.01459417730605
 30
0.0
 11
39.13721332335535
 21
23.23231505053719
 31
0.0
  0
LINE
  5
86
330
2
100
AcDbEntity
  8
0
100
AcDbLine
 10
40.42593957714754
 20
22.96424855198206
 30
0.0
 11
40.22595253539607
 21
22.68487610633638
 31
0.0
  0
ARC
  5
87
330
2
100
AcDbEntity
  8
0
100
AcDbCircle
 10
40.25460942115936
 20
23.09884377954547
 30
0.0
 40
0.2178758766538475
100
AcDbArc
 50
321.8471827344
 51
13.41947416890009
  0
LINE
  5
88
330
2
100
AcDbEntity
  8
0
100
AcDbLine
 10
40.02432313077901
 20
24.39893938042565
 30
0.0
 11
40.46653664443488
 21
23.14940809167957
 31
0.0
  0
ARC
  5
89
330
2
100
AcDbEntity
  8
0
100
AcDbCircle
 10
40.44329978460506
 20
24.50831885514859
 30
0.0
 40
0.4330188286205625
100
AcDbArc
 50
150.3838562037987
 51
194.6312724121996
  0
LINE
  5
8A
330
2
100
AcDbEntity
  8
0
100
AcDbLine
 10
40.69560531989611
 20
25.96151631372695
 30
0.0
 11
40.06685238874974
 21
24.72231106083472
 31
0.0
  0
LWPOLYLINE
  5
8B
330
2
100
AcDbEntity
  8
0
100
AcDbPolyline
 90
        9
 70
   128
 43
0.0
 10
41.13951990798009
 20
26.17130166851213
 10
41.09560643909324
 20
26.20571359725831
 10
41.04254266503413
 20
26.22214861167826
 10
40.9829951866749
 20
26.21978042793637
 10
40.91995935713671
 20
26.1987279637278
 10
40.8566032672911
 20
26.16005001237814
 10
40.79611412897853
 20
26.10569131366469
 10
40.74153254173299
 20
26.0383855817433
 10
40.69560531989611
 20
25.96151631372695
  0
LINE
  5
8C
330
2
100
AcDbEntity
  8
0
100
AcDbLine
 10
43.32191953738852
 20
23.74333639506268
 30
0.0
 11
41.13951990798009
 21
26.17130166851213
 31
0.0
  0
LINE
  5
8D
330
2
100
AcDbEntity
  8
0
100
AcDbLine
 10
41.07307581867668
 20
26.07627186286674
 30
0.0
 11
43.25547544808507
 21
23.64830658941728
 31
0.0
  0
LWPOLYLINE
  5
8E
330
2
100
AcDbEntity
  8
0
100
AcDbPolyline
 90
        9
 70
   128
 43
0.0
 10
40.75972353833011
 20
25.9281882339209
 10
40.79214465193557
 20
25.98244901363738
 10
40.83067128623652
 20
26.02995869517556
 10
40.87337000724161
 20
26.06832975168384
 10
40.91809153378791
 20
26.09563170777376
 10
40.96258759989813
 20
26.11049236728664
 10
41.00462170629989
 20
26.11216411837078
 10
41.04207726332004
 20
26.1005627779106
 10
41.07307581867668
 20
26.07627186286674
  0
LINE
  5
8F
330
2
100
AcDbEntity
  8
0
100
AcDbLine
 10
40.13097083472863
 20
24.68898255642925
 30
0.0
 11
40.75972353833011
 21
25.9281882339209
 31
0.0
  0
ARC
  5
90
330
2
100
AcDbEntity
  8
0
100
AcDbCircle
 10
40.3819360576633
 20
24.54632166295224
 30
0.0
 40
0.2886791881194745
100
AcDbArc
 50
150.3839844377002
 51
194.6313447793993
  0
LINE
  5
91
330
2
100
AcDbEntity
  8
0
100
AcDbLine
 10
40.5448319241576
 20
23.22387037943137
 30
0.0
 11
40.10261841052531
 21
24.47340166817743
 31
0.0
  0
ARC
  5
92
330
2
100
AcDbEntity
  8
0
100
AcDbCircle
 10
40.18154381596453
 20
23.13718495932877
 30
0.0
 40
0.3734870969872273
100
AcDbArc
 50
321.8462889107996
 51
13.42059163990041
  0
LINE
  5
93
330
2
100
AcDbEntity
  8
0
100
AcDbLine
 10
40.29834614741599
 20
22.65934353246278
 30
0.0
 11
40.47523772713281
 21
22.90645460118483
 31
0.0
  0
LINE
  5
94
330
2
100
AcDbEntity
  8
0
100
AcDbLine
 10
39.107899102561
 20
23.05438242323553
 30
0.0
 11
39.107899102561
 21
23.33860159325579
 31
0.0
  0
LINE
  5
95
330
2
100
AcDbEntity
  8
0
100
AcDbLine
 10
43.85948218437468
 20
23.83798308016747
 30
0.0
 11
43.70655385165393
 21
23.73779965216743
 31
0.0
  0
LINE
  5
96
330
2
100
AcDbEntity
  8
0
100
AcDbLine
 10
46.06603945314796
 20
22.73470439979751
 30
0.0
 11
44.47697085993215
 21
24.50257604132329
 31
0.0
  0
LINE
  5
97
330
2
100
AcDbEntity
  8
0
100
AcDbLine
 10
39.94226152971613
 20
29.02885098637371
 30
0.0
 11
41.61098785487924
 21
28.19448828655174
 31
0.0
  0
LINE
  5
98
330
2
100
AcDbEntity
  8
0
100
AcDbLine
 10
39.94226152971613
 20
28.56693164213932
 30
0.0
 11
39.94226152971613
 21
28.4707260447608
 31
0.0
  0
LINE
  5
99
330
2
100
AcDbEntity
  8
0
100
AcDbLine
 10
39.94226152971613
 20
28.05599053628746
 30
0.0
 11
39.94226152971613
 21
27.95978493893255
 31
0.0
  0
LINE
  5
9A
330
2
100
AcDbEntity
  8
0
100
AcDbLine
 10
39.94226152971613
 20
27.54504943043563
 30
0.0
 11
39.94226152971613
 21
27.4488438330807
 31
0.0
  0
LINE
  5
9B
330
2
100
AcDbEntity
  8
0
100
AcDbLine
 10
39.94226152971613
 20
27.03410908594588
 30
0.0
 11
39.94226152971613
 21
26.93790348859097
 31
0.0
  0
LINE
  5
9C
330
2
100
AcDbEntity
  8
0
100
AcDbLine
 10
39.94226152971613
 20
26.52316798009405
 30
0.0
 11
39.94226152971613
 21
26.42696238273912
 31
0.0
  0
LINE
  5
9D
330
2
100
AcDbEntity
  8
0
100
AcDbLine
 10
39.94226152971613
 20
26.0122268742658
 30
0.0
 11
39.94226152971613
 21
25.91602203824937
 31
0.0
  0
LINE
  5
9E
330
2
100
AcDbEntity
  8
0
100
AcDbLine
 10
39.94226152971613
 20
25.50128652977605
 30
0.0
 11
39.94226152971613
 21
25.40508093239754
 31
0.0
  0
LINE
  5
9F
330
2
100
AcDbEntity
  8
0
100
AcDbLine
 10
39.94226152971613
 20
24.9903454239242
 30
0.0
 11
39.94226152971613
 21
24.89414020722674
 31
0.0
  0
LINE
  5
A0
330
2
100
AcDbEntity
  8
0
100
AcDbLine
 10
39.107899102561
 20
24.4197839423477
 30
0.0
 11
39.107899102561
 21
24.58357404800963
 31
0.0
  0
LINE
  5
A1
330
2
100
AcDbEntity
  8
0
100
AcDbLine
 10
38.02322658853878
 20
30.90751812411198
 30
0.0
 11
43.5300225685353
 21
28.15412050343169
 31
0.0
  0
ARC
  5
A2
330
2
100
AcDbEntity
  8
0
100
AcDbCircle
 10
37.85635402494672
 20
30.53091411369754
 30
0.0
 40
0.4119187215298635
100
AcDbArc
 50
66.10195359849868
 51
113.8980885875996
  0
LINE
  5
A3
330
2
100
AcDbEntity
  8
0
100
AcDbLine
 10
36.85511890881621
 20
23.67149790597815
 30
0.0
 11
36.85511890881621
 21
30.49033647683744
 31
0.0
  0
LINE
  5
A4
330
2
100
AcDbEntity
  8
0
100
AcDbLine
 10
36.85511890881621
 20
30.49033647683744
 30
0.0
 11
37.68948118406236
 21
30.90751800125378
 31
0.0
  0
LINE
  5
A5
330
2
100
AcDbEntity
  8
0
100
AcDbLine
 10
43.75864862759275
 20
21.16223685965287
 30
0.0
 11
43.8126906050039
 21
21.23772877694146
 31
0.0
  0
ARC
  5
A6
330
2
100
AcDbEntity
  8
0
100
AcDbCircle
 10
43.518985643843
 20
21.46845940732743
 30
0.0
 40
0.3734959544645926
100
AcDbArc
 50
321.8473032654002
 51
13.42025556009956
  0
LINE
  5
A7
330
2
100
AcDbEntity
  8
0
100
AcDbLine
 10
43.88228287613326
 20
21.55514475224252
 30
0.0
 11
43.44006959002228
 21
22.80467561638917
 31
0.0
  0
LINE
  5
A8
330
2
100
AcDbEntity
  8
0
100
AcDbLine
 10
40.13097083472863
 20
24.68898255642925
 30
0.0
 11
43.46842348505485
 21
23.02025715678531
 31
0.0
  0
LINE
  5
A9
330
2
100
AcDbEntity
  8
0
100
AcDbLine
 10
43.46842348505485
 20
23.02025715678531
 30
0.0
 11
43.6705924995299
 21
23.41871299643736
 31
0.0
  0
LWPOLYLINE
  5
AA
330
2
100
AcDbEntity
  8
0
100
AcDbPolyline
 90
        3
 70
   128
 43
0.0
 10
44.47697085993215
 20
24.50257604132329
 10
44.43305761859018
 20
24.53698754544645
 10
44.43047778071412
 20
24.53830909363233
  0
ARC
  5
AB
330
2
100
AcDbEntity
  8
0
100
AcDbCircle
 10
43.71938585900561
 20
22.87759451174124
 30
0.0
 40
0.2886775769424952
100
AcDbArc
 50
150.3834027688995
 51
194.6312027374997
  0
LINE
  5
AC
330
2
100
AcDbEntity
  8
0
100
AcDbLine
 10
39.21163958170218
 20
24.57509128696915
 30
0.0
 11
39.51006104208096
 21
24.75125374822582
 31
0.0
  0
LINE
  5
AD
330
2
100
AcDbEntity
  8
0
100
AcDbLine
 10
39.51006104208096
 20
24.75125374822582
 30
0.0
 11
40.00892957504447
 21
24.50181900254751
 31
0.0
  0
LINE
  5
AE
330
2
100
AcDbEntity
  8
0
100
AcDbLine
 10
39.51006104208096
 20
24.75125374822582
 30
0.0
 11
39.50392361806658
 21
24.85009645982505
 31
0.0
  0
LINE
  5
AF
330
2
100
AcDbEntity
  8
0
100
AcDbLine
 10
39.50392361806658
 20
24.85009645982505
 30
0.0
 11
40.01981203585685
 21
24.59215294528169
 31
0.0
  0
ARC
  5
B0
330
2
100
AcDbEntity
  8
0
100
AcDbCircle
 10
39.34622323126119
 20
24.37289221181215
 30
0.0
 40
0.2428934431397311
100
AcDbArc
 50
123.6477251942012
 51
168.8688907232997
  0
ARC
  5
B1
330
2
100
AcDbEntity
  8
0
100
AcDbCircle
 10
39.38667455748252
 20
24.38034493507077
 30
0.0
 40
0.344989603635514
100
AcDbArc
 50
121.6782712009006
 51
143.9077086213996
  0
LINE
  5
B2
330
2
100
AcDbEntity
  8
0
100
AcDbLine
 10
39.50392361806658
 20
24.85009645982505
 30
0.0
 11
39.20550362851707
 21
24.67393465068913
 31
0.0
  0
ARC
  5
B3
330
2
100
AcDbEntity
  8
0
100
AcDbCircle
 10
39.83360923830697
 20
24.67138121550192
 30
0.0
 40
0.1972147713367855
100
AcDbArc
 50
337.0423864937998
 51
21.45238317660068
  0
LINE
  5
B4
330
2
100
AcDbEntity
  8
0
100
AcDbLine
 10
40.01716133216504
 20
24.74350815134697
 30
0.0
 11
39.94226152971613
 21
24.89414020722674
 31
0.0
  0
ARC
  5
B5
330
2
100
AcDbEntity
  8
0
100
AcDbCircle
 10
39.78146990378191
 20
25.18028894557108
 30
0.0
 40
0.2470832749710231
100
AcDbArc
 50
314.8401817560996
 51
17.46609877739894
  0
LINE
  5
B6
330
2
100
AcDbEntity
  8
0
100
AcDbLine
 10
39.94226152971613
 20
24.9903454239242
 30
0.0
 11
39.9556961439644
 21
25.00508802662247
 31
0.0
  0
LINE
  5
B7
330
2
100
AcDbEntity
  8
0
100
AcDbLine
 10
40.01716133216504
 20
25.25444887651776
 30
0.0
 11
39.94226152971613
 21
25.40508093239754
 31
0.0
  0
ARC
  5
B8
330
2
100
AcDbEntity
  8
0
100
AcDbCircle
 10
39.78146934837129
 20
25.69122992084772
 30
0.0
 40
0.2470838439649877
100
AcDbArc
 50
314.8402321836009
 51
17.46608900079992
  0
LINE
  5
B9
330
2
100
AcDbEntity
  8
0
100
AcDbLine
 10
39.94226152971613
 20
25.50128652977605
 30
0.0
 11
39.9556961439644
 21
25.51602875179326
 31
0.0
  0
ARC
  5
BA
330
2
100
AcDbEntity
  8
0
100
AcDbCircle
 10
43.49575685310163
 20
28.05538576540166
 30
0.0
 40
0.1045116632240831
100
AcDbArc
 50
8.417151646399883
 51
70.8607597989003
  0
LINE
  5
BB
330
2
100
AcDbEntity
  8
0
100
AcDbLine
 10
40.01716133216504
 20
25.7653899823696
 30
0.0
 11
39.94226152971613
 21
25.91602203824937
 31
0.0
  0
ARC
  5
BC
330
2
100
AcDbEntity
  8
0
100
AcDbCircle
 10
39.7814697854076
 20
26.2021708057625
 30
0.0
 40
0.2470833791361929
100
AcDbArc
 50
314.8401964498995
 51
17.46608408370051
  0
LINE
  5
BD
330
2
100
AcDbEntity
  8
0
100
AcDbLine
 10
39.94226152971613
 20
26.0122268742658
 30
0.0
 11
39.9556961439644
 21
26.02696985764509
 31
0.0
  0
LINE
  5
BE
330
2
100
AcDbEntity
  8
0
100
AcDbLine
 10
40.01716133216504
 20
26.27633070754042
 30
0.0
 11
39.94226152971613
 21
26.42696238273912
 31
0.0
  0
LWPOLYLINE
  5
BF
330
2
100
AcDbEntity
  8
0
100
AcDbPolyline
 90
        3
 70
   128
 43
0.0
 10
41.69871388189608
 20
25.90419147427221
 10
41.69499984271257
 20
25.92741761162109
 10
41.68588788487304
 20
25.95290868897083
  0
ARC
  5
C0
330
2
100
AcDbEntity
  8
0
100
AcDbCircle
 10
39.78146867456274
 20
26.71311165048759
 30
0.0
 40
0.2470845171261457
100
AcDbArc
 50
314.8402973047003
 51
17.46606453039987
  0
LINE
  5
C1
330
2
100
AcDbEntity
  8
0
100
AcDbLine
 10
39.94226152971613
 20
26.52316798009405
 30
0.0
 11
39.9556961439644
 21
26.53791020211127
 31
0.0
  0
LINE
  5
C2
330
2
100
AcDbEntity
  8
0
100
AcDbLine
 10
41.61098785487924
 20
26.10354078874539
 30
0.0
 11
41.59466739576814
 21
26.13636040503966
 31
0.0
  0
LINE
  5
C3
330
2
100
AcDbEntity
  8
0
100
AcDbLine
 10
41.68588788487304
 20
25.95290868897083
 30
0.0
 11
41.61098785487924
 21
26.10354078874539
 31
0.0
  0
LINE
  5
C4
330
2
100
AcDbEntity
  8
0
100
AcDbLine
 10
40.01716133216504
 20
26.78727181339224
 30
0.0
 11
39.94226152971613
 21
26.93790348859097
 31
0.0
  0
ARC
  5
C5
330
2
100
AcDbEntity
  8
0
100
AcDbCircle
 10
41.45018725911671
 20
26.38969182689319
 30
0.0
 40
0.2470912306587142
100
AcDbArc
 50
314.8412805586994
 51
17.46485606009972
  0
ARC
  5
C6
330
2
100
AcDbEntity
  8
0
100
AcDbCircle
 10
39.78147002217981
 20
27.2240521977429
 30
0.0
 40
0.247083170803597
100
AcDbArc
 50
314.8401670619993
 51
17.46611347150055
  0
ARC
  5
C7
330
2
100
AcDbEntity
  8
0
100
AcDbCircle
 10
41.6535934268816
 20
26.15489905316251
 30
0.0
 40
0.0617734458903234
100
AcDbArc
 50
134.8409484319005
 51
197.4640343856993
  0
LINE
  5
C8
330
2
100
AcDbEntity
  8
0
100
AcDbLine
 10
39.94226152971613
 20
27.03410908594588
 30
0.0
 11
39.9556961439644
 21
27.04885130796309
 31
0.0
  0
LINE
  5
C9
330
2
100
AcDbEntity
  8
0
100
AcDbLine
 10
41.61098785487924
 20
26.19974638612391
 30
0.0
 11
41.62442246912752
 21
26.21448860814112
 31
0.0
  0
LINE
  5
CA
330
2
100
AcDbEntity
  8
0
100
AcDbLine
 10
41.61003442822111
 20
26.19870056288099
 30
0.0
 11
41.61098785487924
 21
26.19974638612391
 31
0.0
  0
LINE
  5
CB
330
2
100
AcDbEntity
  8
0
100
AcDbLine
 10
41.61098785487924
 20
26.61448113323514
 30
0.0
 11
41.59466739576814
 21
26.6473007495058
 31
0.0
  0
LINE
  5
CC
330
2
100
AcDbEntity
  8
0
100
AcDbLine
 10
41.68588788487304
 20
26.46384903346059
 30
0.0
 11
41.61098785487924
 21
26.61448113323514
 31
0.0
  0
LINE
  5
CD
330
2
100
AcDbEntity
  8
0
100
AcDbLine
 10
40.01716133216504
 20
27.29821215788199
 30
0.0
 11
39.94226152971613
 21
27.4488438330807
 31
0.0
  0
ARC
  5
CE
330
2
100
AcDbEntity
  8
0
100
AcDbCircle
 10
41.4501870223681
 20
26.90063299108264
 30
0.0
 40
0.2470914389759473
100
AcDbArc
 50
314.8413099421004
 51
17.46482667670102
  0
ARC
  5
CF
330
2
100
AcDbEntity
  8
0
100
AcDbCircle
 10
39.7814697854076
 20
27.73499336195593
 30
0.0
 40
0.2470833791361929
100
AcDbArc
 50
314.8401964498995
 51
17.46608408370051
  0
ARC
  5
D0
330
2
100
AcDbEntity
  8
0
100
AcDbCircle
 10
41.65359557900035
 20
26.66583940211252
 30
0.0
 40
0.0617755001434717
100
AcDbArc
 50
134.8418687412989
 51
197.4634392938009
  0
LINE
  5
D1
330
2
100
AcDbEntity
  8
0
100
AcDbLine
 10
39.94226152971613
 20
27.54504943043563
 30
0.0
 11
39.9556961439644
 21
27.55979241381495
 31
0.0
  0
LINE
  5
D2
330
2
100
AcDbEntity
  8
0
100
AcDbLine
 10
41.61098785487924
 20
26.71068673061366
 30
0.0
 11
41.62442246912752
 21
26.72542971399295
 31
0.0
  0
LINE
  5
D3
330
2
100
AcDbEntity
  8
0
100
AcDbLine
 10
41.61003442822111
 20
26.70964166873285
 30
0.0
 11
41.61098785487924
 21
26.71068673061366
 31
0.0
  0
LINE
  5
D4
330
2
100
AcDbEntity
  8
0
100
AcDbLine
 10
41.61098785487924
 20
27.12542223908699
 30
0.0
 11
41.59466739576814
 21
27.15824185535766
 31
0.0
  0
LINE
  5
D5
330
2
100
AcDbEntity
  8
0
100
AcDbLine
 10
41.68588788487304
 20
26.97479013931241
 30
0.0
 11
41.61098785487924
 21
27.12542223908699
 31
0.0
  0
LINE
  5
D6
330
2
100
AcDbEntity
  8
0
100
AcDbLine
 10
40.01716133216504
 20
27.80915326373382
 30
0.0
 11
39.94226152971613
 21
27.95978493893255
 31
0.0
  0
LINE
  5
D7
330
2
100
AcDbEntity
  8
0
100
AcDbLine
 10
6.132371735003227
 20
18.85182770111323
 30
0.0
 11
6.626433546230265
 21
19.98844331814744
 31
0.0
  0
ARC
  5
D8
330
2
100
AcDbEntity
  8
0
100
AcDbCircle
 10
6.438951358555207
 20
20.06022321019711
 30
0.0
 40
0.2007533899995328
100
AcDbArc
 50
339.0500327009997
 51
42.18592620580053
  0
LINE
  5
D9
330
2
100
AcDbEntity
  8
0
100
AcDbLine
 10
6.587703511902437
 20
20.19503686110752
 30
0.0
 11
5.728811239751816
 21
21.2349359036379
 31
0.0
  0
ARC
  5
DA
330
2
100
AcDbEntity
  8
0
100
AcDbCircle
 10
5.491792381942528
 20
21.05742306766482
 30
0.0
 40
0.2961228560876964
100
AcDbArc
 50
36.83099797060058
 51
130.1728981804995
  0
LINE
  5
DB
330
2
100
AcDbEntity
  8
0
100
AcDbLine
 10
5.3007646148865
 20
21.28369091363335
 30
0.0
 11
2.319550676857496
 21
18.16393259746878
 31
0.0
  0
ARC
  5
DC
330
2
100
AcDbEntity
  8
0
100
AcDbCircle
 10
1.871525429161449
 20
18.63477443212141
 30
0.0
 40
0.649937424523993
100
AcDbArc
 50
253.6943533065997
 51
313.5775684297996
  0
LINE
  5
DD
330
2
100
AcDbEntity
  8
0
100
AcDbLine
 10
1.689048153174923
 20
18.01097903331828
 30
0.0
 11
1.480142101365975
 21
18.06268685106164
 31
0.0
  0
LINE
  5
DE
330
2
100
AcDbEntity
  8
0
100
AcDbLine
 10
1.480142101365975
 20
18.06268685106164
 30
0.0
 11
1.494462254481701
 21
18.16214664138449
 31
0.0
  0
LINE
  5
DF
330
2
100
AcDbEntity
  8
0
100
AcDbLine
 10
1.494462254481701
 20
18.16214664138449
 30
0.0
 11
1.703366152850323
 21
18.11043954047127
 31
0.0
  0
ARC
  5
E0
330
2
100
AcDbEntity
  8
0
100
AcDbCircle
 10
1.855432391379659
 20
18.63026661177373
 30
0.0
 40
0.5416127075320346
100
AcDbArc
 50
253.6940941909985
 51
313.5776805204005
  0
LINE
  5
E1
330
2
100
AcDbEntity
  8
0
100
AcDbLine
 10
2.228786282356523
 20
18.23790045999223
 30
0.0
 11
5.210000220409125
 21
21.35765877615682
 31
0.0
  0
ARC
  5
E2
330
2
100
AcDbEntity
  8
0
100
AcDbCircle
 10
5.480622252180507
 20
21.0371128816198
 30
0.0
 40
0.4195067991928692
100
AcDbArc
 50
36.83093790670073
 51
130.1728510138008
  0
LINE
  5
E3
330
2
100
AcDbEntity
  8
0
100
AcDbLine
 10
5.816398766595646
 20
21.28858869941757
 30
0.0
 11
6.675290811201358
 21
20.24869008148663
 31
0.0
  0
ARC
  5
E4
330
2
100
AcDbEntity
  8
0
100
AcDbCircle
 10
6.45216570108488
 20
20.04646917101103
 30
0.0
 40
0.3011280647679633
100
AcDbArc
 50
339.0499494258995
 51
42.186386047199
  0
LINE
  5
E5
330
2
100
AcDbEntity
  8
0
100
AcDbLine
 10
6.733386939425057
 20
19.93879964654825
 30
0.0
 11
6.338186797128442
 21
19.02961833577462
 31
0.0
  0
ARC
  5
E6
330
2
100
AcDbEntity
  8
0
100
AcDbCircle
 10
41.45018721736946
 20
27.41157351393623
 30
0.0
 40
0.2470914279375667
100
AcDbArc
 50
314.8412487177002
 51
17.46496920309977
  0
ARC
  5
E7
330
2
100
AcDbEntity
  8
0
100
AcDbCircle
 10
39.78146867456274
 20
28.24593420668103
 30
0.0
 40
0.247084517126116
100
AcDbArc
 50
314.8402973047003
 51
17.46606453039987
  0
ARC
  5
E8
330
2
100
AcDbEntity
  8
0
100
AcDbCircle
 10
41.65359308749938
 20
27.17678058716379
 30
0.0
 40
0.0617731472557407
100
AcDbArc
 50
134.8407799432
 51
197.4642028743999
  0
LINE
  5
E9
330
2
100
AcDbEntity
  8
0
100
AcDbLine
 10
39.94226152971613
 20
28.05599053628746
 30
0.0
 11
39.9556961439644
 21
28.07073275830467
 31
0.0
  0
LINE
  5
EA
330
2
100
AcDbEntity
  8
0
100
AcDbLine
 10
41.61098785487924
 20
27.22162783646549
 30
0.0
 11
41.62442246912752
 21
27.23637005848269
 31
0.0
  0
LINE
  5
EB
330
2
100
AcDbEntity
  8
0
100
AcDbLine
 10
41.61003442822111
 20
27.22058201322258
 30
0.0
 11
41.61098785487924
 21
27.22162783646549
 31
0.0
  0
LINE
  5
EC
330
2
100
AcDbEntity
  8
0
100
AcDbLine
 10
41.61098785487924
 20
27.63636334493883
 30
0.0
 11
41.59466739576814
 21
27.66918296120949
 31
0.0
  0
LINE
  5
ED
330
2
100
AcDbEntity
  8
0
100
AcDbLine
 10
41.68588788487304
 20
27.48573124516427
 30
0.0
 11
41.61098785487924
 21
27.63636334493883
 31
0.0
  0
LINE
  5
EE
330
2
100
AcDbEntity
  8
0
100
AcDbLine
 10
40.01716133216504
 20
28.32009436958568
 30
0.0
 11
39.94226152971613
 21
28.4707260447608
 31
0.0
  0
LINE
  5
EF
330
2
100
AcDbEntity
  8
0
100
AcDbLine
 10
8.671295766098157
 20
27.01981832697213
 30
0.0
 11
9.811056216824667
 21
26.86711909764768
 31
0.0
  0
LINE
  5
F0
330
2
100
AcDbEntity
  8
0
100
AcDbLine
 10
9.811056216824667
 20
21.29232335956814
 30
0.0
 11
9.811056216824667
 21
26.86711909764768
 31
0.0
  0
ARC
  5
F1
330
2
100
AcDbEntity
  8
0
100
AcDbCircle
 10
41.4501930781491
 20
27.92251397552594
 30
0.0
 40
0.2470858022078153
100
AcDbArc
 50
314.8400739688
 51
17.46535117900114
  0
ARC
  5
F2
330
2
100
AcDbEntity
  8
0
100
AcDbCircle
 10
39.78147002217981
 20
28.75687475393634
 30
0.0
 40
0.2470831708035983
100
AcDbArc
 50
314.8401670619993
 51
17.46611347150055
  0
ARC
  5
F3
330
2
100
AcDbEntity
  8
0
100
AcDbCircle
 10
41.6535934268816
 20
27.68772160935594
 30
0.0
 40
0.0617734458903234
100
AcDbArc
 50
134.8409484319005
 51
197.4640343856993
  0
LINE
  5
F4
330
2
100
AcDbEntity
  8
0
100
AcDbLine
 10
39.94226152971613
 20
28.56693164213932
 30
0.0
 11
39.9556961439644
 21
28.58167386415653
 31
0.0
  0
LINE
  5
F5
330
2
100
AcDbEntity
  8
0
100
AcDbLine
 10
41.61098785487924
 20
27.73256894231736
 30
0.0
 11
41.62442077075335
 21
27.74731093678966
 31
0.0
  0
LINE
  5
F6
330
2
100
AcDbEntity
  8
0
100
AcDbLine
 10
41.61003442822111
 20
27.73152311907443
 30
0.0
 11
41.61098785487924
 21
27.73256894231736
 31
0.0
  0
LINE
  5
F7
330
2
100
AcDbEntity
  8
0
100
AcDbLine
 10
41.68588788487304
 20
27.99667158965401
 30
0.0
 11
41.62787495958968
 21
28.11333934031183
 31
0.0
  0
LINE
  5
F8
330
2
100
AcDbEntity
  8
0
100
AcDbLine
 10
40.01716133216504
 20
28.83103471407542
 30
0.0
 11
39.95915033280072
 21
28.94770226767871
 31
0.0
  0
ARC
  5
F9
330
2
100
AcDbEntity
  8
0
100
AcDbCircle
 10
40.1251043291784
 20
29.02457270471228
 30
0.0
 40
0.1828928456908627
100
AcDbArc
 50
178.6595985063998
 51
204.8537273633991
  0
ARC
  5
FA
330
2
100
AcDbEntity
  8
0
100
AcDbCircle
 10
41.79387010857797
 20
28.19021452650142
 30
0.0
 40
0.1829321834388971
100
AcDbArc
 50
178.6613033858005
 51
204.8496596463997
  0
ARC
  5
FB
330
2
100
AcDbEntity
  8
0
100
AcDbCircle
 10
8.59992896191199
 20
26.72470331590024
 30
0.0
 40
0.303621623913392
100
AcDbArc
 50
76.40532475020052
 51
135.7988508326002
  0
LINE
  5
FC
330
2
100
AcDbEntity
  8
0
100
AcDbLine
 10
7.980788945070495
 20
20.24182152089043
 30
0.0
 11
7.985245689376932
 21
20.25013901816421
 31
0.0
  0
LINE
  5
FD
330
2
100
AcDbEntity
  8
0
100
AcDbLine
 10
7.985245689376932
 20
20.25013901816421
 30
0.0
 11
7.985245689376932
 21
20.41392912382615
 31
0.0
  0
LINE
  5
FE
330
2
100
AcDbEntity
  8
0
100
AcDbLine
 10
7.679848307471758
 20
20.66800163953364
 30
0.0
 11
7.679848307471758
 21
20.57179642283617
 31
0.0
  0
LINE
  5
FF
330
2
100
AcDbEntity
  8
0
100
AcDbLine
 10
7.679848307471758
 20
21.17894274538548
 30
0.0
 11
7.679848307471758
 21
21.08273714800697
 31
0.0
  0
LINE
  5
100
330
2
100
AcDbEntity
  8
0
100
AcDbLine
 10
7.679848307471758
 20
21.68988308987522
 30
0.0
 11
7.679848307471758
 21
21.59367825385881
 31
0.0
  0
LINE
  5
101
330
2
100
AcDbEntity
  8
0
100
AcDbLine
 10
7.679848307471758
 20
22.20082419570347
 30
0.0
 11
7.679848307471758
 21
22.10461859834854
 31
0.0
  0
LINE
  5
102
330
2
100
AcDbEntity
  8
0
100
AcDbLine
 10
7.679848307471758
 20
22.71176530155531
 30
0.0
 11
7.679848307471758
 21
22.61555970420039
 31
0.0
  0
LINE
  5
103
330
2
100
AcDbEntity
  8
0
100
AcDbLine
 10
7.679848307471758
 20
23.22270564604506
 30
0.0
 11
7.679848307471758
 21
23.12650004869015
 31
0.0
  0
LINE
  5
104
330
2
100
AcDbEntity
  8
0
100
AcDbLine
 10
7.679848307471758
 20
23.73364675189689
 30
0.0
 11
7.679848307471758
 21
23.63744115451838
 31
0.0
  0
LINE
  5
105
330
2
100
AcDbEntity
  8
0
100
AcDbLine
 10
7.679848307471758
 20
24.24458785774875
 30
0.0
 11
7.679848307471758
 21
24.14838226037023
 31
0.0
  0
LINE
  5
106
330
2
100
AcDbEntity
  8
0
100
AcDbLine
 10
7.069051617742393
 20
23.5667463266808
 30
0.0
 11
7.679848307471758
 21
24.70650720198313
 31
0.0
  0
LINE
  5
107
330
2
100
AcDbEntity
  8
0
100
AcDbLine
 10
7.069051617742393
 20
21.57200442625296
 30
0.0
 11
7.069051617742393
 21
21.49255714956946
 31
0.0
  0
LINE
  5
108
330
2
100
AcDbEntity
  8
0
100
AcDbLine
 10
6.36663605310687
 20
23.17517080104328
 30
0.0
 11
8.382263644562382
 21
26.93638208226249
 31
0.0
  0
LINE
  5
109
330
2
100
AcDbEntity
  8
0
100
AcDbLine
 10
4.079172933801912
 20
19.00416939054993
 30
0.0
 11
1.097957297398769
 21
15.88441084686407
 31
0.0
  0
ARC
  5
10A
330
2
100
AcDbEntity
  8
0
100
AcDbCircle
 10
0.6499331436268109
 20
16.35524817210644
 30
0.0
 40
0.64993340366755
100
AcDbArc
 50
253.6941491377993
 51
313.5777725986002
  0
LINE
  5
10B
330
2
100
AcDbEntity
  8
0
100
AcDbLine
 10
0.4674547737161973
 20
15.73145728268997
 30
0.0
 11
0.2585506478262864
 21
15.7831649034024
 31
0.0
  0
LINE
  5
10C
330
2
100
AcDbEntity
  8
0
100
AcDbLine
 10
0.2585506478262864
 20
15.7831649034024
 30
0.0
 11
1.480142101365975
 21
18.06268685106164
 31
0.0
  0
LINE
  5
10D
330
2
100
AcDbEntity
  8
0
100
AcDbLine
 10
0.2585506478262864
 20
15.7831649034024
 30
0.0
 11
0.2728705733971281
 21
15.88262511830108
 31
0.0
  0
LINE
  5
10E
330
2
100
AcDbEntity
  8
0
100
AcDbLine
 10
0.2728705733971281
 20
15.88262511830108
 30
0.0
 11
1.494462254481701
 21
18.16214664138449
 31
0.0
  0
LINE
  5
10F
330
2
100
AcDbEntity
  8
0
100
AcDbLine
 10
5.277098906676648
 20
18.02328562449712
 30
0.0
 11
4.507219786212124
 21
18.95541395597865
 31
0.0
  0
LINE
  5
110
330
2
100
AcDbEntity
  8
0
100
AcDbLine
 10
4.507219786212124
 20
18.95541395597865
 30
0.0
 11
5.728811239751816
 21
21.2349359036379
 31
0.0
  0
ARC
  5
111
330
2
100
AcDbEntity
  8
0
100
AcDbCircle
 10
4.270200375163366
 20
18.77789912503486
 30
0.0
 40
0.2961244947843158
100
AcDbArc
 50
36.8312427589992
 51
130.1725480299995
  0
LINE
  5
112
330
2
100
AcDbEntity
  8
0
100
AcDbLine
 10
7.843533460186396
 20
20.3725619352767
 30
0.0
 11
7.435882237920615
 21
20.45412859397879
 31
0.0
  0
LINE
  5
113
330
2
100
AcDbEntity
  8
0
100
AcDbLine
 10
7.435882237920615
 20
20.45412859397879
 30
0.0
 11
7.444265929401577
 21
20.55491676617378
 31
0.0
  0
LINE
  5
114
330
2
100
AcDbEntity
  8
0
100
AcDbLine
 10
7.444265929401577
 20
20.55491676617378
 30
0.0
 11
7.851915225771915
 21
20.47335030452623
 31
0.0
  0
ARC
  5
115
330
2
100
AcDbEntity
  8
0
100
AcDbCircle
 10
7.785323301833679
 20
20.1446345758302
 30
0.0
 40
0.3353930748098632
100
AcDbArc
 50
53.41006571540034
 51
78.54788489890069
  0
ARC
  5
116
330
2
100
AcDbEntity
  8
0
100
AcDbCircle
 10
7.809248589375851
 20
20.18964317084075
 30
0.0
 40
0.1861040750491248
100
AcDbArc
 50
18.96948900269989
 51
79.3840961694016
  0
LINE
  5
117
330
2
100
AcDbEntity
  8
0
100
AcDbLine
 10
6.847509146705832
 20
19.4413553666206
 30
0.0
 11
7.444265929401577
 21
20.55491676617378
 31
0.0
  0
LINE
  5
118
330
2
100
AcDbEntity
  8
0
100
AcDbLine
 10
7.646232758649743
 20
20.51450542472579
 30
0.0
 11
7.679848307471758
 21
20.57179642283617
 31
0.0
  0
LINE
  5
119
330
2
100
AcDbEntity
  8
0
100
AcDbLine
 10
7.679848307471758
 20
20.66800163953364
 30
0.0
 11
7.66149611495083
 21
20.67848561762223
 31
0.0
  0
ARC
  5
11A
330
2
100
AcDbEntity
  8
0
100
AcDbCircle
 10
7.734497335937539
 20
20.83542205236502
 30
0.0
 40
0.1730844384000457
100
AcDbArc
 50
155.0759337999004
 51
245.0538344839016
  0
LINE
  5
11B
330
2
100
AcDbEntity
  8
0
100
AcDbLine
 10
7.57753275585938
 20
20.90836273663937
 30
0.0
 11
7.679848307471758
 21
21.08273714800697
 31
0.0
  0
ARC
  5
11C
330
2
100
AcDbEntity
  8
0
100
AcDbCircle
 10
7.092964043782512
 20
19.69790204086897
 30
0.0
 40
0.1447728682249635
100
AcDbArc
 50
152.7696994534007
 51
200.7147874934995
  0
LINE
  5
11D
330
2
100
AcDbEntity
  8
0
100
AcDbLine
 10
7.679848307471758
 20
21.17894274538548
 30
0.0
 11
7.66149611495083
 21
21.18942634279302
 31
0.0
  0
ARC
  5
11E
330
2
100
AcDbEntity
  8
0
100
AcDbCircle
 10
7.734497705385313
 20
21.34636303328193
 30
0.0
 40
0.1730848261081044
100
AcDbArc
 50
155.0759478332998
 51
245.0537592965997
  0
LINE
  5
11F
330
2
100
AcDbEntity
  8
0
100
AcDbLine
 10
7.57753275585938
 20
21.41930384246763
 30
0.0
 11
7.679848307471758
 21
21.59367825385881
 31
0.0
  0
ARC
  5
120
330
2
100
AcDbEntity
  8
0
100
AcDbCircle
 10
7.124404655129227
 20
20.20722893476007
 30
0.0
 40
0.1739503007807893
100
AcDbArc
 50
157.0395345069004
 51
244.9306901058988
  0
ARC
  5
121
330
2
100
AcDbEntity
  8
0
100
AcDbCircle
 10
7.046202662087842
 20
19.9941868735822
 30
0.0
 40
0.0504128062768588
100
AcDbArc
 50
15.56920637440026
 51
61.37569651079913
  0
LINE
  5
122
330
2
100
AcDbEntity
  8
0
100
AcDbLine
 10
7.069051617742393
 20
20.03918187005954
 30
0.0
 11
7.05069942519787
 21
20.04966546746707
 31
0.0
  0
LINE
  5
123
330
2
100
AcDbEntity
  8
0
100
AcDbLine
 10
7.070353634519427
 20
20.03843821895683
 30
0.0
 11
7.069051617742393
 21
20.03918187005954
 31
0.0
  0
LINE
  5
124
330
2
100
AcDbEntity
  8
0
100
AcDbLine
 10
7.679848307471758
 20
21.68988308987522
 30
0.0
 11
7.66149611495083
 21
21.70036744864486
 31
0.0
  0
ARC
  5
125
330
2
100
AcDbEntity
  8
0
100
AcDbCircle
 10
7.734497392505172
 20
21.85730390403708
 30
0.0
 40
0.1730844809920329
100
AcDbArc
 50
155.0759478935999
 51
245.0538203902011
  0
LINE
  5
126
330
2
100
AcDbEntity
  8
0
100
AcDbLine
 10
7.57753275585938
 20
21.93024456763842
 30
0.0
 11
7.679848307471758
 21
22.10461859834854
 31
0.0
  0
ARC
  5
127
330
2
100
AcDbEntity
  8
0
100
AcDbCircle
 10
7.12440464894619
 20
20.71817003822838
 30
0.0
 40
0.1739502960014356
100
AcDbArc
 50
157.0395329895996
 51
244.9306916232997
  0
ARC
  5
128
330
2
100
AcDbEntity
  8
0
100
AcDbCircle
 10
7.046199367524724
 20
20.50512552909033
 30
0.0
 40
0.0504165354580538
100
AcDbArc
 50
15.57046719169898
 51
61.3737440537012
  0
LINE
  5
129
330
2
100
AcDbEntity
  8
0
100
AcDbLine
 10
7.069051617742393
 20
20.55012221454927
 30
0.0
 11
7.05069942519787
 21
20.56060657331892
 31
0.0
  0
LINE
  5
12A
330
2
100
AcDbEntity
  8
0
100
AcDbLine
 10
7.070353634519427
 20
20.54937932480868
 30
0.0
 11
7.069051617742393
 21
20.55012221454927
 31
0.0
  0
LINE
  5
12B
330
2
100
AcDbEntity
  8
0
100
AcDbLine
 10
7.679848307471758
 20
22.20082419570347
 30
0.0
 11
7.66149611495083
 21
22.21130779313461
 31
0.0
  0
ARC
  5
12C
330
2
100
AcDbEntity
  8
0
100
AcDbCircle
 10
7.734498131424302
 20
22.36824476001906
 30
0.0
 40
0.1730852564093472
100
AcDbArc
 50
155.0759759606002
 51
245.0536700157005
  0
LINE
  5
12D
330
2
100
AcDbEntity
  8
0
100
AcDbLine
 10
7.57753275585938
 20
22.44118567349026
 30
0.0
 11
7.679848307471758
 21
22.61555970420039
 31
0.0
  0
ARC
  5
12E
330
2
100
AcDbEntity
  8
0
100
AcDbCircle
 10
7.124407290350222
 20
21.22911139588525
 30
0.0
 40
0.1739523329396247
100
AcDbArc
 50
157.0401796548002
 51
244.9300449579991
  0
ARC
  5
12F
330
2
100
AcDbEntity
  8
0
100
AcDbCircle
 10
7.046199367524724
 20
21.01606663494218
 30
0.0
 40
0.0504165354581233
100
AcDbArc
 50
15.57046719169898
 51
61.3737440537012
  0
LINE
  5
130
330
2
100
AcDbEntity
  8
0
100
AcDbLine
 10
7.069051617742393
 20
21.06106332040112
 30
0.0
 11
7.05069942519787
 21
21.07154691780867
 31
0.0
  0
LINE
  5
131
330
2
100
AcDbEntity
  8
0
100
AcDbLine
 10
7.070353634519427
 20
21.06032043066052
 30
0.0
 11
7.069051617742393
 21
21.06106332040112
 31
0.0
  0
LINE
  5
132
330
2
100
AcDbEntity
  8
0
100
AcDbLine
 10
7.679848307471758
 20
22.71176530155531
 30
0.0
 11
7.66149611495083
 21
22.72224889898646
 31
0.0
  0
ARC
  5
133
330
2
100
AcDbEntity
  8
0
100
AcDbCircle
 10
7.734497279369906
 20
22.87918531305622
 30
0.0
 40
0.1730843958068408
100
AcDbArc
 50
155.0759197058002
 51
245.0538485779988
  0
LINE
  5
134
330
2
100
AcDbEntity
  8
0
100
AcDbLine
 10
7.57753275585938
 20
22.95212601798001
 30
0.0
 11
7.679848307471758
 21
23.12650004869015
 31
0.0
  0
ARC
  5
135
330
2
100
AcDbEntity
  8
0
100
AcDbCircle
 10
7.124409322112335
 20
21.74005328105831
 30
0.0
 40
0.1739538997468626
100
AcDbArc
 50
157.0406770527997
 51
244.9295475600008
  0
ARC
  5
136
330
2
100
AcDbEntity
  8
0
100
AcDbCircle
 10
7.04620399353936
 20
21.52701065545487
 30
0.0
 40
0.0504110925486528
100
AcDbArc
 50
15.56785378280059
 51
61.37635746269911
  0
LINE
  5
137
330
2
100
AcDbEntity
  8
0
100
AcDbLine
 10
7.069051617742393
 20
21.57200442625296
 30
0.0
 11
7.05069942519787
 21
21.58248802366051
 31
0.0
  0
LINE
  5
138
330
2
100
AcDbEntity
  8
0
100
AcDbLine
 10
7.070353634519427
 20
21.57126077515027
 30
0.0
 11
7.069051617742393
 21
21.57200442625296
 31
0.0
  0
LWPOLYLINE
  5
139
330
2
100
AcDbEntity
  8
0
100
AcDbPolyline
 90
        3
 70
   128
 43
0.0
 10
6.35859545892622
 20
23.14463110096572
 10
6.3591014969208
 20
23.15234853924634
 10
6.36663605310687
 20
23.17517080104328
  0
LINE
  5
13A
330
2
100
AcDbEntity
  8
0
100
AcDbLine
 10
7.679848307471758
 20
23.22270564604506
 30
0.0
 11
7.66149611495083
 21
23.2331900048383
 31
0.0
  0
ARC
  5
13B
330
2
100
AcDbEntity
  8
0
100
AcDbCircle
 10
7.734497392505172
 20
23.39012646023051
 30
0.0
 40
0.1730844809920704
100
AcDbArc
 50
155.0759478935999
 51
245.0538203902011
  0
LINE
  5
13C
330
2
100
AcDbEntity
  8
0
100
AcDbLine
 10
7.57753275585938
 20
23.46306712383185
 30
0.0
 11
7.679848307471758
 21
23.63744115451838
 31
0.0
  0
ARC
  5
13D
330
2
100
AcDbEntity
  8
0
100
AcDbCircle
 10
7.124408822301781
 20
22.25099396599222
 30
0.0
 40
0.1739533067161648
100
AcDbArc
 50
157.0407160925996
 51
244.9296379342
  0
ARC
  5
13E
330
2
100
AcDbEntity
  8
0
100
AcDbCircle
 10
7.046199367524724
 20
22.03794808528377
 30
0.0
 40
0.0504165354580998
100
AcDbArc
 50
15.57046719169898
 51
61.3737440537012
  0
LINE
  5
13F
330
2
100
AcDbEntity
  8
0
100
AcDbLine
 10
7.069051617742393
 20
22.08294477074272
 30
0.0
 11
7.05069942519787
 21
22.09342912951235
 31
0.0
  0
LINE
  5
140
330
2
100
AcDbEntity
  8
0
100
AcDbLine
 10
7.070353634519427
 20
22.0822018809785
 30
0.0
 11
7.069051617742393
 21
22.08294477074272
 31
0.0
  0
LINE
  5
141
330
2
100
AcDbEntity
  8
0
100
AcDbLine
 10
7.679848307471758
 20
23.73364675189689
 30
0.0
 11
7.66149611495083
 21
23.74413034932805
 31
0.0
  0
ARC
  5
142
330
2
100
AcDbEntity
  8
0
100
AcDbCircle
 10
7.734498131424302
 20
23.90106731621248
 30
0.0
 40
0.173085256409359
100
AcDbArc
 50
155.0759759606002
 51
245.0536700157005
  0
LINE
  5
143
330
2
100
AcDbEntity
  8
0
100
AcDbLine
 10
7.57753275585938
 20
23.9740082296837
 30
0.0
 11
7.679848307471758
 21
24.14838226037023
 31
0.0
  0
ARC
  5
144
330
2
100
AcDbEntity
  8
0
100
AcDbCircle
 10
7.124409429347746
 20
22.76193477250995
 30
0.0
 40
0.1739539824439132
100
AcDbArc
 50
157.0407033053998
 51
244.9295213074015
  0
ARC
  5
145
330
2
100
AcDbEntity
  8
0
100
AcDbCircle
 10
7.046206019000424
 20
22.54889371531906
 30
0.0
 40
0.0504087094257787
100
AcDbArc
 50
15.56670933459944
 51
61.37750191089885
  0
LINE
  5
146
330
2
100
AcDbEntity
  8
0
100
AcDbLine
 10
7.069051617742393
 20
22.59388587659456
 30
0.0
 11
7.05069942519787
 21
22.60436947400209
 31
0.0
  0
LINE
  5
147
330
2
100
AcDbEntity
  8
0
100
AcDbLine
 10
7.070353634519427
 20
22.59314222546827
 30
0.0
 11
7.069051617742393
 21
22.59388587659456
 31
0.0
  0
LINE
  5
148
330
2
100
AcDbEntity
  8
0
100
AcDbLine
 10
7.679848307471758
 20
24.24458785774875
 30
0.0
 11
7.66149611495083
 21
24.2550714551563
 31
0.0
  0
ARC
  5
149
330
2
100
AcDbEntity
  8
0
100
AcDbCircle
 10
7.734497279369906
 20
24.41200786924965
 30
0.0
 40
0.1730843958068408
100
AcDbArc
 50
155.0759197058002
 51
245.0538485779988
  0
LINE
  5
14A
330
2
100
AcDbEntity
  8
0
100
AcDbLine
 10
7.57753275585938
 20
24.48494857417344
 30
0.0
 11
7.656777718038747
 21
24.62000493980425
 31
0.0
  0
ARC
  5
14B
330
2
100
AcDbEntity
  8
0
100
AcDbCircle
 10
7.509779050081462
 20
24.70553787797948
 30
0.0
 40
0.1700720197361721
100
AcDbArc
 50
329.8065016368999
 51
0.3265585664006488
  0
ARC
  5
14C
330
2
100
AcDbEntity
  8
0
100
AcDbCircle
 10
7.124407084422322
 20
23.27287569331932
 30
0.0
 40
0.1739518954700536
100
AcDbArc
 50
157.0403458969995
 51
244.9306700227988
  0
ARC
  5
14D
330
2
100
AcDbEntity
  8
0
100
AcDbCircle
 10
7.04620399353936
 20
23.05983321164831
 30
0.0
 40
0.0504110925486895
100
AcDbArc
 50
15.56785378280059
 51
61.37635746269911
  0
LINE
  5
14E
330
2
100
AcDbEntity
  8
0
100
AcDbLine
 10
7.069051617742393
 20
23.1048269824464
 30
0.0
 11
7.05070112359562
 21
23.11531080739884
 31
0.0
  0
LINE
  5
14F
330
2
100
AcDbEntity
  8
0
100
AcDbLine
 10
7.070353634519427
 20
23.1040833313201
 30
0.0
 11
7.069051617742393
 21
23.1048269824464
 31
0.0
  0
ARC
  5
150
330
2
100
AcDbEntity
  8
0
100
AcDbCircle
 10
6.89317057890086
 20
23.5664651488021
 30
0.0
 40
0.1758812635812936
100
AcDbArc
 50
347.5820566558001
 51
0.0915976630004732
  0
LINE
  5
151
330
2
100
AcDbEntity
  8
0
100
AcDbLine
 10
35.44922414519135
 20
6.370525933259643
 30
0.0
 11
35.44922414519135
 21
14.04803543500498
 31
0.0
  0
LINE
  5
152
330
2
100
AcDbEntity
  8
0
100
AcDbLine
 10
35.44922414519135
 20
14.04803543500498
 30
0.0
 11
35.75462232067172
 21
13.47815468128776
 31
0.0
  0
LINE
  5
153
330
2
100
AcDbEntity
  8
0
100
AcDbLine
 10
35.44922414519135
 20
14.04803543500498
 30
0.0
 11
35.22127192862433
 21
14.01749562884835
 31
0.0
  0
LINE
  5
154
330
2
100
AcDbEntity
  8
0
100
AcDbLine
 10
35.22127192862433
 20
6.306425136405757
 30
0.0
 11
35.22127192862433
 21
14.01749562884835
 31
0.0
  0
LINE
  5
155
330
2
100
AcDbEntity
  8
0
100
AcDbLine
 10
28.00424823105043
 20
12.43980144211353
 30
0.0
 11
28.00424823105043
 21
5.227640264971329
 31
0.0
  0
LINE
  5
156
330
2
100
AcDbEntity
  8
0
100
AcDbLine
 10
27.69885005557005
 20
5.217330117330059
 30
0.0
 11
27.69885005557005
 21
13.00968219583075
 31
0.0
  0
LINE
  5
157
330
2
100
AcDbEntity
  8
0
100
AcDbLine
 10
27.69885005557005
 20
13.00968219583075
 30
0.0
 11
28.00424823105043
 21
12.43980144211353
 31
0.0
  0
LWPOLYLINE
  5
158
330
2
100
AcDbEntity
  8
0
100
AcDbPolyline
 90
        3
 70
   128
 43
0.0
 10
35.75462232067172
 20
13.47815468128776
 10
35.76215843927609
 20
13.45533186868208
 10
35.76266373920112
 20
13.44761499322226
  0
LINE
  5
159
330
2
100
AcDbEntity
  8
0
100
AcDbLine
 10
28.00424823105043
 20
12.43980144211353
 30
0.0
 11
35.2212721504346
 21
13.40669930757558
 31
0.0
  0
ARC
  5
15A
330
2
100
AcDbEntity
  8
0
100
AcDbCircle
 10
36.32275626966708
 20
1.398897696879331
 30
0.0
 40
0.6280359223733517
100
AcDbArc
 50
197.9504259563995
 51
211.8504892120999
  0
LINE
  5
15B
330
2
100
AcDbEntity
  8
0
100
AcDbLine
 10
35.84526098788617
 20
0.9867469766933087
 30
0.0
 11
35.78928496714854
 21
1.067480302694655
 31
0.0
  0
LINE
  5
15C
330
2
100
AcDbEntity
  8
0
100
AcDbLine
 10
35.8490977547141
 20
0.8782089968117421
 30
0.0
 11
35.84526098788617
 21
0.9867469766933087
 31
0.0
  0
LINE
  5
15D
330
2
100
AcDbEntity
  8
0
100
AcDbLine
 10
35.79312173397646
 20
0.9589422276369344
 30
0.0
 11
35.8490977547141
 21
0.8782089968117421
 31
0.0
  0
ARC
  5
15E
330
2
100
AcDbEntity
  8
0
100
AcDbCircle
 10
36.56709718854197
 20
1.423311727588044
 30
0.0
 40
0.9025946137243375
100
AcDbArc
 50
194.7021800463005
 51
210.9628979757991
  0
LINE
  5
15F
330
2
100
AcDbEntity
  8
0
100
AcDbLine
 10
27.69885005557005
 20
13.00968219583075
 30
0.0
 11
27.47089783900305
 21
12.97914238965051
 31
0.0
  0
LINE
  5
160
330
2
100
AcDbEntity
  8
0
100
AcDbLine
 10
27.47089783900305
 20
5.211360958824817
 30
0.0
 11
27.47089783900305
 21
12.97914238965051
 31
0.0
  0
ARC
  5
161
330
2
100
AcDbEntity
  8
0
100
AcDbCircle
 10
33.41974623835044
 20
5.899717891903116
 30
0.0
 40
0.6078062388449288
100
AcDbArc
 50
172.8058052092999
 51
193.569063024901
  0
LINE
  5
162
330
2
100
AcDbEntity
  8
0
100
AcDbLine
 10
32.81672501795345
 20
5.975835115449719
 30
0.0
 11
32.85011367241956
 21
6.142592636736825
 31
0.0
  0
ARC
  5
163
330
2
100
AcDbEntity
  8
0
100
AcDbCircle
 10
32.68616784602374
 20
6.161258667829116
 30
0.0
 40
0.1650050141925595
100
AcDbArc
 50
353.5045666076004
 51
16.36319329239981
  0
LINE
  5
164
330
2
100
AcDbEntity
  8
0
100
AcDbLine
 10
32.84448935723585
 20
6.207744728058829
 30
0.0
 11
32.83922318884428
 21
6.226165776958366
 31
0.0
  0
ARC
  5
165
330
2
100
AcDbEntity
  8
0
100
AcDbCircle
 10
33.47250355335371
 20
6.412112304370652
 30
0.0
 40
0.6600152506819896
100
AcDbArc
 50
173.5045704880002
 51
196.3635226621004
  0
LINE
  5
166
330
2
100
AcDbEntity
  8
0
100
AcDbLine
 10
32.81672501795345
 20
6.486775840620531
 30
0.0
 11
32.85011367241956
 21
6.653533361907621
 31
0.0
  0
ARC
  5
167
330
2
100
AcDbEntity
  8
0
100
AcDbCircle
 10
32.68616832122017
 20
6.672199434015577
 30
0.0
 40
0.1650045466919275
100
AcDbArc
 50
353.5045337888996
 51
16.3632261109997
  0
LINE
  5
168
330
2
100
AcDbEntity
  8
0
100
AcDbLine
 10
32.84448935723585
 20
6.718685453229626
 30
0.0
 11
32.83922318884428
 21
6.737106502129162
 31
0.0
  0
ARC
  5
169
330
2
100
AcDbEntity
  8
0
100
AcDbCircle
 10
33.47250719975948
 20
6.923053453385703
 30
0.0
 40
0.6600188687947246
100
AcDbArc
 50
173.5046100201994
 51
196.3634687865001
  0
LINE
  5
16A
330
2
100
AcDbEntity
  8
0
100
AcDbLine
 10
32.81672501795345
 20
6.997716946472375
 30
0.0
 11
32.85011367241956
 21
7.164474087078418
 31
0.0
  0
ARC
  5
16B
330
2
100
AcDbEntity
  8
0
100
AcDbCircle
 10
32.68616671932015
 20
7.183140292522677
 30
0.0
 40
0.1650061533841814
100
AcDbArc
 50
353.5045507123992
 51
16.3631518156003
  0
LINE
  5
16C
330
2
100
AcDbEntity
  8
0
100
AcDbLine
 10
32.84448935723585
 20
7.229626559081469
 30
0.0
 11
32.83922318884428
 21
7.248047227299958
 31
0.0
  0
ARC
  5
16D
330
2
100
AcDbEntity
  8
0
100
AcDbCircle
 10
33.47250682165075
 20
7.433994145918608
 30
0.0
 40
0.6600184968080357
100
AcDbArc
 50
173.5046034917004
 51
196.3634753149998
  0
LINE
  5
16E
330
2
100
AcDbEntity
  8
0
100
AcDbLine
 10
32.81672501795345
 20
7.508657671643156
 30
0.0
 11
32.85011367241956
 21
7.675415192930262
 31
0.0
  0
ARC
  5
16F
330
2
100
AcDbEntity
  8
0
100
AcDbCircle
 10
32.68616784602374
 20
7.694081224022554
 30
0.0
 40
0.1650050141926543
100
AcDbArc
 50
353.5045666076004
 51
16.36319329239981
  0
LINE
  5
170
330
2
100
AcDbEntity
  8
0
100
AcDbLine
 10
32.84448935723585
 20
7.740567284252266
 30
0.0
 11
32.83922318884428
 21
7.758988333151804
 31
0.0
  0
ARC
  5
171
330
2
100
AcDbEntity
  8
0
100
AcDbCircle
 10
33.47250355335371
 20
7.94493486056409
 30
0.0
 40
0.6600152506822306
100
AcDbArc
 50
173.5045704880002
 51
196.3635226621004
  0
LINE
  5
172
330
2
100
AcDbEntity
  8
0
100
AcDbLine
 10
32.81672501795345
 20
8.019598396813954
 30
0.0
 11
32.85011367241956
 21
8.186355918101059
 31
0.0
  0
ARC
  5
173
330
2
100
AcDbEntity
  8
0
100
AcDbCircle
 10
32.68616832122017
 20
8.205021990209013
 30
0.0
 40
0.1650045466918624
100
AcDbArc
 50
353.5045337888996
 51
16.3632261109997
  0
LINE
  5
174
330
2
100
AcDbEntity
  8
0
100
AcDbLine
 10
32.84448935723585
 20
8.251508009423062
 30
0.0
 11
32.83922318884428
 21
8.269929058322588
 31
0.0
  0
ARC
  5
175
330
2
100
AcDbEntity
  8
0
100
AcDbCircle
 10
33.47250521979795
 20
8.455875729596506
 30
0.0
 40
0.6600168901589846
100
AcDbArc
 50
173.5045992613998
 51
196.3634938886999
  0
LINE
  5
176
330
2
100
AcDbEntity
  8
0
100
AcDbLine
 10
32.81672501795345
 20
8.53053912198475
 30
0.0
 11
32.85011367241956
 21
8.697296643271842
 31
0.0
  0
ARC
  5
177
330
2
100
AcDbEntity
  8
0
100
AcDbCircle
 10
32.6861699876644
 20
8.715962859241416
 30
0.0
 40
0.165002907217906
100
AcDbArc
 50
353.5044186958004
 51
16.36334120410026
  0
LINE
  5
178
330
2
100
AcDbEntity
  8
0
100
AcDbLine
 10
32.84448935723585
 20
8.762448734593846
 30
0.0
 11
32.83922318884428
 21
8.780869783493397
 31
0.0
  0
ARC
  5
179
330
2
100
AcDbEntity
  8
0
100
AcDbCircle
 10
33.47250682165075
 20
8.966816702112046
 30
0.0
 40
0.6600184968080357
100
AcDbArc
 50
173.5046034917004
 51
196.3634753149998
  0
LINE
  5
17A
330
2
100
AcDbEntity
  8
0
100
AcDbLine
 10
32.81672501795345
 20
9.041480227836595
 30
0.0
 11
32.85011367241956
 21
9.208237368442652
 31
0.0
  0
ARC
  5
17B
330
2
100
AcDbEntity
  8
0
100
AcDbCircle
 10
32.68616467472001
 20
9.226903397387401
 30
0.0
 40
0.1650081649050994
100
AcDbArc
 50
353.5046919184003
 51
16.36301060949998
  0
LINE
  5
17C
330
2
100
AcDbEntity
  8
0
100
AcDbLine
 10
32.84448935723585
 20
9.273389840445693
 30
0.0
 11
32.83922318884428
 21
9.291810889345226
 31
0.0
  0
ARC
  5
17D
330
2
100
AcDbEntity
  8
0
100
AcDbCircle
 10
33.47250559790667
 20
9.477757593257036
 30
0.0
 40
0.6600172621435867
100
AcDbArc
 50
173.5046057899005
 51
196.3634873603006
  0
LINE
  5
17E
330
2
100
AcDbEntity
  8
0
100
AcDbLine
 10
32.81672501795345
 20
9.552420953007393
 30
0.0
 11
32.85011367241956
 21
9.719178474294498
 31
0.0
  0
ARC
  5
17F
330
2
100
AcDbEntity
  8
0
100
AcDbCircle
 10
32.68616543100825
 20
9.737844568515027
 30
0.0
 40
0.1650074208395102
100
AcDbArc
 50
353.5046396864995
 51
16.36306284150021
  0
LINE
  5
180
330
2
100
AcDbEntity
  8
0
100
AcDbLine
 10
32.84448935723585
 20
9.784330946297545
 30
0.0
 11
32.83922318884428
 21
9.802751233834976
 31
0.0
  0
ARC
  5
181
330
2
100
AcDbEntity
  8
0
100
AcDbCircle
 10
33.47250880161232
 20
9.98869843243626
 30
0.0
 40
0.6600204754476515
100
AcDbArc
 50
173.5046142503998
 51
196.3634502129007
  0
LINE
  5
182
330
2
100
AcDbEntity
  8
0
100
AcDbLine
 10
32.81672501795345
 20
10.06336205885923
 30
0.0
 11
32.85011367241956
 21
10.23011958014634
 31
0.0
  0
ARC
  5
183
330
2
100
AcDbEntity
  8
0
100
AcDbCircle
 10
32.68617101732747
 20
10.24878561338617
 30
0.0
 40
0.1650018634997165
100
AcDbArc
 50
353.5044412924
 51
16.3633759800998
  0
LINE
  5
184
330
2
100
AcDbEntity
  8
0
100
AcDbLine
 10
32.84448935723585
 20
10.29527129078728
 30
0.0
 11
32.83922318884428
 21
10.31369233968682
 31
0.0
  0
ARC
  5
185
330
2
100
AcDbEntity
  8
0
100
AcDbCircle
 10
33.47250484168923
 20
10.49963897829924
 30
0.0
 40
0.6600165181666396
100
AcDbArc
 50
173.5045927329007
 51
196.3635004173
  0
LINE
  5
186
330
2
100
AcDbEntity
  8
0
100
AcDbLine
 10
32.81672501795345
 20
10.57430240334898
 30
0.0
 11
32.85011367241956
 21
10.74105992463608
 31
0.0
  0
ARC
  5
187
330
2
100
AcDbEntity
  8
0
100
AcDbCircle
 10
32.68616467472001
 20
10.75972595358084
 30
0.0
 40
0.165008164905126
100
AcDbArc
 50
353.5046919184003
 51
16.36301060949998
  0
LINE
  5
188
330
2
100
AcDbEntity
  8
0
100
AcDbLine
 10
32.84448935723585
 20
10.80621239663913
 30
0.0
 11
32.83922318884428
 21
10.82463344553866
 31
0.0
  0
ARC
  5
189
330
2
100
AcDbEntity
  8
0
100
AcDbCircle
 10
33.47250559790667
 20
11.01058014945046
 30
0.0
 40
0.6600172621435867
100
AcDbArc
 50
173.5046057899005
 51
196.3634873603006
  0
LINE
  5
18A
330
2
100
AcDbEntity
  8
0
100
AcDbLine
 10
32.81672501795345
 20
11.08524350920083
 30
0.0
 11
32.85011367241956
 21
11.25200103048792
 31
0.0
  0
ARC
  5
18B
330
2
100
AcDbEntity
  8
0
100
AcDbCircle
 10
32.68617196769673
 20
11.27066714575908
 30
0.0
 40
0.1650009285046202
100
AcDbArc
 50
353.5043756530996
 51
16.3634416194008
  0
LINE
  5
18C
330
2
100
AcDbEntity
  8
0
100
AcDbLine
 10
32.84448935723585
 20
11.31715274112887
 30
0.0
 11
32.83922318884428
 21
11.33557379002841
 31
0.0
  0
ARC
  5
18D
330
2
100
AcDbEntity
  8
0
100
AcDbCircle
 10
33.47250880161232
 20
11.5215209886297
 30
0.0
 40
0.6600204754476105
100
AcDbArc
 50
173.5046142503998
 51
196.3634502129007
  0
LINE
  5
18E
330
2
100
AcDbEntity
  8
0
100
AcDbLine
 10
32.81672501795345
 20
11.59618461505267
 30
0.0
 11
32.85011367241956
 21
11.76294213633976
 31
0.0
  0
ARC
  5
18F
330
2
100
AcDbEntity
  8
0
100
AcDbCircle
 10
32.68617101732747
 20
11.78160816957961
 30
0.0
 40
0.1650018634997432
100
AcDbArc
 50
353.5044412924
 51
16.3633759800998
  0
LINE
  5
190
330
2
100
AcDbEntity
  8
0
100
AcDbLine
 10
32.84448935723585
 20
11.82809384698072
 30
0.0
 11
32.83922318884428
 21
11.84651489588026
 31
0.0
  0
ARC
  5
191
330
2
100
AcDbEntity
  8
0
100
AcDbCircle
 10
33.47250484168923
 20
12.03246153449266
 30
0.0
 40
0.6600165181667333
100
AcDbArc
 50
173.5045927329007
 51
196.3635004173
  0
LINE
  5
192
330
2
100
AcDbEntity
  8
0
100
AcDbLine
 10
32.81672501795345
 20
12.10712495954241
 30
0.0
 11
32.83795898076848
 21
12.21317536215328
 31
0.0
  0
ARC
  5
193
330
2
100
AcDbEntity
  8
0
100
AcDbCircle
 10
32.43053822856076
 20
12.28471238603962
 30
0.0
 40
0.4136534964330231
100
AcDbArc
 50
350.0412287086998
 51
0.903358464299213
  0
LINE
  5
194
330
2
100
AcDbEntity
  8
0
100
AcDbLine
 10
32.84414031202715
 20
12.29123401658929
 30
0.0
 11
32.84414031202715
 21
12.80163074919672
 31
0.0
  0
ARC
  5
195
330
2
100
AcDbEntity
  8
0
100
AcDbCircle
 10
31.19229277020903
 20
5.595951523371586
 30
0.0
 40
0.6593105088103323
100
AcDbArc
 50
173.5131616382003
 51
195.5395716474003
  0
LINE
  5
196
330
2
100
AcDbEntity
  8
0
100
AcDbLine
 10
30.5372032768357
 20
5.670437110639831
 30
0.0
 11
30.5705919313018
 21
5.837194631926922
 31
0.0
  0
LINE
  5
197
330
2
100
AcDbEntity
  8
0
100
AcDbLine
 10
32.85011367241956
 20
6.142592636736825
 30
0.0
 11
30.5705919313018
 21
5.837194631926922
 31
0.0
  0
ARC
  5
198
330
2
100
AcDbEntity
  8
0
100
AcDbCircle
 10
31.19298181223596
 20
6.106714299537151
 30
0.0
 40
0.6600152506820117
100
AcDbArc
 50
173.5045704880002
 51
196.3635226621004
  0
ARC
  5
199
330
2
100
AcDbEntity
  8
0
100
AcDbCircle
 10
30.40664610490598
 20
5.855860662995616
 30
0.0
 40
0.1650050141924711
100
AcDbArc
 50
353.5045666075006
 51
16.36319329239981
  0
LINE
  5
19A
330
2
100
AcDbEntity
  8
0
100
AcDbLine
 10
30.56496761611809
 20
5.902346723248925
 30
0.0
 11
30.55970144772652
 21
5.920767772148462
 31
0.0
  0
LINE
  5
19B
330
2
100
AcDbEntity
  8
0
100
AcDbLine
 10
32.85011367241956
 20
6.653533361907621
 30
0.0
 11
30.5705919313018
 21
6.348135357097718
 31
0.0
  0
LINE
  5
19C
330
2
100
AcDbEntity
  8
0
100
AcDbLine
 10
30.5372032768357
 20
6.181377835787017
 30
0.0
 11
30.5705919313018
 21
6.348135357097718
 31
0.0
  0
ARC
  5
19D
330
2
100
AcDbEntity
  8
0
100
AcDbCircle
 10
31.19298545864172
 20
6.617655448575813
 30
0.0
 40
0.6600188687945512
100
AcDbArc
 50
173.5046100201994
 51
196.3634687865001
  0
ARC
  5
19E
330
2
100
AcDbEntity
  8
0
100
AcDbCircle
 10
30.4066465801024
 20
6.366801429205674
 30
0.0
 40
0.1650045466917602
100
AcDbArc
 50
353.5045337888996
 51
16.3632261109997
  0
LINE
  5
19F
330
2
100
AcDbEntity
  8
0
100
AcDbLine
 10
30.56496761611809
 20
6.413287448396111
 30
0.0
 11
30.55970144772652
 21
6.431708497295664
 31
0.0
  0
LINE
  5
1A0
330
2
100
AcDbEntity
  8
0
100
AcDbLine
 10
32.85011367241956
 20
7.164474087078418
 30
0.0
 11
30.5705919313018
 21
6.859076082244919
 31
0.0
  0
LINE
  5
1A1
330
2
100
AcDbEntity
  8
0
100
AcDbLine
 10
30.5372032768357
 20
6.692318941638862
 30
0.0
 11
30.5705919313018
 21
6.859076082244919
 31
0.0
  0
ARC
  5
1A2
330
2
100
AcDbEntity
  8
0
100
AcDbCircle
 10
31.192985080533
 20
7.128596141085108
 30
0.0
 40
0.6600184968079988
100
AcDbArc
 50
173.5046034917004
 51
196.3634753149998
  0
ARC
  5
1A3
330
2
100
AcDbEntity
  8
0
100
AcDbCircle
 10
30.4066449782024
 20
6.877742287689177
 30
0.0
 40
0.1650061533839722
100
AcDbArc
 50
353.5045507123992
 51
16.3631518156003
  0
LINE
  5
1A4
330
2
100
AcDbEntity
  8
0
100
AcDbLine
 10
30.56496761611809
 20
6.924228554247969
 30
0.0
 11
30.55970144772652
 21
6.942649222466447
 31
0.0
  0
LINE
  5
1A5
330
2
100
AcDbEntity
  8
0
100
AcDbLine
 10
32.85011367241956
 20
7.675415192930262
 30
0.0
 11
30.5705919313018
 21
7.370017188096763
 31
0.0
  0
LINE
  5
1A6
330
2
100
AcDbEntity
  8
0
100
AcDbLine
 10
30.5372032768357
 20
7.203259666809659
 30
0.0
 11
30.5705919313018
 21
7.370017188096763
 31
0.0
  0
ARC
  5
1A7
330
2
100
AcDbEntity
  8
0
100
AcDbCircle
 10
31.19298181223596
 20
7.63953685573059
 30
0.0
 40
0.6600152506819949
100
AcDbArc
 50
173.5045704880002
 51
196.3635226621004
  0
ARC
  5
1A8
330
2
100
AcDbEntity
  8
0
100
AcDbCircle
 10
30.40664610490598
 20
7.388683219189053
 30
0.0
 40
0.1650050141925355
100
AcDbArc
 50
353.5045666075006
 51
16.36319329229938
  0
LINE
  5
1A9
330
2
100
AcDbEntity
  8
0
100
AcDbLine
 10
30.56496761611809
 20
7.435169279418767
 30
0.0
 11
30.55970144772652
 21
7.45359032831829
 31
0.0
  0
LINE
  5
1AA
330
2
100
AcDbEntity
  8
0
100
AcDbLine
 10
32.85011367241956
 20
8.186355918101059
 30
0.0
 11
30.5705919313018
 21
7.880957913267548
 31
0.0
  0
LINE
  5
1AB
330
2
100
AcDbEntity
  8
0
100
AcDbLine
 10
30.5372032768357
 20
7.714200391980455
 30
0.0
 11
30.5705919313018
 21
7.880957913267548
 31
0.0
  0
ARC
  5
1AC
330
2
100
AcDbEntity
  8
0
100
AcDbCircle
 10
31.19298347868019
 20
8.150477724763005
 30
0.0
 40
0.6600168901587342
100
AcDbArc
 50
173.5045992613998
 51
196.3634938886999
  0
ARC
  5
1AD
330
2
100
AcDbEntity
  8
0
100
AcDbCircle
 10
30.4066465801024
 20
7.899623985375501
 30
0.0
 40
0.165004546691786
100
AcDbArc
 50
353.5045337888996
 51
16.3632261109997
  0
LINE
  5
1AE
330
2
100
AcDbEntity
  8
0
100
AcDbLine
 10
30.56496761611809
 20
7.946110004589549
 30
0.0
 11
30.55970144772652
 21
7.964531053489087
 31
0.0
  0
LINE
  5
1AF
330
2
100
AcDbEntity
  8
0
100
AcDbLine
 10
32.85011367241956
 20
8.697296643271842
 30
0.0
 11
30.5705919313018
 21
8.391898638438343
 31
0.0
  0
LINE
  5
1B0
330
2
100
AcDbEntity
  8
0
100
AcDbLine
 10
30.5372032768357
 20
8.225141117151251
 30
0.0
 11
30.5705919313018
 21
8.391898638438343
 31
0.0
  0
ARC
  5
1B1
330
2
100
AcDbEntity
  8
0
100
AcDbCircle
 10
31.192985080533
 20
8.661418697278531
 30
0.0
 40
0.6600184968078958
100
AcDbArc
 50
173.5046034917004
 51
196.3634753149998
  0
ARC
  5
1B2
330
2
100
AcDbEntity
  8
0
100
AcDbCircle
 10
30.40664824654665
 20
8.410564854407917
 30
0.0
 40
0.1650029072177524
100
AcDbArc
 50
353.5044186958004
 51
16.36334120410026
  0
LINE
  5
1B3
330
2
100
AcDbEntity
  8
0
100
AcDbLine
 10
30.56496761611809
 20
8.457050729760346
 30
0.0
 11
30.55970144772652
 21
8.475471778659882
 31
0.0
  0
LINE
  5
1B4
330
2
100
AcDbEntity
  8
0
100
AcDbLine
 10
32.85011367241956
 20
9.208237368442652
 30
0.0
 11
30.5705919313018
 21
8.902839363609139
 31
0.0
  0
LINE
  5
1B5
330
2
100
AcDbEntity
  8
0
100
AcDbLine
 10
30.5372032768357
 20
8.736082223003096
 30
0.0
 11
30.5705919313018
 21
8.902839363609139
 31
0.0
  0
ARC
  5
1B6
330
2
100
AcDbEntity
  8
0
100
AcDbCircle
 10
31.19298385678889
 20
9.172359588423523
 30
0.0
 40
0.6600172621434302
100
AcDbArc
 50
173.5046057899005
 51
196.3634873603006
  0
ARC
  5
1B7
330
2
100
AcDbEntity
  8
0
100
AcDbCircle
 10
30.40664293360224
 20
8.921505392553886
 30
0.0
 40
0.1650081649050349
100
AcDbArc
 50
353.5046919184003
 51
16.36301060949998
  0
LINE
  5
1B8
330
2
100
AcDbEntity
  8
0
100
AcDbLine
 10
30.56496761611809
 20
8.96799183561219
 30
0.0
 11
30.55970144772652
 21
8.986412884511727
 31
0.0
  0
LINE
  5
1B9
330
2
100
AcDbEntity
  8
0
100
AcDbLine
 10
32.85011367241956
 20
9.719178474294498
 30
0.0
 11
30.5705919313018
 21
9.413780469460984
 31
0.0
  0
LINE
  5
1BA
330
2
100
AcDbEntity
  8
0
100
AcDbLine
 10
30.5372032768357
 20
9.247022948173892
 30
0.0
 11
30.5705919313018
 21
9.413780469460984
 31
0.0
  0
ARC
  5
1BB
330
2
100
AcDbEntity
  8
0
100
AcDbCircle
 10
31.19298706049454
 20
9.683300427602759
 30
0.0
 40
0.6600204754474703
100
AcDbArc
 50
173.5046142503998
 51
196.3634502129007
  0
ARC
  5
1BC
330
2
100
AcDbEntity
  8
0
100
AcDbCircle
 10
30.40664368991409
 20
9.432446563681526
 30
0.0
 40
0.1650074208393821
100
AcDbArc
 50
353.5046396863998
 51
16.36306284150021
  0
LINE
  5
1BD
330
2
100
AcDbEntity
  8
0
100
AcDbLine
 10
30.56496761611809
 20
9.478932941464035
 30
0.0
 11
30.55970144772652
 21
9.497353229001461
 31
0.0
  0
LINE
  5
1BE
330
2
100
AcDbEntity
  8
0
100
AcDbLine
 10
32.85011367241956
 20
10.23011958014634
 30
0.0
 11
30.5705919313018
 21
9.92472157531283
 31
0.0
  0
LINE
  5
1BF
330
2
100
AcDbEntity
  8
0
100
AcDbLine
 10
30.5372032768357
 20
9.757964054025736
 30
0.0
 11
30.5705919313018
 21
9.92472157531283
 31
0.0
  0
ARC
  5
1C0
330
2
100
AcDbEntity
  8
0
100
AcDbCircle
 10
31.19298310057146
 20
10.19424097348932
 30
0.0
 40
0.660016518166593
100
AcDbArc
 50
173.5045927328005
 51
196.3635004173
  0
ARC
  5
1C1
330
2
100
AcDbEntity
  8
0
100
AcDbCircle
 10
30.40664927620972
 20
9.943387608552662
 30
0.0
 40
0.1650018634996405
100
AcDbArc
 50
353.5044412924
 51
16.3633759800998
  0
LINE
  5
1C2
330
2
100
AcDbEntity
  8
0
100
AcDbLine
 10
30.56496761611809
 20
9.989873285953782
 30
0.0
 11
30.55970144772652
 21
10.00829433485332
 31
0.0
  0
LINE
  5
1C3
330
2
100
AcDbEntity
  8
0
100
AcDbLine
 10
32.85011367241956
 20
10.74105992463608
 30
0.0
 11
30.5705919313018
 21
10.43566191980258
 31
0.0
  0
LINE
  5
1C4
330
2
100
AcDbEntity
  8
0
100
AcDbLine
 10
30.5372032768357
 20
10.26890439851547
 30
0.0
 11
30.5705919313018
 21
10.43566191980258
 31
0.0
  0
ARC
  5
1C5
330
2
100
AcDbEntity
  8
0
100
AcDbCircle
 10
31.19298385678889
 20
10.70518214461696
 30
0.0
 40
0.6600172621434341
100
AcDbArc
 50
173.5046057899005
 51
196.3634873603006
  0
ARC
  5
1C6
330
2
100
AcDbEntity
  8
0
100
AcDbCircle
 10
30.40664293360224
 20
10.45432794874732
 30
0.0
 40
0.1650081649050349
100
AcDbArc
 50
353.5046919184003
 51
16.36301060949998
  0
LINE
  5
1C7
330
2
100
AcDbEntity
  8
0
100
AcDbLine
 10
30.56496761611809
 20
10.50081439180563
 30
0.0
 11
30.55970144772652
 21
10.51923544070517
 31
0.0
  0
LINE
  5
1C8
330
2
100
AcDbEntity
  8
0
100
AcDbLine
 10
32.85011367241956
 20
11.25200103048792
 30
0.0
 11
30.5705919313018
 21
10.94660302565442
 31
0.0
  0
LINE
  5
1C9
330
2
100
AcDbEntity
  8
0
100
AcDbLine
 10
30.5372032768357
 20
10.77984550436731
 30
0.0
 11
30.5705919313018
 21
10.94660302565442
 31
0.0
  0
ARC
  5
1CA
330
2
100
AcDbEntity
  8
0
100
AcDbCircle
 10
31.19298706049454
 20
11.2161229837962
 30
0.0
 40
0.6600204754474703
100
AcDbArc
 50
173.5046142503998
 51
196.3634502129007
  0
ARC
  5
1CB
330
2
100
AcDbEntity
  8
0
100
AcDbCircle
 10
30.40665022657897
 20
10.96526914092558
 30
0.0
 40
0.1650009285045943
100
AcDbArc
 50
353.5043756530996
 51
16.36344161930036
  0
LINE
  5
1CC
330
2
100
AcDbEntity
  8
0
100
AcDbLine
 10
30.56496761611809
 20
11.01175473629536
 30
0.0
 11
30.55970144772652
 21
11.0301757851949
 31
0.0
  0
LINE
  5
1CD
330
2
100
AcDbEntity
  8
0
100
AcDbLine
 10
32.85011367241956
 20
11.76294213633976
 30
0.0
 11
30.5705919313018
 21
11.45754413150626
 31
0.0
  0
LINE
  5
1CE
330
2
100
AcDbEntity
  8
0
100
AcDbLine
 10
30.5372032768357
 20
11.29078661021916
 30
0.0
 11
30.5705919313018
 21
11.45754413150626
 31
0.0
  0
ARC
  5
1CF
330
2
100
AcDbEntity
  8
0
100
AcDbCircle
 10
31.19298310057146
 20
11.72706352965916
 30
0.0
 40
0.6600165181665047
100
AcDbArc
 50
173.5045927328005
 51
196.3635004173
  0
ARC
  5
1D0
330
2
100
AcDbEntity
  8
0
100
AcDbCircle
 10
30.40664927620972
 20
11.4762101647461
 30
0.0
 40
0.1650018634995338
100
AcDbArc
 50
353.5044412924
 51
16.3633759800998
  0
LINE
  5
1D1
330
2
100
AcDbEntity
  8
0
100
AcDbLine
 10
30.56496761611809
 20
11.52269584214721
 30
0.0
 11
30.55970144772652
 21
11.54111689104676
 31
0.0
  0
LINE
  5
1D2
330
2
100
AcDbEntity
  8
0
100
AcDbLine
 10
32.83795898076848
 20
12.21317536215328
 30
0.0
 11
30.55843723965072
 21
11.90777735731977
 31
0.0
  0
LINE
  5
1D3
330
2
100
AcDbEntity
  8
0
100
AcDbLine
 10
30.5372032768357
 20
11.80172695470891
 30
0.0
 11
30.55843723965072
 21
11.90777735731977
 31
0.0
  0
ARC
  5
1D4
330
2
100
AcDbEntity
  8
0
100
AcDbCircle
 10
30.15101648744299
 20
11.9793143812061
 30
0.0
 40
0.4136534964345252
100
AcDbArc
 50
350.0412287086998
 51
0.9033584641998899
  0
LINE
  5
1D5
330
2
100
AcDbEntity
  8
0
100
AcDbLine
 10
32.84414031202715
 20
12.80163074919672
 30
0.0
 11
30.56461857090938
 21
12.49623274436322
 31
0.0
  0
LINE
  5
1D6
330
2
100
AcDbEntity
  8
0
100
AcDbLine
 10
30.56461857090938
 20
11.98583601175579
 30
0.0
 11
30.56461857090938
 21
12.49623274436322
 31
0.0
  0
ARC
  5
1D7
330
2
100
AcDbEntity
  8
0
100
AcDbCircle
 10
31.8612227595394
 20
0.738936196019142
 30
0.0
 40
0.7389364252563163
100
AcDbArc
 50
198.503932610201
 51
211.9281019931002
  0
LINE
  5
1D8
330
2
100
AcDbEntity
  8
0
100
AcDbLine
 10
35.8490977547141
 20
0.8782089968117421
 30
0.0
 11
31.29005427247858
 21
0.2674129871447363
 31
0.0
  0
LINE
  5
1D9
330
2
100
AcDbEntity
  8
0
100
AcDbLine
 10
31.23407825174096
 20
0.3481462179699152
 30
0.0
 11
31.29005427247858
 21
0.2674129871447363
 31
0.0
  0
ARC
  5
1DA
330
2
100
AcDbEntity
  8
0
100
AcDbCircle
 10
43.46027894311744
 20
12.00700970448391
 30
0.0
 40
6.82300298269055
100
AcDbArc
 50
13.26588154299906
 51
28.53567042099993
  0
LWPOLYLINE
  5
1DB
330
2
100
AcDbEntity
  8
0
100
AcDbPolyline
 90
       62
 70
   128
 43
0.0
 10
3.234100603569017
 20
13.6436457772933
 10
3.317754376974481
 20
13.95209233086444
 10
3.500305506501158
 20
14.4814777987019
 10
3.730855611824498
 20
15.00616041444575
 10
4.008930127344716
 20
15.52505221663943
 10
4.333949122706153
 20
16.03707843234449
 10
4.705241800088005
 20
16.54117759914933
 10
5.122035954476684
 20
17.03630424865081
 10
5.583470195342491
 20
17.52143327450444
 10
6.088587835848415
 20
17.99555774839925
 10
6.636340273220566
 20
18.45769619911093
 10
7.225593676661219
 20
18.90689032303491
 10
7.855125013525746
 20
19.34220900251774
 10
8.523630935467616
 20
19.7627504065058
 10
9.229726473984506
 20
20.16764272608959
 10
9.971946677929706
 20
20.55604621398293
 10
10.74875374013718
 20
20.92715686996199
 10
11.55853836269082
 20
21.28020389322148
 10
12.3996212113522
 20
21.6144571584824
 10
13.2702585877578
 20
21.92922342520529
 10
14.16864700844736
 20
22.22384968142896
 10
15.09292396273327
 20
22.49772597588073
 10
16.04117349319072
 20
22.75028434522099
 10
17.01143122998831
 20
22.98100130891883
 10
18.001684784879
 20
23.18939883212902
 10
19.0098823493388
 20
23.37504547759964
 10
20.03393482535169
 20
23.53755487088865
 10
21.07171893308946
 20
23.67659157768663
 10
22.12108378543009
 20
23.79186743374084
 10
23.17985513376316
 20
23.8831421137411
 10
24.24583739168108
 20
23.95022795330336
 10
25.31682220366565
 20
23.99298563585881
 10
26.39058875551386
 20
24.01132605466595
 10
27.46491237250005
 20
24.00521146476533
 10
28.53756582352297
 20
23.97465474741164
 10
29.60632617567754
 20
23.91971850829551
 10
30.66897855457453
 20
23.84051740144185
 10
31.72331963256008
 20
23.7372158661978
 10
32.767164938259
 20
23.61002637606682
 10
33.79834997796864
 20
23.45921413960404
 10
34.81473897140516
 20
23.28509098969605
 10
35.81422348638702
 20
23.08801793096857
 10
36.79473229606943
 20
22.86840373000885
 10
37.75423483662616
 20
22.62670355833242
 10
38.69074081309328
 20
22.36341802927012
 10
39.60230999555213
 20
22.07909360045504
 10
40.48705279618047
 20
21.7743181001888
 10
41.34313377153722
 20
21.44972438220153
 10
42.16878182918494
 20
21.1059848670995
 10
42.96228275160621
 20
20.74381190570063
 10
43.72199414837139
 20
20.36395705208024
 10
44.44633901217209
 20
19.96720610426287
 10
45.13381839565838
 20
19.55438262309722
 10
45.78300565001234
 20
19.12634169938555
 10
46.39255537193224
 20
18.68397024229135
 10
46.96120578461773
 20
18.22818593329831
 10
47.48777738880759
 20
17.7599329495368
 10
47.97117851313362
 20
17.28018179745578
 10
48.41040650857791
 20
16.78992708353393
 10
48.8045512102609
 20
16.29018445127358
 10
49.15279692040003
 20
15.78199027801977
 10
49.45442270068213
 20
15.26639773221746
  0
LWPOLYLINE
  5
1DC
330
2
100
AcDbEntity
  8
0
100
AcDbPolyline
 90
       58
 70
   128
 43
0.0
 10
9.049163754541975
 20
11.32372010140593
 10
9.05665524831676
 20
11.28736637718406
 10
9.177605480517254
 20
10.82801098650703
 10
9.34647165572537
 20
10.37245010838265
 10
9.562790320494633
 20
9.921932391696239
 10
9.82597057818366
 20
9.477692937986819
 10
10.1352890587318
 20
9.040949100763569
 10
10.48989847573498
 20
8.612898105016142
 10
10.88882616368728
 20
8.194712983124151
 10
11.33097901069285
 20
7.787540163829834
 10
11.81514731839839
 20
7.392495666300809
 10
12.34000090144611
 20
7.010662188253928
 10
12.90410143946592
 20
6.643086437529985
 10
13.50590605247063
 20
6.290775856905693
 10
14.14376153145325
 20
5.954695803075052
 10
14.81592144397158
 20
5.635768197828617
 10
15.52054246525243
 20
5.334866485793784
 10
16.25569355269696
 20
5.052815498172
 10
17.01936008624443
 20
4.790388822072528
 10
17.80944954045137
 20
4.548305009560713
 10
18.62379573053311
 20
4.327228146496494
 10
19.46016533354768
 20
4.127764175520463
 10
20.31626751815595
 20
3.950459910662988
 10
21.18975508215753
 20
3.795800914441551
 10
22.07823385461171
 20
3.664210937234642
 10
22.97926932276998
 20
3.556051439796176
 10
23.8903914549799
 20
3.471617688602111
 10
24.80910159983599
 20
3.411142865865336
 10
25.73288337541367
 20
3.374791336807441
 10
26.65920467021048
 20
3.362662558465595
 10
27.58552510415035
 20
3.37479116918129
 10
28.50930682625189
 20
3.411142974115533
 10
29.42801760760597
 20
3.471618090215788
 10
30.3391393638311
 20
3.556051177819838
 10
31.24017479722752
 20
3.664210510204477
 10
32.12865370464639
 20
3.795800639037185
 10
33.00214137909288
 20
3.95045987932306
 10
33.85824337058771
 20
4.127764587824649
 10
34.69461361439531
 20
4.327228431812605
 10
35.50895925293676
 20
4.548304855315382
 10
36.2990482479948
 20
4.790389009144546
 10
37.06271520413576
 20
5.052815800692013
 10
37.79786670553644
 20
5.334866069690106
 10
38.50248786680861
 20
5.635768376192484
 10
39.17464797446994
 20
5.95469611569558
 10
39.81250318493917
 20
6.290776071942951
 10
40.41430660905604
 20
6.643086582571571
 10
40.9784085842996
 20
7.010662126305642
 10
41.50326193647493
 20
7.39249539306758
 10
41.98742956149859
 20
7.787540120194632
 10
42.4295832876034
 20
8.194713215223709
 10
42.82851122957907
 20
8.612898016731001
 10
43.18311975931762
 20
9.040949109046939
 10
43.4924377517133
 20
9.477692891047716
 10
43.75561770612712
 20
9.921932277263008
 10
43.97193670102764
 20
10.37245001134214
 10
44.14080420339216
 20
10.82801107743531
 10
44.26095592566233
 20
11.28357993877008
  0
LINE
  5
1DD
330
2
100
AcDbEntity
  8
0
100
AcDbLine
 10
43.32191953738852
 20
23.74333639506268
 30
0.0
 11
43.47335323119755
 21
23.66761948236318
 31
0.0
  0
LINE
  5
1DE
330
2
100
AcDbEntity
  8
0
100
AcDbLine
 10
38.02322658853878
 20
30.90751812411198
 30
0.0
 11
38.02322658853878
 21
23.37144288002726
 31
0.0
  0
LINE
  5
1DF
330
2
100
AcDbEntity
  8
0
100
AcDbLine
 10
39.13236383955642
 20
24.29850959080388
 30
0.0
 11
40.25927406182888
 21
23.73505418978506
 31
0.0
  0
LINE
  5
1E0
330
2
100
AcDbEntity
  8
0
100
AcDbLine
 10
39.94226208852505
 20
24.91880028998097
 30
0.0
 11
40.12116260640604
 21
24.8293501102399
 31
0.0
  0
LINE
  5
1E1
330
2
100
AcDbEntity
  8
0
100
AcDbLine
 10
39.94226208852505
 20
25.42974101515176
 30
0.0
 11
40.32794577749899
 21
25.23689869852448
 31
0.0
  0
LINE
  5
1E2
330
2
100
AcDbEntity
  8
0
100
AcDbLine
 10
39.94226208852505
 20
25.94068174032257
 30
0.0
 11
40.534728721047
 21
25.64444771140854
 31
0.0
  0
LINE
  5
1E3
330
2
100
AcDbEntity
  8
0
100
AcDbLine
 10
39.94226208852505
 20
26.45162284617442
 30
0.0
 11
40.74867507273157
 21
26.04841604640646
 31
0.0
  0
LINE
  5
1E4
330
2
100
AcDbEntity
  8
0
100
AcDbLine
 10
39.94226208852505
 20
26.96256395202624
 30
0.0
 11
41.59466739576814
 21
26.13636040503966
 31
0.0
  0
LINE
  5
1E5
330
2
100
AcDbEntity
  8
0
100
AcDbLine
 10
39.94226208852505
 20
27.47350429651599
 30
0.0
 11
41.59466739576814
 21
26.6473007495058
 31
0.0
  0
LINE
  5
1E6
330
2
100
AcDbEntity
  8
0
100
AcDbLine
 10
39.9422622240561
 20
28.05446865185984
 30
0.0
 11
41.61003442822111
 21
27.22058201322258
 31
0.0
  0
LINE
  5
1E7
330
2
100
AcDbEntity
  8
0
100
AcDbLine
 10
8.671295766098157
 20
27.01981832697213
 30
0.0
 11
8.671295766098157
 21
20.66805541885639
 31
0.0
  0
LINE
  5
1E8
330
2
100
AcDbEntity
  8
0
100
AcDbLine
 10
39.9422622240561
 20
28.56540975771168
 30
0.0
 11
41.61003442822111
 21
27.73152311907443
 31
0.0
  0
LINE
  5
1E9
330
2
100
AcDbEntity
  8
0
100
AcDbLine
 10
6.36663605310687
 20
19.09506865175059
 30
0.0
 11
6.36663605310687
 21
19.05364337121589
 31
0.0
  0
ENDSEC
  0
SECTION
  2
OBJECTS
  0
DICTIONARY
  5
9
330
0
100
AcDbDictionary
281
     1
  3
ACAD_COLOR
350
3D
  3
ACAD_GROUP
350
32
  3
ACAD_LAYOUT
350
17
  3
ACAD_MATERIAL
350
B
  3
ACAD_MLEADERSTYLE
350
40
  3
ACAD_MLINESTYLE
350
33
  3
ACAD_PLOTSETTINGS
350
34
  3
ACAD_PLOTSTYLENAME
350
8
  3
ACAD_SCALELIST
350
3E
  3
ACAD_TABLESTYLE
350
3F
  3
ACAD_VISUALSTYLE
350
2C
  3
ACDB_RECOMPOSE_DATA
350
1F8
  3
AcDbVariableDictionary
350
1EA
  3
AcDsDecomposeData
350
1FE
  0
DICTIONARY
  5
1F
330
1E
100
AcDbDictionary
280
     1
281
     1
  3
ACAD_LAYERSTATES
360
20
  0
DICTIONARY
  5
6
330
5
100
AcDbDictionary
280
     1
281
     1
  0
DICTIONARY
  5
3
330
2
100
AcDbDictionary
280
     1
281
     1
  0
DICTIONARY
  5
3D
102
{ACAD_REACTORS
330
9
102
}
330
9
100
AcDbDictionary
281
     1
  0
DICTIONARY
  5
32
102
{ACAD_REACTORS
330
9
102
}
330
9
100
AcDbDictionary
281
     1
  0
DICTIONARY
  5
17
102
{ACAD_REACTORS
330
9
102
}
330
9
100
AcDbDictionary
281
     1
  3
Model
350
16
  3
レイアウト1
350
1D
  0
DICTIONARY
  5
B
102
{ACAD_REACTORS
330
9
102
}
330
9
100
AcDbDictionary
281
     1
  3
ByBlock
350
39
  3
ByLayer
350
35
  3
Global
350
A
  0
DICTIONARY
  5
40
102
{ACAD_REACTORS
330
9
102
}
330
9
100
AcDbDictionary
281
     1
  0
DICTIONARY
  5
33
102
{ACAD_REACTORS
330
9
102
}
330
9
100
AcDbDictionary
281
     1
  3
Standard
350
41
  0
DICTIONARY
  5
34
102
{ACAD_REACTORS
330
9
102
}
330
9
100
AcDbDictionary
281
     1
  0
ACDBDICTIONARYWDFLT
  5
8
102
{ACAD_REACTORS
330
9
102
}
330
9
100
AcDbDictionary
281
     1
  3
Normal
350
7
100
AcDbDictionaryWithDefault
340
7
  0
DICTIONARY
  5
3E
102
{ACAD_REACTORS
330
9
102
}
330
9
100
AcDbDictionary
281
     1
  3
A0
350
46
  3
A1
350
47
  3
A2
350
48
  3
A3
350
49
  3
A4
350
4A
  3
A5
350
4B
  3
A6
350
4C
  3
A7
350
4D
  3
A8
350
4E
  3
A9
350
4F
  3
B0
350
50
  3
B1
350
51
  3
B2
350
52
  3
B3
350
53
  3
B4
350
54
  3
B5
350
55
  3
B6
350
56
  0
DICTIONARY
  5
3F
102
{ACAD_REACTORS
330
9
102
}
330
9
100
AcDbDictionary
281
     1
  3
Standard
350
42
  0
DICTIONARY
  5
2C
102
{ACAD_REACTORS
330
9
102
}
330
9
100
AcDbDictionary
281
     1
  3
2dWireframe
350
2B
  3
Realistic
350
44
  3
Wireframe
350
45
  0
XRECORD
  5
1F8
102
{ACAD_REACTORS
330
9
102
}
330
9
100
AcDbXrecord
280
     1
 90
        1
330
42
  0
DICTIONARY
  5
1EA
102
{ACAD_REACTORS
330
9
102
}
330
9
100
AcDbDictionary
281
     1
  3
CANNOSCALE
350
1F0
  3
CMLEADERSTYLE
350
1EC
  3
CTABLESTYLE
350
1EB
  3
CVIEWDETAILSTYLE
350
1ED
  3
CVIEWSECTIONSTYLE
350
1EE
  3
LAYEREVAL
350
1F2
  3
LAYERNOTIFY
350
1F3
  3
LIGHTINGUNITS
350
1F1
  3
MSLTSCALE
350
1EF
  3
PSOLHEIGHT
350
1F5
  3
PSOLWIDTH
350
1F4
  3
XCLIPFRAME
350
1F6
  0
DICTIONARY
  5
1FE
102
{ACAD_REACTORS
330
9
102
}
330
9
100
AcDbDictionary
281
     1
  3
AcDsRecords
350
200
  3
AcDsSchemas
350
1FF
1001
ACAD
1070
     2
  0
DICTIONARY
  5
20
102
{ACAD_REACTORS
330
1F
102
}
330
1F
100
AcDbDictionary
281
     1
  0
LAYOUT
  5
16
102
{ACAD_XDICTIONARY
360
18
102
}
102
{ACAD_REACTORS
330
17
102
}
330
17
100
AcDbPlotSettings
  1

  2
none_device
  4
ISO_A4_(210.00_x_297.00_MM)
  6

 40
7.5
 41
20.0
 42
7.5
 43
20.0
 44
210.0
 45
297.0
 46
11.54999923706054
 47
-13.65000009536743
 48
0.0
 49
0.0
140
0.0
141
0.0
142
1.0
143
8.704084754739808
 70
 11952
 72
     1
 73
     0
 74
     0
  7

 75
     0
147
0.1148885871608098
 76
     0
 77
     2
 78
   300
148
0.0
149
0.0
100
AcDbLayout
  1
Model
 70
     1
 71
     0
 10
0.0
 20
0.0
 11
12.0
 21
9.0
 12
0.0
 22
0.0
 32
0.0
 14
0.0
 24
0.0
 34
0.0
 15
0.0
 25
0.0
 35
0.0
146
0.0
 13
0.0
 23
0.0
 33
0.0
 16
1.0
 26
0.0
 36
0.0
 17
0.0
 27
1.0
 37
0.0
 76
     0
330
2
331
2A
1001
ACAD_PSEXT
1000
None
1000
None
1000
Not applicable
1000
The layout will not be plotted unless a new plotter configuration name is selected.
1070
     0
  0
LAYOUT
  5
1D
102
{ACAD_REACTORS
330
17
102
}
330
17
100
AcDbPlotSettings
  1

  2
C:\Documents and Settings\basas\Application Data\Autodesk\AutoCAD 2005\R16.1\enu\plotters\Default Windows System Printer.pc3
  4

  6

 40
0.0
 41
0.0
 42
0.0
 43
0.0
 44
0.0
 45
0.0
 46
0.0
 47
0.0
 48
0.0
 49
0.0
140
0.0
141
0.0
142
1.0
143
1.0
 70
   688
 72
     0
 73
     0
 74
     5
  7

 75
    16
147
1.0
 76
     0
 77
     2
 78
   300
148
0.0
149
0.0
100
AcDbLayout
  1
レイアウト1
 70
     1
 71
     1
 10
0.0
 20
0.0
 11
12.0
 21
9.0
 12
0.0
 22
0.0
 32
0.0
 14
0.0
 24
0.0
 34
0.0
 15
0.0
 25
0.0
 35
0.0
146
0.0
 13
0.0
 23
0.0
 33
0.0
 16
1.0
 26
0.0
 36
0.0
 17
0.0
 27
1.0
 37
0.0
 76
     0
330
1A
  0
MATERIAL
  5
39
102
{ACAD_XDICTIONARY
360
3A
102
}
102
{ACAD_REACTORS
330
B
102
}
330
B
100
AcDbMaterial
  1
ByBlock
  0
MATERIAL
  5
35
102
{ACAD_XDICTIONARY
360
36
102
}
102
{ACAD_REACTORS
330
B
102
}
330
B
100
AcDbMaterial
  1
ByLayer
  0
MATERIAL
  5
A
102
{ACAD_XDICTIONARY
360
C
102
}
102
{ACAD_REACTORS
330
B
102
}
330
B
100
AcDbMaterial
  1
Global
 43
0.0007999999797903
 43
0.0
 43
0.0
 43
0.0
 43
0.0
 43
0.0007999999797903
 43
0.0
 43
0.0
 43
0.0
 43
0.0
 43
1.0
 43
0.0
 43
0.0
 43
0.0
 43
0.0
 43
1.0
 49
0.0007999999797903
 49
0.0
 49
0.0
 49
0.0
 49
0.0
 49
0.0007999999797903
 49
0.0
 49
0.0
 49
0.0
 49
0.0
 49
1.0
 49
0.0
 49
0.0
 49
0.0
 49
0.0
 49
1.0
142
0.0007999999797903
142
0.0
142
0.0
142
0.0
142
0.0
142
0.0007999999797903
142
0.0
142
0.0
142
0.0
142
0.0
142
1.0
142
0.0
142
0.0
142
0.0
142
0.0
142
1.0
144
0.0007999999797903
144
0.0
144
0.0
144
0.0
144
0.0
144
0.0007999999797903
144
0.0
144
0.0
144
0.0
144
0.0
144
1.0
144
0.0
144
0.0
144
0.0
144
0.0
144
1.0
1001
ACAD
1070
    -1
1070
     3
1070
     0
1000

1071
        0
1070
     0
  0
MLINESTYLE
  5
41
102
{ACAD_REACTORS
330
33
102
}
330
33
100
AcDbMlineStyle
  2
STANDARD
 70
     0
  3

 62
   256
 51
90.0
 52
90.0
 71
     2
 49
0.5
 62
   256
  6
BYLAYER
 49
-0.5
 62
   256
  6
BYLAYER
  0
ACDBPLACEHOLDER
  5
7
102
{ACAD_REACTORS
330
8
102
}
330
8
  0
SCALE
  5
46
102
{ACAD_REACTORS
330
3E
102
}
330
3E
100
AcDbScale
 70
     0
300
1:1
140
1.0
141
1.0
290
     1
  0
SCALE
  5
47
102
{ACAD_REACTORS
330
3E
102
}
330
3E
100
AcDbScale
 70
     0
300
1:2
140
1.0
141
2.0
290
     0
  0
SCALE
  5
48
102
{ACAD_REACTORS
330
3E
102
}
330
3E
100
AcDbScale
 70
     0
300
1:4
140
1.0
141
4.0
290
     0
  0
SCALE
  5
49
102
{ACAD_REACTORS
330
3E
102
}
330
3E
100
AcDbScale
 70
     0
300
1:5
140
1.0
141
5.0
290
     0
  0
SCALE
  5
4A
102
{ACAD_REACTORS
330
3E
102
}
330
3E
100
AcDbScale
 70
     0
300
1:8
140
1.0
141
8.0
290
     0
  0
SCALE
  5
4B
102
{ACAD_REACTORS
330
3E
102
}
330
3E
100
AcDbScale
 70
     0
300
1:10
140
1.0
141
10.0
290
     0
  0
SCALE
  5
4C
102
{ACAD_REACTORS
330
3E
102
}
330
3E
100
AcDbScale
 70
     0
300
1:16
140
1.0
141
16.0
290
     0
  0
SCALE
  5
4D
102
{ACAD_REACTORS
330
3E
102
}
330
3E
100
AcDbScale
 70
     0
300
1:20
140
1.0
141
20.0
290
     0
  0
SCALE
  5
4E
102
{ACAD_REACTORS
330
3E
102
}
330
3E
100
AcDbScale
 70
     0
300
1:30
140
1.0
141
30.0
290
     0
  0
SCALE
  5
4F
102
{ACAD_REACTORS
330
3E
102
}
330
3E
100
AcDbScale
 70
     0
300
1:40
140
1.0
141
40.0
290
     0
  0
SCALE
  5
50
102
{ACAD_REACTORS
330
3E
102
}
330
3E
100
AcDbScale
 70
     0
300
1:50
140
1.0
141
50.0
290
     0
  0
SCALE
  5
51
102
{ACAD_REACTORS
330
3E
102
}
330
3E
100
AcDbScale
 70
     0
300
1:100
140
1.0
141
100.0
290
     0
  0
SCALE
  5
52
102
{ACAD_REACTORS
330
3E
102
}
330
3E
100
AcDbScale
 70
     0
300
2:1
140
2.0
141
1.0
290
     0
  0
SCALE
  5
53
102
{ACAD_REACTORS
330
3E
102
}
330
3E
100
AcDbScale
 70
     0
300
4:1
140
4.0
141
1.0
290
     0
  0
SCALE
  5
54
102
{ACAD_REACTORS
330
3E
102
}
330
3E
100
AcDbScale
 70
     0
300
8:1
140
8.0
141
1.0
290
     0
  0
SCALE
  5
55
102
{ACAD_REACTORS
330
3E
102
}
330
3E
100
AcDbScale
 70
     0
300
10:1
140
10.0
141
1.0
290
     0
  0
SCALE
  5
56
102
{ACAD_REACTORS
330
3E
102
}
330
3E
100
AcDbScale
 70
     0
300
100:1
140
100.0
141
1.0
290
     0
  0
TABLESTYLE
  5
42
102
{ACAD_XDICTIONARY
360
43
102
}
102
{ACAD_REACTORS
330
3F
102
}
330
3F
100
AcDbTableStyle
  3
Standard
 70
     0
 71
     0
 40
1.5
 41
1.5
280
     0
281
     0
  7
Standard
140
4.5
170
     2
 62
     0
 63
     7
283
     0
274
    -2
284
     1
 64
     0
275
    -2
285
     1
 65
     0
276
    -2
286
     1
 66
     0
277
    -2
287
     1
 67
     0
278
    -2
288
     1
 68
     0
279
    -2
289
     1
 69
     0
  7
Standard
140
6.0
170
     5
 62
     0
 63
     7
283
     0
274
    -2
284
     1
 64
     0
275
    -2
285
     1
 65
     0
276
    -2
286
     1
 66
     0
277
    -2
287
     1
 67
     0
278
    -2
288
     1
 68
     0
279
    -2
289
     1
 69
     0
  7
Standard
140
4.5
170
     5
 62
     0
 63
     7
283
     0
274
    -2
284
     1
 64
     0
275
    -2
285
     1
 65
     0
276
    -2
286
     1
 66
     0
277
    -2
287
     1
 67
     0
278
    -2
288
     1
 68
     0
279
    -2
289
     1
 69
     0
  0
VISUALSTYLE
  5
2B
102
{ACAD_XDICTIONARY
360
201
102
}
102
{ACAD_REACTORS
330
2C
102
}
330
2C
100
AcDbVisualStyle
  2

 70
     4
 71
     0
 72
     2
 73
     1
 90
        0
 40
-0.6
 41
-30.0
 62
     5
 63
     7
421
 16777215
 74
     1
 91
        4
 64
     7
 65
   257
 75
     1
175
     1
 42
1.0
 92
        0
 66
   257
 43
1.0
 76
     1
 77
     6
 78
     2
 67
     7
 79
     5
170
     0
171
     0
290
     0
174
     0
 93
        1
 44
0.0
173
     0
291
     0
 45
0.0
1001
ACAD
1000
AcDbSavedByObjectVersion
1070
     0
  0
VISUALSTYLE
  5
44
102
{ACAD_XDICTIONARY
360
204
102
}
102
{ACAD_REACTORS
330
2C
102
}
330
2C
100
AcDbVisualStyle
  2

 70
     8
 71
     2
 72
     3
 73
     0
 90
        2
 40
-0.6
 41
30.0
 62
     5
 63
     7
421
 16777215
 74
     0
 91
        0
 64
     7
 65
   257
 75
     1
175
     1
 42
1.0
 92
        8
 66
   257
 43
1.0
 76
     1
 77
     6
 78
     2
 67
     7
 79
     3
170
     0
171
     0
290
     0
174
     0
 93
       13
 44
0.0
173
     0
291
     0
 45
0.0
1001
ACAD
1000
AcDbSavedByObjectVersion
1070
     0
  0
VISUALSTYLE
  5
45
102
{ACAD_XDICTIONARY
360
206
102
}
102
{ACAD_REACTORS
330
2C
102
}
330
2C
100
AcDbVisualStyle
  2

 70
     5
 71
     0
 72
     2
 73
     0
 90
        0
 40
-0.6
 41
-30.0
 62
     5
 63
     7
421
 16777215
 74
     1
 91
        4
 64
     7
 65
   257
 75
     1
175
     1
 42
1.0
 92
        0
 66
   257
 43
1.0
 76
     1
 77
     6
 78
     2
 67
     7
 79
     3
170
     0
171
     0
290
     0
174
     0
 93
        1
 44
0.0
173
     0
291
     0
 45
0.0
1001
ACAD
1000
AcDbSavedByObjectVersion
1070
     0
  0
DICTIONARYVAR
  5
1F0
102
{ACAD_REACTORS
330
1EA
102
}
330
1EA
100
DictionaryVariables
280
     0
  1
1:1
  0
DICTIONARYVAR
  5
1EC
102
{ACAD_REACTORS
330
1EA
102
}
330
1EA
100
DictionaryVariables
280
     0
  1
STANDARD
  0
DICTIONARYVAR
  5
1EB
102
{ACAD_REACTORS
330
1EA
102
}
330
1EA
100
DictionaryVariables
280
     0
  1
STANDARD
  0
DICTIONARYVAR
  5
1ED
102
{ACAD_REACTORS
330
1EA
102
}
330
1EA
100
DictionaryVariables
280
     0
  1

  0
DICTIONARYVAR
  5
1EE
102
{ACAD_REACTORS
330
1EA
102
}
330
1EA
100
DictionaryVariables
280
     0
  1

  0
DICTIONARYVAR
  5
1F2
102
{ACAD_REACTORS
330
1EA
102
}
330
1EA
100
DictionaryVariables
280
     0
  1
0
  0
DICTIONARYVAR
  5
1F3
102
{ACAD_REACTORS
330
1EA
102
}
330
1EA
100
DictionaryVariables
280
     0
  1
0
  0
DICTIONARYVAR
  5
1F1
102
{ACAD_REACTORS
330
1EA
102
}
330
1EA
100
DictionaryVariables
280
     0
  1
2
  0
DICTIONARYVAR
  5
1EF
102
{ACAD_REACTORS
330
1EA
102
}
330
1EA
100
DictionaryVariables
280
     0
  1
1
  0
DICTIONARYVAR
  5
1F5
102
{ACAD_REACTORS
330
1EA
102
}
330
1EA
100
DictionaryVariables
280
     0
  1
80.000000
  0
DICTIONARYVAR
  5
1F4
102
{ACAD_REACTORS
330
1EA
102
}
330
1EA
100
DictionaryVariables
280
     0
  1
5.000000
  0
DICTIONARYVAR
  5
1F6
102
{ACAD_REACTORS
330
1EA
102
}
330
1EA
100
DictionaryVariables
280
     0
  1
2
  0
DICTIONARY
  5
200
102
{ACAD_REACTORS
330
1FE
102
}
330
1FE
100
AcDbDictionary
281
     1
  0
DICTIONARY
  5
1FF
102
{ACAD_REACTORS
330
1FE
102
}
330
1FE
100
AcDbDictionary
281
     1
  3
2529660987792
350
1F9
  3
2529660987808
350
1FA
  3
2529660987824
350
1FB
  3
2529660987840
350
1FC
  3
2529660987856
350
1FD
  0
DICTIONARY
  5
18
330
16
100
AcDbDictionary
280
     1
281
     1
  0
DICTIONARY
  5
3A
330
39
100
AcDbDictionary
280
     1
281
     1
  3
ACAD_XREC_ROUNDTRIP
360
3B
  3
FBXASSET
360
3C
  0
DICTIONARY
  5
36
330
35
100
AcDbDictionary
280
     1
281
     1
  3
ACAD_XREC_ROUNDTRIP
360
37
  3
FBXASSET
360
38
  0
DICTIONARY
  5
C
330
A
100
AcDbDictionary
280
     1
281
     1
  3
ACAD_XREC_ROUNDTRIP
360
D
  3
BUMPTILE
360
E
  3
DIFFUSETILE
360
F
  3
FBXASSET
360
10
  3
OPACITYTILE
360
11
  3
REFLECTIONTILE
360
12
  0
DICTIONARY
  5
43
330
42
100
AcDbDictionary
280
     1
281
     1
  3
ACAD_ROUNDTRIP_2008_TABLESTYLE_CELLSTYLEMAP
360
1F7
  3
ACAD_XREC_ROUNDTRIP
360
203
  0
DICTIONARY
  5
201
330
2B
100
AcDbDictionary
280
     1
281
     1
  3
ACAD_XREC_ROUNDTRIP
360
202
  0
DICTIONARY
  5
204
330
44
100
AcDbDictionary
280
     1
281
     1
  3
ACAD_XREC_ROUNDTRIP
360
205
  0
DICTIONARY
  5
206
330
45
100
AcDbDictionary
280
     1
281
     1
  3
ACAD_XREC_ROUNDTRIP
360
207
  0
XRECORD
  5
1F9
102
{ACAD_REACTORS
330
1FF
102
}
330
1FF
100
AcDbXrecord
280
     1
  1
AcDb_Thumbnail_Schema
102
{ATTRRECORD
341
1FA
  2
AcDbDs::TreatedAsObjectData
280
     1
291
     1
102
ATTRRECORD}
102
{ATTRRECORD
341
1FB
  2
AcDbDs::Legacy
280
     1
291
     1
102
ATTRRECORD}
  2
AcDbDs::ID
280
    10
 91
        8
102
{ATTRRECORD
341
1FC
  2
AcDs:Indexable
280
     1
291
     1
102
ATTRRECORD}
102
{ATTRRECORD
341
1FD
  2
AcDbDs::HandleAttribute
280
     7
282
     1
102
ATTRRECORD}
  2
Thumbnail_Data
280
    15
 91
        0
  0
XRECORD
  5
1FA
102
{ACAD_REACTORS
330
1FF
102
}
330
1FF
100
AcDbXrecord
280
     1
  1
AcDbDs::TreatedAsObjectDataSchema
  2
AcDbDs::TreatedAsObjectData
280
     1
 91
        0
  0
XRECORD
  5
1FB
102
{ACAD_REACTORS
330
1FF
102
}
330
1FF
100
AcDbXrecord
280
     1
  1
AcDbDs::LegacySchema
  2
AcDbDs::Legacy
280
     1
 91
        0
  0
XRECORD
  5
1FC
102
{ACAD_REACTORS
330
1FF
102
}
330
1FF
100
AcDbXrecord
280
     1
  1
AcDbDs::IndexedPropertySchema
  2
AcDs:Indexable
280
     1
 91
        0
  0
XRECORD
  5
1FD
102
{ACAD_REACTORS
330
1FF
102
}
330
1FF
100
AcDbXrecord
280
     1
  1
AcDbDs::HandleAttributeSchema
  2
AcDbDs::HandleAttribute
280
     7
 91
        1
284
     1
  0
XRECORD
  5
3B
102
{ACAD_REACTORS
330
3A
102
}
330
3A
100
AcDbXrecord
280
     1
102
MATERIAL
148
0.0
149
0.0
149
0.0
 93
        0
 94
      127
282
     0
 72
     1
 77
     1
171
     1
175
     1
179
     1
273
     0
  0
XRECORD
  5
3C
102
{ACAD_REACTORS
330
3A
102
}
330
3A
100
AcDbXrecord
280
     1
 70
     1
 90
429727718
  1
D62C5603-E3A1-4AEA-B7FB-FE5D8D0755AF
310
504B03040A0000080000CC70623B3DEE336E79000000790000001B0000006175746F6465736B2D64657369676E2D7061636B6167652E786D6C3C3F786D6C2076657273696F6E3D22312E302220656E636F64696E673D227574662D3822203F3E3C666F726D6174733E3C666F726D61743E687474703A2F2F736368656D612E
310
6175746F6465736B2E636F6D2F64657369676E2D7061636B6167652F323030393C2F666F726D61743E3C2F666F726D6174733E504B0304140006080800CC70623BD486FD9CA0000000F4000000130000005B436F6E74656E745F54797065735D2E786D6C7D8EC10E82300C865F65E91D8A1E8C310C0EEA1BF002731658846E
310
D98AC1B77784ABF1D8FE5FBFBF75BBCE937A534CCEB38643598122B6FEE978D0B0485F9C41B54DDD7D022595594E1A469170414C76A4D9A4D207E29CF43ECE46F218070CC6BECC4078ACAA135ACF422C856C0E68EA1BF5669944DDD7BCDE7B1F8E415D77AECB980613C2E4AC91FC167A2B244592486606FC29C8FD7F045B9A
310
EF7053A7E60B504B0304140006080800CC70623B853B8169EB0000007C01000008000000636F72652E786D6C8D90416EC3201045AF62CDB6C206821CC7C244919D9CA01740401C94182C03558F5F9C3852BBEB6A467FFE9B197D7EFC9E1EC5975982F5AE035262288C535E5B377690E21535501C055FBC8FBF6C503839990E
310
5619041F179FE64D52DE45E362569DD7661365082642A11EB9E920A89B99642953CC8E702F67A9EE7234257977194EC9EAE275C4EABCCF5EAD5940D4AC6F0E35A568B8F43562CD7046CD199FD07E60174276A7BE677B5EADB0E0D14EEFFB6A31321A0D82627C4084204C3F096B71DD52F6819B16635EADF63F509AF53FA164
310
5DDCD1EDDD17164090FCC8732078B56691CB33A85CD7DCC40F504B0304140006080800CC70623B55019EA25F0000007C00000007000000636E782E786D6C4DCB3B0E80201045D1AD90E915ED2CF8AC45050C11660C8261F98AB1B07AC9C97D42D718D865D3E909258CFD00CCE24AC6E326A164D74DC0B4128928FF32603847
310
2BA13128B1252AC747C6BAB984FC68F0B87FE8960A5C09FE86CFB69FBA01504B0304140006080800CC70623BDBABAAF470010000D40300000C0000006662782F636F72652E786D6CC553D16E823014FD95A6AF4B694182CC941A83FA05FB810A9511A125A5257EFE2E82712ECEB8A7F100CD39F7F69E734AF9FADC366850B6
310
AF8DCE7018308C942E4C59EB2AC3DE1D498AD15A706B8CFB56869196ADCAF00863C12B6B7C374385D14E6907A836A59A41D9F7CA615434B0C8705F7CAA5606D23BA8E84F41278B93AC54100640439DE0BDB320004D43C63716C7C399D30917DCFBBA9CD9BA8469F5B156168B24CED3F7248AC8769F27244EB73B92EED8862C
310
B7F13E0C179B3C8F979C8ECD82BBBABDAA2BAC924E9558448CBD9330242CFA08E3154B5651FCC6D215639C8EE5774DBE2B5F6CF2B5768B68963BB5F5588420E442FC700B1139D4CB01F450C1E918227C2E09DF070D8140C84E1E9AAB8F1340832A9CB13130A5F1376A908D57309505ECF2A0DF179C4E9D30F5B239B87E3823
310
7A79C6F31DE1A8A5AEC08474B03C7837EAE4938639B44E5932B833D2C6B6B279CDC613877FA26EE21F4A2A4C63EC7F29A2F301D1F9F7A0E37D145F504B0304140006080800CC70623B9C113CC27E0000009D0000000B0000006662782F636E782E786D6C4DCCDF0A83201C86E15B91DFB94BFB330DD428C8FB886521330DA7
310
6397BF1A1DECE883878F57749FCDA1B7892F1BBC047A23808C7F84D9FA55424E0BE6803A256208E9EF06C84F9B91703228B1C690F78B66B34CD9A5439DF5CF0BFBF65E35BCA1B8D6A5C6F540381E886698B5741C695F9503EBA150A2F8958E3DC3EA0B504B0304140006080800CC70623B7DF2F77C2A010000120200003100
310
00006662782F41393633353835312D344632462D344230382D423046372D3739314545314133324237412F636F72652E786D6C8D51DB8EC22014FC15C2939B0D2DB4B45643319AE817EC0F6041255A68B86CFCFC856D4D76DF7CE190393373060EDB3DC707F856CE6B6B7A480A0C81328395DA5C7B18C3057510EC3873D686
310
3F34088C18550F330C39BB3A1BA7051AAC09CA84841A2BD5020AEF55806078A44B0FFD7053A328440C89E1EFC52486BBB8AA8214A99D789CF9E05200300FC927E4FB4D5B375D43103D5527440FB843077C5AA3F5861C8F645F5787F59E95B390B318B55CE45AA638FAA2957BD7248B390B7A7CC51F9C124149C82B8C378810
310
84AB2F42B7B8DD56F413775B8C5999E9FF4471926F8AA236A1AE96B8B3CC434E5839373893369E1FAF30EA395917409EB7F26AF8801C171837A4A6AC9C89E9F9C9B1A58BA30FD6A5EF5DDDCF894B9AD9B6A59C957943A9FCAE2FD5BC4DFE03504B0304140006080800CC70623BAD7543B64E01000033030000300000006662
310
782F41393633353835312D344632462D344230382D423046372D3739314545314133324237412F636E782E786D6CD593CD6EC32010845F0571AD6CE3D48AD20813A9873E410FBD12D82434182C7EAAE6EDBB2424CD25871E7B41D6EC30B3FA84F9E67BB2E40B4234DE8DB46F1925E094D7C6ED479AD3AE5951B2113C789FEE
310
6C943839C1488B4C05DF079FE72A69D8C96C13AAD6B8631503449F83828872B949AC57D26200B826A308D316B4064D6E46FCDA41C05550DC9E483A00797BFD207EFB092A45DE9514C1BBD22178396BD39D891265658C238DEA00936C654E5E433CB65A26D9F6EDB5EBC14EBF49A45CB856E66048291F6939A9A81BB5C89177
310
38143CA680F4AA299D66A042CEB3354A2684DC9D8D178FE0D9B8B41CAAD720F880EE7EF93C0C18769E099ECC04D5A102C8049A8A05632F4DDF376CF1DE0F6BB65C2F8627B65A33C6BB62177CEBBDAD973006829F89F22E814B54F4BC2BE347F8AA8F681390B50FA73F804400B5F542E796F19FF974E7F78DB802FE05E20750
310
4B0304140006080800CC70623BE75B7789680500003C100000340000006662782F41393633353835312D344632462D344230382D423046372D3739314545314133324237412F6F626A656374732E786D6CAD575B8F9B3818FD2B887D06C22499CB8AA1CA655245D5B455A356FB305264C061D8018C6C3393D95FBFC7600890
310
A4CD5EF210B0B1BFEBF98E3F7B1FF6596ABC522E1296DF9BAE3D320D9A872C4AF2F8DE2CE5CEBA358D0FBEC719939D65A691938CDE9B6ADAF4BD98B3B2D05311DD91329583D9D5FC0F438434A7A611A644887B5384CF34233629258BA878B12322891DEFF6B66BD70BFB62634E8AE781D082709A4B588AF91C528CDA28B73F
310
1C998EEF39EABBEFA97FBD6A7C7E9553F9D3D79FE442923C3C523610337627CB87ABE99D359D4CC6D6E4FACAB5E6ABF9D2726FC6A3C5F56271377BB88362213924694B38DD99FE47C48627A1E7D49F5A8BB5E1A74C0A599ED3B0F21F1E56366B89112D681E218F0915D0D6F17AD41FBA2A369DCF6335D62ABBD39779D5DDD1
310
11D4D8DE3CBB96B2E04FB8202E41051754A1AA8E8F76B4C6DFE810B580B1547F4B84911149794252234D024EF8BBE963A95AE27B3D310A9D5C215C7960FAEE415ED75694C6AFB17BCACA5D99A60A9AA65F217B0BFC53292ACB92BF283FAD0D3621576592CB5BED907C2FA8E9DF794E35E97BEA31BED21FEB401ABB94C44839
310
DCACBF0E1C5DA8DA5B2F4DFFD32AD86F543D9E565E7056502E157C00AD2671CD534549AB752FCA9CDA00677A313F04E51B22FF19E57B300579E3C97EB29F682D92935CEC18CF901B7B54FD8C51F362B56FC72FE0B3C1EAE335EDCCBF5AEC39ADB17DC238973F804BA5E6F6BFE7AF1FB32E523BE9F3BD571418E3631DCA4D48
310
5250CF639223210A9446CA30052EDF057BD35F8329C1ECD84552BF0DC8D18BE7BCE23BFE6BD960AB4A7DE79923A103BEBD80F911CBAA2C60DB19B01CF164A5583B772EE6D3FFA56666CBCDA74DC97724A48F9A58967497E489C4D979006FD7A05E227A1EBDD0F737C623387A9C844D3709995625106D157315F8B8392CD4E0
310
A0B9A720C4BE9829CEF37EA1E13111214D53925356365ADA634861B52519DD27A00AEB808EAF0628E6F435519D446F45CF2C9CF5214F0A15B2F6D06B79DA3EE3CBF7F56780D2F4E7EF73A0F5E5B02A38D07DC852C6B7C1FBB6664213E0C39E3EBA7FF4E1AD23EA2829407C85E586727488B751B2DB9502BC7B228A3FD68B6E
310
A65A22397E690AA8D158D7E404EC8CDA235CC3B7D1898680131CEC2CDF2638C65196279577750F15884AEE19F94199155B92B13297978469D4F8D358DF0AEF7631E28DC8F0D9F437D5D39A83B2231A1D52D543813A824EF8D44BCFF2FA6A31BD1E8DAD87F1CCB526B3879935BF59CDADD5C37479BB1CDD4CA7B3556B516589
310
EF352754B706114D9C885EC9131DE6EFEB43D99AFE2391C2F958179413D7CFEF6B1B6DB1E7600F00DE6E5C67454A339A4BA2E0FBA85ED26F045D454F463DBFCE484C2F90F2E5E3666003662ED8F755951A7D1BECD5B30B550B2785C8E7320B7292A4838DDA71BBC863ED7613CAF659337A3354231D4FF4A182A54904C2898C
310
98B28C4AD0CE056CCF332A80986E571EE9DBC305BB5FEB7E509220A58D25CF042D712A806AC0AD0C657FDEF80D2D9CEAA2EE4D1C76F60BFE74219A06527D6F82DF6412526107381E55E353090704D085B52408A8913C4ED159D79BDA71BB4BC506F4831350EB6F975CD22D69BF7AC49B91A2C0A9DDA3D5CA36AD20FC478E37
310
E61844E2352865EBCB61A275A65283CAAA9DD27703B4102F5AF51EF5F573B75CBB5AD38BC845F7A49F82A0966A49C2E3EA5EA0ECD326CD965F1DB402C6FA8B51A4658C5C5E2EC9E214602E55810345408596591009A82E7E7FFACA19EEA299B14A0081A705CB3296EBC14CDF658DCD336EA6D1136881AAEB87B81AB9EE53D5
310
F5EB8BC8362082DA24122F98680A4E7930C01A0079749CEA14382A0783E5EBA5A10F8C098456A03D6A4AEB6BB881E2513747552A5DB22C7EDAF83BD5528081A365F7FF06504B0304140006080000CC70623B000000000000000000000000350000006662782F41393633353835312D344632462D344230382D423046372D37
310
39314545314133324237412F76657274696365732E62696E504B0304140006080800CC70623BF270F1330600000004000000360000006662782F41393633353835312D344632462D344230382D423046372D3739314545314133324237412F747269616E676C65732E62696E636660600000504B0304140006080000CC7062
310
3B000000000000000000000000370000006662782F41393633353835312D344632462D344230382D423046372D3739314545314133324237412F617474726962757465732E62696E504B0304140006080800CC70623B08DA0BD19000000041010000360000006662782F41393633353835312D344632462D344230382D4230
310
46372D3739314545314133324237412F6469726563746F72792E786D6C858F410AC3201045AF22B36F53E9A60B35CBEEBAE80D244E44489C6234F4F835464A48035D0DF398FF9F8AF63D0E6CC63039F212F8F9020C7D47C6792B21C5FE7403D62A1188E2E60C98D7234A5830286103A55745067B9D86B8A3CF9C7F90C11DE6
310
07FB144396D7B6A82D282E9A152AD114D5EF2CB866EEE831B8EEA07A7BB5A8D7D61A2BAAEB7FD5F70921FF497D00504B0304140006080800CC70623BEDD1DC58FD000000A00100003B0000006662782F41393633353835312D344632462D344230382D423046372D3739314545314133324237412F7265736F75726365732F
310
636F72652E786D6C8D504B6E833010BD0A9A6D65B00922041947112427E8052C33A156828DFCA97AFC9A40A576D7CDCCE87D344F8F9FBFE667F689CE6B6B3A6039850C8DB2A336530731DC4903D95970676DF82583CCC8193B5861107C72362E3BA4AC096842428D1D7107A5F7182053CF7474E0D507CE32973124857FE48B
310
540F3961CEF244279DE03EB81420DB9EAC1384436FA353E879B1B182C7A8C75DA3C7F453DF353A1075D537A7BA6464B8F535A99AE14A9A2BBD90E350DD183B5CFABE3AF262350B1EF4FC9351399401471025A527C218A1E53BAB5A5AB765F5469B96525EACF23FA6B88CFF34456DC2A1DCE36E360F82A5202F42F062ED2BAD
310
579969AFDD8A6F504B010214000A0000080000CC70623B3DEE336E79000000790000001B00000000000000000000000000000000006175746F6465736B2D64657369676E2D7061636B6167652E786D6C504B01021400140006080800CC70623BD486FD9CA0000000F40000001300000000000000000000000000B20000005B
310
436F6E74656E745F54797065735D2E786D6C504B01021400140006080800CC70623B853B8169EB0000007C010000080000000000000000000000000083010000636F72652E786D6C504B01021400140006080800CC70623B55019EA25F0000007C000000070000000000000000000000000094020000636E782E786D6C504B
310
01021400140006080800CC70623BDBABAAF470010000D40300000C00000000000000000000000000180300006662782F636F72652E786D6C504B01021400140006080800CC70623B9C113CC27E0000009D0000000B00000000000000000000000000B20400006662782F636E782E786D6C504B01021400140006080800CC70
310
623B7DF2F77C2A010000120200003100000000000000000000000000590500006662782F41393633353835312D344632462D344230382D423046372D3739314545314133324237412F636F72652E786D6C504B01021400140006080800CC70623BAD7543B64E010000330300003000000000000000000000000000D2060000
310
6662782F41393633353835312D344632462D344230382D423046372D3739314545314133324237412F636E782E786D6C504B01021400140006080800CC70623BE75B7789680500003C10000034000000000000000000000000006E0800006662782F41393633353835312D344632462D344230382D423046372D3739314545
310
314133324237412F6F626A656374732E786D6C504B01021400140006080000CC70623B0000000000000000000000003500000000000000000000000000280E00006662782F41393633353835312D344632462D344230382D423046372D3739314545314133324237412F76657274696365732E62696E504B01021400140006
310
080800CC70623BF270F133060000000400000036000000000000000000000000007B0E00006662782F41393633353835312D344632462D344230382D423046372D3739314545314133324237412F747269616E676C65732E62696E504B01021400140006080000CC70623B0000000000000000000000003700000000000000
310
000000000000D50E00006662782F41393633353835312D344632462D344230382D423046372D3739314545314133324237412F617474726962757465732E62696E504B01021400140006080800CC70623B08DA0BD1900000004101000036000000000000000000000000002A0F00006662782F41393633353835312D344632
310
462D344230382D423046372D3739314545314133324237412F6469726563746F72792E786D6C504B01021400140006080800CC70623BEDD1DC58FD000000A00100003B000000000000000000000000000E1000006662782F41393633353835312D344632462D344230382D423046372D3739314545314133324237412F7265
310
736F75726365732F636F72652E786D6C504B0506000000000E000E0080040000641100000000
  0
XRECORD
  5
37
102
{ACAD_REACTORS
330
36
102
}
330
36
100
AcDbXrecord
280
     1
102
MATERIAL
148
0.0
149
0.0
149
0.0
 93
        0
 94
      127
282
     0
 72
     1
 77
     1
171
     1
175
     1
179
     1
273
     0
  0
XRECORD
  5
38
102
{ACAD_REACTORS
330
36
102
}
330
36
100
AcDbXrecord
280
     1
 70
     1
 90
429727718
  1
30362254-06B7-45E0-A893-8CFA70E3D6BC
310
504B03040A0000080000CC70623B3DEE336E79000000790000001B0000006175746F6465736B2D64657369676E2D7061636B6167652E786D6C3C3F786D6C2076657273696F6E3D22312E302220656E636F64696E673D227574662D3822203F3E3C666F726D6174733E3C666F726D61743E687474703A2F2F736368656D612E
310
6175746F6465736B2E636F6D2F64657369676E2D7061636B6167652F323030393C2F666F726D61743E3C2F666F726D6174733E504B0304140006080800CC70623BD486FD9CA0000000F4000000130000005B436F6E74656E745F54797065735D2E786D6C7D8EC10E82300C865F65E91D8A1E8C310C0EEA1BF002731658846E
310
D98AC1B77784ABF1D8FE5FBFBF75BBCE937A534CCEB38643598122B6FEE978D0B0485F9C41B54DDD7D022595594E1A469170414C76A4D9A4D207E29CF43ECE46F218070CC6BECC4078ACAA135ACF422C856C0E68EA1BF5669944DDD7BCDE7B1F8E415D77AECB980613C2E4AC91FC167A2B244592486606FC29C8FD7F045B9A
310
EF7053A7E60B504B0304140006080800CC70623B1EC5D7A3EB0000007C01000008000000636F72652E786D6C8D90416EC3201045AF82665B6103C6756C6122AB4D4ED00B204C5C94182C03558F5F9C3852BBEB6A467FFE9B197D71FC9E6FE8CBACC17AD7032D0820E3B41FAD9B7A48F1820F808E52ACDEC75F36404ECDA687
310
4D0629A6D5A76597B477D1B89855E747B38B2A041301E95B6E7A08FAD3CCAA50296647B8168BD2573599823EBB0CA76447F43862C7BCCF5EAC59410E4DDD9C7973C2755553CCCFA4C603E3040F1565ED3B1FDE4E432BCA0D9622DAF9795FAF464533826484B498524CD807E51D79ED187F21878E10516EF63F505AC67F42C9
310
BA58B1FDDD071640D2FCC87D2045B96591CB3DA85CB7DCE40F504B0304140006080800CC70623B55019EA25F0000007C00000007000000636E782E786D6C4DCB3B0E80201045D1AD90E915ED2CF8AC45050C11660C8261F98AB1B07AC9C97D42D718D865D3E909258CFD00CCE24AC6E326A164D74DC0B4128928FF32603847
310
2BA13128B1252AC747C6BAB984FC68F0B87FE8960A5C09FE86CFB69FBA01504B0304140006080800CC70623B8C9102E971010000D40300000C0000006662782F636F72652E786D6CC5535B6E833010BC8AE5DF0A6C08340F1947A84D4ED00B38C6A128602363A31CBFCB234A53A551FA553EC09AD9F5CE8C31DB9E9B1AF5CA
310
7695D1198E428A91D2D214952E33ECDD315861B4E5CC1AE3BE9561A445A3323CC098B3D21ADFCE9034DA29ED00D5A6503328BA4E398C640D8B0C77F253352214DE4145770A5B214FA2546114020D759C75CE8200340D19DE981F0F6746269C33EFAB6266AB02A655C74A59CCF365BADC27CB5D902ED22848F6340DF238A141
310
BE88E2F57B92BFEDF23523433367AE6A2EEAA455C2A902F398D2751045018D3FA264435F3771F242571B4A1919CA6F9A7C5B3CD9E42BED16F12C776AEB308F40C848FC700B1139D4891EF410CEC810227CC6846F8386402064270EF5C5C709A05E49676C024C61FC95EA45ED154CA5211D1FF4FB8291A913A68E9B83EBBB33
310
E2A7673CDE118E5AE8124C0807CB8377834E366998436B950D7A7746DAD846D4CFD978E0F04FD455FC5D49D2D4C6FE9722321F10997F0F32DC47FE05504B0304140006080800CC70623BFFEA85907E0000009D0000000B0000006662782F636E782E786D6C4DCCD10A83201886E15B91FFDC95D95A811AB6F23E625948A6C3
310
E9D8E5AF46073BFAE0E1E365ED67B3E8ADC3CB78C7815C7240DA3DFC64DCC221C519D7805AC182F7F1EF06C88D9BE6703008B6049F9E274D7A1E938DBB5AE3D6131B2589BA0D3D965551E0B2EA732C9B9A624AAEB41E3A557677029960D9AFB4EF11165F504B0304140006080800CC70623B4FEEA4082C0100001202000031
310
0000006662782F39464131463745442D413632322D343644302D413938332D3331353338454246344243312F636F72652E786D6C8D515B6EC32010BC0AE2AB55850DD871ED0813254D72825EC00192A2C460F1A872FC42ED48ED5F7E00CDCECCCEB26C731F6FE05B39AFADE921293004CA082BB5B9F43086336A21D870E6AC
310
0D7F68109861543DCC30E4ECE26C9C164858139409093556AA051CBC570102714B8F1E7AF1A5C6A11862480C7F2DA6415C878B2A4891CA89C7990F2E050073937C42DE1DB7E4F87ED8A36D4329AA9B3D46DBAEAD504556557BD81DEBDD0761E52CE42C462D17B996298E3E6BE59E35C962CE821E1FF18553435012728A7187
310
0841987E927A8D9B35ADDF70BBC6989599FE4F1427F9A4286A132ABAC49D651EF234CD5CE04CDA78BA3DC2A8FB645D00B9DF8B57E215725C60BCA2A463E54C4CE327C7A65E1C7DB02E7DEFCBF594B864C5CA6CDBD49C957943E9FA5D5FBAF336F90F504B0304140006080800CC70623BAD7543B64E01000033030000300000
310
006662782F39464131463745442D413632322D343644302D413938332D3331353338454246344243312F636E782E786D6CD593CD6EC32010845F0571AD6CE3D48AD20813A9873E410FBD12D82434182C7EAAE6EDBB2424CD25871E7B41D6EC30B3FA84F9E67BB2E40B4234DE8DB46F1925E094D7C6ED479AD3AE5951B2113C
310
789FEE6C943839C1488B4C05DF079FE72A69D8C96C13AAD6B8631503449F83828872B949AC57D26200B826A308D316B4064D6E46FCDA41C05550DC9E483A00797BFD207EFB092A45DE9514C1BBD22178396BD39D891265658C238DEA00936C654E5E433CB65A26D9F6EDB5EBC14EBF49A45CB856E66048291F6939A9A81BB5
310
C8917738143CA680F4AA299D66A042CEB3354A2684DC9D8D178FE0D9B8B41CAAD720F880EE7EF93C0C18769E099ECC04D5A102C8049A8A05632F4DDF376CF1DE0F6BB65C2F8627B65A33C6BB62177CEBBDAD973006829F89F22E814B54F4BC2BE347F8AA8F681390B50FA73F804400B5F542E796F19FF974E7F78DB802FE05
310
E207504B0304140006080800CC70623B16AB87BA640500003C100000340000006662782F39464131463745442D413632322D343644302D413938332D3331353338454246344243312F6F626A656374732E786D6CAD575B6FA33818FD2B887DE6924B3BED8A326A92B68A663B534DD4D13E548A0C38942D60649B369D5FBFC7
310
600890A493BDE42160637FD7F31D7FF63E6FB3D478A55C242CBF3247B66B1A340F5994E4F19559CA8D75611A9F7D8F33263BCB4C232719BD32D5B4E97B316765A1A722BA21652A07B3B7B33F0D11D29C9A46981221AE4C113ED38CD8A4942CA2E2C58E882476BCD9DA23BB5ED8171B73523C0F841684D35CC252CCE79062D4
310
468DFA43D7747CCF51DF7D4FFDEB5593E3AB9CCA9FBEFE241792E4E19EB28198C968BAB8199F5D5A67D3E9C49A9E8F47D6EC76B6B0469F26EEFC7C3EBFBCBEB98462213924694B38DD98FE1D62C393D073EA4FADC5DAF04326852CCF6958F90F0F2B9BB5C48816348F90C7840A68EB78EDF68723159BCEE7891A6B95DDE9D3
310
BCEAEEE8086A6C6F9E5D4B59F0175C10A7A0820BAA5055C7473B5AE3CFDD452D602CD5DF12616444529E90D448938013FE6EFA58AA96F85E4F8C42275708571E98FE6827AF6B2B4AE3D7D83D64E5A64C53054DD3AF90BD06FEA9149565C94FCA0F6B834DC85599E4F2423B24DF0B6AFA979E534DFA9E7A4CC6FA631D486393
310
921829879BF5D781A373557BCB85E97FB90DB62B558F8795179C15944B051F40AB495CF35451D26A4727654E6D8033BD98EF82F21D91FF8AF2DD9982BCF1643BDD4EB516C9492E368C67C88DED563FC36D5EACF66DFF057C3658BDBFA69DF9578B3DA735B64F18C7F20770A9D45CFCF7FCF563D6456A277DBEF78A02637CA2
310
43B90A490AEAB94F72244481D24819A6C0E59B606BFA4B3025981DBB48EAB701D97BF19C577CC77F2D1B6C55A9EF3C732474C0B727303F625995056C3B02963D9EAC146BE78EC5FCEC7FA999EBC5EACBAAE41B12D27B4D2C0BBA49F244E2ECDC81B76B502F113D8F5EE8FB1BE3111CDD4FC2AA9B844CAB1288B68AB90A7CDC
310
1C166AB0D3DC5310625FCC14E779BFD0709F8890A629C9292B1B2DED31A4B0DA928CEE135085754027E3018A397D4D5427D15BD1330B677DC8934285AC3DF45A9EB68FF8F2B8FC0A509AFEECFD0FF2DE25CC6047F7214B195F07EFEB9A094D800F7BFAE8FED187B78EA8A3A400F115961BCAD1215E47C966530AF0EE8128FE
310
58CEBB996A8964FFA529A046635D9353B0336A8F700DDF46271A024E70B0B37C9DE01847591E54DED53D54202AB947E4076556AC49C6CA5C9E1226B7F1A7B1BE15DEED62C41B91E1B3E9AFAAA735036547343A925075041DF0A9979E893B391F8FCFA6967B3EFB644DCF6E5CEBFAE272625DCC6FAF3FB93793C5F90CE1EF57
310
407342756B10D1C489E8953CD1617E5CEECAD6F4EF8914CE5D5D504E5C3F1F9736DA62CFC11E00BCDDB8CC8A9466349744C1F75EBDA4DF09BA8A9E8C7A7E9991989E20E5DBDD6A6003664ED8F7A04A8DBE0DF6EAD9B9AA858342E47399053949D2C146EDB85DE4B176BB0965FBAC19BD19AA918E27FA50C1D22402E144464C
310
59462568E704B6E71915404CB72B8FF4EDE184DDAF753F284990D2C6926782963815403548A70C657FDEF80D2D9CEAA2AE4C1C76F60BFE74219A06527D6582DF6412526107381E55E353090704D085B52408D0933C4ED159D79BDA71BB4BC506F4831350EB6F979CD22D69BF7AC49B91A2C0A9DDA3D5CA36AD20FC478E37E6
310
1844E2352865EBCB6EA275A652E3836BE04EFB400BF1A2556F515F1FBB35B2AB35BD889C744FFA1004B5544B121E57F70215746DD2F5E2C1412B602CBF19455AC6C8E5E9922C4E01E65215385004546899059180EAFCF7A707CE7017CD8CDB0410789AB32C63B91E5CEBBBACB17AC6CD347A022D5075FD106377347AAABA7E
310
7D11590744509B44E205134DC1290F06580320F78E537D3D73540E06CB970B431F185308AD40BBD794D6D77003C5A36E8EAA54BA64597CD8F83BD552A080A365F7FF06504B0304140006080000CC70623B000000000000000000000000350000006662782F39464131463745442D413632322D343644302D413938332D3331
310
353338454246344243312F76657274696365732E62696E504B0304140006080800CC70623BF270F1330600000004000000360000006662782F39464131463745442D413632322D343644302D413938332D3331353338454246344243312F747269616E676C65732E62696E636660600000504B0304140006080000CC70623B
310
000000000000000000000000370000006662782F39464131463745442D413632322D343644302D413938332D3331353338454246344243312F617474726962757465732E62696E504B0304140006080800CC70623B08DA0BD19000000041010000360000006662782F39464131463745442D413632322D343644302D413938
310
332D3331353338454246344243312F6469726563746F72792E786D6C858F410AC3201045AF22B36F53E9A60B35CBEEBAE80D244E44489C6234F4F835464A48035D0DF398FF9F8AF63D0E6CC63039F212F8F9020C7D47C6792B21C5FE7403D62A1188E2E60C98D7234A5830286103A55745067B9D86B8A3CF9C7F90C11DE607
310
FB144396D7B6A82D282E9A152AD114D5EF2CB866EEE831B8EEA07A7BB5A8D7D61A2BAAEB7FD5F70921FF497D00504B0304140006080800CC70623B0D6EF93BFE000000A00100003B0000006662782F39464131463745442D413632322D343644302D413938332D3331353338454246344243312F7265736F75726365732F63
310
6F72652E786D6C8D50596E833010BD0A9ADFCA60B334011947A8694ED00B586642AC041B79A97AFC9A40A5F6AF3F33A3B7689E1E3F7DCD8FEC139DD7D6F4C0720A191A65476DA61E62B892236427C19DB5E1970C322367EC618541F0C9D9B8EC90B226A009093576C41D94DE63804C3DD2D18357379C652E63480A7FCF17A9
310
EE72C29CE5894E3AC17D702940B63D59270887DE46A7D0F36263058F518FBB468FE9A7BE6A7420864373B8D4873369AA8691FA421B3294352543C5CAF65C0F6FEF43CB8BD52C78D0F34F46E550061C419494B6843142CB0F5677F4B52BEB177AEC28E5C52AFF638ACBF84F53D42654E51E77B379102C05791282176B5F693D
310
CB4C7BED567C03504B010214000A0000080000CC70623B3DEE336E79000000790000001B00000000000000000000000000000000006175746F6465736B2D64657369676E2D7061636B6167652E786D6C504B01021400140006080800CC70623BD486FD9CA0000000F40000001300000000000000000000000000B20000005B
310
436F6E74656E745F54797065735D2E786D6C504B01021400140006080800CC70623B1EC5D7A3EB0000007C010000080000000000000000000000000083010000636F72652E786D6C504B01021400140006080800CC70623B55019EA25F0000007C000000070000000000000000000000000094020000636E782E786D6C504B
310
01021400140006080800CC70623B8C9102E971010000D40300000C00000000000000000000000000180300006662782F636F72652E786D6C504B01021400140006080800CC70623BFFEA85907E0000009D0000000B00000000000000000000000000B30400006662782F636E782E786D6C504B01021400140006080800CC70
310
623B4FEEA4082C0100001202000031000000000000000000000000005A0500006662782F39464131463745442D413632322D343644302D413938332D3331353338454246344243312F636F72652E786D6C504B01021400140006080800CC70623BAD7543B64E010000330300003000000000000000000000000000D5060000
310
6662782F39464131463745442D413632322D343644302D413938332D3331353338454246344243312F636E782E786D6C504B01021400140006080800CC70623B16AB87BA640500003C1000003400000000000000000000000000710800006662782F39464131463745442D413632322D343644302D413938332D3331353338
310
454246344243312F6F626A656374732E786D6C504B01021400140006080000CC70623B0000000000000000000000003500000000000000000000000000270E00006662782F39464131463745442D413632322D343644302D413938332D3331353338454246344243312F76657274696365732E62696E504B01021400140006
310
080800CC70623BF270F133060000000400000036000000000000000000000000007A0E00006662782F39464131463745442D413632322D343644302D413938332D3331353338454246344243312F747269616E676C65732E62696E504B01021400140006080000CC70623B0000000000000000000000003700000000000000
310
000000000000D40E00006662782F39464131463745442D413632322D343644302D413938332D3331353338454246344243312F617474726962757465732E62696E504B01021400140006080800CC70623B08DA0BD190000000410100003600000000000000000000000000290F00006662782F39464131463745442D413632
310
322D343644302D413938332D3331353338454246344243312F6469726563746F72792E786D6C504B01021400140006080800CC70623B0D6EF93BFE000000A00100003B000000000000000000000000000D1000006662782F39464131463745442D413632322D343644302D413938332D3331353338454246344243312F7265
310
736F75726365732F636F72652E786D6C504B0506000000000E000E0080040000641100000000
  0
XRECORD
  5
D
102
{ACAD_REACTORS
330
C
102
}
330
C
100
AcDbXrecord
280
     1
102
MATERIAL
148
0.0
149
0.0
149
0.0
 93
        0
 94
      127
282
     0
 72
     1
 77
     1
171
     1
175
     1
179
     1
273
     0
  0
XRECORD
  5
E
102
{ACAD_REACTORS
330
C
102
}
330
C
100
AcDbXrecord
280
     1
270
     1
271
     1
  0
XRECORD
  5
F
102
{ACAD_REACTORS
330
C
102
}
330
C
100
AcDbXrecord
280
     1
270
     1
271
     1
  0
XRECORD
  5
10
102
{ACAD_REACTORS
330
C
102
}
330
C
100
AcDbXrecord
280
     1
 70
     0
 90
1673772943
  1
ECE7A1D2-D628-4531-984C-D00F80459256
310
504B03040A0000080000CC70623B3DEE336E79000000790000001B0000006175746F6465736B2D64657369676E2D7061636B6167652E786D6C3C3F786D6C2076657273696F6E3D22312E302220656E636F64696E673D227574662D3822203F3E3C666F726D6174733E3C666F726D61743E687474703A2F2F736368656D612E
310
6175746F6465736B2E636F6D2F64657369676E2D7061636B6167652F323030393C2F666F726D61743E3C2F666F726D6174733E504B0304140006080800CC70623BD486FD9CA0000000F4000000130000005B436F6E74656E745F54797065735D2E786D6C7D8EC10E82300C865F65E91D8A1E8C310C0EEA1BF002731658846E
310
D98AC1B77784ABF1D8FE5FBFBF75BBCE937A534CCEB38643598122B6FEE978D0B0485F9C41B54DDD7D022595594E1A469170414C76A4D9A4D207E29CF43ECE46F218070CC6BECC4078ACAA135ACF422C856C0E68EA1BF5669944DDD7BCDE7B1F8E415D77AECB980613C2E4AC91FC167A2B244592486606FC29C8FD7F045B9A
310
EF7053A7E60B504B0304140006080800CC70623BD9DDAED0EC0000007C01000008000000636F72652E786D6C8D90416EC3201045AF82665B61836D9CD8C2444DD39CA01740405C94182C03558F5F9C3852BBEB6A467FFE9B197D7EF89E6EE8CB2CC17A37002D0820E394D7D68D03A478C17B4007C117EFE32F1B20272733C0
310
2A83E0E3E2D3BC49CABB685CCCAAF3DA6CA20CC14440EA969B0182FA34932C648AD911AEC52CD5558EA6A0CF2EC329598D1E47ACCEFBECC59A050463A7EA5833865FEBDD0E37353BE3EE8DBDE3F6786A48D375FBF6CC78B9C282473B3DEFABC5C86834888A900E538A49F5419B9EB47DD5BC907D4F082F57FB1F28CDFA9F50
310
B22ED6D5F6EE030B20687EE43E10BC5CB3C8E51E54AE6B6EE207504B0304140006080800CC70623B55019EA25F0000007C00000007000000636E782E786D6C4DCB3B0E80201045D1AD90E915ED2CF8AC45050C11660C8261F98AB1B07AC9C97D42D718D865D3E909258CFD00CCE24AC6E326A164D74DC0B4128928FF326038
310
472BA13128B1252AC747C6BAB984FC68F0B87FE8960A5C09FE86CFB69FBA01504B0304140006080800CC70623BA24EB22D72010000D40300000C0000006662782F636F72652E786D6CC5535B6E833010BC8AE5DF0A6C5E49888CA3A6694ED00B38E05014B091B1518EDFE511A5A9D228FD2A1F60CDEC7A67C6986DCE4D8D7A
310
69BA4AAB0C073EC548AA5C17952A33ECECD15B61B4E1CC686DBF9561A44423333CC098B3D268D7CE50AE9595CA02AA74216750749DB418E5352C32DCE59FB211BE70162ABA93DF8AFC244AE9073ED050C759670D0840D390E18DF9F1706664C23973AE2A66B62A605A75ACA4C13C4976E1364A12EF355A2EBD384AF65EFA96
310
BC7B8BED2EA6719AAE16FB8491A199335B351775B991C2CA02F390D2D40B028F861F41BCA68B7518BFD0D59A524686F29B26D7164F36B94AD9289CE54E6D1DE6010819891F6E21228B3AD1831EC219194284CF98F06DD01008846CC5A1BEF83801D4CBDC6A1303536877A57A513B0953A94FC707FDBE6064EA84A9E3E6E0FA
310
EE8CF0E9198F7784A316AA0413C2C2F2E0ECA0934D1AE6D05A69BCDE9E91D2A611F573361E38FC1375157F5752AE6B6DFE4B11990F88CCBF0719EE23FF02504B0304140006080800CC70623B408A7D3B7C0000009D0000000B0000006662782F636E782E786D6C4DCCD10A83201886E15B91FFDC552A92A0064DBC8F581632
310
D3703A76F9ABD1C18E3E78F878E5F0D9027ABBFCF2292AE86E2D20171F69F6715550CB827B40839639A5F2770314A7CD293819B45C73AAFB45B35BA61ACAA1C1C7E7855C58C15BC331339661262CC762340413D68D77DA5B42298546CBE6573AF60CEB2F504B0304140006080800CC70623B449FB9BD290100001202000031
310
0000006662782F36394639363044362D344446342D343946362D394244322D3234314243333846323333332F636F72652E786D6C8D515B6EC32010BC0AE22B55850D98B871848994463E412FE002495162B07854397EA176A4F62F3F2C9A9D991D587EB84F37F0AD7D30CEF6905418026DA553C65E7A98E219ED203808EE9D
310
8B7F6810D871D23D2C3014FCE25D9A57483A1BB58D19B54EE9151C43D0110279CB971E06F9A5A7B11A53CC8C70ADE6515EC78BAE4895DB992778883E0700CB907242D17643D7E2538BD869608875438BBAE38922CAC8F1BDD90DB4691A5E2F42C153326A951B95E398B3D1FE599322163C9AE9115F7A3D46ADA0A018778810
310
84E907617BDCEE297BC5BB3DC6BC2EF47FA234AB2745C9D8D8D035EE220B50105E2F0DC1954B9FB747187D9F9D8FA0CCDB042D5FA0C015C65B42DF78BD10F3F3B363CB56C7109DCFDFBBB97E662ED92EB62D13BC2E1BCAE5777DB9966D8A1F504B0304140006080800CC70623BAD7543B64E01000033030000300000006662
310
782F36394639363044362D344446342D343946362D394244322D3234314243333846323333332F636E782E786D6CD593CD6EC32010845F0571AD6CE3D48AD20813A9873E410FBD12D82434182C7EAAE6EDBB2424CD25871E7B41D6EC30B3FA84F9E67BB2E40B4234DE8DB46F1925E094D7C6ED479AD3AE5951B2113C789FEE
310
6C943839C1488B4C05DF079FE72A69D8C96C13AAD6B8631503449F83828872B949AC57D26200B826A308D316B4064D6E46FCDA41C05550DC9E483A00797BFD207EFB092A45DE9514C1BBD22178396BD39D891265658C238DEA00936C654E5E433CB65A26D9F6EDB5EBC14EBF49A45CB856E66048291F6939A9A81BB5C89177
310
38143CA680F4AA299D66A042CEB3354A2684DC9D8D178FE0D9B8B41CAAD720F880EE7EF93C0C18769E099ECC04D5A102C8049A8A05632F4DDF376CF1DE0F6BB65C2F8627B65A33C6BB62177CEBBDAD973006829F89F22E814B54F4BC2BE347F8AA8F681390B50FA73F804400B5F542E796F19FF974E7F78DB802FE05E20750
310
4B0304140006080800CC70623B8D05915C650500003B100000340000006662782F36394639363044362D344446342D343946362D394244322D3234314243333846323333332F6F626A656374732E786D6CAD575B6FA33814FE2B887D06429276DA1565D4266D158D3A339A6846FB502932E050B66023DB74D2FDF5FB190C01
310
9276B2973C046C8ECFF53B17071F77456EBD502133CEAE6CDF9DD81665314F32965ED995DA3A17B6F5310C04E7AA47665B8C14F4CAD6DB7618A48257A5D94AE89654B91AEDDEDDFC61C998326A5B714EA4BCB265FC440BE2924AF184CA6737218AB8E976E7FA6E4338649B0A523E8D98964450A6A029F619B8588D52FE7039
310
B1BD30F0F4F730D0FF866AF6369557DB33949F31A9088B0F848DD8CCFCF9F2767A76E99CCDE733677E3EF59D9BBB9BA5E37F984D16E78BC5E5F5ED25044B25C0C96822E8D60EEFE11B91C581D77CEA34368A1F5329E68CD1B8B61F16D63A1B8E092D294B10C78C4A48EB593D192E7DED9BDEE7995E1B91FDEDD3ACEA9FE831
310
6A756F9F7D4D79F4274C90A7A04248AA51D5F8C718DAE06FB2F75AC4796EBE65D22A88A22223B995679120E2D50E41AA49C260C046A35368846B0BECD0DFF3EBEB8AD4F835768F69B9ADF25C43D30E6B646F807FAA64AD59F61715C7A54127C4AACA98BA3006A9D792DAE165E0D59B61A01FB3A9F9D838D2DAE62445C86166
310
F37564E842E7DE6A69879FEEA2DD5AE7E371E1A5E025154AC307D06A03D73EB5978C58FFA4C8E9033066E0F3BD53BEC1F39F91BE7B55103791EDE6BBB991A2046172CB4581D8B893FA674DDA17A77B3B7C413D1B511FD2743BFF8A38F03A658705E3ADF8015C3A3417FF3D7E439FF591DA0B5F18BC20C1B8981957AE6392A3
310
F43C640C01D1A0B4728E2DD4F26DB4B3C3152A252A3B4E913CEC1C72F012782FF88EFF8637AA552DBEF76408E8A8DE9E50F9E1CB3A2DA0DB1B6039A893B56063DC5B3E3FFB5F72E67AB9FEB4AEC496C4F4C1149625DD662C53E89D7BF0F6151A046260D1337DFDC94502430F83B0EE07A130A224BCAD7DAE1D9FB6CD422FF6
310
920702629C4BB9AE79C12F243C6432A6794E18E5552BA56B431AAB5D91317302B2B071E86C3A42B1A02F999E24061403B5D0EB639195DA655DD3EBEAB4FB862DDF579F014AD0E73C22F99E28DA57FB98E75C6CA2D74D53086D600F4786E0FE3144B771A8A7B900F03594DB8A633CBC49B2EDB69228BB479CF863B5E807AAAB
310
23872F6DFEB4129B949CA33823F58830E86D65621E10047D9DB34D862E8EAC3C2ABC2F7B2C40D67CDFE01F5545B92105AF983AC54D93D69E56FB8E797F88913F898A9FEC705D3F9D1B54EC8426FB500D40A03BD0119B06E1B95DDC7EB8F6975367793EBD70E66733DFB9BC982F9CE564727731999F5D4ECFCE3B8D6A4DC2A0
310
6D50FD148437D110834A64C6CDDF57FBACB5C307A2A477DFE4939736CFEF2B175371E0E10CF0DD1D5C15654E0BCA14D1E87DD02FF93782A162C0A3D95F1524A52770F972BF1EE9809D13CE7DD599467F8ECE9ADD85CE85A34CD45355448C64F9E8A031DC2D596ACC6E5DD93D9B82DE2EF5CAF81363A8E47996A0DE24564A79
310
4115AACE09C55E14540231FDA13C319787134EBF34E3A022514E5B4D9E0826E25C02D5805B15ABE1BEF51B26383D445DD9E875EE33FE4C22DA16427D65A3BCA92CA6D28DD01DF5DC53330704308475351050232CCD31583787BA75774AFB06E5070DD0C8EF484E19968C5D83BA5B90B244D31E54D55A372320FE4786B7EA58
310
44E135AA5467CB7EA333A61683CC6A8C3257034C10CF46F40EF9F5BE59BE5BD30C3C72D235E95D10345C1D45445A5F0BB47E46A5EBE5570F9380B5FA629579952296A773720405982B9DE04011506178964401AA8BDF1FBF0A8EAB6861DD6580C0E38217056766716DAEB2D6FA0917D3E4116581EADB879C4E7CFFB11EFACD
310
3D641311495D92C8676CB409A72D18610D803CE8A626049E8EC1887CB5B44CC39883690DDA8399B4B9855B481E7D71D4A9D22F96E5BB73BF5793020C02137BF837504B0304140006080000CC70623B000000000000000000000000350000006662782F36394639363044362D344446342D343946362D394244322D32343142
310
43333846323333332F76657274696365732E62696E504B0304140006080800CC70623BF270F1330600000004000000360000006662782F36394639363044362D344446342D343946362D394244322D3234314243333846323333332F747269616E676C65732E62696E636660600000504B0304140006080000CC70623B0000
310
00000000000000000000370000006662782F36394639363044362D344446342D343946362D394244322D3234314243333846323333332F617474726962757465732E62696E504B0304140006080800CC70623B08DA0BD19000000041010000360000006662782F36394639363044362D344446342D343946362D394244322D
310
3234314243333846323333332F6469726563746F72792E786D6C858F410AC3201045AF22B36F53E9A60B35CBEEBAE80D244E44489C6234F4F835464A48035D0DF398FF9F8AF63D0E6CC63039F212F8F9020C7D47C6792B21C5FE7403D62A1188E2E60C98D7234A5830286103A55745067B9D86B8A3CF9C7F90C11DE607FB14
310
4396D7B6A82D282E9A152AD114D5EF2CB866EEE831B8EEA07A7BB5A8D7D61A2BAAEB7FD5F70921FF497D00504B0304140006080800CC70623BCA768048FE000000A00100003B0000006662782F36394639363044362D344446342D343946362D394244322D3234314243333846323333332F7265736F75726365732F636F72
310
652E786D6C8D50596E833010BD0A9ADFCA60D600328E9AA639412F609909B1126CE4A5EAF16B0295DABFFECC8CDEA2797AECF8353F924FB44E193D409E5248504B332A3D0D10FC95B4901C39B3C6F85F3248B49871801506CE266BC2B243D2688FDA47549B11775038871E12F988C7004EDE7016A9083E2ADC3D5D84BC8B09
310
D33C8D74D471E6BC8D0192EDC93A815B742658898E651BCB59086ADC356A8C3FD555A1055ED7E7E254D615792D0F075295F585746FF53B694EE78A565DD736979A65AB9933AFE69F8CD2A2F038022F28ED489E135A7CE4554F9BBEA85E68DB53CAB255FEC71496F19FA6A0B42F8B3DEE6673C0F318E4497096AD7DC5F52C33
310
EEB55BFE0D504B010214000A0000080000CC70623B3DEE336E79000000790000001B00000000000000000000000000000000006175746F6465736B2D64657369676E2D7061636B6167652E786D6C504B01021400140006080800CC70623BD486FD9CA0000000F40000001300000000000000000000000000B20000005B436F
310
6E74656E745F54797065735D2E786D6C504B01021400140006080800CC70623BD9DDAED0EC0000007C010000080000000000000000000000000083010000636F72652E786D6C504B01021400140006080800CC70623B55019EA25F0000007C000000070000000000000000000000000095020000636E782E786D6C504B0102
310
1400140006080800CC70623BA24EB22D72010000D40300000C00000000000000000000000000190300006662782F636F72652E786D6C504B01021400140006080800CC70623B408A7D3B7C0000009D0000000B00000000000000000000000000B50400006662782F636E782E786D6C504B01021400140006080800CC70623B
310
449FB9BD290100001202000031000000000000000000000000005A0500006662782F36394639363044362D344446342D343946362D394244322D3234314243333846323333332F636F72652E786D6C504B01021400140006080800CC70623BAD7543B64E010000330300003000000000000000000000000000D20600006662
310
782F36394639363044362D344446342D343946362D394244322D3234314243333846323333332F636E782E786D6C504B01021400140006080800CC70623B8D05915C650500003B10000034000000000000000000000000006E0800006662782F36394639363044362D344446342D343946362D394244322D32343142433338
310
46323333332F6F626A656374732E786D6C504B01021400140006080000CC70623B0000000000000000000000003500000000000000000000000000250E00006662782F36394639363044362D344446342D343946362D394244322D3234314243333846323333332F76657274696365732E62696E504B010214001400060808
310
00CC70623BF270F13306000000040000003600000000000000000000000000780E00006662782F36394639363044362D344446342D343946362D394244322D3234314243333846323333332F747269616E676C65732E62696E504B01021400140006080000CC70623B00000000000000000000000037000000000000000000
310
00000000D20E00006662782F36394639363044362D344446342D343946362D394244322D3234314243333846323333332F617474726962757465732E62696E504B01021400140006080800CC70623B08DA0BD190000000410100003600000000000000000000000000270F00006662782F36394639363044362D344446342D
310
343946362D394244322D3234314243333846323333332F6469726563746F72792E786D6C504B01021400140006080800CC70623BCA768048FE000000A00100003B000000000000000000000000000B1000006662782F36394639363044362D344446342D343946362D394244322D3234314243333846323333332F7265736F
310
75726365732F636F72652E786D6C504B0506000000000E000E0080040000621100000000
  0
XRECORD
  5
11
102
{ACAD_REACTORS
330
C
102
}
330
C
100
AcDbXrecord
280
     1
270
     1
271
     1
  0
XRECORD
  5
12
102
{ACAD_REACTORS
330
C
102
}
330
C
100
AcDbXrecord
280
     1
270
     1
271
     1
  0
CELLSTYLEMAP
  5
1F7
102
{ACAD_REACTORS
330
43
102
}
330
43
100
AcDbCellStyleMap
 90
        3
300
CELLSTYLE
  1
TABLEFORMAT_BEGIN
 90
        5
170
     1
 91
        0
 92
    32768
 62
   257
 93
        1
300
CONTENTFORMAT
  1
CONTENTFORMAT_BEGIN
 90
        0
 91
        0
 92
      512
 93
        0
300

 40
0.0
140
1.0
 94
        5
 62
     0
340
22
144
6.0
309
CONTENTFORMAT_END
171
     1
301
MARGIN
  1
CELLMARGIN_BEGIN
 40
1.5
 40
1.5
 40
1.5
 40
1.5
 40
0.18
 40
0.18
309
CELLMARGIN_END
 94
        6
 95
        1
302
GRIDFORMAT
  1
GRIDFORMAT_BEGIN
 90
        0
 91
        1
 62
     0
 92
       -2
340
25
 93
        0
 40
1.125
309
GRIDFORMAT_END
 95
        2
302
GRIDFORMAT
  1
GRIDFORMAT_BEGIN
 90
        0
 91
        1
 62
     0
 92
       -2
340
25
 93
        0
 40
1.125
309
GRIDFORMAT_END
 95
        4
302
GRIDFORMAT
  1
GRIDFORMAT_BEGIN
 90
        0
 91
        1
 62
     0
 92
       -2
340
25
 93
        0
 40
1.125
309
GRIDFORMAT_END
 95
        8
302
GRIDFORMAT
  1
GRIDFORMAT_BEGIN
 90
        0
 91
        1
 62
     0
 92
       -2
340
25
 93
        0
 40
1.125
309
GRIDFORMAT_END
 95
       16
302
GRIDFORMAT
  1
GRIDFORMAT_BEGIN
 90
        0
 91
        1
 62
     0
 92
       -2
340
25
 93
        0
 40
1.125
309
GRIDFORMAT_END
 95
       32
302
GRIDFORMAT
  1
GRIDFORMAT_BEGIN
 90
        0
 91
        1
 62
     0
 92
       -2
340
25
 93
        0
 40
1.125
309
GRIDFORMAT_END
309
TABLEFORMAT_END
  1
CELLSTYLE_BEGIN
 90
        1
 91
        1
300
_TITLE
309
CELLSTYLE_END
300
CELLSTYLE
  1
TABLEFORMAT_BEGIN
 90
        5
170
     1
 91
        0
 92
        0
 62
   257
 93
        1
300
CONTENTFORMAT
  1
CONTENTFORMAT_BEGIN
 90
        0
 91
        0
 92
      512
 93
        0
300

 40
0.0
140
1.0
 94
        5
 62
     0
340
22
144
4.5
309
CONTENTFORMAT_END
171
     1
301
MARGIN
  1
CELLMARGIN_BEGIN
 40
1.5
 40
1.5
 40
1.5
 40
1.5
 40
0.18
 40
0.18
309
CELLMARGIN_END
 94
        6
 95
        1
302
GRIDFORMAT
  1
GRIDFORMAT_BEGIN
 90
        0
 91
        1
 62
     0
 92
       -2
340
25
 93
        0
 40
1.125
309
GRIDFORMAT_END
 95
        2
302
GRIDFORMAT
  1
GRIDFORMAT_BEGIN
 90
        0
 91
        1
 62
     0
 92
       -2
340
25
 93
        0
 40
1.125
309
GRIDFORMAT_END
 95
        4
302
GRIDFORMAT
  1
GRIDFORMAT_BEGIN
 90
        0
 91
        1
 62
     0
 92
       -2
340
25
 93
        0
 40
1.125
309
GRIDFORMAT_END
 95
        8
302
GRIDFORMAT
  1
GRIDFORMAT_BEGIN
 90
        0
 91
        1
 62
     0
 92
       -2
340
25
 93
        0
 40
1.125
309
GRIDFORMAT_END
 95
       16
302
GRIDFORMAT
  1
GRIDFORMAT_BEGIN
 90
        0
 91
        1
 62
     0
 92
       -2
340
25
 93
        0
 40
1.125
309
GRIDFORMAT_END
 95
       32
302
GRIDFORMAT
  1
GRIDFORMAT_BEGIN
 90
        0
 91
        1
 62
     0
 92
       -2
340
25
 93
        0
 40
1.125
309
GRIDFORMAT_END
309
TABLEFORMAT_END
  1
CELLSTYLE_BEGIN
 90
        2
 91
        1
300
_HEADER
309
CELLSTYLE_END
300
CELLSTYLE
  1
TABLEFORMAT_BEGIN
 90
        5
170
     1
 91
        0
 92
        0
 62
   257
 93
        1
300
CONTENTFORMAT
  1
CONTENTFORMAT_BEGIN
 90
        0
 91
        0
 92
      512
 93
        0
300

 40
0.0
140
1.0
 94
        2
 62
     0
340
22
144
4.5
309
CONTENTFORMAT_END
171
     1
301
MARGIN
  1
CELLMARGIN_BEGIN
 40
1.5
 40
1.5
 40
1.5
 40
1.5
 40
0.18
 40
0.18
309
CELLMARGIN_END
 94
        6
 95
        1
302
GRIDFORMAT
  1
GRIDFORMAT_BEGIN
 90
        0
 91
        1
 62
     0
 92
       -2
340
25
 93
        0
 40
1.125
309
GRIDFORMAT_END
 95
        2
302
GRIDFORMAT
  1
GRIDFORMAT_BEGIN
 90
        0
 91
        1
 62
     0
 92
       -2
340
25
 93
        0
 40
1.125
309
GRIDFORMAT_END
 95
        4
302
GRIDFORMAT
  1
GRIDFORMAT_BEGIN
 90
        0
 91
        1
 62
     0
 92
       -2
340
25
 93
        0
 40
1.125
309
GRIDFORMAT_END
 95
        8
302
GRIDFORMAT
  1
GRIDFORMAT_BEGIN
 90
        0
 91
        1
 62
     0
 92
       -2
340
25
 93
        0
 40
1.125
309
GRIDFORMAT_END
 95
       16
302
GRIDFORMAT
  1
GRIDFORMAT_BEGIN
 90
        0
 91
        1
 62
     0
 92
       -2
340
25
 93
        0
 40
1.125
309
GRIDFORMAT_END
 95
       32
302
GRIDFORMAT
  1
GRIDFORMAT_BEGIN
 90
        0
 91
        1
 62
     0
 92
       -2
340
25
 93
        0
 40
1.125
309
GRIDFORMAT_END
309
TABLEFORMAT_END
  1
CELLSTYLE_BEGIN
 90
        3
 91
        2
300
_DATA
309
CELLSTYLE_END
  0
XRECORD
  5
203
102
{ACAD_REACTORS
330
43
102
}
330
43
100
AcDbXrecord
280
     1
102
ACAD_ROUNDTRIP_PRE2007_TABLESTYLE
 90
      512
 91
        0
  1

 92
      512
 93
        0
  2

 94
      512
 95
        0
  3

  0
XRECORD
  5
202
102
{ACAD_REACTORS
330
201
102
}
330
201
100
AcDbXrecord
280
     1
102
RTVSPost2010Prop28
280
     1
102
RTVSPost2010PropOp28
 70
     1
102
RTVSPost2010Prop29
280
     1
102
RTVSPost2010PropOp29
 70
     1
102
RTVSPost2010Prop30
280
     0
102
RTVSPost2010PropOp30
 70
     1
102
RTVSPost2010Prop31
280
     0
102
RTVSPost2010PropOp31
 70
     1
102
RTVSPost2010Prop32
280
     0
102
RTVSPost2010PropOp32
 70
     1
102
RTVSPost2010Prop33
280
     0
102
RTVSPost2010PropOp33
 70
     1
102
RTVSPost2010Prop34
280
     0
102
RTVSPost2010PropOp34
 70
     1
102
RTVSPost2010Prop35
280
     0
102
RTVSPost2010PropOp35
 70
     1
102
RTVSPost2010Prop36
280
     0
102
RTVSPost2010PropOp36
 70
     1
102
RTVSPost2010Prop37
 90
       50
102
RTVSPost2010PropOp37
 70
     1
102
RTVSPost2010Prop38
140
0.0
102
RTVSPost2010PropOp38
 70
     1
102
RTVSPost2010Prop39
140
1.0
102
RTVSPost2010PropOp39
 70
     1
102
RTVSPost2010Prop40
 90
        0
102
RTVSPost2010PropOp40
 70
     1
102
RTVSPost2010Prop41ColorIndex
 90
       18
102
RTVSPost2010Prop41ColorRGB
 90
        0
102
RTVSPost2010PropOp41
 70
     1
102
RTVSPost2010Prop42
 90
       50
102
RTVSPost2010PropOp42
 70
     1
102
RTVSPost2010Prop43
 90
        3
102
RTVSPost2010PropOp43
 70
     1
102
RTVSPost2010Prop44ColorIndex
 90
        5
102
RTVSPost2010Prop44ColorRGB
 90
      255
102
RTVSPost2010PropOp44
 70
     1
102
RTVSPost2010Prop45
280
     0
102
RTVSPost2010PropOp45
 70
     1
102
RTVSPost2010Prop46
 90
       50
102
RTVSPost2010PropOp46
 70
     1
102
RTVSPost2010Prop47
 90
       50
102
RTVSPost2010PropOp47
 70
     1
102
RTVSPost2010Prop48
 90
       50
102
RTVSPost2010PropOp48
 70
     1
102
RTVSPost2010Prop49
280
     0
102
RTVSPost2010PropOp49
 70
     1
102
RTVSPost2010Prop50
 90
       50
102
RTVSPost2010PropOp50
 70
     1
102
RTVSPost2010Prop51ColorIndex
 90
      256
102
RTVSPost2010Prop51ColorRGB
 90
-16777216
102
RTVSPost2010PropOp51
 70
     0
102
RTVSPost2010Prop52
140
1.0
102
RTVSPost2010PropOp52
 70
     0
102
RTVSPost2010Prop53
 90
        2
102
RTVSPost2010PropOp53
 70
     1
102
RTVSPost2010Prop54
  1
strokes_ogs.tif
102
RTVSPost2010PropOp54
 70
     1
102
RTVSPost2010Prop55
280
     0
102
RTVSPost2010PropOp55
 70
     1
102
RTVSPost2010Prop56
140
1.0
102
RTVSPost2010PropOp56
 70
     1
102
RTVSPost2010Prop57
140
1.0
102
RTVSPost2010PropOp57
 70
     1
102
RTVSPropertyOp0
 70
     1
102
RTVSPropertyOp1
 70
     1
102
RTVSPropertyOp2
 70
     1
102
RTVSPropertyOp3
 70
     1
102
RTVSPropertyOp4
 70
     1
102
RTVSPropertyOp5
 70
     1
102
RTVSPropertyOp6
 70
     1
102
RTVSPropertyOp7
 70
     1
102
RTVSPropertyOp8
 70
     1
102
RTVSPropertyOp9
 70
     1
102
RTVSPropertyOp10
 70
     1
102
RTVSPropertyOp11
 70
     1
102
RTVSPropertyOp12
 70
     1
102
RTVSPropertyOp13
 70
     1
102
RTVSPropertyOp14
 70
     1
102
RTVSPropertyOp15
 70
     1
102
RTVSPropertyOp16
 70
     1
102
RTVSPropertyOp17
 70
     1
102
RTVSPropertyOp18
 70
     1
102
RTVSPropertyOp19
 70
     1
102
RTVSPropertyOp20
 70
     1
102
RTVSPropertyOp21
 70
     1
102
RTVSPropertyOp22
 70
     1
102
RTVSPropertyOp23
 70
     1
102
RTVSPropertyOp24
 70
     1
102
RTVSPropertyOp25
 70
     1
102
RTVSPropertyOp26
 70
     1
102
RTVSPropertyOp27
 70
     1
102
RTVSPropertyOp28
 70
     1
102
RTVSPropertyOp29
 70
     1
102
RTVSPropertyOp30
 70
     1
102
RTVSPropertyOp31
 70
     1
102
RTVSPropertyOp32
 70
     1
102
RTVSPropertyOp33
 70
     1
102
RTVSPropertyOp34
 70
     1
102
RTVSPropertyOp35
 70
     1
102
RTVSPropertyOp36
 70
     1
102
RTVSPropertyOp37
 70
     1
102
RTVSPropertyOp38
 70
     1
102
RTVSPropertyOp39
 70
     1
102
RTVSPropertyOp40
 70
     1
102
RTVSPropertyOp41
 70
     1
102
RTVSPropertyOp42
 70
     1
102
RTVSPropertyOp43
 70
     1
102
RTVSPropertyOp44
 70
     1
102
RTVSPropertyOp45
 70
     1
102
RTVSPropertyOp46
 70
     1
102
RTVSPropertyOp47
 70
     1
102
RTVSPropertyOp48
 70
     1
102
RTVSPropertyOp49
 70
     1
102
RTVSPropertyOp50
 70
     1
102
RTVSPropertyOp51
 70
     0
102
RTVSPropertyOp52
 70
     0
102
RTVSPropertyOp53
 70
     1
102
RTVSPropertyOp54
 70
     1
102
RTVSPropertyOp55
 70
     1
102
RTVSPropertyOp56
 70
     1
102
RTVSPropertyOp57
 70
     1
102
RTVSPropertyOp58
 70
     1
102
RTVSPropertyOp59
 70
     1
102
RTVSPropertyOp60
 70
     1
102
RTVSPropertyOp61
 70
     1
102
RTVSPropertyOp62
 70
     1
  0
XRECORD
  5
205
102
{ACAD_REACTORS
330
204
102
}
330
204
100
AcDbXrecord
280
     1
102
RTVSPost2010Prop28
280
     0
102
RTVSPost2010PropOp28
 70
     1
102
RTVSPost2010Prop29
280
     1
102
RTVSPost2010PropOp29
 70
     1
102
RTVSPost2010Prop30
280
     1
102
RTVSPost2010PropOp30
 70
     1
102
RTVSPost2010Prop31
280
     0
102
RTVSPost2010PropOp31
 70
     1
102
RTVSPost2010Prop32
280
     0
102
RTVSPost2010PropOp32
 70
     1
102
RTVSPost2010Prop33
280
     0
102
RTVSPost2010PropOp33
 70
     1
102
RTVSPost2010Prop34
280
     0
102
RTVSPost2010PropOp34
 70
     1
102
RTVSPost2010Prop35
280
     0
102
RTVSPost2010PropOp35
 70
     1
102
RTVSPost2010Prop36
280
     0
102
RTVSPost2010PropOp36
 70
     1
102
RTVSPost2010Prop37
 90
       50
102
RTVSPost2010PropOp37
 70
     1
102
RTVSPost2010Prop38
140
0.0
102
RTVSPost2010PropOp38
 70
     1
102
RTVSPost2010Prop39
140
1.0
102
RTVSPost2010PropOp39
 70
     1
102
RTVSPost2010Prop40
 90
        0
102
RTVSPost2010PropOp40
 70
     1
102
RTVSPost2010Prop41ColorIndex
 90
       18
102
RTVSPost2010Prop41ColorRGB
 90
        0
102
RTVSPost2010PropOp41
 70
     1
102
RTVSPost2010Prop42
 90
       50
102
RTVSPost2010PropOp42
 70
     1
102
RTVSPost2010Prop43
 90
        3
102
RTVSPost2010PropOp43
 70
     1
102
RTVSPost2010Prop44ColorIndex
 90
        5
102
RTVSPost2010Prop44ColorRGB
 90
      255
102
RTVSPost2010PropOp44
 70
     1
102
RTVSPost2010Prop45
280
     0
102
RTVSPost2010PropOp45
 70
     1
102
RTVSPost2010Prop46
 90
       50
102
RTVSPost2010PropOp46
 70
     1
102
RTVSPost2010Prop47
 90
       50
102
RTVSPost2010PropOp47
 70
     1
102
RTVSPost2010Prop48
 90
       50
102
RTVSPost2010PropOp48
 70
     1
102
RTVSPost2010Prop49
280
     0
102
RTVSPost2010PropOp49
 70
     1
102
RTVSPost2010Prop50
 90
       50
102
RTVSPost2010PropOp50
 70
     1
102
RTVSPost2010Prop51ColorIndex
 90
      256
102
RTVSPost2010Prop51ColorRGB
 90
-16777216
102
RTVSPost2010PropOp51
 70
     0
102
RTVSPost2010Prop52
140
1.0
102
RTVSPost2010PropOp52
 70
     0
102
RTVSPost2010Prop53
 90
        2
102
RTVSPost2010PropOp53
 70
     1
102
RTVSPost2010Prop54
  1
strokes_ogs.tif
102
RTVSPost2010PropOp54
 70
     1
102
RTVSPost2010Prop55
280
     0
102
RTVSPost2010PropOp55
 70
     1
102
RTVSPost2010Prop56
140
1.0
102
RTVSPost2010PropOp56
 70
     1
102
RTVSPost2010Prop57
140
1.0
102
RTVSPost2010PropOp57
 70
     1
102
RTVSPropertyOp0
 70
     1
102
RTVSPropertyOp1
 70
     1
102
RTVSPropertyOp2
 70
     1
102
RTVSPropertyOp3
 70
     1
102
RTVSPropertyOp4
 70
     1
102
RTVSPropertyOp5
 70
     1
102
RTVSPropertyOp6
 70
     1
102
RTVSPropertyOp7
 70
     1
102
RTVSPropertyOp8
 70
     1
102
RTVSPropertyOp9
 70
     1
102
RTVSPropertyOp10
 70
     1
102
RTVSPropertyOp11
 70
     1
102
RTVSPropertyOp12
 70
     1
102
RTVSPropertyOp13
 70
     1
102
RTVSPropertyOp14
 70
     1
102
RTVSPropertyOp15
 70
     1
102
RTVSPropertyOp16
 70
     1
102
RTVSPropertyOp17
 70
     1
102
RTVSPropertyOp18
 70
     1
102
RTVSPropertyOp19
 70
     1
102
RTVSPropertyOp20
 70
     1
102
RTVSPropertyOp21
 70
     1
102
RTVSPropertyOp22
 70
     1
102
RTVSPropertyOp23
 70
     1
102
RTVSPropertyOp24
 70
     1
102
RTVSPropertyOp25
 70
     1
102
RTVSPropertyOp26
 70
     1
102
RTVSPropertyOp27
 70
     1
102
RTVSPropertyOp28
 70
     1
102
RTVSPropertyOp29
 70
     1
102
RTVSPropertyOp30
 70
     1
102
RTVSPropertyOp31
 70
     1
102
RTVSPropertyOp32
 70
     1
102
RTVSPropertyOp33
 70
     1
102
RTVSPropertyOp34
 70
     1
102
RTVSPropertyOp35
 70
     1
102
RTVSPropertyOp36
 70
     1
102
RTVSPropertyOp37
 70
     1
102
RTVSPropertyOp38
 70
     1
102
RTVSPropertyOp39
 70
     1
102
RTVSPropertyOp40
 70
     1
102
RTVSPropertyOp41
 70
     1
102
RTVSPropertyOp42
 70
     1
102
RTVSPropertyOp43
 70
     1
102
RTVSPropertyOp44
 70
     1
102
RTVSPropertyOp45
 70
     1
102
RTVSPropertyOp46
 70
     1
102
RTVSPropertyOp47
 70
     1
102
RTVSPropertyOp48
 70
     1
102
RTVSPropertyOp49
 70
     1
102
RTVSPropertyOp50
 70
     1
102
RTVSPropertyOp51
 70
     0
102
RTVSPropertyOp52
 70
     0
102
RTVSPropertyOp53
 70
     1
102
RTVSPropertyOp54
 70
     1
102
RTVSPropertyOp55
 70
     1
102
RTVSPropertyOp56
 70
     1
102
RTVSPropertyOp57
 70
     1
102
RTVSPropertyOp58
 70
     1
102
RTVSPropertyOp59
 70
     1
102
RTVSPropertyOp60
 70
     1
102
RTVSPropertyOp61
 70
     1
102
RTVSPropertyOp62
 70
     1
  0
XRECORD
  5
207
102
{ACAD_REACTORS
330
206
102
}
330
206
100
AcDbXrecord
280
     1
102
RTVSPost2010Prop28
280
     0
102
RTVSPost2010PropOp28
 70
     1
102
RTVSPost2010Prop29
280
     1
102
RTVSPost2010PropOp29
 70
     1
102
RTVSPost2010Prop30
280
     1
102
RTVSPost2010PropOp30
 70
     1
102
RTVSPost2010Prop31
280
     0
102
RTVSPost2010PropOp31
 70
     1
102
RTVSPost2010Prop32
280
     0
102
RTVSPost2010PropOp32
 70
     1
102
RTVSPost2010Prop33
280
     0
102
RTVSPost2010PropOp33
 70
     1
102
RTVSPost2010Prop34
280
     0
102
RTVSPost2010PropOp34
 70
     1
102
RTVSPost2010Prop35
280
     0
102
RTVSPost2010PropOp35
 70
     1
102
RTVSPost2010Prop36
280
     0
102
RTVSPost2010PropOp36
 70
     1
102
RTVSPost2010Prop37
 90
       50
102
RTVSPost2010PropOp37
 70
     1
102
RTVSPost2010Prop38
140
0.0
102
RTVSPost2010PropOp38
 70
     1
102
RTVSPost2010Prop39
140
1.0
102
RTVSPost2010PropOp39
 70
     1
102
RTVSPost2010Prop40
 90
        0
102
RTVSPost2010PropOp40
 70
     1
102
RTVSPost2010Prop41ColorIndex
 90
       18
102
RTVSPost2010Prop41ColorRGB
 90
        0
102
RTVSPost2010PropOp41
 70
     1
102
RTVSPost2010Prop42
 90
       50
102
RTVSPost2010PropOp42
 70
     1
102
RTVSPost2010Prop43
 90
        3
102
RTVSPost2010PropOp43
 70
     1
102
RTVSPost2010Prop44ColorIndex
 90
        5
102
RTVSPost2010Prop44ColorRGB
 90
      255
102
RTVSPost2010PropOp44
 70
     1
102
RTVSPost2010Prop45
280
     0
102
RTVSPost2010PropOp45
 70
     1
102
RTVSPost2010Prop46
 90
       50
102
RTVSPost2010PropOp46
 70
     1
102
RTVSPost2010Prop47
 90
       50
102
RTVSPost2010PropOp47
 70
     1
102
RTVSPost2010Prop48
 90
       50
102
RTVSPost2010PropOp48
 70
     1
102
RTVSPost2010Prop49
280
     0
102
RTVSPost2010PropOp49
 70
     1
102
RTVSPost2010Prop50
 90
       50
102
RTVSPost2010PropOp50
 70
     1
102
RTVSPost2010Prop51ColorIndex
 90
      256
102
RTVSPost2010Prop51ColorRGB
 90
-16777216
102
RTVSPost2010PropOp51
 70
     0
102
RTVSPost2010Prop52
140
1.0
102
RTVSPost2010PropOp52
 70
     0
102
RTVSPost2010Prop53
 90
        2
102
RTVSPost2010PropOp53
 70
     1
102
RTVSPost2010Prop54
  1
strokes_ogs.tif
102
RTVSPost2010PropOp54
 70
     1
102
RTVSPost2010Prop55
280
     0
102
RTVSPost2010PropOp55
 70
     1
102
RTVSPost2010Prop56
140
1.0
102
RTVSPost2010PropOp56
 70
     1
102
RTVSPost2010Prop57
140
1.0
102
RTVSPost2010PropOp57
 70
     1
102
RTVSPropertyOp0
 70
     1
102
RTVSPropertyOp1
 70
     1
102
RTVSPropertyOp2
 70
     1
102
RTVSPropertyOp3
 70
     1
102
RTVSPropertyOp4
 70
     1
102
RTVSPropertyOp5
 70
     1
102
RTVSPropertyOp6
 70
     1
102
RTVSPropertyOp7
 70
     1
102
RTVSPropertyOp8
 70
     1
102
RTVSPropertyOp9
 70
     1
102
RTVSPropertyOp10
 70
     1
102
RTVSPropertyOp11
 70
     1
102
RTVSPropertyOp12
 70
     1
102
RTVSPropertyOp13
 70
     1
102
RTVSPropertyOp14
 70
     1
102
RTVSPropertyOp15
 70
     1
102
RTVSPropertyOp16
 70
     1
102
RTVSPropertyOp17
 70
     1
102
RTVSPropertyOp18
 70
     1
102
RTVSPropertyOp19
 70
     1
102
RTVSPropertyOp20
 70
     1
102
RTVSPropertyOp21
 70
     1
102
RTVSPropertyOp22
 70
     1
102
RTVSPropertyOp23
 70
     1
102
RTVSPropertyOp24
 70
     1
102
RTVSPropertyOp25
 70
     1
102
RTVSPropertyOp26
 70
     1
102
RTVSPropertyOp27
 70
     1
102
RTVSPropertyOp28
 70
     1
102
RTVSPropertyOp29
 70
     1
102
RTVSPropertyOp30
 70
     1
102
RTVSPropertyOp31
 70
     1
102
RTVSPropertyOp32
 70
     1
102
RTVSPropertyOp33
 70
     1
102
RTVSPropertyOp34
 70
     1
102
RTVSPropertyOp35
 70
     1
102
RTVSPropertyOp36
 70
     1
102
RTVSPropertyOp37
 70
     1
102
RTVSPropertyOp38
 70
     1
102
RTVSPropertyOp39
 70
     1
102
RTVSPropertyOp40
 70
     1
102
RTVSPropertyOp41
 70
     1
102
RTVSPropertyOp42
 70
     1
102
RTVSPropertyOp43
 70
     1
102
RTVSPropertyOp44
 70
     1
102
RTVSPropertyOp45
 70
     1
102
RTVSPropertyOp46
 70
     1
102
RTVSPropertyOp47
 70
     1
102
RTVSPropertyOp48
 70
     1
102
RTVSPropertyOp49
 70
     1
102
RTVSPropertyOp50
 70
     1
102
RTVSPropertyOp51
 70
     0
102
RTVSPropertyOp52
 70
     0
102
RTVSPropertyOp53
 70
     1
102
RTVSPropertyOp54
 70
     1
102
RTVSPropertyOp55
 70
     1
102
RTVSPropertyOp56
 70
     1
102
RTVSPropertyOp57
 70
     1
102
RTVSPropertyOp58
 70
     1
102
RTVSPropertyOp59
 70
     1
102
RTVSPropertyOp60
 70
     1
102
RTVSPropertyOp61
 70
     1
102
RTVSPropertyOp62
 70
     1
  0
ENDSEC
  0
EOF
