  0
SECTION
  2
HEADER
  9
$ACADVER
  1
AC1018
  9
$ACADMAINTVER
 70
   104
  9
$DWGCODEPAGE
  3
ANSI_932
  9
$INSBASE
 10
0.0
 20
0.0
 30
0.0
  9
$EXTMIN
 10
4.253718650454781
 20
2.839018800730031
 30
0.0
  9
$EXTMAX
 10
54.11432750587414
 20
51.49738515915242
 30
0.0
  9
$LIMMIN
 10
-1.506316954532167
 20
-0.7615492153737478
  9
$LIMMAX
 10
59.7631674893355
 20
57.05500927760738
  9
$ORTHOMODE
 70
     0
  9
$REGENMODE
 70
     1
  9
$FILLMODE
 70
     1
  9
$QTEXTMODE
 70
     0
  9
$MIRRTEXT
 70
     0
  9
$LTSCALE
 40
1.0
  9
$ATTMODE
 70
     1
  9
$TEXTSIZE
 40
2.5
  9
$TRACEWID
 40
1.0
  9
$TEXTSTYLE
  7
Standard
  9
$CLAYER
  8
0
  9
$CELTYPE
  6
ByLayer
  9
$CECOLOR
 62
   256
  9
$CELTSCALE
 40
1.0
  9
$DISPSILH
 70
     0
  9
$DIMSCALE
 40
1.0
  9
$DIMASZ
 40
2.5
  9
$DIMEXO
 40
0.625
  9
$DIMDLI
 40
3.75
  9
$DIMRND
 40
0.0
  9
$DIMDLE
 40
0.0
  9
$DIMEXE
 40
1.25
  9
$DIMTP
 40
0.0
  9
$DIMTM
 40
0.0
  9
$DIMTXT
 40
2.5
  9
$DIMCEN
 40
2.5
  9
$DIMTSZ
 40
0.0
  9
$DIMTOL
 70
     0
  9
$DIMLIM
 70
     0
  9
$DIMTIH
 70
     0
  9
$DIMTOH
 70
     0
  9
$DIMSE1
 70
     0
  9
$DIMSE2
 70
     0
  9
$DIMTAD
 70
     1
  9
$DIMZIN
 70
     8
  9
$DIMBLK
  1

  9
$DIMASO
 70
     1
  9
$DIMSHO
 70
     1
  9
$DIMPOST
  1

  9
$DIMAPOST
  1

  9
$DIMALT
 70
     0
  9
$DIMALTD
 70
     3
  9
$DIMALTF
 40
0.03937007874016
  9
$DIMLFAC
 40
1.0
  9
$DIMTOFL
 70
     1
  9
$DIMTVP
 40
0.0
  9
$DIMTIX
 70
     0
  9
$DIMSOXD
 70
     0
  9
$DIMSAH
 70
     0
  9
$DIMBLK1
  1

  9
$DIMBLK2
  1

  9
$DIMSTYLE
  2
ISO-25
  9
$DIMCLRD
 70
     0
  9
$DIMCLRE
 70
     0
  9
$DIMCLRT
 70
     0
  9
$DIMTFAC
 40
1.0
  9
$DIMGAP
 40
0.625
  9
$DIMJUST
 70
     0
  9
$DIMSD1
 70
     0
  9
$DIMSD2
 70
     0
  9
$DIMTOLJ
 70
     0
  9
$DIMTZIN
 70
     8
  9
$DIMALTZ
 70
     0
  9
$DIMALTTZ
 70
     0
  9
$DIMUPT
 70
     0
  9
$DIMDEC
 70
     2
  9
$DIMTDEC
 70
     2
  9
$DIMALTU
 70
     2
  9
$DIMALTTD
 70
     3
  9
$DIMTXSTY
  7
Standard
  9
$DIMAUNIT
 70
     0
  9
$DIMADEC
 70
     0
  9
$DIMALTRND
 40
0.0
  9
$DIMAZIN
 70
     0
  9
$DIMDSEP
 70
    44
  9
$DIMATFIT
 70
     3
  9
$DIMFRAC
 70
     0
  9
$DIMLDRBLK
  1

  9
$DIMLUNIT
 70
     2
  9
$DIMLWD
 70
    -2
  9
$DIMLWE
 70
    -2
  9
$DIMTMOVE
 70
     0
  9
$LUNITS
 70
     2
  9
$LUPREC
 70
     4
  9
$SKETCHINC
 40
1.0
  9
$FILLETRAD
 40
0.0
  9
$AUNITS
 70
     0
  9
$AUPREC
 70
     0
  9
$MENU
  1
.
  9
$ELEVATION
 40
0.0
  9
$PELEVATION
 40
0.0
  9
$THICKNESS
 40
0.0
  9
$LIMCHECK
 70
     0
  9
$CHAMFERA
 40
0.0
  9
$CHAMFERB
 40
0.0
  9
$CHAMFERC
 40
0.0
  9
$CHAMFERD
 40
0.0
  9
$SKPOLY
 70
     0
  9
$TDCREATE
 40
2458772.737511575
  9
$TDUCREATE
 40
2458772.404178241
  9
$TDUPDATE
 40
2458772.793449074
  9
$TDUUPDATE
 40
2458772.460115741
  9
$TDINDWG
 40
0.0265740741
  9
$TDUSRTIMER
 40
0.0265740741
  9
$USRTIMER
 70
     1
  9
$ANGBASE
 50
0.0
  9
$ANGDIR
 70
     0
  9
$PDMODE
 70
     0
  9
$PDSIZE
 40
0.0
  9
$PLINEWID
 40
0.0
  9
$SPLFRAME
 70
     0
  9
$SPLINETYPE
 70
     6
  9
$SPLINESEGS
 70
     8
  9
$HANDSEED
  5
3A0
  9
$SURFTAB1
 70
     6
  9
$SURFTAB2
 70
     6
  9
$SURFTYPE
 70
     6
  9
$SURFU
 70
     6
  9
$SURFV
 70
     6
  9
$UCSBASE
  2

  9
$UCSNAME
  2

  9
$UCSORG
 10
0.0
 20
0.0
 30
0.0
  9
$UCSXDIR
 10
1.0
 20
0.0
 30
0.0
  9
$UCSYDIR
 10
0.0
 20
1.0
 30
0.0
  9
$UCSORTHOREF
  2

  9
$UCSORTHOVIEW
 70
     0
  9
$UCSORGTOP
 10
0.0
 20
0.0
 30
0.0
  9
$UCSORGBOTTOM
 10
0.0
 20
0.0
 30
0.0
  9
$UCSORGLEFT
 10
0.0
 20
0.0
 30
0.0
  9
$UCSORGRIGHT
 10
0.0
 20
0.0
 30
0.0
  9
$UCSORGFRONT
 10
0.0
 20
0.0
 30
0.0
  9
$UCSORGBACK
 10
0.0
 20
0.0
 30
0.0
  9
$PUCSBASE
  2

  9
$PUCSNAME
  2

  9
$PUCSORG
 10
0.0
 20
0.0
 30
0.0
  9
$PUCSXDIR
 10
1.0
 20
0.0
 30
0.0
  9
$PUCSYDIR
 10
0.0
 20
1.0
 30
0.0
  9
$PUCSORTHOREF
  2

  9
$PUCSORTHOVIEW
 70
     0
  9
$PUCSORGTOP
 10
0.0
 20
0.0
 30
0.0
  9
$PUCSORGBOTTOM
 10
0.0
 20
0.0
 30
0.0
  9
$PUCSORGLEFT
 10
0.0
 20
0.0
 30
0.0
  9
$PUCSORGRIGHT
 10
0.0
 20
0.0
 30
0.0
  9
$PUCSORGFRONT
 10
0.0
 20
0.0
 30
0.0
  9
$PUCSORGBACK
 10
0.0
 20
0.0
 30
0.0
  9
$USERI1
 70
     0
  9
$USERI2
 70
     0
  9
$USERI3
 70
     0
  9
$USERI4
 70
     0
  9
$USERI5
 70
     0
  9
$USERR1
 40
0.0
  9
$USERR2
 40
0.0
  9
$USERR3
 40
0.0
  9
$USERR4
 40
0.0
  9
$USERR5
 40
0.0
  9
$WORLDVIEW
 70
     1
  9
$SHADEDGE
 70
     3
  9
$SHADEDIF
 70
    70
  9
$TILEMODE
 70
     1
  9
$MAXACTVP
 70
    64
  9
$PINSBASE
 10
0.0
 20
0.0
 30
0.0
  9
$PLIMCHECK
 70
     0
  9
$PEXTMIN
 10
0.0
 20
0.0
 30
0.0
  9
$PEXTMAX
 10
0.0
 20
0.0
 30
0.0
  9
$PLIMMIN
 10
0.0
 20
0.0
  9
$PLIMMAX
 10
12.0
 20
9.0
  9
$UNITMODE
 70
     0
  9
$VISRETAIN
 70
     1
  9
$PLINEGEN
 70
     0
  9
$PSLTSCALE
 70
     1
  9
$TREEDEPTH
 70
  3020
  9
$CMLSTYLE
  2
Standard
  9
$CMLJUST
 70
     0
  9
$CMLSCALE
 40
20.0
  9
$PROXYGRAPHICS
 70
     1
  9
$MEASUREMENT
 70
     1
  9
$CELWEIGHT
370
    -1
  9
$ENDCAPS
280
     0
  9
$JOINSTYLE
280
     0
  9
$LWDISPLAY
290
     0
  9
$INSUNITS
 70
     4
  9
$HYPERLINKBASE
  1

  9
$STYLESHEET
  1

  9
$XEDIT
290
     1
  9
$CEPSNTYPE
380
     0
  9
$PSTYLEMODE
290
     1
  9
$FINGERPRINTGUID
  2
{51464039-85B9-C448-8B7C-E42B484CE364}
  9
$VERSIONGUID
  2
{A5A5706C-C336-2646-B1A2-712B6A46F626}
  9
$EXTNAMES
290
     1
  9
$PSVPSCALE
 40
0.0
  9
$OLESTARTUP
290
     0
  9
$SORTENTS
280
   127
  9
$INDEXCTL
280
     0
  9
$HIDETEXT
280
     1
  9
$XCLIPFRAME
290
     0
  9
$HALOGAP
280
     0
  9
$OBSCOLOR
 70
   257
  9
$OBSLTYPE
280
     0
  9
$INTERSECTIONDISPLAY
280
     0
  9
$INTERSECTIONCOLOR
 70
   257
  9
$DIMASSOC
280
     2
  9
$PROJECTNAME
  1

  0
ENDSEC
  0
SECTION
  2
CLASSES
  0
CLASS
  1
ACDBDICTIONARYWDFLT
  2
AcDbDictionaryWithDefault
  3
ObjectDBX Classes
 90
        0
 91
        1
280
     0
281
     0
  0
CLASS
  1
DICTIONARYVAR
  2
AcDbDictionaryVar
  3
ObjectDBX Classes
 90
        0
 91
       12
280
     0
281
     0
  0
CLASS
  1
TABLESTYLE
  2
AcDbTableStyle
  3
ObjectDBX Classes
 90
     4095
 91
        1
280
     0
281
     0
  0
CLASS
  1
MATERIAL
  2
AcDbMaterial
  3
ObjectDBX Classes
 90
     1153
 91
        3
280
     0
281
     0
  0
CLASS
  1
VISUALSTYLE
  2
AcDbVisualStyle
  3
ObjectDBX Classes
 90
     4095
 91
        3
280
     0
281
     0
  0
CLASS
  1
SCALE
  2
AcDbScale
  3
ObjectDBX Classes
 90
     1153
 91
       17
280
     0
281
     0
  0
CLASS
  1
MLEADERSTYLE
  2
AcDbMLeaderStyle
  3
ACDB_MLEADERSTYLE_CLASS
 90
     4095
 91
        0
280
     0
281
     0
  0
CLASS
  1
CELLSTYLEMAP
  2
AcDbCellStyleMap
  3
ObjectDBX Classes
 90
     1152
 91
        1
280
     0
281
     0
  0
CLASS
  1
EXACXREFPANELOBJECT
  2
ExAcXREFPanelObject
  3
EXAC_ESW
 90
     1025
 91
        0
280
     1
281
     0
  0
CLASS
  1
NPOCOLLECTION
  2
AcDbImpNonPersistentObjectsCollection
  3
ObjectDBX Classes
 90
     1153
 91
        0
280
     0
281
     0
  0
CLASS
  1
LAYER_INDEX
  2
AcDbLayerIndex
  3
ObjectDBX Classes
 90
        0
 91
        0
280
     0
281
     0
  0
CLASS
  1
SPATIAL_INDEX
  2
AcDbSpatialIndex
  3
ObjectDBX Classes
 90
        0
 91
        0
280
     0
281
     0
  0
CLASS
  1
IDBUFFER
  2
AcDbIdBuffer
  3
ObjectDBX Classes
 90
        0
 91
        0
280
     0
281
     0
  0
CLASS
  1
ACDBSECTIONVIEWSTYLE
  2
AcDbSectionViewStyle
  3
ObjectDBX Classes
 90
     1025
 91
        0
280
     0
281
     0
  0
CLASS
  1
ACDBDETAILVIEWSTYLE
  2
AcDbDetailViewStyle
  3
ObjectDBX Classes
 90
     1025
 91
        0
280
     0
281
     0
  0
CLASS
  1
DIMASSOC
  2
AcDbDimAssoc
  3
"AcDbDimAssoc|Product Desc:     AcDim ARX App For Dimension|Company:          Autodesk, Inc.|WEB Address:      www.autodesk.com"
 90
        0
 91
        0
280
     0
281
     0
  0
ENDSEC
  0
SECTION
  2
TABLES
  0
TABLE
  2
VPORT
  5
28
330
0
100
AcDbSymbolTable
 70
     1
  0
VPORT
  5
29
330
28
100
AcDbSymbolTableRecord
100
AcDbViewportTableRecord
  2
*Active
 70
     0
 10
0.0
 20
0.0
 11
1.0
 21
1.0
 12
18.08466761040674
 22
9.607662209370921
 13
0.0
 23
0.0
 14
10.0
 24
10.0
 15
10.0
 25
10.0
 16
0.0
 26
0.0
 36
1.0
 17
0.0
 27
0.0
 37
0.0
 40
6.978712729938321
 41
2.469483568075117
 42
50.0
 43
0.0
 44
0.0
 50
0.0
 51
0.0
 71
     0
 72
  1000
 73
     1
 74
     3
 75
     0
 76
     1
 77
     0
 78
     0
281
     0
 65
     1
110
0.0
120
0.0
130
0.0
111
1.0
121
0.0
131
0.0
112
0.0
122
1.0
132
0.0
 79
     0
146
0.0
1001
ACAD_NAV_VCDISPLAY
1070
     3
  0
ENDTAB
  0
TABLE
  2
LTYPE
  5
23
330
0
100
AcDbSymbolTable
 70
     1
  0
LTYPE
  5
24
330
23
100
AcDbSymbolTableRecord
100
AcDbLinetypeTableRecord
  2
ByBlock
 70
     0
  3

 72
    65
 73
     0
 40
0.0
  0
LTYPE
  5
25
330
23
100
AcDbSymbolTableRecord
100
AcDbLinetypeTableRecord
  2
ByLayer
 70
     0
  3

 72
    65
 73
     0
 40
0.0
  0
LTYPE
  5
13
330
23
100
AcDbSymbolTableRecord
100
AcDbLinetypeTableRecord
  2
Continuous
 70
     0
  3
Solid line
 72
    65
 73
     0
 40
0.0
  0
ENDTAB
  0
TABLE
  2
LAYER
  5
1D
102
{ACAD_XDICTIONARY
360
1E
102
}
330
0
100
AcDbSymbolTable
 70
     1
  0
LAYER
  5
5
102
{ACAD_XDICTIONARY
360
6
102
}
330
1D
100
AcDbSymbolTableRecord
100
AcDbLayerTableRecord
  2
0
 70
     0
 62
     7
  6
Continuous
370
    -3
390
7
  0
ENDTAB
  0
TABLE
  2
STYLE
  5
20
330
0
100
AcDbSymbolTable
 70
     1
  0
STYLE
  5
21
330
20
100
AcDbSymbolTableRecord
100
AcDbTextStyleTableRecord
  2
Standard
 70
     0
 40
0.0
 41
1.0
 50
0.0
 71
     0
 42
2.5
  3
arial.ttf
  4

1001
ACAD
1000
Arial
1071
       34
  0
ENDTAB
  0
TABLE
  2
VIEW
  5
26
330
0
100
AcDbSymbolTable
 70
     0
  0
ENDTAB
  0
TABLE
  2
UCS
  5
27
330
0
100
AcDbSymbolTable
 70
     0
  0
ENDTAB
  0
TABLE
  2
APPID
  5
2D
330
0
100
AcDbSymbolTable
 70
     3
  0
APPID
  5
12
330
2D
100
AcDbSymbolTableRecord
100
AcDbRegAppTableRecord
  2
ACAD
 70
     0
  0
APPID
  5
18
330
2D
100
AcDbSymbolTableRecord
100
AcDbRegAppTableRecord
  2
ACAD_PSEXT
 70
     0
  0
APPID
  5
2C
330
2D
100
AcDbSymbolTableRecord
100
AcDbRegAppTableRecord
  2
ACAD_NAV_VCDISPLAY
 70
     0
  0
ENDTAB
  0
TABLE
  2
DIMSTYLE
  5
2E
330
0
100
AcDbSymbolTable
 70
     2
100
AcDbDimStyleTable
 71
     2
340
2F
340
30
  0
DIMSTYLE
105
30
330
2E
100
AcDbSymbolTableRecord
100
AcDbDimStyleTableRecord
  2
Standard
 70
     0
340
21
  0
DIMSTYLE
105
2F
330
2E
100
AcDbSymbolTableRecord
100
AcDbDimStyleTableRecord
  2
ISO-25
 70
     0
 41
2.5
 42
0.625
 43
3.75
 44
1.25
 73
     0
 74
     0
 77
     1
 78
     8
140
2.5
141
2.5
143
0.03937007874016
147
0.625
171
     3
172
     1
271
     2
272
     2
274
     3
278
    44
283
     0
284
     8
340
21
  0
ENDTAB
  0
TABLE
  2
BLOCK_RECORD
  5
1
330
0
100
AcDbSymbolTable
 70
     0
  0
BLOCK_RECORD
  5
2
102
{ACAD_XDICTIONARY
360
3
102
}
330
1
100
AcDbSymbolTableRecord
100
AcDbBlockTableRecord
  2
*Model_Space
340
15
  0
BLOCK_RECORD
  5
19
330
1
100
AcDbSymbolTableRecord
100
AcDbBlockTableRecord
  2
*Paper_Space
340
1C
  0
ENDTAB
  0
ENDSEC
  0
SECTION
  2
BLOCKS
  0
BLOCK
  5
4
330
2
100
AcDbEntity
  8
0
100
AcDbBlockBegin
  2
*Model_Space
 70
     0
 10
0.0
 20
0.0
 30
0.0
  3
*Model_Space
  1

  0
ENDBLK
  5
14
330
2
100
AcDbEntity
  8
0
100
AcDbBlockEnd
  0
BLOCK
  5
1A
330
19
100
AcDbEntity
 67
     1
  8
0
100
AcDbBlockBegin
  2
*Paper_Space
 70
     0
 10
0.0
 20
0.0
 30
0.0
  3
*Paper_Space
  1

  0
ENDBLK
  5
1B
330
19
100
AcDbEntity
 67
     1
  8
0
100
AcDbBlockEnd
  0
ENDSEC
  0
SECTION
  2
ENTITIES
  0
LINE
  5
55
330
2
100
AcDbEntity
  8
0
100
AcDbLine
 10
42.13268189270587
 20
30.69568003605446
 30
0.0
 11
42.66497068993841
 21
31.00296381795158
 31
0.0
  0
LINE
  5
56
330
2
100
AcDbEntity
  8
0
100
AcDbLine
 10
36.94160654891548
 20
51.11519429983157
 30
0.0
 11
36.40939987797466
 21
51.4117036743583
 31
0.0
  0
LINE
  5
57
330
2
100
AcDbEntity
  8
0
100
AcDbLine
 10
42.58504025374922
 20
48.13645385738103
 30
0.0
 11
36.81946845297503
 21
51.34863440706977
 31
0.0
  0
LINE
  5
58
330
2
100
AcDbEntity
  8
0
100
AcDbLine
 10
34.7021997505756
 20
51.22809689088329
 30
0.0
 11
13.67683464699795
 21
39.09041197450001
 31
0.0
  0
LINE
  5
59
330
2
100
AcDbEntity
  8
0
100
AcDbLine
 10
43.59418977097653
 20
47.40883255646693
 30
0.0
 11
43.06198293474019
 21
47.70534202634432
 31
0.0
  0
SPLINE
  5
5A
330
2
100
AcDbEntity
  8
0
100
AcDbSpline
210
0.0
220
0.0
230
1.0
 70
     8
 71
     3
 72
    11
 73
     7
 74
     0
 42
0.000000001
 43
0.0000000001
 40
0.0
 40
0.0
 40
0.0
 40
0.0
 40
0.2370839389331556
 40
0.4875075722243142
 40
0.7445065262242196
 40
1.0
 40
1.0
 40
1.0
 40
1.0
 10
41.20575771833437
 20
37.54597564991712
 30
0.0
 10
41.19685175066762
 20
37.55117483471243
 30
0.0
 10
41.17853871480742
 20
37.56186574008762
 30
0.0
 10
41.1442673863551
 20
37.56969015324118
 30
0.0
 10
41.1084580717482
 20
37.57022489965026
 30
0.0
 10
41.08624567951921
 20
37.56317062045239
 30
0.0
 10
41.07517210858659
 20
37.55965384205805
 30
0.0
  0
LINE
  5
5B
330
2
100
AcDbEntity
  8
0
100
AcDbLine
 10
41.06356042284298
 20
37.55511911938512
 30
0.0
 11
40.63860213701417
 21
37.32176189158357
 31
0.0
  0
LINE
  5
5C
330
2
100
AcDbEntity
  8
0
100
AcDbLine
 10
42.93112896901006
 20
33.08112440394924
 30
0.0
 11
42.9622225748737
 21
33.09946372132973
 31
0.0
  0
LINE
  5
5D
330
2
100
AcDbEntity
  8
0
100
AcDbLine
 10
42.90490278610319
 20
33.0648244381503
 30
0.0
 11
42.92755639684366
 21
33.07889716573863
 31
0.0
  0
LINE
  5
5E
330
2
100
AcDbEntity
  8
0
100
AcDbLine
 10
41.62764577328135
 20
32.2871420250316
 30
0.0
 11
42.83170702852276
 21
33.01698214444056
 31
0.0
  0
LINE
  5
5F
330
2
100
AcDbEntity
  8
0
100
AcDbLine
 10
41.6504890839448
 20
37.88553020271131
 30
0.0
 11
41.60425286156082
 21
37.87071360414802
 31
0.0
  0
SPLINE
  5
60
330
2
100
AcDbEntity
  8
0
100
AcDbSpline
210
0.0
220
0.0
230
1.0
 70
     8
 71
     3
 72
     9
 73
     5
 74
     0
 42
0.000000001
 43
0.0000000001
 40
0.0
 40
0.0
 40
0.0
 40
0.0
 40
0.4998934594112824
 40
1.0
 40
1.0
 40
1.0
 40
1.0
 10
43.99644949972004
 20
33.71314625920255
 30
0.0
 10
44.00863828000612
 20
33.72002834394387
 30
0.0
 10
44.03302103608475
 20
33.73379544693706
 30
0.0
 10
44.04815204800875
 20
33.75768817495153
 30
0.0
 10
44.05571916603777
 20
33.76963708450409
 30
0.0
  0
LINE
  5
61
330
2
100
AcDbEntity
  8
0
100
AcDbLine
 10
41.60344878491316
 20
37.87032454408653
 30
0.0
 11
41.17279850924661
 21
37.63384167432568
 31
0.0
  0
SPLINE
  5
62
330
2
100
AcDbEntity
  8
0
100
AcDbSpline
210
0.0
220
0.0
230
1.0
 70
     8
 71
     3
 72
    13
 73
     9
 74
     0
 42
0.000000001
 43
0.0000000001
 40
0.0
 40
0.0
 40
0.0
 40
0.0
 40
0.1106204105345987
 40
0.3192201439344312
 40
0.5279643602713158
 40
0.7360642275073797
 40
0.9429685752043447
 40
1.0
 40
1.0
 40
1.0
 40
1.0
 10
44.05617193420368
 20
33.7729912251776
 30
0.0
 10
44.07627370169889
 20
33.79954109915328
 30
0.0
 10
44.13428188556028
 20
33.8761567485711
 30
0.0
 10
44.20408806246844
 20
34.02935897435676
 30
0.0
 10
44.26709383416475
 20
34.22659777440664
 30
0.0
 10
44.3024183572054
 20
34.44324446496773
 30
0.0
 10
44.31612219640046
 20
34.61598531649125
 30
0.0
 10
44.31040492382353
 20
34.71908584420366
 30
0.0
 10
44.3091695315994
 20
34.74136387774601
 30
0.0
  0
LINE
  5
63
330
2
100
AcDbEntity
  8
0
100
AcDbLine
 10
43.58965812348763
 20
33.46436667549895
 30
0.0
 11
44.00879652065871
 21
33.7184277197683
 31
0.0
  0
SPLINE
  5
64
330
2
100
AcDbEntity
  8
0
100
AcDbSpline
210
0.0
220
0.0
230
1.0
 70
     8
 71
     3
 72
    14
 73
    10
 74
     0
 42
0.000000001
 43
0.0000000001
 40
0.0
 40
0.0
 40
0.0
 40
0.0
 40
0.0113732906907225
 40
0.1924783158366777
 40
0.3754073564213509
 40
0.560002466439388
 40
0.746457130213687
 40
0.9353431803244498
 40
1.0
 40
1.0
 40
1.0
 40
1.0
 10
42.63770115730814
 20
37.62790020180508
 30
0.0
 10
42.63388514463733
 20
37.63041983163228
 30
0.0
 10
42.56930403860144
 20
37.67306132553838
 30
0.0
 10
42.44165282794205
 20
37.73665331125048
 30
0.0
 10
42.25622613595088
 20
37.81519814890601
 30
0.0
 10
42.07051984690164
 20
37.8682549691755
 30
0.0
 10
41.8872812849673
 20
37.8946075346735
 30
0.0
 10
41.74586594024748
 20
37.8996603165573
 30
0.0
 10
41.6696530571094
 20
37.88562197681454
 30
0.0
 10
41.65021775354051
 20
37.88204201259758
 30
0.0
  0
LINE
  5
65
330
2
100
AcDbEntity
  8
0
100
AcDbLine
 10
41.16583182832388
 20
37.62954895782045
 30
0.0
 11
41.11490532428092
 21
37.59779265615061
 31
0.0
  0
LINE
  5
66
330
2
100
AcDbEntity
  8
0
100
AcDbLine
 10
43.51882270914774
 20
33.42444725204532
 30
0.0
 11
43.58319378381125
 21
33.46094172500129
 31
0.0
  0
LINE
  5
67
330
2
100
AcDbEntity
  8
0
100
AcDbLine
 10
40.95517069833298
 20
37.51433561654499
 30
0.0
 11
39.71616697725064
 21
36.83396179255288
 31
0.0
  0
LINE
  5
68
330
2
100
AcDbEntity
  8
0
100
AcDbLine
 10
42.16753446587961
 20
32.60234764062255
 30
0.0
 11
43.3752139006459
 21
33.33438181313237
 31
0.0
  0
LINE
  5
69
330
2
100
AcDbEntity
  8
0
100
AcDbLine
 10
43.48926322719129
 20
33.40693740326076
 30
0.0
 11
43.5188888067396
 21
33.42450065444716
 31
0.0
  0
LINE
  5
6A
330
2
100
AcDbEntity
  8
0
100
AcDbLine
 10
43.46207598604428
 20
33.39000988628451
 30
0.0
 11
43.48954348077485
 21
33.4070908121511
 31
0.0
  0
SPLINE
  5
6B
330
2
100
AcDbEntity
  8
0
100
AcDbSpline
210
0.0
220
0.0
230
1.0
 70
     8
 71
     3
 72
    10
 73
     6
 74
     0
 42
0.000000001
 43
0.0000000001
 40
0.0
 40
0.0
 40
0.0
 40
0.0
 40
0.6608868496053208
 40
0.9268950452031255
 40
1.0
 40
1.0
 40
1.0
 40
1.0
 10
42.79205015551869
 20
37.34214049945981
 30
0.0
 10
42.76923252234837
 20
37.38609749760806
 30
0.0
 10
42.73723074906239
 20
37.44774726989497
 30
0.0
 10
42.71121853502285
 20
37.51626578245327
 30
0.0
 10
42.70527198980857
 20
37.53886872488529
 30
0.0
 10
42.70399005214676
 20
37.5437413966848
 30
0.0
  0
SPLINE
  5
6C
330
2
100
AcDbEntity
  8
0
100
AcDbSpline
210
0.0
220
0.0
230
1.0
 70
     8
 71
     3
 72
    15
 73
    11
 74
     0
 42
0.000000001
 43
0.0000000001
 40
0.0
 40
0.0
 40
0.0
 40
0.0
 40
0.102441795001018
 40
0.2350997588335847
 40
0.3670679201856595
 40
0.4931545015840032
 40
0.6295450709020699
 40
0.7333485149763601
 40
0.8356982186369627
 40
1.0
 40
1.0
 40
1.0
 40
1.0
 10
43.26837779886773
 20
36.99116564079611
 30
0.0
 10
43.2595667838618
 20
36.98840084616425
 30
0.0
 10
43.23934586228436
 20
36.98205575477679
 30
0.0
 10
43.18916888236983
 20
36.9872991236646
 30
0.0
 10
43.12529428590777
 20
37.00839824289271
 30
0.0
 10
43.05328009364549
 20
37.04835221406592
 30
0.0
 10
42.98423971341033
 20
37.10166513311912
 30
0.0
 10
42.92146061347312
 20
37.16364072070282
 30
0.0
 10
42.85638633166938
 20
37.23973662149421
 30
0.0
 10
42.81657844935503
 20
37.30309881935072
 30
0.0
 10
42.79205015551869
 20
37.34214049945981
 30
0.0
  0
SPLINE
  5
6D
330
2
100
AcDbEntity
  8
0
100
AcDbSpline
210
0.0
220
0.0
230
1.0
 70
     8
 71
     3
 72
    16
 73
    12
 74
     0
 42
0.000000001
 43
0.0000000001
 40
0.0
 40
0.0
 40
0.0
 40
0.0
 40
0.1756950122472209
 40
0.2464125839636626
 40
0.3611001341162554
 40
0.4759735616686254
 40
0.5949318768008062
 40
0.7151593884437752
 40
0.8380744100887856
 40
0.968965441210614
 40
1.0
 40
1.0
 40
1.0
 40
1.0
 10
44.13816857951857
 20
35.01910851677693
 30
0.0
 10
44.11500926908777
 20
35.06315213498203
 30
0.0
 10
44.08252829280349
 20
35.12492339206093
 30
0.0
 10
44.04944836500217
 20
35.21742098401436
 30
0.0
 10
44.02874749946726
 20
35.29327171615009
 30
0.0
 10
44.015968125149
 20
35.37690499644511
 30
0.0
 10
44.01444089225803
 20
35.45381180346573
 30
0.0
 10
44.02389158148916
 20
35.52063051967301
 30
0.0
 10
44.04304207471282
 20
35.57216384164787
 30
0.0
 10
44.06040983871577
 20
35.60069504001216
 30
0.0
 10
44.07181237697161
 20
35.60847471277264
 30
0.0
 10
44.0739977804279
 20
35.60996576006036
 30
0.0
  0
SPLINE
  5
6E
330
2
100
AcDbEntity
  8
0
100
AcDbSpline
210
0.0
220
0.0
230
1.0
 70
     8
 71
     3
 72
    10
 73
     6
 74
     0
 42
0.000000001
 43
0.0000000001
 40
0.0
 40
0.0
 40
0.0
 40
0.0
 40
0.0198026550462782
 40
0.3960344199327741
 40
1.0
 40
1.0
 40
1.0
 40
1.0
 10
44.27066308629227
 20
34.8392433640628
 30
0.0
 10
44.26967807403229
 20
34.84020981835756
 30
0.0
 10
44.24997875804948
 20
34.85953799254025
 30
0.0
 10
44.20272128676764
 20
34.91759692593926
 30
0.0
 10
44.16277944034781
 20
34.98040700074253
 30
0.0
 10
44.13816857951857
 20
35.01910851677693
 30
0.0
  0
SPLINE
  5
6F
330
2
100
AcDbEntity
  8
0
100
AcDbSpline
210
0.0
220
0.0
230
1.0
 70
     8
 71
     3
 72
    10
 73
     6
 74
     0
 42
0.000000001
 43
0.0000000001
 40
0.0
 40
0.0
 40
0.0
 40
0.0
 40
0.3245843008503891
 40
0.792936574231041
 40
1.0
 40
1.0
 40
1.0
 40
1.0
 10
42.70325603893786
 20
37.54389225155684
 30
0.0
 10
42.69897099178151
 20
37.55492406107828
 30
0.0
 10
42.68850292353669
 20
37.5818739943516
 30
0.0
 10
42.66427601892581
 20
37.6106151799676
 30
0.0
 10
42.64396016205141
 20
37.62432276779082
 30
0.0
 10
42.63773189266537
 20
37.62852512805173
 30
0.0
  0
SPLINE
  5
70
330
2
100
AcDbEntity
  8
0
100
AcDbSpline
210
0.0
220
0.0
230
1.0
 70
     8
 71
     3
 72
    10
 73
     6
 74
     0
 42
0.000000001
 43
0.0000000001
 40
0.0
 40
0.0
 40
0.0
 40
0.0
 40
0.3759005726008543
 40
0.8058842440859514
 40
1.0
 40
1.0
 40
1.0
 40
1.0
 10
44.31151929923365
 20
34.7402092528237
 30
0.0
 10
44.31000909030927
 20
34.75381380417664
 30
0.0
 10
44.30677138952872
 20
34.78298027633004
 30
0.0
 10
44.28992708886494
 20
34.81640057744392
 30
0.0
 10
44.27521770536013
 20
34.83363398573233
 30
0.0
 10
44.27064259605425
 20
34.83899415100412
 30
0.0
  0
SPLINE
  5
71
330
2
100
AcDbEntity
  8
0
100
AcDbSpline
210
0.0
220
0.0
230
1.0
 70
     8
 71
     3
 72
    11
 73
     7
 74
     0
 42
0.000000001
 43
0.0000000001
 40
0.0
 40
0.0
 40
0.0
 40
0.0
 40
0.2461956497703451
 40
0.5343741298800784
 40
0.8235886784657557
 40
1.0
 40
1.0
 40
1.0
 40
1.0
 10
43.41460803593875
 20
36.94305869533638
 30
0.0
 10
43.40543916649983
 20
36.95251315948298
 30
0.0
 10
43.38553789434921
 20
36.97303432245462
 30
0.0
 10
43.34497506318907
 20
36.99177108457734
 30
0.0
 10
43.30428326531257
 20
36.99690485883839
 30
0.0
 10
43.28002286077643
 20
36.99156639198048
 30
0.0
 10
43.27083133964375
 20
36.98954381107636
 30
0.0
  0
SPLINE
  5
72
330
2
100
AcDbEntity
  8
0
100
AcDbSpline
210
0.0
220
0.0
230
1.0
 70
     8
 71
     3
 72
    11
 73
     7
 74
     0
 42
0.000000001
 43
0.0000000001
 40
0.0
 40
0.0
 40
0.0
 40
0.0
 40
0.266167614368955
 40
0.5291827310203573
 40
0.7770162984107274
 40
1.0
 40
1.0
 40
1.0
 40
1.0
 10
44.08760858636982
 20
35.63151905909816
 30
0.0
 10
44.09334526761067
 20
35.64011390044804
 30
0.0
 10
44.10475068465678
 20
35.6572017855727
 30
0.0
 10
44.11156034215674
 20
35.69013528709561
 30
0.0
 10
44.11108465839023
 20
35.72410465054188
 30
0.0
 10
44.10523104856972
 20
35.74507699713653
 30
0.0
 10
44.10245872123285
 20
35.75500970730417
 30
0.0
  0
SPLINE
  5
73
330
2
100
AcDbEntity
  8
0
100
AcDbSpline
210
0.0
220
0.0
230
1.0
 70
     8
 71
     3
 72
    11
 73
     7
 74
     0
 42
0.000000001
 43
0.0000000001
 40
0.0
 40
0.0
 40
0.0
 40
0.0
 40
0.155531413691459
 40
0.4069754099337335
 40
0.6886994520017366
 40
1.0
 40
1.0
 40
1.0
 40
1.0
 10
44.10031253402929
 20
35.7565770408408
 30
0.0
 10
44.08861862889554
 20
35.78920362367971
 30
0.0
 10
44.05801946103247
 20
35.8745768393565
 30
0.0
 10
43.99523051888528
 20
36.01780265113876
 30
0.0
 10
43.91253319978797
 20
36.19180933025222
 30
0.0
 10
43.84620115312144
 20
36.31058311863841
 30
0.0
 10
43.81138100767885
 20
36.37293187454464
 30
0.0
  0
SPLINE
  5
74
330
2
100
AcDbEntity
  8
0
100
AcDbSpline
210
0.0
220
0.0
230
1.0
 70
     8
 71
     3
 72
    11
 73
     7
 74
     0
 42
0.000000001
 43
0.0000000001
 40
0.0
 40
0.0
 40
0.0
 40
0.0
 40
0.4549057773628443
 40
0.6386624677259871
 40
0.9423516346944778
 40
1.0
 40
1.0
 40
1.0
 40
1.0
 10
43.81138100767885
 20
36.37293187454464
 30
0.0
 10
43.75629016754305
 20
36.46408295531918
 30
0.0
 10
43.6789456851004
 20
36.59205401455881
 30
0.0
 10
43.55187327788005
 20
36.76973454217339
 30
0.0
 10
43.476324239249
 20
36.87083082755794
 30
0.0
 10
43.42264583723714
 20
36.93245893545503
 30
0.0
 10
43.41408189950089
 20
36.94229118192771
 30
0.0
  0
LINE
  5
75
330
2
100
AcDbEntity
  8
0
100
AcDbLine
 10
37.19533311963004
 20
36.89956203148918
 30
0.0
 11
36.87983765190413
 21
36.71743037475571
 31
0.0
  0
LINE
  5
76
330
2
100
AcDbEntity
  8
0
100
AcDbLine
 10
40.64337404907867
 20
30.19808754064036
 30
0.0
 11
41.19167034912318
 21
30.51461225720824
 31
0.0
  0
SPLINE
  5
77
330
2
100
AcDbEntity
  8
0
100
AcDbSpline
210
0.0
220
0.0
230
1.0
 70
     8
 71
     3
 72
    10
 73
     6
 74
     0
 42
0.000000001
 43
0.0000000001
 40
0.0
 40
0.0
 40
0.0
 40
0.0
 40
0.4187833212183203
 40
0.9092102863515187
 40
1.0
 40
1.0
 40
1.0
 40
1.0
 10
12.95725044898167
 20
10.59084553262362
 30
0.0
 10
13.04768992203104
 20
10.73043413490512
 30
0.0
 10
13.24404086301303
 20
11.03349155534528
 30
0.0
 10
13.52452987637994
 20
11.34278461893961
 30
0.0
 10
13.69964060535022
 20
11.51642508281578
 30
0.0
 10
13.72699400644883
 20
11.54354881922705
 30
0.0
  0
LINE
  5
78
330
2
100
AcDbEntity
  8
0
100
AcDbLine
 10
13.50329546667903
 20
11.66817870263718
 30
0.0
 11
13.3970079745117
 21
11.55201831653481
 31
0.0
  0
LINE
  5
79
330
2
100
AcDbEntity
  8
0
100
AcDbLine
 10
13.05500408744026
 20
11.15984907124084
 30
0.0
 11
12.87398473086762
 21
10.90149910962624
 31
0.0
  0
SPLINE
  5
7A
330
2
100
AcDbEntity
  8
0
100
AcDbSpline
210
0.0
220
0.0
230
1.0
 70
     8
 71
     3
 72
    15
 73
    11
 74
     0
 42
0.000000001
 43
0.0000000001
 40
0.0
 40
0.0
 40
0.0
 40
0.0
 40
0.1976723046661546
 40
0.2731811568584386
 40
0.3972387044527492
 40
0.5222104512779126
 40
0.6556867022940518
 40
0.7920712042761417
 40
0.9301055876202354
 40
1.0
 40
1.0
 40
1.0
 40
1.0
 10
10.7118462074743
 20
11.72524201122849
 30
0.0
 10
10.68458882361467
 20
11.68475390606924
 30
0.0
 10
10.64691939051816
 20
11.62879974787255
 30
0.0
 10
10.60822645815376
 20
11.54337662633838
 30
0.0
 10
10.58405974014072
 20
11.47346706705641
 30
0.0
 10
10.56885228150699
 20
11.39232960876896
 30
0.0
 10
10.56848675583344
 20
11.31029620324039
 30
0.0
 10
10.58956821588584
 20
11.23022366615285
 30
0.0
 10
10.62524683099243
 20
11.16571660101424
 30
0.0
 10
10.66149734628752
 20
11.14205540937796
 30
0.0
 10
10.67368280841255
 20
11.13410179679701
 30
0.0
  0
SPLINE
  5
7B
330
2
100
AcDbEntity
  8
0
100
AcDbSpline
210
0.0
220
0.0
230
1.0
 70
     8
 71
     3
 72
    15
 73
    11
 74
     0
 42
0.000000001
 43
0.0000000001
 40
0.0
 40
0.0
 40
0.0
 40
0.0
 40
0.0748260108131402
 40
0.224819838334026
 40
0.3813980456071241
 40
0.5369794529110511
 40
0.6606379382382489
 40
0.7635829551341505
 40
0.8827142488360218
 40
1.0
 40
1.0
 40
1.0
 40
1.0
 10
11.2669399787508
 20
11.93264428863006
 30
0.0
 10
11.25489392771548
 20
11.94255090199425
 30
0.0
 10
11.21870074813947
 20
11.97231599558622
 30
0.0
 10
11.13822914431556
 20
11.98750440442328
 30
0.0
 10
11.04470995028493
 20
11.97873138714633
 30
0.0
 10
10.95914757987278
 20
11.94521230557831
 30
0.0
 10
10.88701383877692
 20
11.90092817990709
 30
0.0
 10
10.82436682277921
 20
11.85080993245821
 30
0.0
 10
10.76573011648293
 20
11.79361875645443
 30
0.0
 10
10.72971379239217
 20
11.74791533475317
 30
0.0
 10
10.7118462074743
 20
11.72524201122849
 30
0.0
  0
SPLINE
  5
7C
330
2
100
AcDbEntity
  8
0
100
AcDbSpline
210
0.0
220
0.0
230
1.0
 70
     8
 71
     3
 72
    11
 73
     7
 74
     0
 42
0.000000001
 43
0.0000000001
 40
0.0
 40
0.0
 40
0.0
 40
0.0
 40
0.1783535358292502
 40
0.4978405374969304
 40
0.8215795548661775
 40
1.0
 40
1.0
 40
1.0
 40
1.0
 10
10.71776986922887
 20
11.09584352336989
 30
0.0
 10
10.71792007235665
 20
11.07903348316416
 30
0.0
 10
10.71833933629504
 20
11.03211139994071
 30
0.0
 10
10.74104560476005
 20
10.96196570532811
 30
0.0
 10
10.77821861727198
 20
10.89572361441711
 30
0.0
 10
10.81609840782764
 20
10.87090258339196
 30
0.0
 10
10.82955733790303
 20
10.86208351348513
 30
0.0
  0
SPLINE
  5
7D
330
2
100
AcDbEntity
  8
0
100
AcDbSpline
210
0.0
220
0.0
230
1.0
 70
     8
 71
     3
 72
    11
 73
     7
 74
     0
 42
0.000000001
 43
0.0000000001
 40
0.0
 40
0.0
 40
0.0
 40
0.0
 40
0.1740279648015141
 40
0.531971310492828
 40
0.9031020621628496
 40
1.0
 40
1.0
 40
1.0
 40
1.0
 10
11.57006330844147
 20
11.86395527740591
 30
0.0
 10
11.5580816065466
 20
11.87386746556026
 30
0.0
 10
11.52145575927973
 20
11.90416719197696
 30
0.0
 10
11.43994236269494
 20
11.91971434007215
 30
0.0
 10
11.36639474261062
 20
11.91922624179806
 30
0.0
 10
11.32452083043122
 20
11.90485511393056
 30
0.0
 10
11.3158514991909
 20
11.90187979919885
 30
0.0
  0
LINE
  5
7E
330
2
100
AcDbEntity
  8
0
100
AcDbLine
 10
10.67179770647495
 20
11.12996963098836
 30
0.0
 11
10.81231315003748
 21
11.0256621222475
 31
0.0
  0
LINE
  5
7F
330
2
100
AcDbEntity
  8
0
100
AcDbLine
 10
11.41055870188957
 20
11.83157627512785
 30
0.0
 11
11.27004259739625
 21
11.93588416545961
 31
0.0
  0
LINE
  5
80
330
2
100
AcDbEntity
  8
0
100
AcDbLine
 10
10.82535485613945
 20
10.85973061251477
 30
0.0
 11
12.2041647941609
 21
9.836214518426192
 31
0.0
  0
LINE
  5
81
330
2
100
AcDbEntity
  8
0
100
AcDbLine
 10
12.87398473086762
 20
10.90149936130185
 30
0.0
 11
12.80117762685361
 21
10.95554540448429
 31
0.0
  0
LINE
  5
82
330
2
100
AcDbEntity
  8
0
100
AcDbLine
 10
12.59901366644802
 20
11.10561547070282
 30
0.0
 11
11.57316130027215
 21
11.86712454378564
 31
0.0
  0
SPLINE
  5
83
330
2
100
AcDbEntity
  8
0
100
AcDbSpline
210
0.0
220
0.0
230
1.0
 70
     8
 71
     3
 72
    11
 73
     7
 74
     0
 42
0.000000001
 43
0.0000000001
 40
0.0
 40
0.0
 40
0.0
 40
0.0
 40
0.264537210404054
 40
0.5222562051308652
 40
0.7673807090837281
 40
1.0
 40
1.0
 40
1.0
 40
1.0
 10
12.63528931969179
 20
10.81106534843073
 30
0.0
 10
12.70296106535081
 20
10.87163399054812
 30
0.0
 10
12.83656037649646
 20
10.99121017090419
 30
0.0
 10
13.05204236865905
 20
11.1556059959068
 30
0.0
 10
13.25250142325588
 20
11.31921178758086
 30
0.0
 10
13.33326085606742
 20
11.44730929761591
 30
0.0
 10
13.37258361064253
 20
11.50968154037975
 30
0.0
  0
SPLINE
  5
84
330
2
100
AcDbEntity
  8
0
100
AcDbSpline
210
0.0
220
0.0
230
1.0
 70
     8
 71
     3
 72
    10
 73
     6
 74
     0
 42
0.000000001
 43
0.0000000001
 40
0.0
 40
0.0
 40
0.0
 40
0.0
 40
0.2097638522088029
 40
0.4596456573322567
 40
1.0
 40
1.0
 40
1.0
 40
1.0
 10
13.17366371760495
 20
11.65440588866828
 30
0.0
 10
13.14223028702018
 20
11.6044770899872
 30
0.0
 10
13.07335168991585
 20
11.49507046321191
 30
0.0
 10
12.82563503790065
 20
11.29870141892369
 30
0.0
 10
12.63868110782289
 20
11.14034517418589
 30
0.0
 10
12.51084417163793
 20
11.03206300464476
 30
0.0
  0
SPLINE
  5
85
330
2
100
AcDbEntity
  8
0
100
AcDbSpline
210
0.0
220
0.0
230
1.0
 70
     8
 71
     3
 72
    26
 73
    22
 74
     0
 42
0.000000001
 43
0.0000000001
 40
0.0
 40
0.0
 40
0.0
 40
0.0
 40
0.0177852164404281
 40
0.0569265652114717
 40
0.1246480014832672
 40
0.1819905986700162
 40
0.2307105363164546
 40
0.3094638188717719
 40
0.3404148416440173
 40
0.3669083377543353
 40
0.3990522929520641
 40
0.4394499589291247
 40
0.4892470129960714
 40
0.5509308661137037
 40
0.5879282206907042
 40
0.6304278338995231
 40
0.6799684640975726
 40
0.7377362733710252
 40
0.8289531217790774
 40
0.9370602443698992
 40
1.0
 40
1.0
 40
1.0
 40
1.0
 10
9.934660066726669
 20
9.58015838194902
 30
0.0
 10
9.933787577410054
 20
9.560753056052764
 30
0.0
 10
9.930994931048187
 20
9.498640876885177
 30
0.0
 10
9.977947738131412
 20
9.361061518713961
 30
0.0
 10
10.08795675872599
 20
9.19175054068267
 30
0.0
 10
10.24849419924821
 20
9.033413673817891
 30
0.0
 10
10.44523847143272
 20
8.886755756158652
 30
0.0
 10
10.64732881184222
 20
8.784438532531448
 30
0.0
 10
10.83731651575401
 20
8.721743867089674
 30
0.0
 10
10.96647613952099
 20
8.689507208409228
 30
0.0
 10
11.11267293459192
 20
8.664470529131365
 30
0.0
 10
11.2958295199603
 20
8.651556875323004
 30
0.0
 10
11.51971260951603
 20
8.666174207867959
 30
0.0
 10
11.72032194136928
 20
8.719944116505903
 30
0.0
 10
11.88326256782372
 20
8.798176792205822
 30
0.0
 10
12.01106397120495
 20
8.885847061868988
 30
0.0
 10
12.13139064056787
 20
9.003420371832859
 30
0.0
 10
12.25560652453745
 20
9.174054372346132
 30
0.0
 10
12.38158083018173
 20
9.406507442949918
 30
0.0
 10
12.48952798771875
 20
9.64905045763035
 30
0.0
 10
12.56004846755236
 20
9.807112597715326
 30
0.0
 10
12.58599773838275
 20
9.865274386897233
 30
0.0
  0
LINE
  5
86
330
2
100
AcDbEntity
  8
0
100
AcDbLine
 10
14.11685185328211
 20
9.66605066955487
 30
0.0
 11
12.99982057120436
 21
10.49558828281099
 31
0.0
  0
SPLINE
  5
87
330
2
100
AcDbEntity
  8
0
100
AcDbSpline
210
0.0
220
0.0
230
1.0
 70
     8
 71
     3
 72
    14
 73
    10
 74
     0
 42
0.000000001
 43
0.0000000001
 40
0.0
 40
0.0
 40
0.0
 40
0.0
 40
0.1290290850008209
 40
0.3261083137831151
 40
0.526396114443373
 40
0.6681990040063527
 40
0.7928344946141265
 40
0.9015392737159871
 40
1.0
 40
1.0
 40
1.0
 40
1.0
 10
52.41593264522602
 20
32.72671561467266
 30
0.0
 10
52.51566105941796
 20
32.74869055258496
 30
0.0
 10
52.76771481139331
 20
32.80423004546765
 30
0.0
 10
53.18094610623645
 20
32.88910289229545
 30
0.0
 10
53.55982171837679
 20
33.03986876022648
 30
0.0
 10
53.8224943483192
 20
33.21462327786858
 30
0.0
 10
53.9934828201488
 20
33.37605024876051
 30
0.0
 10
54.10018089053313
 20
33.5389251208241
 30
0.0
 10
54.10977002396781
 20
33.64937777540332
 30
0.0
 10
54.11432750587414
 20
33.70187323583054
 30
0.0
  0
SPLINE
  5
88
330
2
100
AcDbEntity
  8
0
100
AcDbSpline
210
0.0
220
0.0
230
1.0
 70
     8
 71
     3
 72
    24
 73
    20
 74
     0
 42
0.000000001
 43
0.0000000001
 40
0.0
 40
0.0
 40
0.0
 40
0.0
 40
0.1013117566295934
 40
0.2025498608537199
 40
0.2881539000533303
 40
0.387593840517991
 40
0.4577989720517271
 40
0.5095972928057813
 40
0.5498726414018043
 40
0.5821570418376206
 40
0.608917237207016
 40
0.6409791181636633
 40
0.6804816754544305
 40
0.7262686159668557
 40
0.7783443733006993
 40
0.8340756591662399
 40
0.8907100925591954
 40
0.9458201745081035
 40
1.0
 40
1.0
 40
1.0
 40
1.0
 10
51.59523779715861
 20
33.00900523216429
 30
0.0
 10
51.63206767178814
 20
33.08538660923813
 30
0.0
 10
51.70570064617967
 20
33.23809383506069
 30
0.0
 10
51.80727551121152
 20
33.45565289931657
 30
0.0
 10
51.92188575295945
 20
33.66942781016274
 30
0.0
 10
52.04815280520312
 20
33.85627114422986
 30
0.0
 10
52.21752717819127
 20
34.00225421697488
 30
0.0
 10
52.38575196573404
 20
34.08830623562829
 30
0.0
 10
52.53841658541538
 20
34.13529323351381
 30
0.0
 10
52.67078232564858
 20
34.15870775072939
 30
0.0
 10
52.79652584127589
 20
34.16934980173876
 30
0.0
 10
52.93397245139952
 20
34.16976695301651
 30
0.0
 10
53.09534696395027
 20
34.15559022407442
 30
0.0
 10
53.2746853246612
 20
34.12056019700421
 30
0.0
 10
53.45548903074986
 20
34.05945833359981
 30
0.0
 10
53.6176932800532
 20
33.97520136439271
 30
0.0
 10
53.74499158571187
 20
33.88001027453682
 30
0.0
 10
53.84229796205816
 20
33.78391691230338
 30
0.0
 10
53.85667209786653
 20
33.71997613883485
 30
0.0
 10
53.8637979907137
 20
33.68827787840568
 30
0.0
  0
SPLINE
  5
89
330
2
100
AcDbEntity
  8
0
100
AcDbSpline
210
0.0
220
0.0
230
1.0
 70
     8
 71
     3
 72
    15
 73
    11
 74
     0
 42
0.000000001
 43
0.0000000001
 40
0.0
 40
0.0
 40
0.0
 40
0.0
 40
0.0519313405983908
 40
0.1174115934441135
 40
0.20394382137504
 40
0.3206031505745147
 40
0.4660281505496175
 40
0.6323634178937382
 40
0.8236930243486565
 40
1.0
 40
1.0
 40
1.0
 40
1.0
 10
53.8637979907137
 20
33.68827787840568
 30
0.0
 10
53.86253267034893
 20
33.67187189044562
 30
0.0
 10
53.85967190691542
 20
33.6347795842155
 30
0.0
 10
53.82306985873687
 20
33.56445893598566
 30
0.0
 10
53.74201783593981
 20
33.47161439731821
 30
0.0
 10
53.59656537231217
 20
33.35624406656866
 30
0.0
 10
53.37620640399414
 20
33.22764388013287
 30
0.0
 10
53.05251397514627
 20
33.11559394646477
 30
0.0
 10
52.67359694474444
 20
33.03978777576332
 30
0.0
 10
52.41557459673802
 20
32.98311858499347
 30
0.0
 10
52.29183517024537
 20
32.95594181825278
 30
0.0
  0
LWPOLYLINE
  5
8A
330
2
100
AcDbEntity
  8
0
100
AcDbPolyline
 90
       20
 70
   128
 43
0.0
 10
54.11432750587414
 20
33.70187323583054
 10
54.04896034126394
 20
33.90270863002752
 10
53.9154644567227
 20
34.05810498373912
 10
53.7630679799354
 20
34.17427515533031
 10
53.60665409447446
 20
34.26108753580026
 10
53.3065765395583
 20
34.36674964256808
 10
53.17696124174062
 20
34.39341576058076
 10
53.06247699333969
 20
34.40902535986948
 10
52.9206885110818
 20
34.41867580387197
 10
52.74097061510882
 20
34.41526258821986
 10
52.52448001239955
 20
34.38564818759755
 10
52.28019935885954
 20
34.31055177703731
 10
52.15350226753851
 20
34.24834366688794
 10
52.02849396845931
 20
34.16487700771627
 10
51.90948071641805
 20
34.05622199453519
 10
51.79976672762922
 20
33.92038110102443
 10
51.66296662693609
 20
33.69731988610512
 10
51.52654658714514
 20
33.42818186516135
 10
51.42319250388532
 20
33.21694604477806
 10
51.42319250388532
 20
33.21694604477806
  0
LINE
  5
8B
330
2
100
AcDbEntity
  8
0
100
AcDbLine
 10
50.35275337949022
 20
33.89016440467106
 30
0.0
 11
50.33166363661085
 21
33.90191411266173
 31
0.0
  0
LINE
  5
8C
330
2
100
AcDbEntity
  8
0
100
AcDbLine
 10
51.3438840456437
 20
33.33294440602511
 30
0.0
 11
50.35275337949022
 21
33.89016440467106
 31
0.0
  0
LINE
  5
8D
330
2
100
AcDbEntity
  8
0
100
AcDbLine
 10
53.15813467869446
 20
32.6144362695871
 30
0.0
 11
52.80223312235932
 21
32.81272065304533
 31
0.0
  0
LINE
  5
8E
330
2
100
AcDbEntity
  8
0
100
AcDbLine
 10
52.47427694593217
 20
32.9954350421227
 30
0.0
 11
51.7655275396585
 21
33.3903012402553
 31
0.0
  0
LINE
  5
8F
330
2
100
AcDbEntity
  8
0
100
AcDbLine
 10
51.15491513760773
 20
32.29430599936693
 30
0.0
 11
52.54752227664383
 21
31.51844102863599
 31
0.0
  0
SPLINE
  5
90
330
2
100
AcDbEntity
  8
0
100
AcDbSpline
210
0.0
220
0.0
230
1.0
 70
     8
 71
     3
 72
    29
 73
    25
 74
     0
 42
0.000000001
 43
0.0000000001
 40
0.0
 40
0.0
 40
0.0
 40
0.0
 40
0.0289575836522035
 40
0.060543021357396
 40
0.086329702254403
 40
0.1144626489343397
 40
0.1406261025046699
 40
0.165852235153337
 40
0.19064286608355
 40
0.2155580614111375
 40
0.2412376382854148
 40
0.2936185750360949
 40
0.3479610120338147
 40
0.407359297678407
 40
0.4626695491342682
 40
0.5191295030979566
 40
0.5765819556991509
 40
0.6333621404426895
 40
0.6897286904580201
 40
0.7434464006516955
 40
0.8074442629743115
 40
0.8795664563668985
 40
0.955707896506157
 40
1.0
 40
1.0
 40
1.0
 40
1.0
 10
44.07701050641287
 20
27.31520047035776
 30
0.0
 10
44.17541927491581
 20
27.27274100410184
 30
0.0
 10
44.38116724908344
 20
27.1839689434483
 30
0.0
 10
44.69536391201406
 20
27.07376717862546
 30
0.0
 10
45.02287218474132
 20
26.98092954290799
 30
0.0
 10
45.34889557088935
 20
26.91843477157418
 30
0.0
 10
45.69090757844133
 20
26.89715814450971
 30
0.0
 10
46.01919917108289
 20
26.93289442863131
 30
0.0
 10
46.30735697317819
 20
27.02596451924238
 30
0.0
 10
46.54463429111771
 20
27.15900817376469
 30
0.0
 10
46.8069787641853
 20
27.37096977302464
 30
0.0
 10
47.05507822706578
 20
27.66997450366974
 30
0.0
 10
47.32531988471435
 20
28.04746638297638
 30
0.0
 10
47.59847411518816
 20
28.43220859641789
 30
0.0
 10
47.88404862733087
 20
28.81842873467172
 30
0.0
 10
48.17870103341626
 20
29.19717126961284
 30
0.0
 10
48.49127032618275
 20
29.57541761808865
 30
0.0
 10
48.82139028649431
 20
29.94871695599547
 30
0.0
 10
49.16355620979434
 20
30.30815335122144
 30
0.0
 10
49.54518990810278
 20
30.67653057067594
 30
0.0
 10
49.97912935625195
 20
31.07290139296928
 30
0.0
 10
50.46042259227292
 20
31.51747828304795
 30
0.0
 10
50.88600359342795
 20
31.92689954711409
 30
0.0
 10
51.08415792057118
 20
32.201579414918
 30
0.0
 10
51.157033563858
 20
32.30259902096324
 30
0.0
  0
SPLINE
  5
91
330
2
100
AcDbEntity
  8
0
100
AcDbSpline
210
0.0
220
0.0
230
1.0
 70
     8
 71
     3
 72
    28
 73
    24
 74
     0
 42
0.000000001
 43
0.0000000001
 40
0.0
 40
0.0
 40
0.0
 40
0.0
 40
0.0468724814334003
 40
0.1141140936220837
 40
0.1798320552415652
 40
0.2403769970750608
 40
0.2935422146875916
 40
0.3381945318567466
 40
0.3774242688083086
 40
0.4883668007480583
 40
0.5971171179275573
 40
0.6569066121370986
 40
0.7117030623290813
 40
0.7638321458342107
 40
0.7888898193325514
 40
0.8128888497276264
 40
0.835748252792098
 40
0.8588738908953908
 40
0.8832718726081958
 40
0.9103010822639372
 40
0.9353648131964975
 40
0.9665828046973487
 40
1.0
 40
1.0
 40
1.0
 40
1.0
 10
51.02830132920072
 20
32.54333747003175
 30
0.0
 10
50.95404557084771
 20
32.43809338700061
 30
0.0
 10
50.77326511499085
 20
32.18186984651548
 30
0.0
 10
50.39513060425528
 20
31.80108410895597
 30
0.0
 10
49.96575490466721
 20
31.39989032401955
 30
0.0
 10
49.55911999607114
 20
31.03006652323596
 30
0.0
 10
49.20737603828411
 20
30.70090886267653
 30
0.0
 10
48.91616998844492
 20
30.41124635133309
 30
0.0
 10
48.52074800233491
 20
29.99306718151313
 30
0.0
 10
48.03477302549216
 20
29.42624193622431
 30
0.0
 10
47.55825281877057
 20
28.80197926112531
 30
0.0
 10
47.19927894206978
 20
28.29976191710525
 30
0.0
 10
46.93346959360122
 20
27.92485400839693
 30
0.0
 10
46.70749986230727
 20
27.63354065473701
 30
0.0
 10
46.48505467463572
 20
27.4268783288732
 30
0.0
 10
46.28663212478224
 20
27.29536408843955
 30
0.0
 10
46.0407285902438
 20
27.19594412658827
 30
0.0
 10
45.74520531502258
 20
27.14938619926658
 30
0.0
 10
45.42444802212954
 20
27.16165314859982
 30
0.0
 10
45.11436018030272
 20
27.21723697493747
 30
0.0
 10
44.79833894431324
 20
27.30416534128736
 30
0.0
 10
44.47582948226261
 20
27.41614523410945
 30
0.0
 10
44.25915487337446
 20
27.50933250842555
 30
0.0
 10
44.14713140627522
 20
27.55751148801152
 30
0.0
  0
SPLINE
  5
92
330
2
100
AcDbEntity
  8
0
100
AcDbSpline
210
0.0
220
0.0
230
1.0
 70
     8
 71
     3
 72
    16
 73
    12
 74
     0
 42
0.000000001
 43
0.0000000001
 40
0.0
 40
0.0
 40
0.0
 40
0.0
 40
0.1733294349501919
 40
0.2402847081280564
 40
0.3502787946950326
 40
0.4616077703994065
 40
0.5793897953015052
 40
0.7010230051815145
 40
0.8259678855167024
 40
0.955885248621935
 40
1.0
 40
1.0
 40
1.0
 40
1.0
 10
53.21992927114353
 20
31.86191509908259
 30
0.0
 10
53.24469699594484
 20
31.91167387518019
 30
0.0
 10
53.27903222311862
 20
31.98065392461534
 30
0.0
 10
53.3107592989862
 20
32.08476087771661
 30
0.0
 10
53.32867006471156
 20
32.17015730743105
 30
0.0
 10
53.33573577439257
 20
32.26808262633127
 30
0.0
 10
53.32747448566848
 20
32.36416907561285
 30
0.0
 10
53.3011156126486
 20
32.45662355213013
 30
0.0
 10
53.2522676942232
 20
32.53829673894485
 30
0.0
 10
53.19939700393103
 20
32.59508439628919
 30
0.0
 10
53.15885458224739
 20
32.61096745109547
 30
0.0
 10
53.14857763504058
 20
32.61499358739789
 30
0.0
  0
SPLINE
  5
93
330
2
100
AcDbEntity
  8
0
100
AcDbSpline
210
0.0
220
0.0
230
1.0
 70
     8
 71
     3
 72
    15
 73
    11
 74
     0
 42
0.000000001
 43
0.0000000001
 40
0.0
 40
0.0
 40
0.0
 40
0.0
 40
0.1087830740524265
 40
0.2509597812556381
 40
0.3939361396822411
 40
0.5255567228255443
 40
0.6546349232575767
 40
0.7518429316520509
 40
0.8498044108762208
 40
1.0
 40
1.0
 40
1.0
 40
1.0
 10
52.55073726110857
 20
31.52065122148631
 30
0.0
 10
52.57465992865147
 20
31.50834117413515
 30
0.0
 10
52.62984891338974
 20
31.47994220841901
 30
0.0
 10
52.73008103612871
 20
31.47629450806616
 30
0.0
 10
52.83424238788812
 20
31.49930367888503
 30
0.0
 10
52.93242740792051
 20
31.54708975963255
 30
0.0
 10
53.01516021772965
 20
31.60726421154169
 30
0.0
 10
53.08496496157014
 20
31.67416119554694
 30
0.0
 10
53.15433231725108
 20
31.75470042807589
 30
0.0
 10
53.19519647985964
 20
31.82149069027667
 30
0.0
 10
53.21992927114353
 20
31.86191509908259
 30
0.0
  0
SPLINE
  5
94
330
2
100
AcDbEntity
  8
0
100
AcDbSpline
210
0.0
220
0.0
230
1.0
 70
     8
 71
     3
 72
    10
 73
     6
 74
     0
 42
0.000000001
 43
0.0000000001
 40
0.0
 40
0.0
 40
0.0
 40
0.0
 40
0.249177287700772
 40
0.5454890541221901
 40
1.0
 40
1.0
 40
1.0
 40
1.0
 10
50.87592930848487
 20
31.64651898534574
 30
0.0
 10
50.90712606104903
 20
31.69191660283153
 30
0.0
 10
50.97542075678525
 20
31.79129926988859
 30
0.0
 10
51.18435050725905
 20
31.94993665366996
 30
0.0
 10
51.33398151151091
 20
32.07087033049592
 30
0.0
 10
51.42456072303586
 20
32.14407759892598
 30
0.0
  0
SPLINE
  5
95
330
2
100
AcDbEntity
  8
0
100
AcDbSpline
210
0.0
220
0.0
230
1.0
 70
     8
 71
     3
 72
    15
 73
    11
 74
     0
 42
0.000000001
 43
0.0000000001
 40
0.0
 40
0.0
 40
0.0
 40
0.0
 40
0.1958452274858161
 40
0.2720632559336137
 40
0.3973783066833004
 40
0.5246859773931784
 40
0.6602019115865855
 40
0.8000275642382904
 40
0.9449056806131746
 40
1.0
 40
1.0
 40
1.0
 40
1.0
 10
53.39522127568025
 20
31.76425423796375
 30
0.0
 10
53.41681479471375
 20
31.8084475546037
 30
0.0
 10
53.44681196733164
 20
31.86983979668132
 30
0.0
 10
53.47163845241656
 20
31.96296542718418
 30
0.0
 10
53.48354862682271
 20
32.03970491465422
 30
0.0
 10
53.48251542724511
 20
32.12757812359191
 30
0.0
 10
53.46442298287349
 20
32.21419973323435
 30
0.0
 10
53.42348087351613
 20
32.29387285137523
 30
0.0
 10
53.37500532360841
 20
32.3514631824666
 30
0.0
 10
53.33579017556545
 20
32.36838618207965
 30
0.0
 10
53.32498602706947
 20
32.37304863039214
 30
0.0
  0
SPLINE
  5
96
330
2
100
AcDbEntity
  8
0
100
AcDbSpline
210
0.0
220
0.0
230
1.0
 70
     8
 71
     3
 72
    15
 73
    11
 74
     0
 42
0.000000001
 43
0.0000000001
 40
0.0
 40
0.0
 40
0.0
 40
0.0
 40
0.0988189815137813
 40
0.2564502214995274
 40
0.4165477644547364
 40
0.5720566278067068
 40
0.6905432617493668
 40
0.7982839837907563
 40
0.9338586578574071
 40
1.0
 40
1.0
 40
1.0
 40
1.0
 10
52.84389043749557
 20
31.50189731368912
 30
0.0
 10
52.86225044387132
 20
31.49162719602301
 30
0.0
 10
52.90989744073042
 20
31.46497468544311
 30
0.0
 10
53.00092348608348
 20
31.46084142922975
 30
0.0
 10
53.09976849499751
 20
31.48315608035014
 30
0.0
 10
53.18544903615642
 20
31.52865540608971
 30
0.0
 10
53.25502995725785
 20
31.583466458191
 30
0.0
 10
53.31549476922479
 20
31.64576109606298
 30
0.0
 10
53.3617151865706
 20
31.70682917096082
 30
0.0
 10
53.38694770157629
 20
31.75007441095591
 30
0.0
 10
53.39522127568025
 20
31.76425423796375
 30
0.0
  0
SPLINE
  5
97
330
2
100
AcDbEntity
  8
0
100
AcDbSpline
210
0.0
220
0.0
230
1.0
 70
     8
 71
     3
 72
    15
 73
    11
 74
     0
 42
0.000000001
 43
0.0000000001
 40
0.0
 40
0.0
 40
0.0
 40
0.0
 40
0.0929380621815667
 40
0.2340866421698339
 40
0.3769777967830635
 40
0.5098317760455271
 40
0.642185265405608
 40
0.7424626845931189
 40
0.8389273448333639
 40
1.0
 40
1.0
 40
1.0
 40
1.0
 10
44.23668300069253
 20
27.61398886220508
 30
0.0
 10
44.25649811396954
 20
27.6254146166462
 30
0.0
 10
44.30640719559143
 20
27.65419310017171
 30
0.0
 10
44.36064953369906
 20
27.73292718916254
 30
0.0
 10
44.39672761258675
 20
27.83210982542179
 30
0.0
 10
44.40809199976897
 20
27.94071114884263
 30
0.0
 10
44.40008250691509
 20
28.04395340901603
 30
0.0
 10
44.37904750826408
 20
28.13928933860063
 30
0.0
 10
44.3452295192276
 20
28.24370821662743
 30
0.0
 10
44.30762713066893
 20
28.31581903218798
 30
0.0
 10
44.28410930935366
 20
28.36091960532328
 30
0.0
  0
SPLINE
  5
98
330
2
100
AcDbEntity
  8
0
100
AcDbSpline
210
0.0
220
0.0
230
1.0
 70
     8
 71
     3
 72
    16
 73
    12
 74
     0
 42
0.000000001
 43
0.0000000001
 40
0.0
 40
0.0
 40
0.0
 40
0.0
 40
0.1673167573256187
 40
0.2348970398151043
 40
0.3454722614089508
 40
0.4577444982417923
 40
0.5766423080365692
 40
0.6995280393036013
 40
0.8256240018455578
 40
0.956161355905343
 40
1.0
 40
1.0
 40
1.0
 40
1.0
 10
44.28410930935366
 20
28.36091960532328
 30
0.0
 10
44.2557727174817
 20
28.40541442393949
 30
0.0
 10
44.21599079930717
 20
28.4678809774822
 30
0.0
 10
44.14596986080575
 20
28.54714113900099
 30
0.0
 10
44.0832140280565
 20
28.60688053187153
 30
0.0
 10
44.00442834272688
 20
28.66434840908056
 30
0.0
 10
43.9192800328389
 20
28.70834216255465
 30
0.0
 10
43.82790805628272
 20
28.73561558769402
 30
0.0
 10
43.7339291008367
 20
28.73876760521373
 30
0.0
 10
43.65869175742072
 20
28.72559313593082
 30
0.0
 10
43.62393117804217
 20
28.70078236043233
 30
0.0
 10
43.61519226509531
 20
28.69454485774675
 30
0.0
  0
LINE
  5
99
330
2
100
AcDbEntity
  8
0
100
AcDbLine
 10
43.68799606420923
 20
27.29245857342412
 30
0.0
 11
44.23813912954684
 21
27.61004940491901
 31
0.0
  0
LINE
  5
9A
330
2
100
AcDbEntity
  8
0
100
AcDbLine
 10
43.61088336632991
 20
28.69660655987184
 30
0.0
 11
43.06074030092955
 21
28.37901572837692
 31
0.0
  0
LINE
  5
9B
330
2
100
AcDbEntity
  8
0
100
AcDbLine
 10
43.48468993824224
 20
27.03022564357726
 30
0.0
 11
43.61776147657252
 21
27.107046207492
 31
0.0
  0
LINE
  5
9C
330
2
100
AcDbEntity
  8
0
100
AcDbLine
 10
42.8650538996937
 20
28.4109151750012
 30
0.0
 11
42.73198236136335
 21
28.33409461108648
 31
0.0
  0
LINE
  5
9D
330
2
100
AcDbEntity
  8
0
100
AcDbLine
 10
44.08112507843894
 20
27.31253310753517
 30
0.0
 11
43.91232781844413
 21
27.42196267936593
 31
0.0
  0
LINE
  5
9E
330
2
100
AcDbEntity
  8
0
100
AcDbLine
 10
43.73037252063101
 20
27.23878299610543
 30
0.0
 11
43.93920043528743
 21
27.10561635576163
 31
0.0
  0
SPLINE
  5
9F
330
2
100
AcDbEntity
  8
0
100
AcDbSpline
210
0.0
220
0.0
230
1.0
 70
     8
 71
     3
 72
    14
 73
    10
 74
     0
 42
0.000000001
 43
0.0000000001
 40
0.0
 40
0.0
 40
0.0
 40
0.0
 40
0.2178812199780242
 40
0.3021788788160463
 40
0.4406419097448354
 40
0.5811152890289671
 40
0.7306019500029799
 40
0.8855324461619684
 40
1.0
 40
1.0
 40
1.0
 40
1.0
 10
31.1432673045859
 20
32.85666776101864
 30
0.0
 10
31.11892286340478
 20
32.89361816924404
 30
0.0
 10
31.08515962331344
 20
32.9448645911727
 30
0.0
 10
31.02384434843644
 20
33.00479273865685
 30
0.0
 10
30.96954546249234
 20
33.04639331769388
 30
0.0
 10
30.90035604530092
 20
33.08117892371003
 30
0.0
 10
30.8248158438667
 20
33.09822806647832
 30
0.0
 10
30.75028908149
 20
33.0955997448763
 30
0.0
 10
30.70943152726826
 20
33.07264802684842
 30
0.0
 10
30.69207110358447
 20
33.06289581439158
 30
0.0
  0
SPLINE
  5
A0
330
2
100
AcDbEntity
  8
0
100
AcDbSpline
210
0.0
220
0.0
230
1.0
 70
     8
 71
     3
 72
    14
 73
    10
 74
     0
 42
0.000000001
 43
0.0000000001
 40
0.0
 40
0.0
 40
0.0
 40
0.0
 40
0.0532157604823694
 40
0.2244492731650306
 40
0.3981235803210207
 40
0.5572763883102536
 40
0.6791943014321409
 40
0.7999068330459395
 40
1.0
 40
1.0
 40
1.0
 40
1.0
 10
31.0937014184756
 20
32.36147142651915
 30
0.0
 10
31.10222666473902
 20
32.36511048495433
 30
0.0
 10
31.13818378176624
 20
32.38045902105297
 30
0.0
 10
31.18246438358099
 20
32.43834777157675
 30
0.0
 10
31.21465246716635
 20
32.51987135269647
 30
0.0
 10
31.22099660431393
 20
32.60235608219748
 30
0.0
 10
31.21240074306987
 20
32.67749499655384
 30
0.0
 10
31.19119244733461
 20
32.76179662477198
 30
0.0
 10
31.16167681595952
 20
32.82022485941028
 30
0.0
 10
31.1432673045859
 20
32.85666776101864
 30
0.0
  0
LINE
  5
A1
330
2
100
AcDbEntity
  8
0
100
AcDbLine
 10
30.68959740307077
 20
33.06558557612932
 30
0.0
 11
30.55652586474042
 21
32.9887650122146
 31
0.0
  0
LINE
  5
A2
330
2
100
AcDbEntity
  8
0
100
AcDbLine
 10
30.96424227608286
 20
32.28250276608499
 30
0.0
 11
31.09731381441322
 21
32.35932332999971
 31
0.0
  0
SPLINE
  5
A3
330
2
100
AcDbEntity
  8
0
100
AcDbSpline
210
0.0
220
0.0
230
1.0
 70
     8
 71
     3
 72
    14
 73
    10
 74
     0
 42
0.000000001
 43
0.0000000001
 40
0.0
 40
0.0
 40
0.0
 40
0.0
 40
0.2178805941162066
 40
0.3021788489015147
 40
0.4406414755359271
 40
0.5811141622792534
 40
0.7306017552265325
 40
0.8855309990657737
 40
1.0
 40
1.0
 40
1.0
 40
1.0
 10
25.79938559660147
 20
31.40764077713685
 30
0.0
 10
25.77504094060103
 20
31.44459066248794
 30
0.0
 10
25.74127730893372
 20
31.49583650137369
 30
0.0
 10
25.67996279452431
 20
31.55576618991274
 30
0.0
 10
25.62566353913232
 20
31.59736495631713
 30
0.0
 10
25.55647418042227
 20
31.63215260829668
 30
0.0
 10
25.48093453981355
 20
31.64919979882566
 30
0.0
 10
25.4064068847075
 20
31.64657282442503
 30
0.0
 10
25.36554970277169
 20
31.62362067473997
 30
0.0
 10
25.3481892303563
 20
31.61386816263302
 30
0.0
  0
SPLINE
  5
A4
330
2
100
AcDbEntity
  8
0
100
AcDbSpline
210
0.0
220
0.0
230
1.0
 70
     8
 71
     3
 72
    14
 73
    10
 74
     0
 42
0.000000001
 43
0.0000000001
 40
0.0
 40
0.0
 40
0.0
 40
0.0
 40
0.053216626934294
 40
0.2244485310699016
 40
0.3981227285364022
 40
0.5572753537499292
 40
0.6791947159379404
 40
0.7999072713801666
 40
1.0
 40
1.0
 40
1.0
 40
1.0
 10
25.74981971049132
 20
30.91244367936734
 30
0.0
 10
25.75834494013939
 20
30.91608300645925
 30
0.0
 10
25.79430128276742
 20
30.9314323750103
 30
0.0
 10
25.83858289930213
 20
30.98932012108982
 30
0.0
 10
25.8707706591327
 20
31.07084364617314
 30
0.0
 10
25.87711512899393
 20
31.15332851620048
 30
0.0
 10
25.86851910860347
 20
31.2284677379917
 30
0.0
 10
25.84731051802259
 20
31.31276966685168
 30
0.0
 10
25.81779501276856
 20
31.37119790566879
 30
0.0
 10
25.79938559660154
 20
31.40764077713685
 30
0.0
  0
LINE
  5
A5
330
2
100
AcDbEntity
  8
0
100
AcDbLine
 10
25.3457158603159
 20
31.61655849682237
 30
0.0
 11
25.21264432198562
 21
31.53973793290763
 31
0.0
  0
LINE
  5
A6
330
2
100
AcDbEntity
  8
0
100
AcDbLine
 10
25.62036040286274
 20
30.8334751143603
 30
0.0
 11
25.75343194119303
 21
30.91029567821232
 31
0.0
  0
SPLINE
  5
A7
330
2
100
AcDbEntity
  8
0
100
AcDbSpline
210
0.0
220
0.0
230
1.0
 70
     8
 71
     3
 72
    14
 73
    10
 74
     0
 42
0.000000001
 43
0.0000000001
 40
0.0
 40
0.0
 40
0.0
 40
0.0
 40
0.2178813330712523
 40
0.3021774967861469
 40
0.4406404005581639
 40
0.5811144144003042
 40
0.7306016833399834
 40
0.8855300104941125
 40
1.0
 40
1.0
 40
1.0
 40
1.0
 10
46.22245543446814
 20
24.45558102817331
 30
0.0
 10
46.1981109123062
 20
24.49253139835151
 30
0.0
 10
46.16434773184621
 20
24.54377750653518
 30
0.0
 10
46.10303281447984
 20
24.60370600379504
 30
0.0
 10
46.04873394789468
 20
24.64530636700763
 30
0.0
 10
45.97954434022971
 20
24.68009200450085
 30
0.0
 10
45.90400433083922
 20
24.69714171346025
 30
0.0
 10
45.8294772031127
 20
24.69451201231018
 30
0.0
 10
45.78861978590356
 20
24.67156066602548
 30
0.0
 10
45.77125906822281
 20
24.66180841366949
 30
0.0
  0
SPLINE
  5
A8
330
2
100
AcDbEntity
  8
0
100
AcDbSpline
210
0.0
220
0.0
230
1.0
 70
     8
 71
     3
 72
    14
 73
    10
 74
     0
 42
0.000000001
 43
0.0000000001
 40
0.0
 40
0.0
 40
0.0
 40
0.0
 40
0.0532155611198659
 40
0.2244494178352059
 40
0.3981233343507304
 40
0.557275905151181
 40
0.6791937852911112
 40
0.7999063472350941
 40
1.0
 40
1.0
 40
1.0
 40
1.0
 10
46.17289020933333
 20
23.96038354883079
 30
0.0
 10
46.18141519880549
 20
23.96402305384651
 30
0.0
 10
46.21737139063765
 20
23.97937354089951
 30
0.0
 10
46.26165357620562
 20
24.03725979829449
 30
0.0
 10
46.29383999269137
 20
24.11878512349618
 30
0.0
 10
46.30018589379572
 20
24.201268709908
 30
0.0
 10
46.29158945471779
 20
24.27640794298749
 30
0.0
 10
46.27038106252675
 20
24.36070970255173
 30
0.0
 10
46.24086514155023
 20
24.4191380354378
 30
0.0
 10
46.22245543446814
 20
24.45558102817331
 30
0.0
  0
LINE
  5
A9
330
2
100
AcDbEntity
  8
0
100
AcDbLine
 10
45.76878569818192
 20
24.66449874785132
 30
0.0
 11
45.63571415985157
 21
24.58767818393658
 31
0.0
  0
LINE
  5
AA
330
2
100
AcDbEntity
  8
0
100
AcDbLine
 10
46.04343024072876
 20
23.88141612863379
 30
0.0
 11
46.17650177905911
 21
23.95823669254852
 31
0.0
  0
SPLINE
  5
AB
330
2
100
AcDbEntity
  8
0
100
AcDbSpline
210
0.0
220
0.0
230
1.0
 70
     8
 71
     3
 72
    14
 73
    10
 74
     0
 42
0.000000001
 43
0.0000000001
 40
0.0
 40
0.0
 40
0.0
 40
0.0
 40
0.2178822348563875
 40
0.3021806236623672
 40
0.4406439080617555
 40
0.5811149599461936
 40
0.7306024382408354
 40
0.8855340179490712
 40
1.0
 40
1.0
 40
1.0
 40
1.0
 10
51.7001094799658
 20
16.97753715572533
 30
0.0
 10
51.67576515895065
 20
17.01448818745146
 30
0.0
 10
51.6420020478284
 20
17.06573553131741
 30
0.0
 10
51.58068553539571
 20
17.1256620778146
 30
0.0
 10
51.52638736679949
 20
17.16726376416871
 30
0.0
 10
51.45719778105752
 20
17.20205029001077
 30
0.0
 10
51.38165774621956
 20
17.21909822151208
 30
0.0
 10
51.30713139359322
 20
17.21646939631575
 30
0.0
 10
51.26627348223271
 20
17.19351801915066
 30
0.0
 10
51.24891311372062
 20
17.18376606776158
 30
0.0
  0
SPLINE
  5
AC
330
2
100
AcDbEntity
  8
0
100
AcDbSpline
210
0.0
220
0.0
230
1.0
 70
     8
 71
     3
 72
    14
 73
    10
 74
     0
 42
0.000000001
 43
0.0000000001
 40
0.0
 40
0.0
 40
0.0
 40
0.0
 40
0.0532159645399491
 40
0.2244500623644183
 40
0.3981249203636881
 40
0.5572779478361534
 40
0.6791945926796818
 40
0.7999102267662077
 40
1.0
 40
1.0
 40
1.0
 40
1.0
 10
51.65054293288015
 20
16.48234196606886
 30
0.0
 10
51.65906844688811
 20
16.48598056794948
 30
0.0
 10
51.69502668173914
 20
16.50132717354193
 30
0.0
 10
51.73930478326699
 20
16.55921956555701
 30
0.0
 10
51.77149519450995
 20
16.64074092388459
 30
0.0
 10
51.7778382381827
 20
16.72322635246044
 30
0.0
 10
51.76924197339652
 20
16.79836561763146
 30
0.0
 10
51.74803440820799
 20
16.88266675762093
 30
0.0
 10
51.7185187269357
 20
16.94109489795075
 30
0.0
 10
51.7001094799658
 20
16.97753715572533
 30
0.0
  0
LINE
  5
AD
330
2
100
AcDbEntity
  8
0
100
AcDbLine
 10
51.24643974369156
 20
17.18645487542195
 30
0.0
 11
51.11336820536121
 21
17.10963431150723
 31
0.0
  0
LINE
  5
AE
330
2
100
AcDbEntity
  8
0
100
AcDbLine
 10
51.52108428623833
 20
16.40337301944898
 30
0.0
 11
51.65415582456862
 21
16.4801935833637
 31
0.0
  0
SPLINE
  5
AF
330
2
100
AcDbEntity
  8
0
100
AcDbSpline
210
0.0
220
0.0
230
1.0
 70
     8
 71
     3
 72
    21
 73
    17
 74
     0
 42
0.000000001
 43
0.0000000001
 40
0.0
 40
0.0
 40
0.0
 40
0.0
 40
0.0020655385384912
 40
0.1128933178799816
 40
0.2265129785779409
 40
0.3255590570341496
 40
0.409132245588898
 40
0.4781099489624904
 40
0.5302618895459747
 40
0.5903329827647277
 40
0.6592684537575432
 40
0.7241309003521458
 40
0.8045993585022246
 40
0.9007278176383412
 40
0.955064630996374
 40
1.0
 40
1.0
 40
1.0
 40
1.0
 10
34.96740325064013
 20
41.41685497664564
 30
0.0
 10
34.96738330896211
 20
41.42011693768821
 30
0.0
 10
34.96629338390861
 20
41.59840148577708
 30
0.0
 10
34.96216618565601
 20
41.95503149043072
 30
0.0
 10
34.97300180077254
 20
42.45433742813577
 30
0.0
 10
35.0072696097408
 20
42.8932255568785
 30
0.0
 10
35.06211338766741
 20
43.2447315451844
 30
0.0
 10
35.12762440556285
 20
43.50920870449907
 30
0.0
 10
35.20137739376458
 20
43.7266312229509
 30
0.0
 10
35.28697292476646
 20
43.94502875489338
 30
0.0
 10
35.38365524528276
 20
44.1791016503124
 30
0.0
 10
35.48856311842095
 20
44.4514044694852
 30
0.0
 10
35.59213221893924
 20
44.77892598403797
 30
0.0
 10
35.65292935586131
 20
45.12714391048208
 30
0.0
 10
35.66612475378732
 20
45.44735759587982
 30
0.0
 10
35.64738926078013
 20
45.62104550843244
 30
0.0
 10
35.63890867466078
 20
45.69966501952156
 30
0.0
  0
SPLINE
  5
B0
330
2
100
AcDbEntity
  8
0
100
AcDbSpline
210
0.0
220
0.0
230
1.0
 70
     8
 71
     3
 72
    20
 73
    16
 74
     0
 42
0.000000001
 43
0.0000000001
 40
0.0
 40
0.0
 40
0.0
 40
0.0
 40
0.0402597402481322
 40
0.0929168959842155
 40
0.2077257886154517
 40
0.301829926759293
 40
0.3753677899695154
 40
0.4419654015665354
 40
0.5012505335289478
 40
0.558378889337595
 40
0.6241568054331023
 40
0.7284302763624574
 40
0.8484915665382654
 40
0.9816947844421914
 40
1.0
 40
1.0
 40
1.0
 40
1.0
 10
34.79371906882346
 20
45.58305499708332
 30
0.0
 10
34.7994159585955
 20
45.52681209443036
 30
0.0
 10
34.81256401447252
 20
45.39700708566862
 30
0.0
 10
34.79414773664877
 20
45.13651847012971
 30
0.0
 10
34.72468956895907
 20
44.84395021593021
 30
0.0
 10
34.61467395768828
 20
44.55229342411956
 30
0.0
 10
34.51302175910096
 20
44.30495666240321
 30
0.0
 10
34.42685551972375
 20
44.09001543025573
 30
0.0
 10
34.35172706512221
 20
43.88183157177791
 30
0.0
 10
34.28541531252544
 20
43.66142517658793
 30
0.0
 10
34.21961911742041
 20
43.37662527753647
 30
0.0
 10
34.1605046121012
 20
42.99472774348713
 30
0.0
 10
34.12280525676763
 20
42.50248376830759
 30
0.0
 10
34.11222208081566
 20
42.11813447198913
 30
0.0
 10
34.11322086414155
 20
41.90056775459152
 30
0.0
 10
34.11334153692311
 20
41.87428139171937
 30
0.0
  0
SPLINE
  5
B1
330
2
100
AcDbEntity
  8
0
100
AcDbSpline
210
0.0
220
0.0
230
1.0
 70
     8
 71
     3
 72
    15
 73
    11
 74
     0
 42
0.000000001
 43
0.0000000001
 40
0.0
 40
0.0
 40
0.0
 40
0.0
 40
0.1400395789391284
 40
0.2613535044693238
 40
0.4491332327742935
 40
0.5515859980431566
 40
0.6771582583000373
 40
0.8261390321124025
 40
0.9099912525335415
 40
1.0
 40
1.0
 40
1.0
 40
1.0
 10
35.6428880772043
 20
45.69350681861738
 30
0.0
 10
35.63503096806161
 20
45.72508572006836
 30
0.0
 10
35.62036737777515
 20
45.78402089128235
 30
0.0
 10
35.53516293871498
 20
45.86051497980565
 30
0.0
 10
35.43266251526167
 20
45.89588546472993
 30
0.0
 10
35.31660082554349
 20
45.90634362166194
 30
0.0
 10
35.20176477180246
 20
45.90078015349123
 30
0.0
 10
35.09277948760761
 20
45.87787661629119
 30
0.0
 10
35.00350757983725
 20
45.84675622717123
 30
0.0
 10
34.96314266535868
 20
45.82550032760038
 30
0.0
 10
34.94224553451937
 20
45.81449603537831
 30
0.0
  0
SPLINE
  5
B2
330
2
100
AcDbEntity
  8
0
100
AcDbSpline
210
0.0
220
0.0
230
1.0
 70
     8
 71
     3
 72
    11
 73
     7
 74
     0
 42
0.000000001
 43
0.0000000001
 40
0.0
 40
0.0
 40
0.0
 40
0.0
 40
0.2752763399509678
 40
0.5616857066688313
 40
0.8541560324158362
 40
1.0
 40
1.0
 40
1.0
 40
1.0
 10
34.94224388208073
 20
45.81449469950076
 30
0.0
 10
34.91807171984169
 20
45.79717901783103
 30
0.0
 10
34.86874979834525
 20
45.76184735475812
 30
0.0
 10
34.82060131629918
 20
45.69549484311312
 30
0.0
 10
34.7960545058338
 20
45.63661037036669
 30
0.0
 10
34.79909106716521
 20
45.60303304889413
 30
0.0
 10
34.80010144752276
 20
45.59186058689851
 30
0.0
  0
LINE
  5
B3
330
2
100
AcDbEntity
  8
0
100
AcDbLine
 10
35.37563588382673
 20
45.89885985440067
 30
0.0
 11
35.13372681010284
 21
47.39303745224595
 31
0.0
  0
LINE
  5
B4
330
2
100
AcDbEntity
  8
0
100
AcDbLine
 10
34.69794868713581
 20
47.14146870996878
 30
0.0
 11
34.9161277516216
 21
45.79386096385308
 31
0.0
  0
LINE
  5
B5
330
2
100
AcDbEntity
  8
0
100
AcDbLine
 10
25.35077298332109
 20
32.06822868291553
 30
0.0
 11
25.17334470616782
 21
31.96580151877739
 31
0.0
  0
SPLINE
  5
B6
330
2
100
AcDbEntity
  8
0
100
AcDbSpline
210
0.0
220
0.0
230
1.0
 70
     8
 71
     3
 72
     9
 73
     5
 74
     0
 42
0.000000001
 43
0.0000000001
 40
0.0
 40
0.0
 40
0.0
 40
0.0
 40
0.5439788465479067
 40
1.0
 40
1.0
 40
1.0
 40
1.0
 10
46.58367850397527
 20
22.93690677871917
 30
0.0
 10
46.54495338089168
 20
22.9792340366925
 30
0.0
 10
46.473764724698
 20
23.0570445218647
 30
0.0
 10
46.39287188973587
 20
23.11254177150434
 30
0.0
 10
46.35598304583046
 20
23.13784969129843
 30
0.0
  0
LINE
  5
B7
330
2
100
AcDbEntity
  8
0
100
AcDbLine
 10
50.71747036508455
 20
14.74917433367656
 30
0.0
 11
50.89489864217512
 21
14.85160149781471
 31
0.0
  0
LINE
  5
B8
330
2
100
AcDbEntity
  8
0
100
AcDbLine
 10
45.03179677786711
 20
24.87223491443276
 30
0.0
 11
44.85436850077653
 21
24.76980775029461
 31
0.0
  0
SPLINE
  5
B9
330
2
100
AcDbEntity
  8
0
100
AcDbSpline
210
0.0
220
0.0
230
1.0
 70
     8
 71
     3
 72
    10
 73
     6
 74
     0
 42
0.000000001
 43
0.0000000001
 40
0.0
 40
0.0
 40
0.0
 40
0.0
 40
0.0703498400307831
 40
0.5453952008307203
 40
1.0
 40
1.0
 40
1.0
 40
1.0
 10
50.59812464243093
 20
17.59603931330705
 30
0.0
 10
50.59674354504146
 20
17.60119262317244
 30
0.0
 10
50.58603642917852
 20
17.64114424875896
 30
0.0
 10
50.55114102743657
 20
17.7131691342156
 30
0.0
 10
50.51350964186166
 20
17.77370694115858
 30
0.0
 10
50.49510765666507
 20
17.80331031106318
 30
0.0
  0
LINE
  5
BA
330
2
100
AcDbEntity
  8
0
100
AcDbLine
 10
6.627706076648843
 20
15.98372230521798
 30
0.0
 11
6.497648586298158
 21
16.29948941253465
 31
0.0
  0
LINE
  5
BB
330
2
100
AcDbEntity
  8
0
100
AcDbLine
 10
4.768981712173205
 20
20.18661348938734
 30
0.0
 11
4.591552443561083
 21
20.08418575289419
 31
0.0
  0
LINE
  5
BC
330
2
100
AcDbEntity
  8
0
100
AcDbLine
 10
6.251463476666456
 20
16.03044738331399
 30
0.0
 11
6.408220408335344
 21
15.64985749487315
 31
0.0
  0
LINE
  5
BD
330
2
100
AcDbEntity
  8
0
100
AcDbLine
 10
30.13567810247781
 20
2.867558567793384
 30
0.0
 11
30.31232196699069
 21
2.969532900207437
 31
0.0
  0
LINE
  5
BE
330
2
100
AcDbEntity
  8
0
100
AcDbLine
 10
43.09666695915525
 20
25.96210411050337
 30
0.0
 11
43.36281135774014
 21
26.1157460014519
 31
0.0
  0
LINE
  5
BF
330
2
100
AcDbEntity
  8
0
100
AcDbLine
 10
34.09949008686535
 20
41.87164635698823
 30
0.0
 11
33.83334568828046
 21
41.71800446603969
 31
0.0
  0
LINE
  5
C0
330
2
100
AcDbEntity
  8
0
100
AcDbLine
 10
12.54183688845089
 20
29.42667806413643
 30
0.0
 11
12.27569302690358
 21
29.27303648320304
 31
0.0
  0
LINE
  5
C1
330
2
100
AcDbEntity
  8
0
100
AcDbLine
 10
21.5798665448817
 20
24.05535427551058
 30
0.0
 11
21.45086562372603
 21
24.12722522443508
 31
0.0
  0
SPLINE
  5
C2
330
2
100
AcDbEntity
  8
0
100
AcDbSpline
210
0.0
220
0.0
230
1.0
 70
     8
 71
     3
 72
    13
 73
     9
 74
     0
 42
0.000000001
 43
0.0000000001
 40
0.0
 40
0.0
 40
0.0
 40
0.0
 40
0.1353425535982962
 40
0.345361226880139
 40
0.5542858982778074
 40
0.759682180068896
 40
0.9604853217659014
 40
1.0
 40
1.0
 40
1.0
 40
1.0
 10
14.42765770034742
 20
20.17322361964382
 30
0.0
 10
14.42768074992166
 20
20.14648794458743
 30
0.0
 10
14.42773956682029
 20
20.07826501474411
 30
0.0
 10
14.46831485440486
 20
19.97221339148907
 30
0.0
 10
14.54001525055572
 20
19.86078082874943
 30
0.0
 10
14.64181311318468
 20
19.76282013826833
 30
0.0
 10
14.72844446021853
 20
19.69735045098392
 30
0.0
 10
14.78570575088078
 20
19.66896117862799
 30
0.0
 10
14.79512103883747
 20
19.66429322282364
 30
0.0
  0
LINE
  5
C3
330
2
100
AcDbEntity
  8
0
100
AcDbLine
 10
14.41732467151146
 20
20.57902388783747
 30
0.0
 11
14.42343869423974
 21
20.17102839277636
 31
0.0
  0
LINE
  5
C4
330
2
100
AcDbEntity
  8
0
100
AcDbLine
 10
14.91241013645297
 20
20.12752530210119
 30
0.0
 11
14.91785492150296
 21
19.76418123146182
 31
0.0
  0
LINE
  5
C5
330
2
100
AcDbEntity
  8
0
100
AcDbLine
 10
14.79357237344514
 20
19.6632961597246
 30
0.0
 11
15.42169930229769
 21
19.31334732520227
 31
0.0
  0
SPLINE
  5
C6
330
2
100
AcDbEntity
  8
0
100
AcDbSpline
210
0.0
220
0.0
230
1.0
 70
     8
 71
     3
 72
    14
 73
    10
 74
     0
 42
0.000000001
 43
0.0000000001
 40
0.0
 40
0.0
 40
0.0
 40
0.0
 40
0.0109698729944995
 40
0.185799225622175
 40
0.3633905164370422
 40
0.5440463946736447
 40
0.7294108995918709
 40
0.9232640211497216
 40
1.0
 40
1.0
 40
1.0
 40
1.0
 10
41.14689917873067
 20
11.57771877477947
 30
0.0
 10
41.14956304284735
 20
11.57907567517982
 30
0.0
 10
41.1946815132526
 20
11.60205780484975
 30
0.0
 10
41.26860881329727
 20
11.65639455752936
 30
0.0
 10
41.36474555835833
 20
11.74099058363963
 30
0.0
 10
41.44043626999546
 20
11.8367915658691
 30
0.0
 10
41.49238172507296
 20
11.94244920166048
 30
0.0
 10
41.518412661597
 20
12.03306573581175
 30
0.0
 10
41.51385514172915
 20
12.08711955543155
 30
0.0
 10
41.5125626811396
 20
12.10244860140146
 30
0.0
  0
LINE
  5
C7
330
2
100
AcDbEntity
  8
0
100
AcDbLine
 10
41.0347779174913
 20
11.68316061205098
 30
0.0
 11
41.02933280191323
 21
12.04650640000626
 31
0.0
  0
LINE
  5
C8
330
2
100
AcDbEntity
  8
0
100
AcDbLine
 10
41.51678234825373
 20
12.10464344671472
 30
0.0
 11
41.50849900425757
 21
12.65741808619315
 31
0.0
  0
LINE
  5
C9
330
2
100
AcDbEntity
  8
0
100
AcDbLine
 10
40.96711254132731
 20
11.47338069088227
 30
0.0
 11
41.1473552517605
 21
11.57743259280968
 31
0.0
  0
SPLINE
  5
CA
330
2
100
AcDbEntity
  8
0
100
AcDbSpline
210
0.0
220
0.0
230
1.0
 70
     8
 71
     3
 72
    13
 73
     9
 74
     0
 42
0.000000001
 43
0.0000000001
 40
0.0
 40
0.0
 40
0.0
 40
0.0
 40
0.1353419033654438
 40
0.3453616974434345
 40
0.5542860204071865
 40
0.7596823440211262
 40
0.9604854395629375
 40
1.0
 40
1.0
 40
1.0
 40
1.0
 10
21.52482712128032
 20
24.27033231693773
 30
0.0
 10
21.5248505595833
 20
24.24359678263587
 30
0.0
 10
21.52491036879173
 20
24.17537379124196
 30
0.0
 10
21.56548242213446
 20
24.06932180754615
 30
0.0
 10
21.63718549934152
 20
23.95788972491304
 30
0.0
 10
21.73898127647972
 20
23.85992814902035
 30
0.0
 10
21.82561652521224
 20
23.79446083170532
 30
0.0
 10
21.88287499612398
 20
23.76606977672784
 30
0.0
 10
21.89228979879494
 20
23.7614015385445
 30
0.0
  0
LINE
  5
CB
330
2
100
AcDbEntity
  8
0
100
AcDbLine
 10
21.51449409244207
 20
24.6761325851335
 30
0.0
 11
21.52060811517035
 21
24.26813709007241
 31
0.0
  0
LINE
  5
CC
330
2
100
AcDbEntity
  8
0
100
AcDbLine
 10
22.00958021837705
 20
24.22463438098815
 30
0.0
 11
22.01502500342712
 21
23.86129031028604
 31
0.0
  0
LINE
  5
CD
330
2
100
AcDbEntity
  8
0
100
AcDbLine
 10
21.89074245530661
 20
23.7604052385488
 30
0.0
 11
22.51886938415909
 21
23.41045640408923
 31
0.0
  0
SPLINE
  5
CE
330
2
100
AcDbEntity
  8
0
100
AcDbSpline
210
0.0
220
0.0
230
1.0
 70
     8
 71
     3
 72
    13
 73
     9
 74
     0
 42
0.000000001
 43
0.0000000001
 40
0.0
 40
0.0
 40
0.0
 40
0.0
 40
0.0130035196886258
 40
0.22020445543798
 40
0.4306810805596954
 40
0.6447897757843854
 40
0.864479014110929
 40
1.0
 40
1.0
 40
1.0
 40
1.0
 10
48.24406859966363
 20
15.67482747207338
 30
0.0
 10
48.24673295552683
 20
15.67618462167344
 30
0.0
 10
48.29185174228477
 20
15.69916689076654
 30
0.0
 10
48.36569877052822
 20
15.75350930261786
 30
0.0
 10
48.46220431318878
 20
15.83807828761133
 30
0.0
 10
48.53649797446777
 20
15.93398069203238
 30
0.0
 10
48.58573472450633
 20
16.02429520906591
 30
0.0
 10
48.5968890673752
 20
16.0838255526681
 30
0.0
 10
48.60114470935696
 20
16.10653776730976
 30
0.0
  0
LINE
  5
CF
330
2
100
AcDbEntity
  8
0
100
AcDbLine
 10
48.13194733842199
 20
15.78026930934703
 30
0.0
 11
48.12650222284392
 21
16.14361509730231
 31
0.0
  0
LINE
  5
D0
330
2
100
AcDbEntity
  8
0
100
AcDbLine
 10
48.06428196225793
 20
15.57048938817829
 30
0.0
 11
48.24452599467805
 21
15.67454205322478
 31
0.0
  0
LINE
  5
D1
330
2
100
AcDbEntity
  8
0
100
AcDbLine
 10
14.48269778494454
 20
19.95824595980545
 30
0.0
 11
14.35369686372612
 21
20.03011690872995
 31
0.0
  0
SPLINE
  5
D2
330
2
100
AcDbEntity
  8
0
100
AcDbSpline
210
0.0
220
0.0
230
1.0
 70
     8
 71
     3
 72
    13
 73
     9
 74
     0
 42
0.000000001
 43
0.0000000001
 40
0.0
 40
0.0
 40
0.0
 40
0.0
 40
0.1353424219201379
 40
0.3453613222535585
 40
0.554285758724036
 40
0.7596821725940082
 40
0.9604853540082622
 40
1.0
 40
1.0
 40
1.0
 40
1.0
 10
7.330487948926738
 20
16.07611473156346
 30
0.0
 10
7.33051109457095
 20
16.04937909274996
 30
0.0
 10
7.330570156690424
 20
15.98115617017376
 30
0.0
 10
7.37114463248573
 20
15.87510448380711
 30
0.0
 10
7.442846437272294
 20
15.7636722802689
 30
0.0
 10
7.544643101354227
 20
15.66571115304963
 30
0.0
 10
7.63127575726439
 20
15.60024222515011
 30
0.0
 10
7.688536083406254
 20
15.57185233970509
 30
0.0
 10
7.697951204794913
 20
15.56718428704663
 30
0.0
  0
LINE
  5
D3
330
2
100
AcDbEntity
  8
0
100
AcDbLine
 10
7.320155085348146
 20
16.48191509512803
 30
0.0
 11
7.326269108013668
 21
16.07391960006692
 31
0.0
  0
LINE
  5
D4
330
2
100
AcDbEntity
  8
0
100
AcDbLine
 10
7.815240550289589
 20
16.03041650939175
 30
0.0
 11
7.820685335339654
 21
15.66707243875238
 31
0.0
  0
LINE
  5
D5
330
2
100
AcDbEntity
  8
0
100
AcDbLine
 10
7.696402911175027
 20
15.56618743852818
 30
0.0
 11
8.324529840027505
 21
15.21623860406857
 31
0.0
  0
SPLINE
  5
D6
330
2
100
AcDbEntity
  8
0
100
AcDbSpline
210
0.0
220
0.0
230
1.0
 70
     8
 71
     3
 72
    14
 73
    10
 74
     0
 42
0.000000001
 43
0.0000000001
 40
0.0
 40
0.0
 40
0.0
 40
0.0
 40
0.0109718172785557
 40
0.1858001361703499
 40
0.3633913674323349
 40
0.5440471850883867
 40
0.7294107637493906
 40
0.9232653825636477
 40
1.0
 40
1.0
 40
1.0
 40
1.0
 10
34.04972909682235
 20
7.480609695912628
 30
0.0
 10
34.05239340353481
 20
7.481966849140233
 30
0.0
 10
34.09751159475184
 20
7.504949300276935
 30
0.0
 10
34.17143981938682
 20
7.559285923788956
 30
0.0
 10
34.26757597989956
 20
7.643881925992848
 30
0.0
 10
34.34326711264422
 20
7.739682649194353
 30
0.0
 10
34.39521087047881
 20
7.845340705815261
 30
0.0
 10
34.42124504067809
 20
7.935956792107188
 30
0.0
 10
34.41668558515986
 20
7.990010724297727
 30
0.0
 10
34.41539259923128
 20
8.005339522534665
 30
0.0
  0
LINE
  5
D7
330
2
100
AcDbEntity
  8
0
100
AcDbLine
 10
33.93760849656069
 20
7.586051914754951
 30
0.0
 11
33.93216338098254
 21
7.949397702710234
 31
0.0
  0
LINE
  5
D8
330
2
100
AcDbEntity
  8
0
100
AcDbLine
 10
34.41961226632958
 20
8.007534367827775
 30
0.0
 11
34.41132892233349
 21
8.560309007306228
 31
0.0
  0
LINE
  5
D9
330
2
100
AcDbEntity
  8
0
100
AcDbLine
 10
33.86994245940317
 20
7.376271611995343
 30
0.0
 11
34.05018649182335
 21
7.48032427710455
 31
0.0
  0
LINE
  5
DA
330
2
100
AcDbEntity
  8
0
100
AcDbLine
 10
18.07617462424373
 20
27.86869320307227
 30
0.0
 11
11.86615055472673
 21
24.2837226159496
 31
0.0
  0
LINE
  5
DB
330
2
100
AcDbEntity
  8
0
100
AcDbLine
 10
18.03265930722782
 20
26.41697199926614
 30
0.0
 11
18.31708628602693
 21
26.58116819917591
 31
0.0
  0
LINE
  5
DC
330
2
100
AcDbEntity
  8
0
100
AcDbLine
 10
13.90325632292485
 20
20.28225809288001
 30
0.0
 11
20.11328039244177
 21
23.86722867993995
 31
0.0
  0
LINE
  5
DD
330
2
100
AcDbEntity
  8
0
100
AcDbLine
 10
18.22072664472607
 20
26.8159901912959
 30
0.0
 11
18.36887767642422
 21
26.901515961407
 31
0.0
  0
LINE
  5
DE
330
2
100
AcDbEntity
  8
0
100
AcDbLine
 10
21.49247898402979
 20
24.35893795540314
 30
0.0
 11
21.36967107209665
 21
24.28804245689985
 31
0.0
  0
LINE
  5
DF
330
2
100
AcDbEntity
  8
0
100
AcDbLine
 10
37.41027819656118
 20
7.0670942861388
 30
0.0
 11
43.6203022660781
 21
10.65206487326147
 31
0.0
  0
LINE
  5
E0
330
2
100
AcDbEntity
  8
0
100
AcDbLine
 10
10.97900454238234
 20
23.77158412418533
 30
0.0
 11
4.768981051179737
 21
20.18661387097823
 31
0.0
  0
LINE
  5
E1
330
2
100
AcDbEntity
  8
0
100
AcDbLine
 10
10.93549054722791
 20
22.31986368356102
 30
0.0
 11
11.21991620410278
 21
22.48405912028898
 31
0.0
  0
LINE
  5
E2
330
2
100
AcDbEntity
  8
0
100
AcDbLine
 10
6.806086819377846
 20
16.18514934790865
 30
0.0
 11
13.01611031051769
 21
19.77011960111574
 31
0.0
  0
LINE
  5
E3
330
2
100
AcDbEntity
  8
0
100
AcDbLine
 10
11.12355656280191
 20
22.71888111240896
 30
0.0
 11
11.27170759450014
 21
22.80440688252007
 31
0.0
  0
LINE
  5
E4
330
2
100
AcDbEntity
  8
0
100
AcDbLine
 10
14.39530890210564
 20
20.2618288765162
 30
0.0
 11
14.27250165116597
 21
20.19093375960382
 31
0.0
  0
LINE
  5
E5
330
2
100
AcDbEntity
  8
0
100
AcDbLine
 10
30.31310869301418
 20
2.969985541167437
 30
0.0
 11
36.52313218421678
 21
6.554955794374547
 31
0.0
  0
LINE
  5
E6
330
2
100
AcDbEntity
  8
0
100
AcDbLine
 10
25.17334404523704
 20
31.9658019003683
 30
0.0
 11
18.96331997565735
 21
28.38083131324563
 31
0.0
  0
LINE
  5
E7
330
2
100
AcDbEntity
  8
0
100
AcDbLine
 10
21.00042574385546
 20
24.37936679017606
 30
0.0
 11
26.98164259458912
 21
27.83224978143389
 31
0.0
  0
LINE
  5
E8
330
2
100
AcDbEntity
  8
0
100
AcDbLine
 10
44.50744761749186
 20
11.16420298343484
 30
0.0
 11
50.71747168700872
 21
14.7491735705575
 31
0.0
  0
LINE
  5
E9
330
2
100
AcDbEntity
  8
0
100
AcDbLine
 10
44.85436850077653
 20
24.76980775029461
 30
0.0
 11
44.62219295122999
 21
24.63577565851823
 31
0.0
  0
LINE
  5
EA
330
2
100
AcDbEntity
  8
0
100
AcDbLine
 10
32.51747751462086
 20
31.88851693235644
 30
0.0
 11
32.06894355736063
 21
31.62958379043794
 31
0.0
  0
LINE
  5
EB
330
2
100
AcDbEntity
  8
0
100
AcDbLine
 10
33.62540086518304
 20
30.76243283735173
 30
0.0
 11
33.94398441008851
 21
30.94634720310653
 31
0.0
  0
LINE
  5
EC
330
2
100
AcDbEntity
  8
0
100
AcDbLine
 10
33.83334568828046
 20
41.71800446603969
 30
0.0
 11
12.54183688845089
 21
29.42667806413643
 31
0.0
  0
LINE
  5
ED
330
2
100
AcDbEntity
  8
0
100
AcDbLine
 10
44.21029355689457
 20
24.86525816943415
 30
0.0
 11
44.52887710173735
 21
25.04917253512621
 31
0.0
  0
LINE
  5
EE
330
2
100
AcDbEntity
  8
0
100
AcDbLine
 10
43.3040268474336
 20
46.61842478338257
 30
0.0
 11
43.4496602237079
 21
36.89974775773537
 31
0.0
  0
LINE
  5
EF
330
2
100
AcDbEntity
  8
0
100
AcDbLine
 10
43.50208482848549
 20
33.40129975189247
 30
0.0
 11
43.50917445087132
 21
32.92818443971423
 31
0.0
  0
LWPOLYLINE
  5
F0
330
2
100
AcDbEntity
  8
0
100
AcDbPolyline
 90
       31
 70
   128
 43
0.0
 10
43.50917445087132
 20
32.92818443971423
 10
43.4986418075288
 20
32.58597782399068
 10
43.45664012418668
 20
32.26511768127881
 10
43.38363010069373
 20
31.9691185315548
 10
43.28041085646606
 20
31.70122320263578
 10
43.14811398135751
 20
31.46436810038892
 10
42.9881876725062
 20
31.26114733391713
 10
42.80238549775886
 20
31.09378790801006
 10
42.59274326140088
 20
30.96412262504596
 10
42.36155653100518
 20
30.87357252766996
 10
42.11135882552553
 20
30.82313048611933
 10
41.84489187096601
 20
30.81334860195996
 10
41.56507453469104
 20
30.84433324364076
 10
41.27497275138299
 20
30.91574637939553
 10
40.97776482122827
 20
31.02680423825637
 10
40.67670737022823
 20
31.17629085511899
 10
40.37509866571872
 20
31.36256856188944
 10
40.07624292385167
 20
31.5835963030319
 10
39.78341461688774
 20
31.83695176671208
 10
39.49982245002365
 20
32.11985981335081
 10
39.22857300775475
 20
32.42922033163472
 10
38.97263803560696
 20
32.76164544478981
 10
38.73482221744149
 20
33.11349032459586
 10
38.51773078802896
 20
33.48090241924783
 10
38.32374210216474
 20
33.85985560702769
 10
38.15498185680139
 20
34.24619789861763
 10
38.01329880014972
 20
34.63569599020624
 10
37.90024523303001
 20
35.02408315725577
 10
37.81705982341745
 20
35.40710428549092
 10
37.76465405642092
 20
35.78056185708797
 10
37.74360215439911
 20
36.1403645123359
  0
LINE
  5
F1
330
2
100
AcDbEntity
  8
0
100
AcDbLine
 10
37.74360215439911
 20
36.1403645123359
 30
0.0
 11
37.53845455089856
 21
49.8306056192488
 31
0.0
  0
LWPOLYLINE
  5
F2
330
2
100
AcDbEntity
  8
0
100
AcDbPolyline
 90
       24
 70
   128
 43
0.0
 10
37.21131335722926
 20
35.8330807304388
 10
37.23236525925113
 20
35.47327807519085
 10
37.2847710262476
 20
35.09982050365657
 10
37.36795643586016
 20
34.71679937535866
 10
37.48101000297987
 20
34.32841220830913
 10
37.62269305963154
 20
33.93891411672053
 10
37.79145330499489
 20
33.55257182519333
 10
37.98544199085918
 20
33.17361863735074
 10
38.20253342027171
 20
32.80620654269876
 10
38.44034923837443
 20
32.4543616628927
 10
38.6962842105849
 20
32.12193654973761
 10
38.9675336528538
 20
31.81257603145371
 10
39.25112581971782
 20
31.52966798481496
 10
39.5439541266819
 20
31.27631252113479
 10
39.84280986854894
 20
31.05528477999235
 10
40.14441857305839
 20
30.86900707322189
 10
40.44547602405843
 20
30.71952045635927
 10
40.74268395421307
 20
30.60846259749843
 10
41.03278573752127
 20
30.53704946174365
 10
41.3126030737334
 20
30.50606482006287
 10
41.57907002835568
 20
30.51584670422223
 10
41.82926773383541
 20
30.56628874577286
 10
42.06045446416828
 20
30.65683884321158
 10
42.13268189270587
 20
30.69568003605446
  0
LINE
  5
F3
330
2
100
AcDbEntity
  8
0
100
AcDbLine
 10
35.19204533280097
 20
51.15694082877413
 30
0.0
 11
35.19161834267896
 21
51.18543136890691
 31
0.0
  0
LWPOLYLINE
  5
F4
330
2
100
AcDbEntity
  8
0
100
AcDbPolyline
 90
        3
 70
   128
 43
0.0
 10
35.19161834267896
 20
51.18543136890691
 10
35.4699392305461
 20
51.32634693452693
 10
35.53898918499764
 20
51.35514219434908
  0
LWPOLYLINE
  5
F5
330
2
100
AcDbEntity
  8
0
100
AcDbPolyline
 90
       11
 70
   128
 43
0.0
 10
36.13142079700768
 20
51.49466674005324
 10
36.26815033857544
 20
51.49652938424539
 10
36.5090314302413
 20
51.46631047864192
 10
36.73128821734642
 20
51.39282248873525
 10
36.93168026788497
 20
51.27713676903489
 10
37.10728392230532
 20
51.12093859842399
 10
37.25554186676671
 20
50.92650923892531
 10
37.37428907617649
 20
50.69668118643647
 10
37.46179528212798
 20
50.43480677783632
 10
37.51678447161201
 20
50.14470495080491
 10
37.53845455089856
 20
49.8306056192488
  0
LINE
  5
F6
330
2
100
AcDbEntity
  8
0
100
AcDbLine
 10
37.02175535484371
 20
48.48297337741845
 30
0.0
 11
37.21131335722926
 21
35.8330807304388
 31
0.0
  0
LINE
  5
F7
330
2
100
AcDbEntity
  8
0
100
AcDbLine
 10
13.46903066594794
 20
38.61651165392782
 30
0.0
 11
34.49439576946284
 21
50.75419657031109
 31
0.0
  0
LINE
  5
F8
330
2
100
AcDbEntity
  8
0
100
AcDbLine
 10
35.47025592038391
 20
51.31754864417581
 30
0.0
 11
34.49439576946284
 21
50.75419657031109
 31
0.0
  0
LWPOLYLINE
  5
F9
330
2
100
AcDbEntity
  8
0
100
AcDbPolyline
 90
       11
 70
   128
 43
0.0
 10
36.8242008717924
 20
50.53591821672519
 10
36.80418347889616
 20
50.76890858981901
 10
36.75189429140234
 20
50.97724628706776
 10
36.66861543643162
 20
51.1557998356497
 10
36.55640494344594
 20
51.30017581876939
 10
36.41802007157669
 20
51.4068165813722
 10
36.25686847953877
 20
51.47309712173917
 10
36.07692139033293
 20
51.49738515915242
 10
35.88260915697246
 20
51.47908388650425
 10
35.67871211901616
 20
51.41864156909952
 10
35.47025592038391
 20
51.31754864417581
  0
LINE
  5
FA
330
2
100
AcDbEntity
  8
0
100
AcDbLine
 10
36.84742506952134
 20
48.98607990869627
 30
0.0
 11
36.8242008717924
 21
50.53591821672519
 31
0.0
  0
LINE
  5
FB
330
2
100
AcDbEntity
  8
0
100
AcDbLine
 10
11.20889906577342
 20
34.18527389072789
 30
0.0
 11
36.84742506952134
 21
48.98607990869627
 31
0.0
  0
LINE
  5
FC
330
2
100
AcDbEntity
  8
0
100
AcDbLine
 10
11.18567486798164
 20
35.73511219875684
 30
0.0
 11
11.20889906577342
 21
34.18527389072789
 31
0.0
  0
ARC
  5
FD
330
2
100
AcDbEntity
  8
0
100
AcDbCircle
 10
14.0138077251539
 20
35.6676730938292
 30
0.0
 40
2.828936812783594
100
AcDbArc
 50
122.5156401922992
 51
178.6339948830997
  0
LINE
  5
FE
330
2
100
AcDbEntity
  8
0
100
AcDbLine
 10
13.46903066594794
 20
38.61651165392782
 30
0.0
 11
12.49316985403334
 21
38.05315919853492
 31
0.0
  0
LINE
  5
FF
330
2
100
AcDbEntity
  8
0
100
AcDbLine
 10
11.7411057367143
 20
33.8887648977921
 30
0.0
 11
37.37963174052492
 21
48.68957091576046
 31
0.0
  0
LINE
  5
100
330
2
100
AcDbEntity
  8
0
100
AcDbLine
 10
11.20889906577342
 20
34.18527389072789
 30
0.0
 11
11.7411057367143
 21
33.8887648977921
 31
0.0
  0
LINE
  5
101
330
2
100
AcDbEntity
  8
0
100
AcDbLine
 10
36.84742506952134
 20
48.98607990869627
 30
0.0
 11
37.37963174052492
 21
48.68957091576046
 31
0.0
  0
LINE
  5
102
330
2
100
AcDbEntity
  8
0
100
AcDbLine
 10
37.37963174052492
 20
48.68957091576046
 30
0.0
 11
37.35640746011684
 21
50.23940965318111
 31
0.0
  0
LWPOLYLINE
  5
103
330
2
100
AcDbEntity
  8
0
100
AcDbPolyline
 90
        7
 70
   128
 43
0.0
 10
37.35640746011684
 20
50.23940965318111
 10
37.33639014989966
 20
50.47239921529229
 10
37.28410087978961
 20
50.68073696021637
 10
37.20082210737244
 20
50.85929046112297
 10
37.08861153183319
 20
51.0036672552253
 10
36.95022674258019
 20
51.11030797015277
 10
36.94160654891548
 20
51.11519429983157
  0
LWPOLYLINE
  5
104
330
2
100
AcDbEntity
  8
0
100
AcDbPolyline
 90
        8
 70
   128
 43
0.0
 10
43.3040268474336
 20
46.61842478338257
 10
43.28235676814698
 20
46.93252411493869
 10
43.22736757866302
 20
47.22262670521465
 10
43.13986104218338
 20
47.48450130457885
 10
43.02111416330168
 20
47.71432916630362
 10
42.87285605360767
 20
47.90875862121569
 10
42.69725206865916
 20
48.06495621928345
 10
42.58504025374922
 20
48.13645385738103
  0
LWPOLYLINE
  5
105
330
2
100
AcDbEntity
  8
0
100
AcDbPolyline
 90
        9
 70
   128
 43
0.0
 10
34.49439576946284
 20
50.75419657031109
 10
34.5056142574979
 20
50.90785737914782
 10
34.54367148735414
 20
51.04042134681175
 10
34.60710496838753
 20
51.14679222070052
 10
34.69347694051124
 20
51.22288327207234
 10
34.79946823307413
 20
51.26576995887996
 10
34.92100566760679
 20
51.27380414201939
 10
35.05341854390373
 20
51.2466771653238
 10
35.19161834267896
 20
51.18543136890691
  0
ARC
  5
106
330
2
100
AcDbEntity
  8
0
100
AcDbCircle
 10
13.96826627165867
 20
38.68010911629713
 30
0.0
 40
0.503270133501005
100
AcDbArc
 50
125.3855752602008
 51
187.259788412
  0
LWPOLYLINE
  5
107
330
2
100
AcDbEntity
  8
0
100
AcDbPolyline
 90
       17
 70
   128
 43
0.0
 10
28.01451352832749
 20
43.28320334272961
 10
28.14765645194663
 20
43.22345322263087
 10
28.26507609223561
 20
43.14040277054876
 10
28.34507890517243
 20
43.04388295917903
 10
28.38335103469299
 20
42.93909708631174
 10
28.37783056792788
 20
42.83169527443113
 10
28.3288123000038
 20
42.7274667326753
 10
28.23894277637244
 20
42.63203125624166
 10
28.11306397265116
 20
42.55053263286836
 10
27.95796311489361
 20
42.48736562837473
 10
27.78200187272225
 20
42.44593521333941
 10
27.59466590447038
 20
42.42847474378534
 10
27.40605524513358
 20
42.43592576525192
 10
27.22633668816706
 20
42.46788630863863
 10
27.06519980284214
 20
42.52263340224934
 10
26.93133145866703
 20
42.5972157928617
 10
26.8866607565338
 20
42.63210779655191
  0
LINE
  5
108
330
2
100
AcDbEntity
  8
0
100
AcDbLine
 10
32.18408398911649
 20
44.89957628719529
 30
0.0
 11
30.18800430460288
 21
43.74726401294158
 31
0.0
  0
LWPOLYLINE
  5
109
330
2
100
AcDbEntity
  8
0
100
AcDbPolyline
 90
        9
 70
   128
 43
0.0
 10
32.05102831425337
 20
45.61343372834133
 10
32.11047115612801
 20
45.58997555083821
 10
32.24946371229626
 20
45.51253882036617
 10
32.35114916308215
 20
45.41814592668862
 10
32.4096183881542
 20
45.31228462721055
 10
32.42147232139912
 20
45.20110604579724
 10
32.38602354841365
 20
45.091071719568
 10
32.30533034663438
 20
44.98857603379796
 10
32.18408398911649
 20
44.89957628719529
  0
ARC
  5
10A
330
2
100
AcDbEntity
  8
0
100
AcDbCircle
 10
29.60840921582907
 20
44.80039639045197
 30
0.0
 40
1.202089127914072
100
AcDbArc
 50
235.4744759301977
 51
298.8263415138995
  0
LINE
  5
10B
330
2
100
AcDbEntity
  8
0
100
AcDbLine
 10
36.22059877504236
 20
47.22980667274428
 30
0.0
 11
35.25079580291551
 21
46.66995133382154
 31
0.0
  0
LINE
  5
10C
330
2
100
AcDbEntity
  8
0
100
AcDbLine
 10
34.81501734942046
 20
46.4183817873994
 30
0.0
 11
34.224520412453
 21
46.07749516167237
 31
0.0
  0
LWPOLYLINE
  5
10D
330
2
100
AcDbEntity
  8
0
100
AcDbPolyline
 90
        9
 70
   128
 43
0.0
 10
36.08754442210342
 20
47.94366487700943
 10
36.14698594205388
 20
47.9202059363872
 10
36.28597849822206
 20
47.84276920591517
 10
36.38766394900802
 20
47.74837631223762
 10
36.44613317408007
 20
47.64251501275953
 10
36.45798710732492
 20
47.53133643134627
 10
36.42253833433945
 20
47.42130210511702
 10
36.34184513256019
 20
47.31880641934697
 10
36.22059877504236
 20
47.22980667274428
  0
ARC
  5
10E
330
2
100
AcDbEntity
  8
0
100
AcDbCircle
 10
33.64492407207607
 20
47.1306287858302
 30
0.0
 40
1.202090823574385
100
AcDbArc
 50
235.4745274629031
 51
298.8263651298982
  0
LWPOLYLINE
  5
10F
330
2
100
AcDbEntity
  8
0
100
AcDbPolyline
 90
        9
 70
   128
 43
0.0
 10
25.97407710499098
 20
42.10528446825249
 10
26.03351928587214
 20
42.08182590922117
 10
26.1725118420404
 20
42.00438917874914
 10
26.27419795381982
 20
41.9099966666625
 10
26.33266651789834
 20
41.80413498559353
 10
26.34452045114326
 20
41.69295640418023
 10
26.30907167815779
 20
41.58292207795101
 10
26.22837913737199
 20
41.48042677370912
 10
26.10713211892339
 20
41.39142664557827
  0
ARC
  5
110
330
2
100
AcDbEntity
  8
0
100
AcDbCircle
 10
23.53145755202003
 20
41.29225119487397
 30
0.0
 40
1.202092907888894
100
AcDbArc
 50
235.4745879303986
 51
298.8262670880974
  0
LINE
  5
111
330
2
100
AcDbEntity
  8
0
100
AcDbLine
 10
26.10713211892339
 20
41.39142664557827
 30
0.0
 11
24.11105309534056
 21
40.23911475291547
 31
0.0
  0
LWPOLYLINE
  5
112
330
2
100
AcDbEntity
  8
0
100
AcDbPolyline
 90
        9
 70
   128
 43
0.0
 10
21.93756198853702
 20
39.7750538919394
 10
21.99700449994627
 20
39.75159552367216
 10
22.13599705611452
 20
39.67415879313742
 10
22.23768250690048
 20
39.57976589952259
 10
22.29615107097899
 20
39.47390421845361
 10
22.30800566521731
 20
39.36272601863123
 10
22.27255623123844
 20
39.2526913108111
 10
22.19186369045264
 20
39.15019600656922
 10
22.07061700246943
 20
39.06119606920245
  0
ARC
  5
113
330
2
100
AcDbEntity
  8
0
100
AcDbCircle
 10
19.49494236035192
 20
38.96201910612349
 30
0.0
 40
1.202091619184682
100
AcDbArc
 50
235.4745500298987
 51
298.8263049886001
  0
LINE
  5
114
330
2
100
AcDbEntity
  8
0
100
AcDbLine
 10
22.07061700246943
 20
39.06119606920245
 30
0.0
 11
20.0745379788866
 21
37.90888417653965
 31
0.0
  0
LINE
  5
115
330
2
100
AcDbEntity
  8
0
100
AcDbLine
 10
43.50000804373332
 20
45.27971792676673
 30
0.0
 11
43.3255951364839
 21
45.17903149859513
 31
0.0
  0
LINE
  5
116
330
2
100
AcDbEntity
  8
0
100
AcDbLine
 10
44.03221487996958
 20
44.98320883848025
 30
0.0
 11
43.50000804373332
 21
45.27971792676673
 31
0.0
  0
LINE
  5
117
330
2
100
AcDbEntity
  8
0
100
AcDbLine
 10
44.03221487996958
 20
44.98320883848025
 30
0.0
 11
43.33456325103467
 21
44.58046312579389
 31
0.0
  0
LINE
  5
118
330
2
100
AcDbEntity
  8
0
100
AcDbLine
 10
37.13387479840797
 20
41.00088187560829
 30
0.0
 11
36.43656952064848
 21
40.59833610720884
 31
0.0
  0
LINE
  5
119
330
2
100
AcDbEntity
  8
0
100
AcDbLine
 10
43.4767840111743
 20
46.82955652103589
 30
0.0
 11
43.50000804373332
 21
45.27971792676673
 31
0.0
  0
LINE
  5
11A
330
2
100
AcDbEntity
  8
0
100
AcDbLine
 10
44.00899084741051
 20
46.53304781440303
 30
0.0
 11
44.03221487996958
 21
44.98320883848025
 31
0.0
  0
LWPOLYLINE
  5
11B
330
2
100
AcDbEntity
  8
0
100
AcDbPolyline
 90
        7
 70
   128
 43
0.0
 10
43.01034555168424
 20
47.73117768229482
 10
43.07060337625398
 20
47.70045479033221
 10
43.20898783504159
 20
47.59381426623156
 10
43.32119832796453
 20
47.44943751974182
 10
43.40447726561438
 20
47.27088468679185
 10
43.45676637049175
 20
47.06254627391116
 10
43.4767840111743
 20
46.82955652103589
  0
LWPOLYLINE
  5
11C
330
2
100
AcDbEntity
  8
0
100
AcDbPolyline
 90
        7
 70
   128
 43
0.0
 10
43.59418977097653
 20
47.40883255646693
 10
43.60280955149671
 20
47.40394646522754
 10
43.74119467127779
 20
47.29730479629142
 10
43.85340516420072
 20
47.15292881310897
 10
43.93668410185059
 20
46.97437521685173
 10
43.98897320666526
 20
46.76603756727831
 10
44.00899084741051
 20
46.53304781440303
  0
LINE
  5
11D
330
2
100
AcDbEntity
  8
0
100
AcDbLine
 10
36.24450823908676
 20
47.87005972420437
 30
0.0
 11
36.2113090959758
 21
47.84974230130387
 31
0.0
  0
LINE
  5
11E
330
2
100
AcDbEntity
  8
0
100
AcDbLine
 10
36.2113090959758
 20
47.84974230130387
 30
0.0
 11
35.15821264471901
 21
47.24180266037019
 31
0.0
  0
LINE
  5
11F
330
2
100
AcDbEntity
  8
0
100
AcDbLine
 10
34.72243419122388
 20
46.99023311394802
 30
0.0
 11
34.21523073338651
 21
46.69743079023197
 31
0.0
  0
LINE
  5
120
330
2
100
AcDbEntity
  8
0
100
AcDbLine
 10
12.52096395325313
 20
29.41462833624111
 30
0.0
 11
12.44780587129749
 21
34.29673430315123
 31
0.0
  0
ARC
  5
121
330
2
100
AcDbEntity
  8
0
100
AcDbCircle
 10
33.64847033611229
 20
47.76923328378726
 30
0.0
 40
1.212426465029978
100
AcDbArc
 50
271.7829338060004
 51
297.8695200017007
  0
LINE
  5
122
330
2
100
AcDbEntity
  8
0
100
AcDbLine
 10
11.91551814820288
 20
33.98945114134722
 30
0.0
 11
12.05928724332729
 21
24.39521748547328
 31
0.0
  0
LINE
  5
123
330
2
100
AcDbEntity
  8
0
100
AcDbLine
 10
32.20799345316089
 20
45.53982933865537
 30
0.0
 11
32.17479431005
 21
45.51951191575486
 31
0.0
  0
LINE
  5
124
330
2
100
AcDbEntity
  8
0
100
AcDbLine
 10
32.17479431005
 20
45.51951191575486
 30
0.0
 11
30.17871462547363
 21
44.36719964150116
 31
0.0
  0
ARC
  5
125
330
2
100
AcDbEntity
  8
0
100
AcDbCircle
 10
29.61173388664606
 20
45.43983455155658
 30
0.0
 40
1.213265349589943
100
AcDbArc
 50
271.7921112117023
 51
297.8603425959988
  0
ARC
  5
126
330
2
100
AcDbEntity
  8
0
100
AcDbCircle
 10
27.59154713466033
 20
44.17712164042931
 30
0.0
 40
1.128016269762098
100
AcDbArc
 50
270.8987553557976
 51
300.9383652952974
  0
LINE
  5
127
330
2
100
AcDbEntity
  8
0
100
AcDbLine
 10
26.1310422438985
 20
42.03168007856652
 30
0.0
 11
26.09784243979414
 21
42.0113622740751
 31
0.0
  0
LINE
  5
128
330
2
100
AcDbEntity
  8
0
100
AcDbLine
 10
26.09784243979414
 20
42.0113622740751
 30
0.0
 11
24.10176341621131
 21
40.85905038147505
 31
0.0
  0
ARC
  5
129
330
2
100
AcDbEntity
  8
0
100
AcDbCircle
 10
23.53478357945128
 20
41.93168188355924
 30
0.0
 40
1.213261915090224
100
AcDbArc
 50
271.7920736647969
 51
297.8603801429001
  0
LINE
  5
12A
330
2
100
AcDbEntity
  8
0
100
AcDbLine
 10
22.09452679697915
 20
39.70144931142662
 30
0.0
 11
22.06132732340294
 21
39.68113169776203
 31
0.0
  0
LINE
  5
12B
330
2
100
AcDbEntity
  8
0
100
AcDbLine
 10
22.06132732340294
 20
39.68113169776203
 30
0.0
 11
20.06524829982011
 21
38.52881980509923
 31
0.0
  0
ARC
  5
12C
330
2
100
AcDbEntity
  8
0
100
AcDbCircle
 10
19.49832408393334
 20
39.60124196125694
 30
0.0
 40
1.213050842936134
100
AcDbArc
 50
271.789764983297
 51
297.862678368799
  0
SPLINE
  5
12D
330
2
100
AcDbEntity
  8
0
100
AcDbSpline
210
0.0
220
0.0
230
1.0
 70
     8
 71
     3
 72
    11
 73
     7
 74
     0
 42
0.000000001
 43
0.0000000001
 40
0.0
 40
0.0
 40
0.0
 40
0.0
 40
0.2486976464836269
 40
0.5000001142399185
 40
0.7513018852430007
 40
1.0
 40
1.0
 40
1.0
 40
1.0
 10
41.83798765214165
 20
34.4592232189048
 30
0.0
 10
41.76999161512284
 20
34.54507062475494
 30
0.0
 10
41.63328736094934
 20
34.71766458910969
 30
0.0
 10
41.45327367433988
 20
35.00397053201025
 30
0.0
 10
41.29434461267494
 20
35.30258669578254
 30
0.0
 10
41.2124735572811
 20
35.50719403625951
 30
0.0
 10
41.17175119371759
 20
35.60896497919625
 30
0.0
  0
ARC
  5
12E
330
2
100
AcDbEntity
  8
0
100
AcDbCircle
 10
41.48928404835372
 20
34.71719334434908
 30
0.0
 40
0.4337542955871553
100
AcDbArc
 50
300.3924322004993
 51
323.5060490755023
  0
LINE
  5
12F
330
2
100
AcDbEntity
  8
0
100
AcDbLine
 10
39.82872778712182
 20
33.24249455956401
 30
0.0
 11
41.70872895055129
 21
34.34304534714948
 31
0.0
  0
ARC
  5
130
330
2
100
AcDbEntity
  8
0
100
AcDbCircle
 10
43.11930267840732
 20
35.97349645099291
 30
0.0
 40
4.276243029344431
100
AcDbArc
 50
200.4908030503008
 51
219.6908661360993
  0
SPLINE
  5
131
330
2
100
AcDbEntity
  8
0
100
AcDbSpline
210
0.0
220
0.0
230
1.0
 70
     8
 71
     3
 72
    11
 73
     7
 74
     0
 42
0.000000001
 43
0.0000000001
 40
0.0
 40
0.0
 40
0.0
 40
0.0
 40
0.2484747357951478
 40
0.4998851891040607
 40
0.7485152957189455
 40
1.0
 40
1.0
 40
1.0
 40
1.0
 10
41.17175119371759
 20
35.60896497919625
 30
0.0
 10
41.17129390665641
 20
35.61040895631872
 30
0.0
 10
41.17037392970831
 20
35.61331397108655
 30
0.0
 10
41.17019816728883
 20
35.61734059696645
 30
0.0
 10
41.1708197782814
 20
35.62086447523349
 30
0.0
 10
41.17202163586692
 20
35.62237349198853
 30
0.0
 10
41.17262599469195
 20
35.62313230701292
 30
0.0
  0
ARC
  5
132
330
2
100
AcDbEntity
  8
0
100
AcDbCircle
 10
41.0633037467219
 20
35.55694523569812
 30
0.0
 40
0.127797035606597
100
AcDbArc
 50
31.1920098554018
 51
112.6058292759986
  0
ARC
  5
133
330
2
100
AcDbEntity
  8
0
100
AcDbCircle
 10
41.84949439091999
 20
34.46659477840875
 30
0.0
 40
0.0136654647296331
100
AcDbArc
 50
212.6448342640991
 51
275.0149045376994
  0
SPLINE
  5
134
330
2
100
AcDbEntity
  8
0
100
AcDbSpline
210
0.0
220
0.0
230
1.0
 70
     8
 71
     3
 72
    15
 73
    11
 74
     0
 42
0.000000001
 43
0.0000000001
 40
0.0
 40
0.0
 40
0.0
 40
0.0
 40
0.123397257977876
 40
0.2500000013224081
 40
0.3766026207019061
 40
0.5000000585795405
 40
0.6233977504775129
 40
0.7500002990577127
 40
0.87660243794442
 40
1.0
 40
1.0
 40
1.0
 40
1.0
 10
41.17262599469195
 20
35.62313230701292
 30
0.0
 10
41.19181461094355
 20
35.64640502729836
 30
0.0
 10
41.23069030532194
 20
35.69355502234261
 30
0.0
 10
41.2617203315692
 20
35.79629857828281
 30
0.0
 10
41.26985517534109
 20
35.91635799110203
 30
0.0
 10
41.25334599021011
 20
36.04867461238163
 30
0.0
 10
41.21392747345978
 20
36.18704977618316
 30
0.0
 10
41.15237512918416
 20
36.32553971570633
 30
0.0
 10
41.07284772031315
 20
36.45752122115846
 30
0.0
 10
41.00886892644218
 20
36.53187312892777
 30
0.0
 10
40.97728957991841
 20
36.56857254944038
 30
0.0
  0
ARC
  5
135
330
2
100
AcDbEntity
  8
0
100
AcDbCircle
 10
40.99633841258992
 20
36.58667698090598
 30
0.0
 40
0.026279810978712
100
AcDbArc
 50
183.9481888401002
 51
223.5439083759991
  0
SPLINE
  5
136
330
2
100
AcDbEntity
  8
0
100
AcDbSpline
210
0.0
220
0.0
230
1.0
 70
     8
 71
     3
 72
    11
 73
     7
 74
     0
 42
0.000000001
 43
0.0000000001
 40
0.0
 40
0.0
 40
0.0
 40
0.0
 40
0.2486981236081293
 40
0.5000002879798861
 40
0.7513021965888695
 40
1.0
 40
1.0
 40
1.0
 40
1.0
 10
40.97012097095155
 20
36.58486750098049
 30
0.0
 10
40.97106673426663
 20
36.67561847000821
 30
0.0
 10
40.97296816369044
 20
36.85807063325732
 30
0.0
 10
41.01974293431644
 20
37.10228499820694
 30
0.0
 10
41.09542226472411
 20
37.32096754157432
 30
0.0
 10
41.17248818656259
 20
37.43702599158086
 30
0.0
 10
41.21082045959864
 20
37.49475298799718
 30
0.0
  0
SPLINE
  5
137
330
2
100
AcDbEntity
  8
0
100
AcDbSpline
210
0.0
220
0.0
230
1.0
 70
     8
 71
     3
 72
    11
 73
     7
 74
     0
 42
0.000000001
 43
0.0000000001
 40
0.0
 40
0.0
 40
0.0
 40
0.0
 40
0.2484944541822715
 40
0.4998760116018942
 40
0.7485480290681622
 40
1.0
 40
1.0
 40
1.0
 40
1.0
 10
41.21082045959864
 20
37.49475298799718
 30
0.0
 10
41.21147683158265
 20
37.49542148595581
 30
0.0
 10
41.21279720153039
 20
37.49676624873714
 30
0.0
 10
41.21565314829325
 20
37.49725603125379
 30
0.0
 10
41.21887575118228
 20
37.49671586204206
 30
0.0
 10
41.22112881828781
 20
37.49531429270461
 30
0.0
 10
41.22226161370951
 20
37.49460961270425
 30
0.0
  0
SPLINE
  5
138
330
2
100
AcDbEntity
  8
0
100
AcDbSpline
210
0.0
220
0.0
230
1.0
 70
     8
 71
     3
 72
    15
 73
    11
 74
     0
 42
0.000000001
 43
0.0000000001
 40
0.0
 40
0.0
 40
0.0
 40
0.0
 40
0.1233976683719303
 40
0.2500001842351046
 40
0.3766028034274552
 40
0.4999998761361944
 40
0.6233975031552785
 40
0.7500000639559877
 40
0.8766025991297841
 40
1.0
 40
1.0
 40
1.0
 40
1.0
 10
41.22226161370951
 20
37.49460961270425
 30
0.0
 10
41.2576171889713
 20
37.47218478625185
 30
0.0
 10
41.32924658396549
 20
37.42675272243321
 30
0.0
 10
41.4352494178807
 20
37.39485497199111
 30
0.0
 10
41.5328780016403
 20
37.3927382171394
 30
0.0
 10
41.61670821655661
 20
37.42224647242901
 30
0.0
 10
41.68370869588261
 20
37.48079826443871
 30
0.0
 10
41.73014509158972
 20
37.56702539548515
 30
0.0
 10
41.75493243401352
 20
37.67528311794142
 30
0.0
 10
41.75100467085833
 20
37.76024179795553
 30
0.0
 10
41.7490659673039
 20
37.80217652986382
 30
0.0
  0
LWPOLYLINE
  5
139
330
2
100
AcDbEntity
  8
0
100
AcDbPolyline
 90
        9
 70
   128
 43
0.0
 10
41.74906596731768
 20
37.8021765298901
 10
41.74898499784295
 20
37.80416083351783
 10
41.74914264042889
 20
37.80600090149233
 10
41.74953559035889
 20
37.80766009657011
 10
41.75015591577404
 20
37.80910445251868
 10
41.75099105823714
 20
37.81030534544092
 10
41.75202449328753
 20
37.81123796753683
 10
41.75323506982389
 20
37.81188399842831
 10
41.75459866211722
 20
37.81222988765485
  0
SPLINE
  5
13A
330
2
100
AcDbEntity
  8
0
100
AcDbSpline
210
0.0
220
0.0
230
1.0
 70
     8
 71
     3
 72
    11
 73
     7
 74
     0
 42
0.000000001
 43
0.0000000001
 40
0.0
 40
0.0
 40
0.0
 40
0.0
 40
0.2486978672350069
 40
0.5000001394251023
 40
0.7513021266477699
 40
1.0
 40
1.0
 40
1.0
 40
1.0
 10
41.75459866209497
 20
37.81222988768123
 30
0.0
 10
41.82354042588674
 20
37.81713332836798
 30
0.0
 10
41.96214592295596
 20
37.82699155937861
 30
0.0
 10
42.18893493102405
 20
37.78489991713674
 30
0.0
 10
42.42354237109625
 20
37.70496643204422
 30
0.0
 10
42.58247956993722
 20
37.616417619974
 30
0.0
 10
42.66153427867819
 20
37.57237380519291
 30
0.0
  0
ARC
  5
13B
330
2
100
AcDbEntity
  8
0
100
AcDbCircle
 10
42.64697676219707
 20
37.55056873442169
 30
0.0
 40
0.0262179785141015
100
AcDbArc
 50
16.60826383810034
 51
56.27210643260212
  0
SPLINE
  5
13C
330
2
100
AcDbEntity
  8
0
100
AcDbSpline
210
0.0
220
0.0
230
1.0
 70
     8
 71
     3
 72
    15
 73
    11
 74
     0
 42
0.000000001
 43
0.0000000001
 40
0.0
 40
0.0
 40
0.0
 40
0.0
 40
0.1233973935027865
 40
0.2499998262106835
 40
0.3766025695722355
 40
0.5000001920997575
 40
0.6233974235994539
 40
0.7500001196681026
 40
0.8766024810544671
 40
1.0
 40
1.0
 40
1.0
 40
1.0
 10
42.67210096230249
 20
37.55806252966188
 30
0.0
 10
42.68826781419128
 20
37.51236489440663
 30
0.0
 10
42.72102142468348
 20
37.41978270488248
 30
0.0
 10
42.79599400656606
 20
37.28514175191453
 30
0.0
 10
42.88548850340932
 20
37.16296539950248
 30
0.0
 10
42.98582719133351
 20
37.06015713821118
 30
0.0
 10
43.0922463355991
 20
36.98033427575806
 30
0.0
 10
43.20023551070597
 20
36.92807117249359
 30
0.0
 10
43.30454950013433
 20
36.90434709960638
 30
0.0
 10
43.36460070649573
 20
36.91495369889349
 30
0.0
 10
43.39424140018263
 20
36.92018901354544
 30
0.0
  0
ARC
  5
13D
330
2
100
AcDbEntity
  8
0
100
AcDbCircle
 10
43.39543670838603
 20
36.90657692202837
 30
0.0
 40
0.0136644720949686
100
AcDbArc
 50
32.64411421009901
 51
95.01839800940258
  0
SPLINE
  5
13E
330
2
100
AcDbEntity
  8
0
100
AcDbSpline
210
0.0
220
0.0
230
1.0
 70
     8
 71
     3
 72
    11
 73
     7
 74
     0
 42
0.000000001
 43
0.0000000001
 40
0.0
 40
0.0
 40
0.0
 40
0.0
 40
0.2486978879964402
 40
0.4999999589045112
 40
0.7513023097524721
 40
1.0
 40
1.0
 40
1.0
 40
1.0
 10
43.40694270394041
 20
36.91394780145773
 30
0.0
 10
43.4749386857055
 20
36.82810022329998
 30
0.0
 10
43.61164265356812
 20
36.6555061337532
 30
0.0
 10
43.79165713946984
 20
36.36920064282055
 30
0.0
 10
43.95058543573365
 20
36.07058427823853
 30
0.0
 10
44.03245653076109
 20
35.8659769589952
 30
0.0
 10
44.0731788318769
 20
35.76420623195274
 30
0.0
  0
SPLINE
  5
13F
330
2
100
AcDbEntity
  8
0
100
AcDbSpline
210
0.0
220
0.0
230
1.0
 70
     8
 71
     3
 72
    11
 73
     7
 74
     0
 42
0.000000001
 43
0.0000000001
 40
0.0
 40
0.0
 40
0.0
 40
0.0
 40
0.2485003863748582
 40
0.4998800932583606
 40
0.7485332572080878
 40
1.0
 40
1.0
 40
1.0
 40
1.0
 10
44.0731788318769
 20
35.76420623195274
 30
0.0
 10
44.07363625049518
 20
35.76276206562717
 30
0.0
 10
44.07455638774272
 20
35.75985699973156
 30
0.0
 10
44.07473227989672
 20
35.7558300571357
 30
0.0
 10
44.07411016383357
 20
35.75230665875082
 30
0.0
 10
44.07290854888994
 20
35.75079727123505
 30
0.0
 10
44.07230436139026
 20
35.7500383317146
 30
0.0
  0
SPLINE
  5
140
330
2
100
AcDbEntity
  8
0
100
AcDbSpline
210
0.0
220
0.0
230
1.0
 70
     8
 71
     3
 72
    15
 73
    11
 74
     0
 42
0.000000001
 43
0.0000000001
 40
0.0
 40
0.0
 40
0.0
 40
0.0
 40
0.1233971258240388
 40
0.2500000464576384
 40
0.3766027010978191
 40
0.5000000827505553
 40
0.6233974774586021
 40
0.7499999893285111
 40
0.8766027119281371
 40
1.0
 40
1.0
 40
1.0
 40
1.0
 10
44.07230436139026
 20
35.7500383317146
 30
0.0
 10
44.05311592910143
 20
35.72676547648687
 30
0.0
 10
44.01424055877507
 20
35.67961514904379
 30
0.0
 10
43.98320971960883
 20
35.57687233305944
 30
0.0
 10
43.97507590486777
 20
35.45681227489541
 30
0.0
 10
43.99158375156043
 20
35.32449644345492
 30
0.0
 10
44.03100254403644
 20
35.18612125155187
 30
0.0
 10
44.09255556156518
 20
35.04763157779726
 30
0.0
 10
44.17208232199373
 20
34.91564964024667
 30
0.0
 10
44.23606117781497
 20
34.84129762612716
 30
0.0
 10
44.267640445676
 20
34.80459828007361
 30
0.0
  0
ARC
  5
141
330
2
100
AcDbEntity
  8
0
100
AcDbCircle
 10
44.24859898845483
 20
34.78649658288411
 30
0.0
 40
0.0262725813891153
100
AcDbArc
 50
3.94288284869962
 51
43.55066704899875
  0
SPLINE
  5
142
330
2
100
AcDbEntity
  8
0
100
AcDbSpline
210
0.0
220
0.0
230
1.0
 70
     8
 71
     3
 72
    11
 73
     7
 74
     0
 42
0.000000001
 43
0.0000000001
 40
0.0
 40
0.0
 40
0.0
 40
0.0
 40
0.2486978091286172
 40
0.4999999913016542
 40
0.7513020200205487
 40
1.0
 40
1.0
 40
1.0
 40
1.0
 10
44.27480938513044
 20
34.78830313774703
 30
0.0
 10
44.27386349832119
 20
34.69755236019695
 30
0.0
 10
44.27196181933954
 20
34.51510045945605
 30
0.0
 10
44.22518684092655
 20
34.27088642941044
 30
0.0
 10
44.14950871505942
 20
34.05220258223605
 30
0.0
 10
44.07244237968225
 20
33.93614448060026
 30
0.0
 10
44.03410989648356
 20
33.87841765073034
 30
0.0
  0
SPLINE
  5
143
330
2
100
AcDbEntity
  8
0
100
AcDbSpline
210
0.0
220
0.0
230
1.0
 70
     8
 71
     3
 72
    11
 73
     7
 74
     0
 42
0.000000001
 43
0.0000000001
 40
0.0
 40
0.0
 40
0.0
 40
0.0
 40
0.2485090343935768
 40
0.499875677905685
 40
0.7484998229711075
 40
1.0
 40
1.0
 40
1.0
 40
1.0
 10
44.03410989648356
 20
33.87841765073034
 30
0.0
 10
44.03345342108069
 20
33.87774918843858
 30
0.0
 10
44.03213292145413
 20
33.87640457719731
 30
0.0
 10
44.0292769442349
 20
33.87591537958631
 30
0.0
 10
44.02605454550079
 20
33.87645501545991
 30
0.0
 10
44.02380144201475
 20
33.87785671722514
 30
0.0
 10
44.02266841188491
 20
33.87856159844474
 30
0.0
  0
SPLINE
  5
144
330
2
100
AcDbEntity
  8
0
100
AcDbSpline
210
0.0
220
0.0
230
1.0
 70
     8
 71
     3
 72
    15
 73
    11
 74
     0
 42
0.000000001
 43
0.0000000001
 40
0.0
 40
0.0
 40
0.0
 40
0.0
 40
0.1233969664823319
 40
0.2499994692098173
 40
0.3766021605266239
 40
0.4999999047322194
 40
0.6233971223225825
 40
0.7499999215331097
 40
0.8766025288313143
 40
1.0
 40
1.0
 40
1.0
 40
1.0
 10
44.02266841188491
 20
33.87856159844474
 30
0.0
 10
43.98731306886484
 20
33.90098606941219
 30
0.0
 10
43.91568394182253
 20
33.94641754150578
 30
0.0
 10
43.80968117903674
 20
33.97831610570301
 30
0.0
 10
43.71205269037021
 20
33.98043228656909
 30
0.0
 10
43.62822175554126
 20
33.95092531984391
 30
0.0
 10
43.56122216864793
 20
33.89237204961912
 30
0.0
 10
43.51478513463002
 20
33.8061458528551
 30
0.0
 10
43.48999795623252
 20
33.69788785870472
 30
0.0
 10
43.49392569651413
 20
33.61292920795999
 30
0.0
 10
43.49586438877823
 20
33.57099449049869
 30
0.0
  0
SPLINE
  5
145
330
2
100
AcDbEntity
  8
0
100
AcDbSpline
210
0.0
220
0.0
230
1.0
 70
     8
 71
     3
 72
    11
 73
     7
 74
     0
 42
0.000000001
 43
0.0000000001
 40
0.0
 40
0.0
 40
0.0
 40
0.0
 40
0.2485205054573426
 40
0.4998719205174633
 40
0.7485365641084469
 40
1.0
 40
1.0
 40
1.0
 40
1.0
 10
43.49586438877823
 20
33.57099449049869
 30
0.0
 10
43.49590934292687
 20
33.56967653469062
 30
0.0
 10
43.49599976329932
 20
33.56702561017349
 30
0.0
 10
43.49489967812488
 20
33.56394106153822
 30
0.0
 10
43.49307389369093
 20
33.56165669016786
 30
0.0
 10
43.49124916437542
 20
33.56118054004607
 30
0.0
 10
43.49033169398716
 20
33.56094113268127
 30
0.0
  0
SPLINE
  5
146
330
2
100
AcDbEntity
  8
0
100
AcDbSpline
210
0.0
220
0.0
230
1.0
 70
     8
 71
     3
 72
    11
 73
     7
 74
     0
 42
0.000000001
 43
0.0000000001
 40
0.0
 40
0.0
 40
0.0
 40
0.0
 40
0.2486978428336977
 40
0.5000002051524417
 40
0.7513021677182935
 40
1.0
 40
1.0
 40
1.0
 40
1.0
 10
43.49033169398716
 20
33.56094113268127
 30
0.0
 10
43.42138991856202
 20
33.55603773494515
 30
0.0
 10
43.28278436628429
 20
33.54617958802243
 30
0.0
 10
43.05599549613887
 20
33.58827059692504
 30
0.0
 10
42.82138798552267
 20
33.66820413371888
 30
0.0
 10
42.66245078454471
 20
33.7567532503733
 30
0.0
 10
42.58339607740388
 20
33.80079721516961
 30
0.0
  0
ARC
  5
147
330
2
100
AcDbEntity
  8
0
100
AcDbCircle
 10
42.5979567347393
 20
33.82260460498065
 30
0.0
 40
0.0262216512027383
100
AcDbArc
 50
196.6111580519991
 51
236.2692122182
  0
SPLINE
  5
148
330
2
100
AcDbEntity
  8
0
100
AcDbSpline
210
0.0
220
0.0
230
1.0
 70
     8
 71
     3
 72
    15
 73
    11
 74
     0
 42
0.000000001
 43
0.0000000001
 40
0.0
 40
0.0
 40
0.0
 40
0.0
 40
0.1233974005076996
 40
0.2499998404024506
 40
0.3766025909508742
 40
0.5000002204833222
 40
0.6233974022208149
 40
0.7500001054763325
 40
0.8766024740495467
 40
1.0
 40
1.0
 40
1.0
 40
1.0
 10
42.57282939377964
 20
33.81510849070063
 30
0.0
 10
42.55666254178502
 20
33.86080612519817
 30
0.0
 10
42.52390893107794
 20
33.95338831318716
 30
0.0
 10
42.44893635083778
 20
34.08802927789817
 30
0.0
 10
42.35944184777401
 20
34.21020558583066
 30
0.0
 10
42.25910319777645
 20
34.31301399360925
 30
0.0
 10
42.15268398619644
 20
34.3928362422041
 30
0.0
 10
42.04469485023452
 20
34.44509950093912
 30
0.0
 10
41.94038085476893
 20
34.46882353070061
 30
0.0
 10
41.88032964919679
 20
34.45821693705124
 30
0.0
 10
41.85068895589949
 20
34.45298162518204
 30
0.0
  0
ARC
  5
149
330
2
100
AcDbEntity
  8
0
100
AcDbCircle
 10
39.25118079948337
 20
34.54809583799185
 30
0.0
 40
0.1550421040786766
100
AcDbArc
 50
145.4590597645005
 51
207.4740986223002
  0
LINE
  5
14A
330
2
100
AcDbEntity
  8
0
100
AcDbLine
 10
41.01417994033893
 20
35.67492376739949
 30
0.0
 11
39.12346932260905
 21
34.63600393036478
 31
0.0
  0
ARC
  5
14B
330
2
100
AcDbEntity
  8
0
100
AcDbCircle
 10
39.95821607219053
 20
33.32544738428249
 30
0.0
 40
0.1537803208885337
100
AcDbArc
 50
212.6444494249992
 51
275.0161422583972
  0
ARC
  5
14C
330
2
100
AcDbEntity
  8
0
100
AcDbCircle
 10
42.57306455066268
 20
33.47056000885107
 30
0.0
 40
0.3445485620905096
100
AcDbArc
 50
90.03910478550318
 51
119.3269726344986
  0
LWPOLYLINE
  5
14D
330
2
100
AcDbEntity
  8
0
100
AcDbPolyline
 90
        9
 70
   128
 43
0.0
 10
39.12346932260905
 20
34.63600393036478
 10
39.16346990285133
 20
34.69271578422714
 10
39.18700624626833
 20
34.76724043398183
 10
39.19288595311132
 20
34.85580339738321
 10
39.18081125406533
 20
34.95392215249009
 10
39.15139388181833
 20
35.05662653310456
 10
39.1061233445034
 20
35.15871823774935
 10
39.04729190491412
 20
35.25502556370883
 10
38.97787791826035
 20
35.34067454822435
  0
LINE
  5
14E
330
2
100
AcDbEntity
  8
0
100
AcDbLine
 10
42.40430709951329
 20
33.77095081150839
 30
0.0
 11
40.50989931576434
 21
32.69682537018209
 31
0.0
  0
LWPOLYLINE
  5
14F
330
2
100
AcDbEntity
  8
0
100
AcDbPolyline
 90
        9
 70
   128
 43
0.0
 10
40.50989931576434
 20
32.69682537018209
 10
40.470049768424
 20
32.7997352364634
 10
40.4157380787545
 20
32.89868161105309
 10
40.34971324356276
 20
32.98865579227861
 10
40.27531880714039
 20
33.06510194437976
 10
40.1963216682805
 20
33.12414797035625
 10
40.11672205032765
 20
33.1628052800439
 10
40.0405495899897
 20
33.17911703645604
 10
39.97166207024846
 20
33.17225602610299
  0
ARC
  5
150
330
2
100
AcDbEntity
  8
0
100
AcDbCircle
 10
40.88434871865266
 20
36.40598904208707
 30
0.0
 40
0.1983793898457152
100
AcDbArc
 50
64.38227396959749
 51
116.9976609615023
  0
ARC
  5
151
330
2
100
AcDbEntity
  8
0
100
AcDbCircle
 10
39.1921938796985
 20
35.54439188440355
 30
0.0
 40
0.2956891685404726
100
AcDbArc
 50
183.9446492021003
 51
223.5476601141021
  0
LINE
  5
152
330
2
100
AcDbEntity
  8
0
100
AcDbLine
 10
38.89720520671446
 20
35.5240506159922
 30
0.0
 11
40.79429357629556
 21
36.58275004929899
 31
0.0
  0
ARC
  5
153
330
2
100
AcDbEntity
  8
0
100
AcDbCircle
 10
43.36857220456824
 20
33.5038081738784
 30
0.0
 40
0.1344973912183538
100
AcDbArc
 50
307.118584856
 51
25.13728336149989
  0
ARC
  5
154
330
2
100
AcDbEntity
  8
0
100
AcDbCircle
 10
40.79265676140195
 20
32.7811732193567
 30
0.0
 40
0.2950700471169442
100
AcDbArc
 50
196.6100845683007
 51
236.2699625566992
  0
ARC
  5
155
330
2
100
AcDbEntity
  8
0
100
AcDbCircle
 10
40.44078262976436
 20
35.63819996552417
 30
0.0
 40
1.547792406915563
100
AcDbArc
 50
146.1356506708994
 51
184.2293910229998
  0
LINE
  5
156
330
2
100
AcDbEntity
  8
0
100
AcDbLine
 10
40.47801881858176
 20
37.22802171808665
 30
0.0
 11
39.15555901848911
 21
36.50067408334165
 31
0.0
  0
LINE
  5
157
330
2
100
AcDbEntity
  8
0
100
AcDbLine
 10
40.50627849239096
 20
37.24308693381956
 30
0.0
 11
40.47801881858176
 21
37.22802171808665
 31
0.0
  0
LINE
  5
158
330
2
100
AcDbEntity
  8
0
100
AcDbLine
 10
40.53906948322352
 20
37.26159946637085
 30
0.0
 11
40.50627849239096
 21
37.24308693381956
 31
0.0
  0
ARC
  5
159
330
2
100
AcDbEntity
  8
0
100
AcDbCircle
 10
41.48584618317135
 20
33.80724603699017
 30
0.0
 40
1.533346371229615
100
AcDbArc
 50
236.0180423899989
 51
274.3544517295986
  0
LINE
  5
15A
330
2
100
AcDbEntity
  8
0
100
AcDbLine
 10
42.95296561407503
 20
33.09587566277038
 30
0.0
 11
43.44973689681912
 21
33.39656153763583
 31
0.0
  0
LINE
  5
15B
330
2
100
AcDbEntity
  8
0
100
AcDbLine
 10
42.92054212558197
 20
33.07672965061335
 30
0.0
 11
42.95296561407503
 21
33.09587566277038
 31
0.0
  0
LINE
  5
15C
330
2
100
AcDbEntity
  8
0
100
AcDbLine
 10
42.89336546007991
 20
33.05980158468068
 30
0.0
 11
42.92054212558197
 21
33.07672965061335
 31
0.0
  0
LINE
  5
15D
330
2
100
AcDbEntity
  8
0
100
AcDbLine
 10
41.60226762186542
 20
32.27832578309617
 30
0.0
 11
42.89336546007991
 21
33.05980158468068
 31
0.0
  0
LWPOLYLINE
  5
15E
330
2
100
AcDbEntity
  8
0
100
AcDbPolyline
 90
        3
 70
   128
 43
0.0
 10
41.07519821711558
 20
37.55966014147657
 10
41.06602949653171
 20
37.55638237215261
 10
41.06356042284298
 20
37.55511911938512
  0
SPLINE
  5
15F
330
2
100
AcDbEntity
  8
0
100
AcDbSpline
210
0.0
220
0.0
230
1.0
 70
     8
 71
     3
 72
     9
 73
     5
 74
     0
 42
0.000000001
 43
0.0000000001
 40
0.0
 40
0.0
 40
0.0
 40
0.0
 40
0.1938819978677447
 40
1.0
 40
1.0
 40
1.0
 40
1.0
 10
40.63920825148737
 20
37.32052774428461
 30
0.0
 10
40.63211318299664
 20
37.31704917195795
 30
0.0
 10
40.59551840592175
 20
37.29910747358021
 30
0.0
 10
40.56426412317415
 20
37.27834027721704
 30
0.0
 10
40.53906948320769
 20
37.26159946637483
 30
0.0
  0
SPLINE
  5
160
330
2
100
AcDbEntity
  8
0
100
AcDbSpline
210
0.0
220
0.0
230
1.0
 70
     8
 71
     3
 72
     9
 73
     5
 74
     0
 42
0.000000001
 43
0.0000000001
 40
0.0
 40
0.0
 40
0.0
 40
0.0
 40
0.8192717791348602
 40
1.0
 40
1.0
 40
1.0
 40
1.0
 10
42.9529656140843
 20
33.09587566279158
 30
0.0
 10
42.98011448924902
 20
33.10935795615585
 30
0.0
 10
43.01325230243411
 20
33.12581439186813
 30
0.0
 10
43.04653894551573
 20
33.14830737908542
 30
0.0
 10
43.05255478129862
 20
33.15237249664715
 30
0.0
  0
LWPOLYLINE
  5
161
330
2
100
AcDbEntity
  8
0
100
AcDbPolyline
 90
        3
 70
   128
 43
0.0
 10
42.90504423481919
 20
33.06491219671875
 10
42.90193104057729
 20
33.06283052229597
 10
42.89336546007991
 20
33.05980158468068
  0
LWPOLYLINE
  5
162
330
2
100
AcDbEntity
  8
0
100
AcDbPolyline
 90
        3
 70
   128
 43
0.0
 10
39.15555901848911
 20
36.50067408334165
 10
39.16651699956414
 20
36.51213580173489
 10
39.17627828458956
 20
36.51875617696193
  0
SPLINE
  5
163
330
2
100
AcDbEntity
  8
0
100
AcDbSpline
210
0.0
220
0.0
230
1.0
 70
     8
 71
     3
 72
     9
 73
     5
 74
     0
 42
0.000000001
 43
0.0000000001
 40
0.0
 40
0.0
 40
0.0
 40
0.0
 40
0.1702236674351738
 40
1.0
 40
1.0
 40
1.0
 40
1.0
 10
42.83097731168329
 20
33.01805752641407
 30
0.0
 10
42.83362185501276
 20
33.01923464771897
 30
0.0
 10
42.84915755207118
 20
33.02614979249642
 30
0.0
 10
42.87331783177107
 20
33.04454099779606
 30
0.0
 10
42.89336546005403
 20
33.05980158468103
 30
0.0
  0
LWPOLYLINE
  5
164
330
2
100
AcDbEntity
  8
0
100
AcDbPolyline
 90
        3
 70
   128
 43
0.0
 10
41.62764577328135
 20
32.2871420250316
 10
41.61761084435622
 20
32.28221951830186
 10
41.60226762186542
 20
32.27832578309617
  0
LWPOLYLINE
  5
165
330
2
100
AcDbEntity
  8
0
100
AcDbPolyline
 90
        3
 70
   128
 43
0.0
 10
44.05546535145242
 20
33.76901890721843
 10
44.05002221885475
 20
33.75826075130469
 10
44.03826412703025
 20
33.74325030857689
  0
LINE
  5
166
330
2
100
AcDbEntity
  8
0
100
AcDbLine
 10
44.31151599438591
 20
34.74025847550509
 30
0.0
 11
44.31145187971185
 21
34.74172180059283
 31
0.0
  0
SPLINE
  5
167
330
2
100
AcDbEntity
  8
0
100
AcDbSpline
210
0.0
220
0.0
230
1.0
 70
     8
 71
     3
 72
     9
 73
     5
 74
     0
 42
0.000000001
 43
0.0000000001
 40
0.0
 40
0.0
 40
0.0
 40
0.0
 40
0.1414618772775259
 40
1.0
 40
1.0
 40
1.0
 40
1.0
 10
43.5891736284841
 20
33.46528828055517
 30
0.0
 10
43.58746099969649
 20
33.46389067750187
 30
0.0
 10
43.57535435428373
 20
33.45401096234358
 30
0.0
 10
43.55030622717972
 20
33.4422048500353
 30
0.0
 10
43.52880145515825
 20
33.43206885253744
 30
0.0
  0
SPLINE
  5
168
330
2
100
AcDbEntity
  8
0
100
AcDbSpline
210
0.0
220
0.0
230
1.0
 70
     8
 71
     3
 72
    10
 73
     6
 74
     0
 42
0.000000001
 43
0.0000000001
 40
0.0
 40
0.0
 40
0.0
 40
0.0
 40
0.1610299502285665
 40
0.5716616353893885
 40
1.0
 40
1.0
 40
1.0
 40
1.0
 10
40.85542454943427
 20
37.44082549402914
 30
0.0
 10
40.86437048324325
 20
37.45024830225565
 30
0.0
 10
40.89612884337451
 20
37.48369958230064
 30
0.0
 10
40.96973291775794
 20
37.52253460246244
 30
0.0
 10
41.02565268106867
 20
37.550261657932
 30
0.0
 10
41.05420266324331
 20
37.56441777899806
 30
0.0
  0
ARC
  5
169
330
2
100
AcDbEntity
  8
0
100
AcDbCircle
 10
39.75190540495741
 20
36.77193822441935
 30
0.0
 40
0.0715832258237693
100
AcDbArc
 50
119.9508567464972
 51
158.3863658455
  0
LWPOLYLINE
  5
16A
330
2
100
AcDbEntity
  8
0
100
AcDbPolyline
 90
        3
 70
   128
 43
0.0
 10
43.46207268120231
 20
33.39000874107266
 10
43.46417524401024
 20
33.39108786321226
 10
43.46438411224242
 20
33.39121611658637
  0
SPLINE
  5
16B
330
2
100
AcDbEntity
  8
0
100
AcDbSpline
210
0.0
220
0.0
230
1.0
 70
     8
 71
     2
 72
     6
 73
     3
 74
     0
 42
0.000000001
 43
0.0000000001
 40
0.0
 40
0.0
 40
0.0
 40
1.0
 40
1.0
 40
1.0
 10
43.46954368639808
 20
33.3961947837964
 30
0.0
 10
43.44291800033011
 20
33.37860475212721
 30
0.0
 10
43.3752139006459
 20
33.33438181313237
 30
0.0
  0
ARC
  5
16C
330
2
100
AcDbEntity
  8
0
100
AcDbCircle
 10
42.13300244386983
 20
32.66031601737647
 30
0.0
 40
0.0674743895798647
100
AcDbArc
 50
269.1401263374995
 51
300.782446692601
  0
LINE
  5
16D
330
2
100
AcDbEntity
  8
0
100
AcDbLine
 10
41.0839330073653
 20
37.58034181205931
 30
0.0
 11
41.11490532428092
 21
37.59779265615061
 31
0.0
  0
LWPOLYLINE
  5
16E
330
2
100
AcDbEntity
  8
0
100
AcDbPolyline
 90
        3
 70
   128
 43
0.0
 10
43.48945623201891
 20
33.40705264045182
 10
43.49209220201412
 20
33.40840921863633
 10
43.49231627271993
 20
33.40854777314567
  0
LINE
  5
16F
330
2
100
AcDbEntity
  8
0
100
AcDbLine
 10
43.52880145513235
 20
33.4320688525501
 30
0.0
 11
43.49819697102178
 21
33.41398395637265
 31
0.0
  0
LINE
  5
170
330
2
100
AcDbEntity
  8
0
100
AcDbLine
 10
41.05420266326692
 20
37.56441777897997
 30
0.0
 11
41.0839330073653
 21
37.58034181205931
 31
0.0
  0
LINE
  5
171
330
2
100
AcDbEntity
  8
0
100
AcDbLine
 10
43.49819697102178
 20
33.41398395637265
 30
0.0
 11
43.46954368641456
 21
33.39619478379904
 31
0.0
  0
LINE
  5
172
330
2
100
AcDbEntity
  8
0
100
AcDbLine
 10
44.10187111405406
 20
35.75716930305797
 30
0.0
 11
44.10246202610598
 21
35.75497575450017
 31
0.0
  0
LWPOLYLINE
  5
173
330
2
100
AcDbEntity
  8
0
100
AcDbPolyline
 90
        9
 70
   128
 43
0.0
 10
40.64337404907867
 20
30.19808754064036
 10
40.61112902399577
 20
30.18010034666426
 10
40.3933726533313
 20
30.08784674587956
 10
40.15648434897467
 20
30.03510240424541
 10
39.90324285162411
 20
30.02248583131108
 10
39.63661627143548
 20
30.05014518917043
 10
39.35973135273469
 20
30.11775542723666
 10
39.07583381522468
 20
30.22452362181765
 10
38.90228976016503
 20
30.30750970886738
  0
LWPOLYLINE
  5
174
330
2
100
AcDbEntity
  8
0
100
AcDbPolyline
 90
        9
 70
   128
 43
0.0
 10
36.10055357517027
 20
35.04630690901063
 10
36.10276123311917
 20
35.12833040273713
 10
36.13104850260651
 20
35.44316696271338
 10
36.19017655494467
 20
35.73472649002076
 10
36.27945252261279
 20
35.99959071027737
 10
36.39782925530634
 20
36.23465387487459
 10
36.54391920029866
 20
36.4371609259016
 10
36.7160094398697
 20
36.6047369787631
 10
36.87983765190413
 20
36.71743037475571
  0
SPLINE
  5
175
330
2
100
AcDbEntity
  8
0
100
AcDbSpline
210
0.0
220
0.0
230
1.0
 70
     8
 71
     3
 72
    15
 73
    11
 74
     0
 42
0.000000001
 43
0.0000000001
 40
0.0
 40
0.0
 40
0.0
 40
0.0
 40
0.1062047670218319
 40
0.211718882120299
 40
0.3340040213822888
 40
0.4605688606009428
 40
0.6112195943518116
 40
0.7562449571305809
 40
0.8882456660021478
 40
1.0
 40
1.0
 40
1.0
 40
1.0
 10
12.78193200542762
 20
10.77392132200952
 30
0.0
 10
12.78155853024002
 20
10.76379043691017
 30
0.0
 10
12.78081400858186
 20
10.743594548079
 30
0.0
 10
12.78888494321379
 20
10.70627027596156
 30
0.0
 10
12.80411867086556
 20
10.66746417088748
 30
0.0
 10
12.82884133624992
 20
10.62848639227617
 30
0.0
 10
12.86162292400009
 20
10.59634048503509
 30
0.0
 10
12.89870678728992
 20
10.57906581825605
 30
0.0
 10
12.93233325049184
 20
10.57771443597368
 30
0.0
 10
12.94732214338486
 20
10.58890943283052
 30
0.0
 10
12.95419409861849
 20
10.59404200117907
 30
0.0
  0
SPLINE
  5
176
330
2
100
AcDbEntity
  8
0
100
AcDbSpline
210
0.0
220
0.0
230
1.0
 70
     8
 71
     3
 72
    10
 73
     6
 74
     0
 42
0.000000001
 43
0.0000000001
 40
0.0
 40
0.0
 40
0.0
 40
0.0
 40
0.2797190639033901
 40
0.9017751893989423
 40
1.0
 40
1.0
 40
1.0
 40
1.0
 10
12.80242554846537
 20
10.80850863384812
 30
0.0
 10
12.79933405278158
 20
10.80727535628104
 30
0.0
 10
12.7893675025332
 20
10.80329944167546
 30
0.0
 10
12.78412418194146
 20
10.78799517971029
 30
0.0
 10
12.78219507764652
 20
10.77561025579242
 30
0.0
 10
12.78193200542762
 20
10.77392132200952
 30
0.0
  0
SPLINE
  5
177
330
2
100
AcDbEntity
  8
0
100
AcDbSpline
210
0.0
220
0.0
230
1.0
 70
     8
 71
     3
 72
    19
 73
    15
 74
     0
 42
0.000000001
 43
0.0000000001
 40
0.0
 40
0.0
 40
0.0
 40
0.0
 40
0.1198925216115837
 40
0.1849760904540738
 40
0.2499999361023902
 40
0.3150838214176236
 40
0.3801081022409551
 40
0.5000001268236775
 40
0.6198920802941109
 40
0.6849760227750853
 40
0.7499999582292164
 40
0.8150840324404983
 40
0.8801079579767602
 40
1.0
 40
1.0
 40
1.0
 40
1.0
 10
10.61918472368437
 20
11.48103389308795
 30
0.0
 10
10.62827442270414
 20
11.51624777245713
 30
0.0
 10
10.64229845827754
 20
11.5705774808315
 30
0.0
 10
10.68299141097154
 20
11.64857227268663
 30
0.0
 10
10.72134199880748
 20
11.70749521640147
 30
0.0
 10
10.76558079363777
 20
11.76275730180993
 30
0.0
 10
10.82736824941897
 20
11.82550031623549
 30
0.0
 10
10.90781079330582
 20
11.88460340168506
 30
0.0
 10
10.98331789558111
 20
11.91171403286646
 30
0.0
 10
11.03543984427736
 20
11.91194085842422
 30
0.0
 10
11.06926836067178
 20
11.89982355534174
 30
0.0
 10
11.09485588559758
 20
11.87626035168218
 30
0.0
 10
11.11677545611044
 20
11.8328760277118
 30
0.0
 10
11.11505169782713
 20
11.78536216355065
 30
0.0
 10
11.11393408260291
 20
11.75455609377811
 30
0.0
  0
LINE
  5
178
330
2
100
AcDbEntity
  8
0
100
AcDbLine
 10
10.61713239501532
 20
11.46775858418373
 30
0.0
 11
10.61918472369863
 21
11.48103389311097
 31
0.0
  0
SPLINE
  5
179
330
2
100
AcDbEntity
  8
0
100
AcDbSpline
210
0.0
220
0.0
230
1.0
 70
     8
 71
     3
 72
    19
 73
    15
 74
     0
 42
0.000000001
 43
0.0000000001
 40
0.0
 40
0.0
 40
0.0
 40
0.0
 40
0.1198925522776923
 40
0.1849760317620996
 40
0.2499999856320073
 40
0.3150838137631012
 40
0.3801081639164105
 40
0.5000001995873012
 40
0.6198921581788825
 40
0.6849761173070275
 40
0.7500001479729867
 40
0.8150836045565434
 40
0.8801080474002979
 40
1.0
 40
1.0
 40
1.0
 40
1.0
 10
11.11188175390976
 20
11.74128078486668
 30
0.0
 10
11.10279183672935
 20
11.70606707616161
 30
0.0
 10
11.08876747260391
 20
11.65173766223098
 30
0.0
 10
11.04807618537166
 20
11.57374158620438
 30
0.0
 10
11.0097239529168
 20
11.51481992438494
 30
0.0
 10
10.96548684621994
 20
11.45955658716534
 30
0.0
 10
10.90369749941063
 20
11.39681487784611
 30
0.0
 10
10.82325703404983
 20
11.33771049456326
 30
0.0
 10
10.74774852961025
 20
11.31060061605283
 30
0.0
 10
10.69562637937276
 20
11.310374063806
 30
0.0
 10
10.66179923925244
 20
11.32249008790103
 30
0.0
 10
10.6362109200013
 20
11.34605561806037
 30
0.0
 10
10.61429196129152
 20
11.38943718832967
 30
0.0
 10
10.61601515150142
 20
11.436951996566
 30
0.0
 10
10.61713239499129
 20
11.46775858417653
 30
0.0
  0
LINE
  5
17A
330
2
100
AcDbEntity
  8
0
100
AcDbLine
 10
11.11393408258137
 20
11.75455609375323
 30
0.0
 11
11.11188175389799
 21
11.7412807848887
 31
0.0
  0
LWPOLYLINE
  5
17B
330
2
100
AcDbEntity
  8
0
100
AcDbPolyline
 90
       12
 70
   128
 43
0.0
 10
11.41055870188957
 20
11.83157627512785
 10
11.45293515831142
 20
11.77662081105319
 10
11.46981316582824
 20
11.68732730814446
 10
11.45484868218991
 20
11.57504659365006
 10
11.40937026810167
 20
11.44975549474779
 10
11.33741846631881
 20
11.32258578254763
 10
11.24538755309057
 20
11.20483803925829
 10
11.14145445534782
 20
11.10697417690118
 10
11.03485366086358
 20
11.03768973731689
 10
10.93505826928348
 20
11.00314191275133
 10
10.85093460511003
 20
11.0063981613018
 10
10.81231315003748
 20
11.0256621222475
  0
SPLINE
  5
17C
330
2
100
AcDbEntity
  8
0
100
AcDbSpline
210
0.0
220
0.0
230
1.0
 70
     8
 71
     3
 72
    16
 73
    12
 74
     0
 42
0.000000001
 43
0.0000000001
 40
0.0
 40
0.0
 40
0.0
 40
0.0
 40
0.0276255792633341
 40
0.1649060601408828
 40
0.2893425843470155
 40
0.4199513614440095
 40
0.5548405531524609
 40
0.6911082699195307
 40
0.8308841538415402
 40
0.9639660849756396
 40
1.0
 40
1.0
 40
1.0
 40
1.0
 10
12.63989631840082
 20
10.81708291897279
 30
0.0
 10
12.63851891543686
 20
10.81569447478508
 30
0.0
 10
12.63029674952898
 20
10.80740640022415
 30
0.0
 10
12.6075094968551
 20
10.80502465047953
 30
0.0
 10
12.5765033226095
 20
10.81171312743682
 30
0.0
 10
12.54593763701285
 20
10.83221078440541
 30
0.0
 10
12.51931714526475
 20
10.86387107483066
 30
0.0
 10
12.49858568974058
 20
10.90359049878433
 30
0.0
 10
12.48714446731022
 20
10.94604061890162
 30
0.0
 10
12.48448536221067
 20
10.97642561093293
 30
0.0
 10
12.48590566774177
 20
10.99045351281314
 30
0.0
 10
12.48620829561484
 20
10.99344247118579
 30
0.0
  0
SPLINE
  5
17D
330
2
100
AcDbEntity
  8
0
100
AcDbSpline
210
0.0
220
0.0
230
1.0
 70
     8
 71
     3
 72
    10
 73
     6
 74
     0
 42
0.000000001
 43
0.0000000001
 40
0.0
 40
0.0
 40
0.0
 40
0.0
 40
0.491106165952534
 40
0.9809036546174006
 40
1.0
 40
1.0
 40
1.0
 40
1.0
 10
12.48620829561484
 20
10.99344247118579
 30
0.0
 10
12.48848268399421
 20
11.00243933319597
 30
0.0
 10
12.49302540006669
 20
11.02040908278919
 30
0.0
 10
12.50223758214768
 20
11.03300731242555
 30
0.0
 10
12.50936068110894
 20
11.0341628284921
 30
0.0
 10
12.50962797685674
 20
11.03420618946926
 30
0.0
  0
LWPOLYLINE
  5
17E
330
2
100
AcDbEntity
  8
0
100
AcDbPolyline
 90
       11
 70
   128
 43
0.0
 10
12.2041647941609
 20
9.836214518426192
 10
12.24945549124389
 20
9.813071547242369
 10
12.3437892428479
 20
9.806030930651116
 10
12.45549871638611
 20
9.838586407065539
 10
12.57629792401388
 20
9.908322305198685
 10
12.69722932669992
 20
10.01006754807375
 10
12.80932282703835
 20
10.13627608058719
 10
12.90426533701662
 20
10.27758667101819
 10
12.97501482446205
 20
10.4235193452922
 10
13.01632512756569
 20
10.56325236063756
 10
13.02518616412047
 20
10.68562749961818
  0
SPLINE
  5
17F
330
2
100
AcDbEntity
  8
0
100
AcDbSpline
210
0.0
220
0.0
230
1.0
 70
     8
 71
     3
 72
    17
 73
    13
 74
     0
 42
0.000000001
 43
0.0000000001
 40
0.0
 40
0.0
 40
0.0
 40
0.0
 40
0.1080049407879139
 40
0.2156139242574456
 40
0.32876060326991
 40
0.4321748554182682
 40
0.5400148860017962
 40
0.6485715528017927
 40
0.7542853317085273
 40
0.8605575767313908
 40
0.9685235618616127
 40
1.0
 40
1.0
 40
1.0
 40
1.0
 10
13.39224829049784
 20
11.54935453968414
 30
0.0
 10
13.38929870245746
 20
11.53914719191926
 30
0.0
 10
13.38341033987256
 20
11.51876991758541
 30
0.0
 10
13.35886952466907
 20
11.49529571266323
 30
0.0
 10
13.32485091562115
 20
11.48217953393335
 30
0.0
 10
13.2848585362057
 20
11.48024196019408
 30
0.0
 10
13.24387518243166
 20
11.48953884014963
 30
0.0
 10
13.20594494704824
 20
11.50931454468027
 30
0.0
 10
13.17525172875213
 20
11.53677949106635
 30
0.0
 10
13.15637125055387
 20
11.56925692280306
 30
0.0
 10
13.15046048830874
 20
11.59519959810305
 30
0.0
 10
13.15163795520706
 20
11.60904390033676
 30
0.0
 10
13.15190374565377
 20
11.61216898460173
 30
0.0
  0
SPLINE
  5
180
330
2
100
AcDbEntity
  8
0
100
AcDbSpline
210
0.0
220
0.0
230
1.0
 70
     8
 71
     3
 72
    17
 73
    13
 74
     0
 42
0.000000001
 43
0.0000000001
 40
0.0
 40
0.0
 40
0.0
 40
0.0
 40
0.1085262083567186
 40
0.2169510895045711
 40
0.3237507214963174
 40
0.430885660351993
 40
0.5396841671564153
 40
0.6442754800258247
 40
0.7563048966139164
 40
0.8611350755705201
 40
0.9694155702067753
 40
1.0
 40
1.0
 40
1.0
 40
1.0
 10
13.15190374565377
 20
11.61216898460173
 30
0.0
 10
13.15474790588355
 20
11.6224859134156
 30
0.0
 10
13.16043357084796
 20
11.64311013847986
 30
0.0
 10
13.18502048427111
 20
11.66601487262199
 30
0.0
 10
13.21858852241896
 20
11.67919225846324
 30
0.0
 10
13.25837859449494
 20
11.68159193855494
 30
0.0
 10
13.29941434860294
 20
11.67194973114827
 30
0.0
 10
13.33805227445629
 20
11.65255558212676
 30
0.0
 10
13.36860844429616
 20
11.62474383868038
 30
0.0
 10
13.38861555659177
 20
11.59195623341041
 30
0.0
 10
13.39380969552699
 20
11.56614883353465
 30
0.0
 10
13.39253011324483
 20
11.5523857929076
 30
0.0
 10
13.39224829049784
 20
11.54935453968414
 30
0.0
  0
SPLINE
  5
181
330
2
100
AcDbEntity
  8
0
100
AcDbSpline
210
0.0
220
0.0
230
1.0
 70
     8
 71
     3
 72
    13
 73
     9
 74
     0
 42
0.000000001
 43
0.0000000001
 40
0.0
 40
0.0
 40
0.0
 40
0.0
 40
0.0892424394608962
 40
0.2967929068562228
 40
0.5034976051128312
 40
0.720130332345561
 40
0.8955116711554687
 40
1.0
 40
1.0
 40
1.0
 40
1.0
 10
11.36807252358144
 20
10.45686186391434
 30
0.0
 10
11.30666888152334
 20
10.44778941859102
 30
0.0
 10
11.1024592529195
 20
10.41761725570451
 30
0.0
 10
10.75969131113756
 20
10.35515850789149
 30
0.0
 10
10.38682038524439
 20
10.19981087116648
 30
0.0
 10
10.11517042405206
 20
9.994623952723522
 30
0.0
 10
9.950707627097088
 20
9.78812759824553
 30
0.0
 10
9.939098183626336
 20
9.654132287218338
 30
0.0
 10
9.934763839868365
 20
9.604105622165418
 30
0.0
  0
SPLINE
  5
182
330
2
100
AcDbEntity
  8
0
100
AcDbSpline
210
0.0
220
0.0
230
1.0
 70
     8
 71
     3
 72
    20
 73
    16
 74
     0
 42
0.000000001
 43
0.0000000001
 40
0.0
 40
0.0
 40
0.0
 40
0.0
 40
0.0340521109043618
 40
0.1798905574966004
 40
0.3009014613666513
 40
0.3759106459785768
 40
0.4375086230662836
 40
0.4906151760563624
 40
0.5737993200996919
 40
0.6533701044397696
 40
0.7288733572752834
 40
0.8033237565284316
 40
0.8780211961634305
 40
0.9491356020588476
 40
1.0
 40
1.0
 40
1.0
 40
1.0
 10
12.29858381160692
 20
9.81531335643703
 30
0.0
 10
12.28771693121868
 20
9.790446808764723
 30
0.0
 10
12.2303093544377
 20
9.659081762516882
 30
0.0
 10
12.13110660076113
 20
9.440267587619528
 30
0.0
 10
11.99021671547271
 20
9.198917494436312
 30
0.0
 10
11.83380131348068
 20
9.035849431862949
 30
0.0
 10
11.67653839389208
 20
8.939339590286001
 30
0.0
 10
11.47526465306402
 20
8.871630589402968
 30
0.0
 10
11.21747203787796
 20
8.854355788472879
 30
0.0
 10
10.9330708211723
 20
8.903731889014755
 30
0.0
 10
10.68285504293882
 20
8.999234063798034
 30
0.0
 10
10.47653294309902
 20
9.129516780125412
 30
0.0
 10
10.31787402549245
 20
9.2790348888812
 30
0.0
 10
10.20591410873137
 20
9.426120729574003
 30
0.0
 10
10.18768404661379
 20
9.522878784526184
 30
0.0
 10
10.18008222478191
 20
9.563226287996485
 30
0.0
  0
LINE
  5
183
330
2
100
AcDbEntity
  8
0
100
AcDbLine
 10
14.11685185328211
 20
9.66605066955487
 30
0.0
 11
14.15150216797043
 21
9.623048639604064
 31
0.0
  0
SPLINE
  5
184
330
2
100
AcDbEntity
  8
0
100
AcDbSpline
210
0.0
220
0.0
230
1.0
 70
     8
 71
     3
 72
    17
 73
    13
 74
     0
 42
0.000000001
 43
0.0000000001
 40
0.0
 40
0.0
 40
0.0
 40
0.0
 40
0.06328939021925
 40
0.104144988402426
 40
0.2505798691173699
 40
0.3753825371598687
 40
0.5001838773822975
 40
0.6249839130094398
 40
0.7497844154367743
 40
0.7750865022173976
 40
0.8253591107085387
 40
1.0
 40
1.0
 40
1.0
 40
1.0
 10
13.85717576021224
 20
9.079950932381908
 30
0.0
 10
13.86860952580802
 20
9.086873897038612
 30
0.0
 10
13.88742420203161
 20
9.098265886618216
 30
0.0
 10
13.93325355535949
 20
9.131523741543407
 30
0.0
 10
13.98898418744232
 20
9.183252053675811
 30
0.0
 10
14.05254221269789
 20
9.261439779799813
 30
0.0
 10
14.10291094209744
 20
9.341620904471172
 30
0.0
 10
14.14015317002349
 20
9.423024967440403
 30
0.0
 10
14.15605172580211
 20
9.480223156441082
 30
0.0
 10
14.16216320659797
 20
9.518834794723863
 30
0.0
 10
14.16690519042761
 20
9.565570322906168
 30
0.0
 10
14.15823466203971
 20
9.597925490754894
 30
0.0
 10
14.15150216797784
 20
9.623048639618755
 30
0.0
  0
LINE
  5
185
330
2
100
AcDbEntity
  8
0
100
AcDbLine
 10
13.82674445168624
 20
9.063441361178636
 30
0.0
 11
13.85775080885661
 21
9.079526608228608
 31
0.0
  0
SPLINE
  5
186
330
2
100
AcDbEntity
  8
0
100
AcDbSpline
210
0.0
220
0.0
230
1.0
 70
     8
 71
     3
 72
    10
 73
     6
 74
     0
 42
0.000000001
 43
0.0000000001
 40
0.0
 40
0.0
 40
0.0
 40
0.0
 40
0.2731304050245184
 40
0.6296915296208909
 40
1.0
 40
1.0
 40
1.0
 40
1.0
 10
13.68345687718572
 20
9.0746659722134
 30
0.0
 10
13.69255968245358
 20
9.067003487472591
 30
0.0
 10
13.71354584608628
 20
9.049337926815979
 30
0.0
 10
13.76269994276529
 20
9.043924195338457
 30
0.0
 10
13.80512879521464
 20
9.056854124293016
 30
0.0
 10
13.82674445166677
 20
9.063441361187212
 30
0.0
  0
LINE
  5
187
330
2
100
AcDbEntity
  8
0
100
AcDbLine
 10
51.55355338202696
 20
32.9874865320693
 30
0.0
 11
51.53056069091391
 21
32.98927163225983
 31
0.0
  0
LINE
  5
188
330
2
100
AcDbEntity
  8
0
100
AcDbLine
 10
51.53054747135786
 20
32.98927010696263
 30
0.0
 11
51.48909307568979
 21
33.01025508579379
 31
0.0
  0
LINE
  5
189
330
2
100
AcDbEntity
  8
0
100
AcDbLine
 10
51.48910365127184
 20
33.01025737458644
 30
0.0
 11
51.46943037878429
 21
33.02879962499574
 31
0.0
  0
LINE
  5
18A
330
2
100
AcDbEntity
  8
0
100
AcDbLine
 10
51.46932131780804
 20
33.02877788190463
 30
0.0
 11
51.43330873275065
 21
33.08253806977658
 31
0.0
  0
LINE
  5
18B
330
2
100
AcDbEntity
  8
0
100
AcDbLine
 10
51.43355064977864
 20
33.08261361103756
 30
0.0
 11
51.41573075233095
 21
33.12959107165131
 31
0.0
  0
SPLINE
  5
18C
330
2
100
AcDbEntity
  8
0
100
AcDbSpline
210
0.0
220
0.0
230
1.0
 70
     8
 71
     3
 72
    11
 73
     7
 74
     0
 42
0.000000001
 43
0.0000000001
 40
0.0
 40
0.0
 40
0.0
 40
0.0
 40
0.4404032185799908
 40
0.6594896563873097
 40
0.8292305248807535
 40
1.0
 40
1.0
 40
1.0
 40
1.0
 10
51.40886123475238
 20
33.17235196172654
 30
0.0
 10
51.4091803551668
 20
33.16640870318822
 30
0.0
 10
51.40965822772431
 20
33.1575088646632
 30
0.0
 10
51.41176417867144
 20
33.14537575714695
 30
0.0
 10
51.41351043129542
 20
33.13708571998176
 30
0.0
 10
51.41483904576129
 20
33.13199089944728
 30
0.0
 10
51.4155053597198
 20
33.12943579401559
 30
0.0
  0
SPLINE
  5
18D
330
2
100
AcDbEntity
  8
0
100
AcDbSpline
210
0.0
220
0.0
230
1.0
 70
     8
 71
     3
 72
    15
 73
    11
 74
     0
 42
0.000000001
 43
0.0000000001
 40
0.0
 40
0.0
 40
0.0
 40
0.0
 40
0.0011431595375577
 40
0.1548735970729293
 40
0.3333588714213364
 40
0.5028913560089882
 40
0.6558297394000694
 40
0.8035250833123434
 40
0.9423675996446865
 40
1.0
 40
1.0
 40
1.0
 40
1.0
 10
52.41525051858793
 20
32.72914874684133
 30
0.0
 10
52.41518689461487
 20
32.72911188017385
 30
0.0
 10
52.4065672109843
 20
32.72411723750052
 30
0.0
 10
52.38208847139563
 20
32.72496298476273
 30
0.0
 10
52.34614576207095
 20
32.73607733048926
 30
0.0
 10
52.3119343845579
 20
32.76486229169414
 30
0.0
 10
52.28621028996856
 20
32.80317397515046
 30
0.0
 10
52.26995344739773
 20
32.84466121890439
 30
0.0
 10
52.26343945635358
 20
32.87719308352018
 30
0.0
 10
52.26272106253093
 20
32.89368492846411
 30
0.0
 10
52.26251033456071
 20
32.89852251601177
 30
0.0
  0
SPLINE
  5
18E
330
2
100
AcDbEntity
  8
0
100
AcDbSpline
210
0.0
220
0.0
230
1.0
 70
     8
 71
     3
 72
     9
 73
     5
 74
     0
 42
0.000000001
 43
0.0000000001
 40
0.0
 40
0.0
 40
0.0
 40
0.0
 40
0.5019156514104683
 40
1.0
 40
1.0
 40
1.0
 40
1.0
 10
51.60099753700801
 20
33.01629632495304
 30
0.0
 10
51.59478319298553
 20
33.00857748286508
 30
0.0
 10
51.58240194126536
 20
32.99319871938904
 30
0.0
 10
51.56311320794894
 20
32.98937910443491
 30
0.0
 10
51.55350579178
 20
32.98747661400862
 30
0.0
  0
SPLINE
  5
18F
330
2
100
AcDbEntity
  8
0
100
AcDbSpline
210
0.0
220
0.0
230
1.0
 70
     8
 71
     3
 72
    10
 73
     6
 74
     0
 42
0.000000001
 43
0.0000000001
 40
0.0
 40
0.0
 40
0.0
 40
0.0
 40
0.3535828247381834
 40
0.7075503872247993
 40
1.0
 40
1.0
 40
1.0
 40
1.0
 10
52.26251033456071
 20
32.89852251601177
 30
0.0
 10
52.26308822475463
 20
32.909132043245
 30
0.0
 10
52.26424463395185
 20
32.93036264206634
 30
0.0
 10
52.27467394002857
 20
32.95033090901802
 30
0.0
 10
52.28633758315757
 20
32.95478575864079
 30
0.0
 10
52.29161440445363
 20
32.95680120485261
 30
0.0
  0
SPLINE
  5
190
330
2
100
AcDbEntity
  8
0
100
AcDbSpline
210
0.0
220
0.0
230
1.0
 70
     8
 71
     3
 72
    10
 73
     6
 74
     0
 42
0.000000001
 43
0.0000000001
 40
0.0
 40
0.0
 40
0.0
 40
0.0
 40
0.2621459394979826
 40
0.6265346758183546
 40
1.0
 40
1.0
 40
1.0
 40
1.0
 10
51.41288987996488
 20
33.2001879051649
 30
0.0
 10
51.41223524141328
 20
33.19815321704896
 30
0.0
 10
51.41067064059039
 20
33.19329026681006
 30
0.0
 10
51.40908480614442
 20
33.18417078210866
 30
0.0
 10
51.4089363672151
 20
33.17632374485772
 30
0.0
 10
51.40886123475238
 20
33.17235196172654
 30
0.0
  0
LINE
  5
191
330
2
100
AcDbEntity
  8
0
100
AcDbLine
 10
51.42808240011856
 20
33.21973935625177
 30
0.0
 11
51.41308024091826
 21
33.20060078608969
 31
0.0
  0
SPLINE
  5
192
330
2
100
AcDbEntity
  8
0
100
AcDbSpline
210
0.0
220
0.0
230
1.0
 70
     8
 71
     3
 72
    15
 73
    11
 74
     0
 42
0.000000001
 43
0.0000000001
 40
0.0
 40
0.0
 40
0.0
 40
0.0
 40
0.1312619392221429
 40
0.2590465139759967
 40
0.3834493948946958
 40
0.5092815938366389
 40
0.6329174117826574
 40
0.7623013575155352
 40
0.8878714890782234
 40
1.0
 40
1.0
 40
1.0
 40
1.0
 10
49.88791514145132
 20
33.57963956862495
 30
0.0
 10
49.9001168749798
 20
33.60884139565701
 30
0.0
 10
49.92419709620598
 20
33.66647144088727
 30
0.0
 10
49.976266754115
 20
33.74472755819529
 30
0.0
 10
50.03538148530781
 20
33.81052081306772
 30
0.0
 10
50.09922980657567
 20
33.85979373406583
 30
0.0
 10
50.1648175740577
 20
33.8905631427512
 30
0.0
 10
50.22649767572551
 20
33.89852924212072
 30
0.0
 10
50.27924559321198
 20
33.88502955774441
 30
0.0
 10
50.30360073595849
 20
33.85986417660777
 30
0.0
 10
50.31508967784279
 20
33.84799302461406
 30
0.0
  0
SPLINE
  5
193
330
2
100
AcDbEntity
  8
0
100
AcDbSpline
210
0.0
220
0.0
230
1.0
 70
     8
 71
     3
 72
    11
 73
     7
 74
     0
 42
0.000000001
 43
0.0000000001
 40
0.0
 40
0.0
 40
0.0
 40
0.0
 40
0.2499985583436964
 40
0.4999999941303426
 40
0.7500027261482774
 40
1.0
 40
1.0
 40
1.0
 40
1.0
 10
50.13615503774127
 20
33.88736070543107
 30
0.0
 10
50.11036539654425
 20
33.87114741054638
 30
0.0
 10
50.05878581731544
 20
33.83872063416446
 30
0.0
 10
49.98804577561625
 20
33.76328864046944
 30
0.0
 10
49.92743709385308
 20
33.675276338734
 30
0.0
 10
49.90109740209642
 20
33.61150833988631
 30
0.0
 10
49.88792769998432
 20
33.57962468851877
 30
0.0
  0
SPLINE
  5
194
330
2
100
AcDbEntity
  8
0
100
AcDbSpline
210
0.0
220
0.0
230
1.0
 70
     8
 71
     3
 72
    17
 73
    13
 74
     0
 42
0.000000001
 43
0.0000000001
 40
0.0
 40
0.0
 40
0.0
 40
0.0
 40
0.0632906530014114
 40
0.1041448561542628
 40
0.2505788204859022
 40
0.3753810551835925
 40
0.5001850029088838
 40
0.624984651530172
 40
0.749783416560687
 40
0.7750854481500921
 40
0.8253581570905248
 40
1.0
 40
1.0
 40
1.0
 40
1.0
 10
50.13492892832871
 20
33.27328428659872
 30
0.0
 10
50.12354495457337
 20
33.26725885117627
 30
0.0
 10
50.10481261017517
 20
33.25734398894011
 30
0.0
 10
50.05993511648431
 20
33.24118002342342
 30
0.0
 10
50.00665278795267
 20
33.23336578051716
 30
0.0
 10
49.94833704237479
 20
33.249277158467
 30
0.0
 10
49.90444768892023
 20
33.28543540582906
 30
0.0
 10
49.87480512121593
 20
33.3404216444001
 30
0.0
 10
49.86497470842151
 20
33.39209231754079
 30
0.0
 10
49.86329647949861
 20
33.43310590711637
 30
0.0
 10
49.86412044534694
 20
33.48631207445804
 30
0.0
 10
49.87752180264658
 20
33.53883873915088
 30
0.0
 10
49.88792769998432
 20
33.57962468851877
 30
0.0
  0
SPLINE
  5
195
330
2
100
AcDbEntity
  8
0
100
AcDbSpline
210
0.0
220
0.0
230
1.0
 70
     8
 71
     3
 72
     9
 73
     5
 74
     0
 42
0.000000001
 43
0.0000000001
 40
0.0
 40
0.0
 40
0.0
 40
0.0
 40
0.5823300197433606
 40
1.0
 40
1.0
 40
1.0
 40
1.0
 10
51.42806918058917
 20
33.21976301688246
 30
0.0
 10
51.41779685975076
 20
33.24966232373289
 30
0.0
 10
51.40015682662476
 20
33.30100658873166
 30
0.0
 10
51.36046297561235
 20
33.32353497526605
 30
0.0
 10
51.3438840456437
 20
33.33294440602511
 30
0.0
  0
SPLINE
  5
196
330
2
100
AcDbEntity
  8
0
100
AcDbSpline
210
0.0
220
0.0
230
1.0
 70
     8
 71
     3
 72
    15
 73
    11
 74
     0
 42
0.000000001
 43
0.0000000001
 40
0.0
 40
0.0
 40
0.0
 40
0.0
 40
0.1172353812322902
 40
0.2367454736488248
 40
0.3620849451626752
 40
0.4877139636916639
 40
0.6104057169833058
 40
0.7347574775825386
 40
0.8648745539741668
 40
1.0
 40
1.0
 40
1.0
 40
1.0
 10
50.31508967784279
 20
33.84799302461406
 30
0.0
 10
50.32709897662762
 20
33.8355612234744
 30
0.0
 10
50.35135058991305
 20
33.8104564076909
 30
0.0
 10
50.37036797049513
 20
33.75026828870092
 30
0.0
 10
50.37407888870167
 20
33.6770858195566
 30
0.0
 10
50.36043644744538
 20
33.59497305199102
 30
0.0
 10
50.33124763305973
 20
33.51095889628686
 30
0.0
 10
50.28795532913768
 20
33.42950831305844
 30
0.0
 10
50.23208552534894
 20
33.3529058045196
 30
0.0
 10
50.18802955307513
 20
33.31376046517057
 30
0.0
 10
50.16558562949404
 20
33.29381821989576
 30
0.0
  0
LWPOLYLINE
  5
197
330
2
100
AcDbEntity
  8
0
100
AcDbPolyline
 90
       17
 70
   128
 43
0.0
 10
51.7655275396585
 20
33.3903012402553
 10
51.7791152115102
 20
33.38206394486545
 10
51.85050187929688
 20
33.30733954052155
 10
51.8929404674124
 20
33.19812420315869
 10
51.9032873766673
 20
33.06252031128578
 10
51.88077653662991
 20
32.91058513505641
 10
51.82707096148611
 20
32.75358359195003
 10
51.74615897682347
 20
32.60316278227725
 10
51.64404157862108
 20
32.47047922108816
 10
51.52828957934709
 20
32.36536997009757
 10
51.40748971072586
 20
32.29563369037351
 10
51.29060215569984
 20
32.26644298525646
 10
51.18629164102894
 20
32.2799582489324
 10
51.10230083284447
 20
32.33518270266455
 10
51.04485149286419
 20
32.42801587905843
 10
51.01820955641076
 20
32.55157576137928
 10
51.01965180479563
 20
32.65820339011622
  0
SPLINE
  5
198
330
2
100
AcDbEntity
  8
0
100
AcDbSpline
210
0.0
220
0.0
230
1.0
 70
     8
 71
     3
 72
    11
 73
     7
 74
     0
 42
0.000000001
 43
0.0000000001
 40
0.0
 40
0.0
 40
0.0
 40
0.0
 40
0.2499977286601171
 40
0.4999991209303801
 40
0.7499996176190744
 40
1.0
 40
1.0
 40
1.0
 40
1.0
 10
51.3562323885248
 20
32.59286084369517
 30
0.0
 10
51.38656000165899
 20
32.6155307761395
 30
0.0
 10
51.44721567236533
 20
32.66087097324643
 30
0.0
 10
51.52506674622824
 20
32.7694984424411
 30
0.0
 10
51.58275869821824
 20
32.89345340238487
 30
0.0
 10
51.59519024690034
 20
32.97546010238239
 30
0.0
 10
51.60140601982041
 20
33.01646344300716
 30
0.0
  0
SPLINE
  5
199
330
2
100
AcDbEntity
  8
0
100
AcDbSpline
210
0.0
220
0.0
230
1.0
 70
     8
 71
     3
 72
     9
 73
     5
 74
     0
 42
0.000000001
 43
0.0000000001
 40
0.0
 40
0.0
 40
0.0
 40
0.0
 40
0.4943040527549822
 40
1.0
 40
1.0
 40
1.0
 40
1.0
 10
51.17632280967219
 20
32.57033878741719
 30
0.0
 10
51.20232311185791
 20
32.56116025444927
 30
0.0
 10
51.25492292778282
 20
32.54259165701062
 30
0.0
 10
51.32220707032654
 20
32.57597767148221
 30
0.0
 10
51.3562323885248
 20
32.59286084369517
 30
0.0
  0
SPLINE
  5
19A
330
2
100
AcDbEntity
  8
0
100
AcDbSpline
210
0.0
220
0.0
230
1.0
 70
     8
 71
     3
 72
    15
 73
    11
 74
     0
 42
0.000000001
 43
0.0000000001
 40
0.0
 40
0.0
 40
0.0
 40
0.0
 40
0.1307605886122143
 40
0.2610464942190852
 40
0.3980348571456749
 40
0.5232367590077855
 40
0.6538052891646965
 40
0.7852330957158723
 40
0.9132245555778805
 40
1.0
 40
1.0
 40
1.0
 40
1.0
 10
50.65164977133417
 20
31.73350453995587
 30
0.0
 10
50.65336922349115
 20
31.72163839485581
 30
0.0
 10
50.65680188590335
 20
31.69794918076503
 30
0.0
 10
50.67809808575095
 20
31.6632163855335
 30
0.0
 10
50.70983749619457
 20
31.63528670981586
 30
0.0
 10
50.74865022454422
 20
31.61651333121358
 30
0.0
 10
50.78982343910758
 20
31.60894547923352
 30
0.0
 10
50.82878230782816
 20
31.61386943016865
 30
0.0
 10
50.85939384807517
 20
31.62712785250344
 30
0.0
 10
50.870645962787
 20
31.64199201384082
 30
0.0
 10
50.87519232088649
 20
31.64799780048799
 30
0.0
  0
SPLINE
  5
19B
330
2
100
AcDbEntity
  8
0
100
AcDbSpline
210
0.0
220
0.0
230
1.0
 70
     8
 71
     3
 72
    19
 73
    15
 74
     0
 42
0.000000001
 43
0.0000000001
 40
0.0
 40
0.0
 40
0.0
 40
0.0
 40
0.1199335368276643
 40
0.184312127377873
 40
0.2500001740290614
 40
0.3156883777249041
 40
0.3800668919323443
 40
0.4999998387154175
 40
0.6199334928686577
 40
0.6843120088823521
 40
0.7500003204731753
 40
0.8156885349249117
 40
0.8800668428961062
 40
1.0
 40
1.0
 40
1.0
 40
1.0
 10
44.36776302005801
 20
27.98246573563883
 30
0.0
 10
44.36133226417974
 20
27.93580484589583
 30
0.0
 10
44.35144957141587
 20
27.86409706439162
 30
0.0
 10
44.30535786946381
 20
27.79886699816556
 30
0.0
 10
44.25888233727508
 20
27.7630710648864
 30
0.0
 10
44.20209800930477
 20
27.74538460339423
 30
0.0
 10
44.12019392606029
 20
27.74610864933456
 30
0.0
 10
44.00867963364283
 20
27.78787194601273
 30
0.0
 10
43.89768999274756
 20
27.87777271555312
 30
0.0
 10
43.81682092906372
 20
27.97336958067065
 30
0.0
 10
43.76114839903312
 20
28.0576016658976
 30
0.0
 10
43.7160445274636
 20
28.14758870239645
 30
0.0
 10
43.67195883085812
 20
28.26618086176553
 30
0.0
 10
43.663757038929
 20
28.34858959845206
 30
0.0
 10
43.65842005785975
 20
28.40221371760129
 30
0.0
  0
LINE
  5
19C
330
2
100
AcDbEntity
  8
0
100
AcDbLine
 10
44.36802939312571
 20
28.00686788491064
 30
0.0
 11
44.36776302002891
 21
27.98246573563254
 31
0.0
  0
SPLINE
  5
19D
330
2
100
AcDbEntity
  8
0
100
AcDbSpline
210
0.0
220
0.0
230
1.0
 70
     8
 71
     3
 72
    19
 73
    15
 74
     0
 42
0.000000001
 43
0.0000000001
 40
0.0
 40
0.0
 40
0.0
 40
0.0
 40
0.1199329518363701
 40
0.1843112484726675
 40
0.2499996946745995
 40
0.3156879016423274
 40
0.3800661422473758
 40
0.4999996926029036
 40
0.6199328770786947
 40
0.6843111151601209
 40
0.7499994300228349
 40
0.8156876477464573
 40
0.8800662427151095
 40
1.0
 40
1.0
 40
1.0
 40
1.0
 10
43.65868643095583
 20
28.42661663016545
 30
0.0
 10
43.66511737771196
 20
28.47327703624268
 30
0.0
 10
43.67500036489203
 20
28.54498408227691
 30
0.0
 10
43.72109077034749
 20
28.61021553298662
 30
0.0
 10
43.76756715508767
 20
28.64601031576973
 30
0.0
 10
43.82435144624302
 20
28.66369667383182
 30
0.0
 10
43.90625488767342
 20
28.66297479945272
 30
0.0
 10
44.0177696464176
 20
28.62121075276866
 30
0.0
 10
44.1287586288139
 20
28.53130877232479
 30
0.0
 10
44.20962803301856
 20
28.43571322115026
 30
0.0
 10
44.265300411748
 20
28.35148103560311
 30
0.0
 10
44.31040415373056
 20
28.26149392078502
 30
0.0
 10
44.35449104948833
 20
28.14290135369098
 30
0.0
 10
44.36269258071057
 20
28.06049225189492
 30
0.0
 10
44.3680293931541
 20
28.00686788493289
 30
0.0
  0
LINE
  5
19E
330
2
100
AcDbEntity
  8
0
100
AcDbLine
 10
43.65842005785468
 20
28.40221371759202
 30
0.0
 11
43.65868643095155
 21
28.42661663017736
 31
0.0
  0
SPLINE
  5
19F
330
2
100
AcDbEntity
  8
0
100
AcDbSpline
210
0.0
220
0.0
230
1.0
 70
     8
 71
     3
 72
     9
 73
     5
 74
     0
 42
0.000000001
 43
0.0000000001
 40
0.0
 40
0.0
 40
0.0
 40
0.0
 40
0.4887131598814796
 40
1.0
 40
1.0
 40
1.0
 40
1.0
 10
43.68728022782129
 20
27.29437620133499
 30
0.0
 10
43.64406772049076
 20
27.27745795247939
 30
0.0
 10
43.55564671840247
 20
27.24284000018247
 30
0.0
 10
43.44089254092799
 20
27.29335866899188
 30
0.0
 10
43.3822202401368
 20
27.31918819953448
 30
0.0
  0
SPLINE
  5
1A0
330
2
100
AcDbEntity
  8
0
100
AcDbSpline
210
0.0
220
0.0
230
1.0
 70
     8
 71
     3
 72
    11
 73
     7
 74
     0
 42
0.000000001
 43
0.0000000001
 40
0.0
 40
0.0
 40
0.0
 40
0.0
 40
0.2499992258489112
 40
0.4999997104661378
 40
0.7499997815839016
 40
1.0
 40
1.0
 40
1.0
 40
1.0
 10
43.3822202401368
 20
27.31918819953448
 30
0.0
 10
43.32398844787137
 20
27.35933175043621
 30
0.0
 10
43.20752457013844
 20
27.43961905436599
 30
0.0
 10
43.05913574163401
 20
27.64075969640476
 30
0.0
 10
42.95401681570928
 20
27.86866329453625
 30
0.0
 10
42.93865469991769
 20
28.01148252553213
 30
0.0
 10
42.93097363975916
 20
28.08289216206711
 30
0.0
  0
SPLINE
  5
1A1
330
2
100
AcDbEntity
  8
0
100
AcDbSpline
210
0.0
220
0.0
230
1.0
 70
     8
 71
     3
 72
    10
 73
     6
 74
     0
 42
0.000000001
 43
0.0000000001
 40
0.0
 40
0.0
 40
0.0
 40
0.0
 40
0.489201550727509
 40
0.9784021548594756
 40
1.0
 40
1.0
 40
1.0
 40
1.0
 10
42.93097363975916
 20
28.08289216206711
 30
0.0
 10
42.93749322656068
 20
28.14493547981566
 30
0.0
 10
42.95053238754828
 20
28.26902199526019
 30
0.0
 10
43.00980657027348
 20
28.36625062393393
 30
0.0
 10
43.0595733013551
 20
28.3767814218699
 30
0.0
 10
43.06167756410797
 20
28.37722669053388
 30
0.0
  0
LINE
  5
1A2
330
2
100
AcDbEntity
  8
0
100
AcDbLine
 10
44.32367860311864
 20
28.03157726185185
 30
0.0
 11
44.16375890407676
 21
28.43123906324226
 31
0.0
  0
LINE
  5
1A3
330
2
100
AcDbEntity
  8
0
100
AcDbLine
 10
44.16375890407676
 20
28.43123906324226
 30
0.0
 11
43.85330469595149
 21
28.60420241178355
 31
0.0
  0
LINE
  5
1A4
330
2
100
AcDbEntity
  8
0
100
AcDbLine
 10
43.85330469595149
 20
28.60420241178355
 30
0.0
 11
43.70277084786176
 21
28.37750434071353
 31
0.0
  0
LINE
  5
1A5
330
2
100
AcDbEntity
  8
0
100
AcDbLine
 10
43.70277084786176
 20
28.37750434071353
 30
0.0
 11
43.86269054696646
 21
27.97784330256765
 31
0.0
  0
LINE
  5
1A6
330
2
100
AcDbEntity
  8
0
100
AcDbLine
 10
43.86269054696646
 20
27.97784330256765
 30
0.0
 11
44.17314475509168
 21
27.80487919071909
 31
0.0
  0
LINE
  5
1A7
330
2
100
AcDbEntity
  8
0
100
AcDbLine
 10
44.17314475509168
 20
27.80487919071909
 30
0.0
 11
44.32367860311864
 21
28.03157726185185
 31
0.0
  0
LINE
  5
1A8
330
2
100
AcDbEntity
  8
0
100
AcDbLine
 10
44.05334428132877
 20
27.8716246425492
 30
0.0
 11
44.05753552652068
 21
27.87793613402238
 31
0.0
  0
LWPOLYLINE
  5
1A9
330
2
100
AcDbEntity
  8
0
100
AcDbPolyline
 90
       15
 70
   128
 43
0.0
 10
43.48468993824224
 20
27.03022564357726
 10
43.43959951672703
 20
27.00979783332229
 10
43.32875856485042
 20
26.99542612565353
 10
43.20477742154039
 20
27.02199269925212
 10
43.07504711399332
 20
27.08791446236837
 10
42.94730171567613
 20
27.18926091840913
 10
42.82915566343507
 20
27.31999149973461
 10
42.72765231136654
 20
27.47231235364834
 10
42.6488428895746
 20
27.63714227957008
 10
42.5974256112635
 20
27.80465614346479
 10
42.57646608058738
 20
27.96486760786554
 10
42.58721221899097
 20
28.10822599211419
 10
42.62902486340358
 20
28.22618528336608
 10
42.69941147540115
 20
28.31171285943158
 10
42.73198236136335
 20
28.33409461108648
  0
LWPOLYLINE
  5
1AA
330
2
100
AcDbEntity
  8
0
100
AcDbPolyline
 90
       19
 70
   128
 43
0.0
 10
43.76310666752957
 20
27.3358191229279
 10
43.72691760210526
 20
27.22673566314314
 10
43.65740149474992
 20
27.1353542693238
 10
43.56174645324364
 20
27.08315823235389
 10
43.44596338815416
 20
27.07342712431249
 10
43.31732699489875
 20
27.10677148054658
 10
43.1839210030247
 20
27.18109612008438
 10
43.05412658086624
 20
27.29173138009825
 10
42.93610016512071
 20
27.43172539929362
 10
42.83725657818551
 20
27.59228294958171
 10
42.76380766706418
 20
27.76331418424974
 10
42.72036836216609
 20
27.93407345751839
 10
42.70966783105822
 20
28.09383059400492
 10
42.73237828566992
 20
28.23254751099778
 10
42.78707268009009
 20
28.34150943906667
 10
42.87031526410202
 20
28.41386799711861
 10
42.97687441712596
 20
28.4450785663342
 10
43.10005511922112
 20
28.43317853279302
 10
43.1358509043128
 20
28.42237551457346
  0
LWPOLYLINE
  5
1AB
330
2
100
AcDbEntity
  8
0
100
AcDbPolyline
 90
       13
 70
   128
 43
0.0
 10
42.95914242942768
 20
28.24793150637938
 10
42.9351840531829
 20
28.23152391400447
 10
42.87542923091567
 20
28.15441353251944
 10
42.84532378327217
 20
28.04526805546181
 10
42.84730670952172
 20
27.9129294316862
 10
42.88121805369537
 20
27.76811777369136
 10
42.94430881892338
 20
27.62256695523327
 10
43.03146966528374
 20
27.48806672895267
 10
43.1356374092518
 20
27.37551516470983
 10
43.24837469961533
 20
27.29402911294702
 10
43.36054751691341
 20
27.25021038386346
 10
43.46306811016252
 20
27.2476100018778
 10
43.52367294683854
 20
27.27002987611381
  0
SPLINE
  5
1AC
330
2
100
AcDbEntity
  8
0
100
AcDbSpline
210
0.0
220
0.0
230
1.0
 70
     8
 71
     3
 72
    14
 73
    10
 74
     0
 42
0.000000001
 43
0.0000000001
 40
0.0
 40
0.0
 40
0.0
 40
0.0
 40
0.1453921899304828
 40
0.2907772551364285
 40
0.436426434684854
 40
0.5816800928472306
 40
0.7273055119236513
 40
0.8727832218017599
 40
1.0
 40
1.0
 40
1.0
 40
1.0
 10
44.00145506660996
 20
27.11215274192251
 30
0.0
 10
44.01152003975071
 20
27.11897847711658
 30
0.0
 10
44.03164949281346
 20
27.13262961301993
 30
0.0
 10
44.05970959748591
 20
27.1646572447319
 30
0.0
 10
44.08208872525874
 20
27.20088354469972
 30
0.0
 10
44.09644968868418
 20
27.23833538498855
 30
0.0
 10
44.10086675128212
 20
27.27213125568714
 30
0.0
 10
44.09603859925032
 20
27.29877610967673
 30
0.0
 10
44.08554294135739
 20
27.30774257135312
 30
0.0
 10
44.08064653222321
 20
27.31192558353774
 30
0.0
  0
SPLINE
  5
1AD
330
2
100
AcDbEntity
  8
0
100
AcDbSpline
210
0.0
220
0.0
230
1.0
 70
     8
 71
     3
 72
    11
 73
     7
 74
     0
 42
0.000000001
 43
0.0000000001
 40
0.0
 40
0.0
 40
0.0
 40
0.0
 40
0.0413614527348533
 40
0.4561013710956715
 40
0.8695604048772853
 40
1.0
 40
1.0
 40
1.0
 40
1.0
 10
43.94004846674461
 20
27.10581968258992
 30
0.0
 10
43.94053563633614
 20
27.10525643887751
 30
0.0
 10
43.94590775709021
 20
27.09904543291659
 30
0.0
 10
43.96394331754058
 20
27.09827453699016
 30
0.0
 10
43.98529975839184
 20
27.10334802820648
 30
0.0
 10
43.99833008898316
 20
27.1104496154329
 30
0.0
 10
44.00145506660996
 20
27.11215274192251
 30
0.0
  0
ARC
  5
1AE
330
2
100
AcDbEntity
  8
0
100
AcDbCircle
 10
30.67128823902481
 20
32.82325356932922
 30
0.0
 40
0.2014061574888212
100
AcDbArc
 50
124.7366769509009
 51
188.6391169766002
  0
LWPOLYLINE
  5
1AF
330
2
100
AcDbEntity
  8
0
100
AcDbPolyline
 90
        9
 70
   128
 43
0.0
 10
30.96424227608286
 20
32.28250276608499
 10
30.96133332324416
 20
32.28087100345997
 10
30.88331079264564
 20
32.26350291484943
 10
30.7919672938832
 20
32.2864607571716
 10
30.69720126433468
 20
32.3472573897917
 10
30.60928194874782
 20
32.43930351214319
 10
30.53773697731904
 20
32.55262541463908
 10
30.49031926135925
 20
32.67494300095414
 10
30.47216722375098
 20
32.79300027945577
  0
ARC
  5
1B0
330
2
100
AcDbEntity
  8
0
100
AcDbCircle
 10
25.32740493272161
 20
31.37422682538065
 30
0.0
 40
0.2014048770466361
100
AcDbArc
 50
124.7363190222004
 51
188.6394335378996
  0
LWPOLYLINE
  5
1B1
330
2
100
AcDbEntity
  8
0
100
AcDbPolyline
 90
        9
 70
   128
 43
0.0
 10
25.62036040286274
 20
30.8334751143603
 10
25.61745145002397
 20
30.83184335167256
 10
25.5394292499536
 20
30.81447507229794
 10
25.44808575112833
 20
30.83743291462012
 10
25.35331972157988
 20
30.89822954730298
 10
25.26540007552763
 20
30.99027586035577
 10
25.19385543456424
 20
31.10359833533212
 10
25.14643771860445
 20
31.22591515840266
 10
25.12828535053079
 20
31.34397262766836
  0
ARC
  5
1B2
330
2
100
AcDbEntity
  8
0
100
AcDbCircle
 10
45.75047095147924
 20
24.42216884008348
 30
0.0
 40
0.2014012515469688
100
AcDbArc
 50
124.7357120622992
 51
188.6398781222996
  0
LWPOLYLINE
  5
1B3
330
2
100
AcDbEntity
  8
0
100
AcDbPolyline
 90
        9
 70
   128
 43
0.0
 10
46.04343024072876
 20
23.88141612863379
 10
46.04052194888352
 20
23.87978398441789
 10
45.96249908781954
 20
23.86241608663417
 10
45.87115624998789
 20
23.88537354736545
 10
45.77638955944583
 20
23.94617056157644
 10
45.68847057432442
 20
24.0382164931011
 10
45.61692527243026
 20
24.15153858636108
 10
45.56950821746394
 20
24.27385579114799
 10
45.5513551883968
 20
24.39191364200459
  0
ARC
  5
1B4
330
2
100
AcDbEntity
  8
0
100
AcDbCircle
 10
51.22811926860876
 20
16.944127554104
 30
0.0
 40
0.2013958621080804
100
AcDbArc
 50
124.7347920785979
 51
188.6406357292995
  0
LWPOLYLINE
  5
1B5
330
2
100
AcDbEntity
  8
0
100
AcDbPolyline
 90
        9
 70
   128
 43
0.0
 10
51.52108428623833
 20
16.40337301944898
 10
51.5181746724061
 20
16.40174163841487
 10
51.44015313332919
 20
16.38437297744933
 10
51.34880897351045
 20
16.40733120136243
 10
51.25404360495547
 20
16.46812745239162
 10
51.16612329790974
 20
16.56017414709807
 10
51.09457931793984
 20
16.67349624048351
 10
51.04716094098658
 20
16.79581344508221
 10
51.02900923390631
 20
16.91387053281975
  0
LINE
  5
1B6
330
2
100
AcDbEntity
  8
0
100
AcDbLine
 10
25.99049804790365
 20
30.65920752317514
 30
0.0
 11
27.10038484664192
 21
27.96451471889559
 31
0.0
  0
LINE
  5
1B7
330
2
100
AcDbEntity
  8
0
100
AcDbLine
 10
27.10038484664192
 20
27.96451471889559
 30
0.0
 11
26.12350613261609
 21
28.50876395664488
 31
0.0
  0
ARC
  5
1B8
330
2
100
AcDbEntity
  8
0
100
AcDbCircle
 10
26.63430903294277
 20
29.3250417139312
 30
0.0
 40
0.9629272973941679
100
AcDbArc
 50
198.7609323201001
 51
237.9628638995971
  0
LINE
  5
1B9
330
2
100
AcDbEntity
  8
0
100
AcDbLine
 10
25.72254323766338
 20
29.01534490321558
 30
0.0
 11
25.14383083150701
 21
30.62962158516933
 31
0.0
  0
LWPOLYLINE
  5
1BA
330
2
100
AcDbEntity
  8
0
100
AcDbPolyline
 90
        9
 70
   128
 43
0.0
 10
25.14383083150701
 20
30.62962158516933
 10
25.07095829095737
 20
30.87080578509808
 10
25.02694129356328
 20
31.10632159630108
 10
25.01293919015202
 20
31.32996603217373
 10
25.02932146604373
 20
31.53584706436988
 10
25.0756565042873
 20
31.71853971066976
 10
25.150722822299
 20
31.87323067581094
 10
25.2525434425198
 20
31.99584353061855
 10
25.37843546579706
 20
32.08314900959209
  0
ARC
  5
1BB
330
2
100
AcDbEntity
  8
0
100
AcDbCircle
 10
29.87435010495272
 20
22.84321217627179
 30
0.0
 40
10.27568397364088
100
AcDbArc
 50
85.97953665699851
 51
115.9463580094991
  0
ARC
  5
1BC
330
2
100
AcDbEntity
  8
0
100
AcDbCircle
 10
30.57347893758026
 20
32.79333112636006
 30
0.0
 40
0.3010337759829059
100
AcDbArc
 50
66.96263495709729
 51
85.93730342500091
  0
ARC
  5
1BD
330
2
100
AcDbEntity
  8
0
100
AcDbCircle
 10
39.56296194628578
 20
42.9148663953682
 30
0.0
 40
13.22614502635939
100
AcDbArc
 50
230.8422957812012
 51
231.9162250884999
  0
ARC
  5
1BE
330
2
100
AcDbEntity
  8
0
100
AcDbCircle
 10
31.21964333926048
 20
32.27424953314293
 30
0.0
 40
0.2954802972691174
100
AcDbArc
 50
3.550369918300146
 51
51.17231053589904
  0
LINE
  5
1BF
330
2
100
AcDbEntity
  8
0
100
AcDbLine
 10
31.51455653409054
 20
32.2925474451188
 30
0.0
 11
31.51944296012374
 21
31.96646492431887
 31
0.0
  0
SPLINE
  5
1C0
330
2
100
AcDbEntity
  8
0
100
AcDbSpline
210
0.0
220
0.0
230
1.0
 70
     8
 71
     3
 72
    11
 73
     7
 74
     0
 42
0.000000001
 43
0.0000000001
 40
0.0
 40
0.0
 40
0.0
 40
0.0
 40
0.250003383438623
 40
0.49999969242641
 40
0.7500017388967775
 40
1.0
 40
1.0
 40
1.0
 40
1.0
 10
31.54651783548647
 20
31.92064225914978
 30
0.0
 10
31.54302386823592
 20
31.92305101101588
 30
0.0
 10
31.53603603260503
 20
31.92786844658661
 30
0.0
 10
31.52713254704295
 20
31.93993686561827
 30
0.0
 10
31.5208256276864
 20
31.95361116063744
 30
0.0
 10
31.5199038470003
 20
31.96218035805454
 30
0.0
 10
31.5194429601467
 20
31.96646492432551
 30
0.0
  0
LINE
  5
1C1
330
2
100
AcDbEntity
  8
0
100
AcDbLine
 10
31.54651783551514
 20
31.92064225915384
 30
0.0
 11
44.97157398501105
 21
24.44112443154168
 31
0.0
  0
SPLINE
  5
1C2
330
2
100
AcDbEntity
  8
0
100
AcDbSpline
210
0.0
220
0.0
230
1.0
 70
     8
 71
     3
 72
    11
 73
     7
 74
     0
 42
0.000000001
 43
0.0000000001
 40
0.0
 40
0.0
 40
0.0
 40
0.0
 40
0.2500011308886621
 40
0.5000005318224354
 40
0.7500173153214007
 40
1.0
 40
1.0
 40
1.0
 40
1.0
 10
44.99771952889254
 20
24.457295997059
 30
0.0
 10
44.99738020837642
 20
24.45345731023028
 30
0.0
 10
44.99670156969234
 20
24.44577996313565
 30
0.0
 10
44.99070275958786
 20
24.43896046379776
 30
0.0
 10
44.98201344407377
 20
24.43669442992293
 30
0.0
 10
44.97505364647696
 20
24.43964783148253
 30
0.0
 10
44.97157398499971
 20
24.44112443155468
 30
0.0
  0
LINE
  5
1C3
330
2
100
AcDbEntity
  8
0
100
AcDbLine
 10
44.99771952890852
 20
24.45729599705123
 30
0.0
 11
44.9928335985734
 21
24.78337823167368
 31
0.0
  0
LWPOLYLINE
  5
1C4
330
2
100
AcDbEntity
  8
0
100
AcDbPolyline
 90
        9
 70
   128
 43
0.0
 10
44.9928335985734
 20
24.78337823167368
 10
44.99440011028293
 20
24.80882122161335
 10
44.99985183560776
 20
24.83132217020983
 10
45.00902485255521
 20
24.85021854369036
 10
45.0216494831863
 20
24.86495083977088
 10
45.03735425926347
 20
24.8750839596951
 10
45.05567253218484
 20
24.88032018433261
 10
45.07606494594706
 20
24.88050222954078
 10
45.09792869105477
 20
24.87562698563288
  0
ARC
  5
1C5
330
2
100
AcDbEntity
  8
0
100
AcDbCircle
 10
47.2269095151485
 20
31.32307335974984
 30
0.0
 40
6.78985449742449
100
AcDbArc
 50
251.7265041778981
 51
256.725894516602
  0
ARC
  5
1C6
330
2
100
AcDbEntity
  8
0
100
AcDbCircle
 10
45.57430270267226
 20
24.34183152655489
 30
0.0
 40
0.3843618057628171
100
AcDbArc
 50
58.5510860353985
 51
75.90726104110196
  0
ARC
  5
1C7
330
2
100
AcDbEntity
  8
0
100
AcDbCircle
 10
13.36294403600591
 20
-6.134994010426794
 30
0.0
 40
44.73826012156371
100
AcDbArc
 50
32.15563599090101
 51
42.59668296109888
  0
ARC
  5
1C8
330
2
100
AcDbEntity
  8
0
100
AcDbCircle
 10
48.90362473508759
 20
16.19722687755244
 30
0.0
 40
2.763663177509334
100
AcDbArc
 50
20.96567192000062
 51
32.34039889449957
  0
ARC
  5
1C9
330
2
100
AcDbEntity
  8
0
100
AcDbCircle
 10
50.54364278679123
 20
16.41927546099457
 30
0.0
 40
1.091263131605398
100
AcDbArc
 50
333.5981436605016
 51
2.582298025699898
  0
LINE
  5
1CA
330
2
100
AcDbEntity
  8
0
100
AcDbLine
 10
51.52108428623833
 20
15.93402981434342
 30
0.0
 11
50.98141503745423
 21
14.94283870227605
 31
0.0
  0
ARC
  5
1CB
330
2
100
AcDbEntity
  8
0
100
AcDbCircle
 10
50.75632047741876
 20
15.08613275938165
 30
0.0
 40
0.2668346824512198
100
AcDbArc
 50
231.1697592619024
 51
327.5193760247986
  0
LINE
  5
1CC
330
2
100
AcDbEntity
  8
0
100
AcDbLine
 10
50.58901111325234
 20
14.87826663798111
 30
0.0
 11
49.61213306021991
 21
15.42251702069131
 31
0.0
  0
LINE
  5
1CD
330
2
100
AcDbEntity
  8
0
100
AcDbLine
 10
49.61213306021991
 20
15.42251702069131
 30
0.0
 11
50.65926751310936
 21
16.91546534881348
 31
0.0
  0
SPLINE
  5
1CE
330
2
100
AcDbEntity
  8
0
100
AcDbSpline
210
0.0
220
0.0
230
1.0
 70
     8
 71
     3
 72
    11
 73
     7
 74
     0
 42
0.000000001
 43
0.0000000001
 40
0.0
 40
0.0
 40
0.0
 40
0.0
 40
0.3212330996683473
 40
0.6099594279807103
 40
0.9075071757433226
 40
1.0
 40
1.0
 40
1.0
 40
1.0
 10
50.65926751310202
 20
16.91546534884322
 30
0.0
 10
50.68060694643186
 20
16.95338570550024
 30
0.0
 10
50.72112639651592
 20
17.02538911697688
 30
0.0
 10
50.7221772553254
 20
17.18269025300002
 30
0.0
 10
50.69825234852541
 20
17.31590859312617
 30
0.0
 10
50.65896323458264
 20
17.38838914248075
 30
0.0
 10
50.64964635482241
 20
17.40557692035409
 30
0.0
  0
LINE
  5
1CF
330
2
100
AcDbEntity
  8
0
100
AcDbLine
 10
46.09919012753635
 20
23.31284618306697
 30
0.0
 11
30.43401109541882
 21
32.04040742286695
 31
0.0
  0
SPLINE
  5
1D0
330
2
100
AcDbEntity
  8
0
100
AcDbSpline
210
0.0
220
0.0
230
1.0
 70
     8
 71
     3
 72
     9
 73
     5
 74
     0
 42
0.000000001
 43
0.0000000001
 40
0.0
 40
0.0
 40
0.0
 40
0.0
 40
0.4998918310156256
 40
1.0
 40
1.0
 40
1.0
 40
1.0
 10
30.43401109541227
 20
32.04040742284899
 30
0.0
 10
30.38405009859267
 20
32.06496454776826
 30
0.0
 10
30.28410648335478
 20
32.11408942518304
 30
0.0
 10
30.19237390408826
 20
32.12043772396893
 30
0.0
 10
30.14649769183522
 20
32.12361256005088
 30
0.0
  0
SPLINE
  5
1D1
330
2
100
AcDbEntity
  8
0
100
AcDbSpline
210
0.0
220
0.0
230
1.0
 70
     8
 71
     3
 72
    11
 73
     7
 74
     0
 42
0.000000001
 43
0.0000000001
 40
0.0
 40
0.0
 40
0.0
 40
0.0
 40
0.2499975550679475
 40
0.5000000211331005
 40
0.749997456226941
 40
1.0
 40
1.0
 40
1.0
 40
1.0
 10
30.14649769183522
 20
32.12361256005088
 30
0.0
 10
29.78002355804345
 20
32.10925816886086
 30
0.0
 10
29.0470680913758
 20
32.08054910450061
 30
0.0
 10
28.00192314684542
 20
31.89848744867707
 30
0.0
 10
26.99759026029298
 20
31.62479239783369
 30
0.0
 10
26.37349257246748
 20
31.35171691302525
 30
0.0
 10
26.0614405402396
 20
31.21517777556593
 30
0.0
  0
SPLINE
  5
1D2
330
2
100
AcDbEntity
  8
0
100
AcDbSpline
210
0.0
220
0.0
230
1.0
 70
     8
 71
     3
 72
    11
 73
     7
 74
     0
 42
0.000000001
 43
0.0000000001
 40
0.0
 40
0.0
 40
0.0
 40
0.0
 40
0.2623654152316527
 40
0.4837199315790793
 40
0.7175485642897435
 40
1.0
 40
1.0
 40
1.0
 40
1.0
 10
26.0614405402396
 20
31.21517777556593
 30
0.0
 10
26.02667456733634
 20
31.1930529378723
 30
0.0
 10
25.96257696506956
 20
31.15226164315876
 30
0.0
 10
25.91940727218606
 20
31.0240545619383
 30
0.0
 10
25.91919907193196
 20
30.85785554990723
 30
0.0
 10
25.96528494686418
 20
30.72945443352752
 30
0.0
 10
25.99049804792454
 20
30.65920752320381
 30
0.0
  0
LINE
  5
1D3
330
2
100
AcDbEntity
  8
0
100
AcDbLine
 10
26.12350613261609
 20
28.50876395664488
 30
0.0
 11
25.94607785552551
 21
28.40633679250675
 31
0.0
  0
LINE
  5
1D4
330
2
100
AcDbEntity
  8
0
100
AcDbLine
 10
27.65228875056652
 20
27.93486445067294
 30
0.0
 11
27.14994941084395
 21
27.95163942130609
 31
0.0
  0
LINE
  5
1D5
330
2
100
AcDbEntity
  8
0
100
AcDbLine
 10
27.71781653214621
 20
27.74129237751499
 30
0.0
 11
49.20761610035377
 21
15.76865394324761
 31
0.0
  0
SPLINE
  5
1D6
330
2
100
AcDbEntity
  8
0
100
AcDbSpline
210
0.0
220
0.0
230
1.0
 70
     8
 71
     3
 72
     9
 73
     5
 74
     0
 42
0.000000001
 43
0.0000000001
 40
0.0
 40
0.0
 40
0.0
 40
0.0
 40
0.4902495421492612
 40
1.0
 40
1.0
 40
1.0
 40
1.0
 10
27.54929754281318
 20
27.78506869465265
 30
0.0
 10
27.58046560676244
 20
27.78231821879761
 30
0.0
 10
27.64404152324889
 20
27.7767078599526
 30
0.0
 10
27.69290722058466
 20
27.75325002144101
 30
0.0
 10
27.71781653217495
 20
27.74129237751959
 30
0.0
  0
LINE
  5
1D7
330
2
100
AcDbEntity
  8
0
100
AcDbLine
 10
27.14263703967643
 20
27.7986500683055
 30
0.0
 11
27.54929754281739
 21
27.78506869467973
 31
0.0
  0
ELLIPSE
  5
1D8
330
2
100
AcDbEntity
  8
0
100
AcDbEllipse
 10
27.12180865990584
 20
27.95257969096553
 30
0.0
 11
0.2720313790413094
 21
-0.0301757885719067
 31
0.0
210
0.0
220
0.0
230
1.0
 40
0.5558758453000001
 41
4.065069673135036
 42
4.850469672081996
  0
SPLINE
  5
1D9
330
2
100
AcDbEntity
  8
0
100
AcDbSpline
210
0.0
220
0.0
230
1.0
 70
     8
 71
     3
 72
     9
 73
     5
 74
     0
 42
0.000000001
 43
0.0000000001
 40
0.0
 40
0.0
 40
0.0
 40
0.0
 40
0.490264366706355
 40
1.0
 40
1.0
 40
1.0
 40
1.0
 10
27.14994941081913
 20
27.95163942130609
 30
0.0
 10
27.14078205877258
 20
27.95244838061035
 30
0.0
 10
27.12208326549068
 20
27.95409842772619
 30
0.0
 10
27.10771093542672
 20
27.96099784173338
 30
0.0
 10
27.10038484665968
 20
27.96451471890174
 30
0.0
  0
ELLIPSE
  5
1DA
330
2
100
AcDbEntity
  8
0
100
AcDbEllipse
 10
27.66790998019144
 20
27.81941681051223
 30
0.0
 11
0.2040235342809462
 21
-0.0226318414289211
 31
0.0
210
0.0
220
0.0
230
0.9999999999999998
 40
0.5558758453000001
 41
0.9234770195343655
 42
1.708872321028007
  0
LINE
  5
1DB
330
2
100
AcDbEntity
  8
0
100
AcDbLine
 10
27.800982443047
 20
27.89623703135272
 30
0.0
 11
49.4793100486643
 21
15.81856476245889
 31
0.0
  0
ELLIPSE
  5
1DC
330
2
100
AcDbEntity
  8
0
100
AcDbEllipse
 10
49.34623796946972
 20
15.7417428970074
 30
0.0
 11
0.204023534280875
 21
-0.0226318414289211
 31
0.0
210
0.0
220
0.0
230
1.0
 40
0.5558758453000001
 41
0.1380788562313988
 42
0.9234770195493572
  0
LINE
  5
1DD
330
2
100
AcDbEntity
  8
0
100
AcDbLine
 10
49.58855210096604
 20
15.45039309728012
 30
0.0
 11
49.55005160443888
 21
15.73493576932249
 31
0.0
  0
SPLINE
  5
1DE
330
2
100
AcDbEntity
  8
0
100
AcDbSpline
210
0.0
220
0.0
230
1.0
 70
     8
 71
     3
 72
     9
 73
     5
 74
     0
 42
0.000000001
 43
0.0000000001
 40
0.0
 40
0.0
 40
0.0
 40
0.0
 40
0.5097592069391152
 40
1.0
 40
1.0
 40
1.0
 40
1.0
 10
49.61213306019651
 20
15.42251702071854
 30
0.0
 10
49.60580222298631
 20
15.42660900322454
 30
0.0
 10
49.59338295301692
 20
15.43463628836292
 30
0.0
 10
49.59014129429403
 20
15.44520961919843
 30
0.0
 10
49.58855210095093
 20
15.45039309729254
 30
0.0
  0
ELLIPSE
  5
1DF
330
2
100
AcDbEntity
  8
0
100
AcDbEllipse
 10
49.59070958256529
 20
15.43445289297669
 30
0.0
 11
0.2720313790412379
 21
-0.0301757885719067
 31
0.0
210
0.0
220
0.0
230
1.0
 40
0.5558758453000001
 41
3.279670318256802
 42
4.065069673123475
  0
LINE
  5
1E0
330
2
100
AcDbEntity
  8
0
100
AcDbLine
 10
49.28778977549526
 20
15.6738761986137
 30
0.0
 11
49.31895873260849
 21
15.44352740633795
 31
0.0
  0
SPLINE
  5
1E1
330
2
100
AcDbEntity
  8
0
100
AcDbSpline
210
0.0
220
0.0
230
1.0
 70
     8
 71
     3
 72
     9
 73
     5
 74
     0
 42
0.000000001
 43
0.0000000001
 40
0.0
 40
0.0
 40
0.0
 40
0.0
 40
0.5097482891721738
 40
1.0
 40
1.0
 40
1.0
 40
1.0
 10
49.20761610038265
 20
15.768653943262
 30
0.0
 10
49.22913964722093
 20
15.75474176038573
 30
0.0
 10
49.27136351985656
 20
15.72744950031968
 30
0.0
 10
49.28238599042374
 20
15.69150033730617
 30
0.0
 10
49.28778977547673
 20
15.67387619863598
 30
0.0
  0
LINE
  5
1E2
330
2
100
AcDbEntity
  8
0
100
AcDbLine
 10
49.41328124763699
 20
15.33202538952818
 30
0.0
 11
50.41158283616177
 21
14.77583947384295
 31
0.0
  0
ARC
  5
1E3
330
2
100
AcDbEntity
  8
0
100
AcDbCircle
 10
14.80875280623258
 20
-5.321590662310473
 30
0.0
 40
42.52233279377076
100
AcDbArc
 50
32.94320329890047
 51
41.66923008369752
  0
LINE
  5
1E4
330
2
100
AcDbEntity
  8
0
100
AcDbLine
 10
49.55005160443888
 20
15.73493576932249
 30
0.0
 11
50.57912292092833
 21
17.20213272503225
 31
0.0
  0
ARC
  5
1E5
330
2
100
AcDbEntity
  8
0
100
AcDbCircle
 10
50.58779979178885
 20
15.02948389656093
 30
0.0
 40
0.3088493299480731
100
AcDbArc
 50
235.2107411790978
 51
294.8251549523028
  0
LINE
  5
1E6
330
2
100
AcDbEntity
  8
0
100
AcDbLine
 10
50.60796260067939
 20
17.5507296027414
 30
0.0
 11
50.59554419436907
 21
17.59532645633913
 31
0.0
  0
LINE
  5
1E7
330
2
100
AcDbEntity
  8
0
100
AcDbLine
 10
30.00721984216716
 20
2.996651444452904
 30
0.0
 11
29.00891825357976
 21
3.552837360138115
 31
0.0
  0
LINE
  5
1E8
330
2
100
AcDbEntity
  8
0
100
AcDbLine
 10
6.540017110986386
 20
16.07096399245512
 30
0.0
 11
5.541714861468209
 21
16.62714876311668
 31
0.0
  0
ARC
  5
1E9
330
2
100
AcDbEntity
  8
0
100
AcDbCircle
 10
6.052517761857582
 20
17.44342652040301
 30
0.0
 40
0.9629272973941679
100
AcDbArc
 50
198.7609323201001
 51
237.9628638995971
  0
LINE
  5
1EA
330
2
100
AcDbEntity
  8
0
100
AcDbLine
 10
5.1407519665155
 20
17.13372970968739
 30
0.0
 11
4.562039560421892
 21
18.74800639164114
 31
0.0
  0
LWPOLYLINE
  5
1EB
330
2
100
AcDbEntity
  8
0
100
AcDbPolyline
 90
        9
 70
   128
 43
0.0
 10
4.562039560421892
 20
18.74800639164114
 10
4.489167019809567
 20
18.98919059156989
 10
4.445150022415401
 20
19.22470640277288
 10
4.431147919004144
 20
19.4483508385828
 10
4.447530194895856
 20
19.65423187077895
 10
4.493865233139422
 20
19.83692451714156
 10
4.568931551151121
 20
19.99161548228274
 10
4.670752171371923
 20
20.11422833709033
 10
4.768981712173205
 20
20.18661348938734
  0
ARC
  5
1EC
330
2
100
AcDbEntity
  8
0
100
AcDbCircle
 10
30.18343679773155
 20
3.250295867170871
 30
0.0
 40
0.3088493299476926
100
AcDbArc
 50
235.2107411790978
 51
294.8251549523028
  0
LINE
  5
1ED
330
2
100
AcDbEntity
  8
0
100
AcDbLine
 10
4.38461029180977
 20
18.645578655148
 30
0.0
 11
4.963322697966065
 21
17.03130197319427
 31
0.0
  0
ARC
  5
1EE
330
2
100
AcDbEntity
  8
0
100
AcDbCircle
 10
5.87508849324546
 20
17.34099878390987
 30
0.0
 40
0.9629272973932582
100
AcDbArc
 50
198.7609323201001
 51
237.9628638995971
  0
ELLIPSE
  5
1EF
330
2
100
AcDbEntity
  8
0
100
AcDbEllipse
 10
6.362587639691318
 20
15.96853648348625
 30
0.0
 11
0.2720313790412379
 21
-0.0301757885719067
 31
0.0
210
0.0
220
0.0
230
1.0
 40
0.5558758453000001
 41
0.1380776646671404
 42
0.9234770195335723
  0
LINE
  5
1F0
330
2
100
AcDbEntity
  8
0
100
AcDbLine
 10
28.23548000872946
 20
3.661697481409877
 30
0.0
 11
6.745680440521969
 21
15.6343359156145
 31
0.0
  0
SPLINE
  5
1F1
330
2
100
AcDbEntity
  8
0
100
AcDbSpline
210
0.0
220
0.0
230
1.0
 70
     8
 71
     3
 72
     9
 73
     5
 74
     0
 42
0.000000001
 43
0.0000000001
 40
0.0
 40
0.0
 40
0.0
 40
0.0
 40
0.4902521367727878
 40
1.0
 40
1.0
 40
1.0
 40
1.0
 10
28.40399928729599
 20
3.617920568040299
 30
0.0
 10
28.37283093686355
 20
3.62067112880122
 30
0.0
 10
28.30925477248895
 20
3.626281631141911
 30
0.0
 10
28.26038915358121
 20
3.649739753588606
 30
0.0
 10
28.23548000875763
 20
3.661697481381136
 30
0.0
  0
LINE
  5
1F2
330
2
100
AcDbEntity
  8
0
100
AcDbLine
 10
28.81066045138128
 20
3.604338812835812
 30
0.0
 11
28.40399928730962
 21
3.617920568052459
 31
0.0
  0
ELLIPSE
  5
1F3
330
2
100
AcDbEntity
  8
0
100
AcDbEllipse
 10
28.83148856235077
 20
3.450409685560197
 30
0.0
 11
0.2720313790412379
 21
-0.0301757885719067
 31
0.0
210
0.0
220
0.0
230
1.0
 40
0.5558758453000001
 41
0.9234770195449069
 42
1.708877018944108
  0
SPLINE
  5
1F4
330
2
100
AcDbEntity
  8
0
100
AcDbSpline
210
0.0
220
0.0
230
1.0
 70
     8
 71
     3
 72
     9
 73
     5
 74
     0
 42
0.000000001
 43
0.0000000001
 40
0.0
 40
0.0
 40
0.0
 40
0.0
 40
0.4902400700393053
 40
1.0
 40
1.0
 40
1.0
 40
1.0
 10
28.80334746060109
 20
3.451349865235169
 30
0.0
 10
28.81251454557304
 20
3.450541005415909
 30
0.0
 10
28.83121372079813
 20
3.448891079453693
 30
0.0
 10
28.84558607183436
 20
3.441991314415768
 30
0.0
 10
28.85291252049207
 20
3.43847409067332
 30
0.0
  0
LINE
  5
1F5
330
2
100
AcDbEntity
  8
0
100
AcDbLine
 10
28.30100731531227
 20
3.468125133930548
 30
0.0
 11
28.80334746062263
 21
3.451349865263767
 31
0.0
  0
ELLIPSE
  5
1F6
330
2
100
AcDbEntity
  8
0
100
AcDbEllipse
 10
28.28538724212793
 20
3.583572566013481
 30
0.0
 11
0.204023534280875
 21
-0.0226318414289211
 31
0.0
210
0.0
220
0.0
230
1.0
 40
0.5558758453000001
 41
4.065069673123844
 42
4.850464992174733
  0
LINE
  5
1F7
330
2
100
AcDbEntity
  8
0
100
AcDbLine
 10
28.15231508935029
 20
3.506752636745341
 30
0.0
 11
6.473987483733051
 21
15.58442490570189
 31
0.0
  0
ELLIPSE
  5
1F8
330
2
100
AcDbEntity
  8
0
100
AcDbEllipse
 10
6.607059252786884
 20
15.66124647951831
 30
0.0
 11
0.2040235342809462
 21
-0.0226318414289211
 31
0.0
210
0.0
220
0.0
230
0.9999999999999998
 40
0.5558758453000001
 41
3.27967150982104
 42
4.065069673139291
  0
LINE
  5
1F9
330
2
100
AcDbEntity
  8
0
100
AcDbLine
 10
6.364744770500454
 20
15.95259618922703
 30
0.0
 11
6.403246072552662
 21
15.66805321908832
 31
0.0
  0
SPLINE
  5
1FA
330
2
100
AcDbEntity
  8
0
100
AcDbSpline
210
0.0
220
0.0
230
1.0
 70
     8
 71
     3
 72
     9
 73
     5
 74
     0
 42
0.000000001
 43
0.0000000001
 40
0.0
 40
0.0
 40
0.0
 40
0.0
 40
0.5097363562582665
 40
1.0
 40
1.0
 40
1.0
 40
1.0
 10
6.341164306955307
 20
15.98047178885648
 30
0.0
 10
6.347494559845473
 20
15.97638003238132
 30
0.0
 10
6.359913240232598
 20
15.96835283081929
 30
0.0
 10
6.363155304317669
 20
15.95777977440959
 30
0.0
 10
6.364744770469289
 20
15.95259618924873
 30
0.0
  0
LINE
  5
1FB
330
2
100
AcDbEntity
  8
0
100
AcDbLine
 10
6.665506930675849
 20
15.72911299254276
 30
0.0
 11
6.634338841128225
 21
15.95946152247869
 31
0.0
  0
SPLINE
  5
1FC
330
2
100
AcDbEntity
  8
0
100
AcDbSpline
210
0.0
220
0.0
230
1.0
 70
     8
 71
     3
 72
     9
 73
     5
 74
     0
 42
0.000000001
 43
0.0000000001
 40
0.0
 40
0.0
 40
0.0
 40
0.0
 40
0.5097502689111597
 40
1.0
 40
1.0
 40
1.0
 40
1.0
 10
6.745680440549853
 20
15.63433591563872
 30
0.0
 10
6.724156654988304
 20
15.64824798614152
 30
0.0
 10
6.681932478025304
 20
15.67553991976322
 30
0.0
 10
6.670910468101053
 20
15.711488976912
 30
0.0
 10
6.665506930699669
 20
15.72911299251203
 30
0.0
  0
LINE
  5
1FD
330
2
100
AcDbEntity
  8
0
100
AcDbLine
 10
28.8529125205226
 20
3.438474090669985
 30
0.0
 11
29.82979057355504
 21
2.894223707959768
 31
0.0
  0
LINE
  5
1FE
330
2
100
AcDbEntity
  8
0
100
AcDbLine
 10
5.364285592918775
 20
16.52472102662357
 30
0.0
 11
6.341164306944681
 21
15.98047178887424
 31
0.0
  0
LWPOLYLINE
  5
1FF
330
2
100
AcDbEntity
  8
0
100
AcDbPolyline
 90
        9
 70
   128
 43
0.0
 10
4.591552443561083
 20
20.08418575289419
 10
4.493322902822417
 20
20.0118006005972
 10
4.391502282601758
 20
19.88918774578961
 10
4.316435964589988
 20
19.73449678064843
 10
4.270100926346422
 20
19.55180413428583
 10
4.253718650454781
 20
19.34592310208966
 10
4.267720753866038
 20
19.12227866627977
 10
4.311737751260133
 20
18.88676285501405
 10
4.38461029180977
 20
18.645578655148
  0
ARC
  5
200
330
2
100
AcDbEntity
  8
0
100
AcDbCircle
 10
30.00600752918211
 20
3.147868130677753
 30
0.0
 40
0.3088493299477217
100
AcDbArc
 50
235.2107411790978
 51
294.8251549523028
  0
LINE
  5
201
330
2
100
AcDbEntity
  8
0
100
AcDbLine
 10
43.05692448981083
 20
26.14241152333466
 30
0.0
 11
34.52481559356112
 21
30.89591619858508
 31
0.0
  0
ARC
  5
202
330
2
100
AcDbEntity
  8
0
100
AcDbCircle
 10
35.03396660982327
 20
31.71145008138353
 30
0.0
 40
0.9614209646909223
100
AcDbArc
 50
182.5545646220995
 51
238.0227989303983
  0
LINE
  5
203
330
2
100
AcDbEntity
  8
0
100
AcDbLine
 10
34.07350107798026
 20
31.66859878623837
 30
0.0
 11
34.07350107798026
 21
41.81420448146049
 31
0.0
  0
ARC
  5
204
330
2
100
AcDbEntity
  8
0
100
AcDbCircle
 10
34.12730743678342
 20
41.82315771967445
 30
0.0
 40
0.0545461706074027
100
AcDbArc
 50
52.29532207050188
 51
189.4473107348011
  0
LINE
  5
205
330
2
100
AcDbEntity
  8
0
100
AcDbLine
 10
34.16066741860981
 20
41.8663132099548
 30
0.0
 11
37.14582820850596
 21
40.20318686071403
 31
0.0
  0
LINE
  5
206
330
2
100
AcDbEntity
  8
0
100
AcDbLine
 10
43.33196561765779
 20
31.82175822508835
 30
0.0
 11
43.42798882243442
 21
28.59102382921875
 31
0.0
  0
LINE
  5
207
330
2
100
AcDbEntity
  8
0
100
AcDbLine
 10
43.47454330449213
 20
27.02467560367392
 30
0.0
 11
43.49248614340299
 21
26.4209871803721
 31
0.0
  0
LWPOLYLINE
  5
208
330
2
100
AcDbEntity
  8
0
100
AcDbPolyline
 90
        9
 70
   128
 43
0.0
 10
43.49248614340299
 20
26.4209871803721
 10
43.48683149859928
 20
26.32293660087454
 10
43.4639842221004
 20
26.23808936118072
 10
43.42484059647883
 20
26.16977874559855
 10
43.37093937259616
 20
26.12068855591264
 10
43.30439831560854
 20
26.09274624761376
 10
43.22783092242302
 20
26.08705117487529
 10
43.14424463120945
 20
26.10382573136032
 10
43.05692448981083
 20
26.14241152333466
  0
LWPOLYLINE
  5
209
330
2
100
AcDbEntity
  8
0
100
AcDbPolyline
 90
       20
 70
   128
 43
0.0
 10
34.64118634847686
 20
32.49093434743049
 10
34.54785509000102
 20
32.52488893539491
 10
34.46518301042401
 20
32.51877573343524
 10
34.40212888802237
 20
32.47325662160753
 10
34.36552565946319
 20
32.39326386001221
 10
34.35933983836443
 20
32.28746589684562
 10
34.38424173629134
 20
32.16732858953594
 10
34.43753283859878
 20
32.04586949367756
 10
34.51343826490906
 20
31.93625100486582
 10
34.60373246521664
 20
31.85035286382202
 10
34.69863068982335
 20
31.79748203951348
 10
34.78784919396627
 20
31.78336836533294
 10
34.8617198073873
 20
31.80954171976128
 10
34.91223741547939
 20
31.87316544584753
 10
34.93392781976663
 20
31.96734517499216
 10
34.92444034374816
 20
32.08187514623882
 10
34.8848033000101
 20
32.2043432543888
 10
34.81931178938919
 20
32.3214796420644
 10
34.73506291164636
 20
32.4205897673919
 10
34.64118634847686
 20
32.49093434743049
  0
LWPOLYLINE
  5
20A
330
2
100
AcDbEntity
  8
0
100
AcDbPolyline
 90
       20
 70
   128
 43
0.0
 10
34.57329871929202
 20
41.13027118090207
 10
34.47278815233528
 20
41.16683822168339
 10
34.38375666299009
 20
41.16025463023871
 10
34.31585222028142
 20
41.11123380064336
 10
34.27643336034851
 20
41.02508769740128
 10
34.26977169890518
 20
40.91115185955395
 10
34.29658912426674
 20
40.7817728558345
 10
34.35397955484168
 20
40.65097098011704
 10
34.4357238728236
 20
40.5329205273439
 10
34.53296376812243
 20
40.44041416916275
 10
34.63516184661089
 20
40.38347634918615
 10
34.7312432999249
 20
40.36827735268814
 10
34.81079627778368
 20
40.39646400726179
 10
34.86519984297533
 20
40.46498213766102
 10
34.88855871450386
 20
40.56640631454125
 10
34.87834152162852
 20
40.68974587989918
 10
34.83565539825987
 20
40.82163512552717
 10
34.76512609817568
 20
40.94778182475693
 10
34.67439656293072
 20
41.05451590863657
 10
34.57329871929202
 20
41.13027118090207
  0
LWPOLYLINE
  5
20B
330
2
100
AcDbEntity
  8
0
100
AcDbPolyline
 90
       17
 70
   128
 43
0.0
 10
36.10885757469519
 20
31.40172979388817
 10
36.04120442656557
 20
31.42382297524746
 10
35.98432220349918
 20
31.41109239997611
 10
35.94687084019418
 20
31.36547691866097
 10
35.93455191073708
 20
31.29392053369329
 10
35.9492409327906
 20
31.20731776500254
 10
35.98870149616175
 20
31.11885217496813
 10
36.04692616029455
 20
31.04199214898344
 10
36.11505074915041
 20
30.98843959750067
 10
36.18270389728003
 20
30.96634641614139
 10
36.23958612034642
 20
30.97907622816819
 10
36.27703748365142
 20
31.02469170948335
 10
36.28935641310859
 20
31.09624809438829
 10
36.27466739099231
 20
31.18285162638631
 10
36.23520682768385
 20
31.27131645317617
 10
36.17698216348836
 20
31.34817647916087
 10
36.10885757469519
 20
31.40172979388817
  0
LWPOLYLINE
  5
20C
330
2
100
AcDbEntity
  8
0
100
AcDbPolyline
 90
       17
 70
   128
 43
0.0
 10
35.97880173673414
 20
40.08082554017949
 10
35.91114858860445
 20
40.10291862612539
 10
35.85426636553806
 20
40.09018843250763
 10
35.81681500223313
 20
40.04457295119249
 10
35.80449607277603
 20
39.97301675705165
 10
35.81918509489224
 20
39.88641351129388
 10
35.85864565820063
 20
39.79794811208627
 10
35.91687032239619
 20
39.72108827686565
 10
35.98499491118929
 20
39.66753534379197
 10
36.05264805931899
 20
39.6454421624327
 10
36.10953028238537
 20
39.65817235611314
 10
36.14698164569031
 20
39.70378783742829
 10
36.15930057514747
 20
39.77534403150643
 10
36.14461155309395
 20
39.8619472772642
 10
36.1051509897228
 20
39.95041277194792
 10
36.04692632559
 20
40.02727260710581
 10
35.97880173673414
 20
40.08082554017949
  0
ARC
  5
20D
330
2
100
AcDbEntity
  8
0
100
AcDbCircle
 10
37.3687612622653
 20
39.22060891063797
 30
0.0
 40
0.2340367898985879
100
AcDbArc
 50
153.6743924654995
 51
208.0426567441988
  0
LWPOLYLINE
  5
20E
330
2
100
AcDbEntity
  8
0
100
AcDbPolyline
 90
       17
 70
   128
 43
0.0
 10
37.43937433475771
 20
30.66045707310923
 10
37.37172118662809
 20
30.68255025446853
 10
37.3148389635617
 20
30.66981967919716
 10
37.27738743502408
 20
30.62420429329541
 10
37.26506850556698
 20
30.55264867163502
 10
37.27975736238781
 20
30.4660452350504
 10
37.31921792575895
 20
30.37757964495328
 10
37.37744258989168
 20
30.30071961896855
 10
37.44556734398031
 20
30.24716697213511
 10
37.51322049210986
 20
30.22507379077583
 10
37.57010271517625
 20
30.23780436604721
 10
37.60755391324855
 20
30.28341994277575
 10
37.61987284270566
 20
30.35497556443616
 10
37.60518398582214
 20
30.44157900102077
 10
37.56572342251369
 20
30.53004459105518
 10
37.50749875831819
 20
30.60690461703986
 10
37.43937433475771
 20
30.66045707310923
  0
LWPOLYLINE
  5
20F
330
2
100
AcDbEntity
  8
0
100
AcDbPolyline
 90
       17
 70
   128
 43
0.0
 10
41.43092428447996
 20
28.43663986490645
 10
41.36327080588495
 20
28.45873323702983
 10
41.30638858281856
 20
28.44600266175849
 10
41.26893705428094
 20
28.40038727585673
 10
41.25661845528916
 20
28.32883146343224
 10
41.27130731217275
 20
28.24222802678491
 10
41.31076820600927
 20
28.15376224598642
 10
41.36899287014201
 20
28.0769022200017
 10
41.4371169632371
 20
28.02334995469644
 10
41.50477044183218
 20
28.00125658257308
 10
41.56165266496126
 20
28.01398715784444
 10
41.59910419349889
 20
28.05960254374618
 10
41.61142279249066
 20
28.13115835623339
 10
41.59673393560708
 20
28.217761792818
 10
41.55727304177061
 20
28.30622757361648
 10
41.49904837763774
 20
28.38308759966393
 10
41.43092428447996
 20
28.43663986490645
  0
LWPOLYLINE
  5
210
330
2
100
AcDbEntity
  8
0
100
AcDbPolyline
 90
       17
 70
   128
 43
0.0
 10
40.10040719395205
 20
29.17791277644952
 10
40.03275437628782
 20
29.20000576704468
 10
39.97587215322143
 20
29.18727519177334
 10
39.93842062468374
 20
29.14165980580886
 10
39.92610202569203
 20
29.07010323007712
 10
39.94079088257554
 20
28.98350055679978
 10
39.98025111541861
 20
28.89503515752945
 10
40.03847577961409
 20
28.81817513154476
 10
40.10660053363997
 20
28.76462248464857
 10
40.17425401229774
 20
28.74252911252519
 10
40.23113623536406
 20
28.75525892455202
 10
40.26858710290828
 20
28.80087469204467
 10
40.28090636289346
 20
28.87243088618552
 10
40.26621750600994
 20
28.95903432277012
 10
40.2267566121734
 20
29.04750010363135
 10
40.16853194804061
 20
29.12435936630878
 10
40.10040719395205
 20
29.17791277644952
  0
LWPOLYLINE
  5
211
330
2
100
AcDbEntity
  8
0
100
AcDbPolyline
 90
       17
 70
   128
 43
0.0
 10
38.76989076435492
 20
29.9191845431571
 10
38.70223761622522
 20
29.94127772451638
 10
38.64535539315891
 20
29.92854791248957
 10
38.6079041950866
 20
29.88293233582373
 10
38.5955852656295
 20
29.81137595085607
 10
38.61027412251302
 20
29.72477251427146
 10
38.6497346858214
 20
29.63630768748158
 10
38.70795935001697
 20
29.5594476614969
 10
38.77608410404277
 20
29.50589425135616
 10
38.84373725217245
 20
29.48380106999688
 10
38.90061947530153
 20
29.49653164533099
 10
38.93807067331108
 20
29.5421472219968
 10
38.95038960276825
 20
29.61370360696447
 10
38.93570074594742
 20
29.70030628030454
 10
38.89624018257628
 20
29.78877187033895
 10
38.83801551844348
 20
29.86563189632364
 10
38.76989076435492
 20
29.9191845431571
  0
ARC
  5
212
330
2
100
AcDbEntity
  8
0
100
AcDbCircle
 10
34.76782221123831
 20
31.55780819043498
 30
0.0
 40
0.9614209646908847
100
AcDbArc
 50
182.5545646220995
 51
238.0227989303983
  0
LINE
  5
213
330
2
100
AcDbEntity
  8
0
100
AcDbLine
 10
33.80735667939538
 20
41.66056259051194
 30
0.0
 11
33.80735667939538
 21
31.51495689535256
 31
0.0
  0
LINE
  5
214
330
2
100
AcDbEntity
  8
0
100
AcDbLine
 10
34.25867119497616
 20
30.74227430763653
 30
0.0
 11
42.79078009122595
 21
25.98876963238611
 31
0.0
  0
LINE
  5
215
330
2
100
AcDbEntity
  8
0
100
AcDbLine
 10
34.37504194989197
 20
32.33729245648193
 30
0.0
 11
34.35869259884035
 21
32.34586442447114
 31
0.0
  0
ARC
  5
216
330
2
100
AcDbEntity
  8
0
100
AcDbCircle
 10
42.96705918469425
 20
26.24312605574223
 30
0.0
 40
0.3094697221358865
100
AcDbArc
 50
235.2765049933007
 51
294.7592278023
  0
ARC
  5
217
330
2
100
AcDbEntity
  8
0
100
AcDbCircle
 10
33.86716381248736
 20
41.66810361705914
 30
0.0
 40
0.0602806789535145
100
AcDbArc
 50
124.1257442805988
 51
187.1864479581998
  0
LINE
  5
218
330
2
100
AcDbEntity
  8
0
100
AcDbLine
 10
12.51584787950318
 20
24.65878435963747
 30
0.0
 11
12.51584787950318
 21
29.36923618854596
 31
0.0
  0
ARC
  5
219
330
2
100
AcDbEntity
  8
0
100
AcDbCircle
 10
12.57565501265786
 20
29.37677721515587
 30
0.0
 40
0.0602806789564234
100
AcDbArc
 50
124.1257442825974
 51
187.1864479567998
  0
LINE
  5
21A
330
2
100
AcDbEntity
  8
0
100
AcDbLine
 10
12.24970401795581
 20
29.21559460767531
 30
0.0
 11
12.24970401795581
 21
24.50514277870407
 31
0.0
  0
ARC
  5
21B
330
2
100
AcDbEntity
  8
0
100
AcDbCircle
 10
12.30951115111055
 20
29.2231356342225
 30
0.0
 40
0.0602806789577973
100
AcDbArc
 50
124.1257442830999
 51
187.1864479557
  0
SPLINE
  5
21C
330
2
100
AcDbEntity
  8
0
100
AcDbSpline
210
0.0
220
0.0
230
1.0
 70
     8
 71
     3
 72
    13
 73
     9
 74
     0
 42
0.000000001
 43
0.0000000001
 40
0.0
 40
0.0
 40
0.0
 40
0.0
 40
0.2394574821430646
 40
0.3683612394139448
 40
0.5000001306757991
 40
0.6316398361232566
 40
0.7605433487476391
 40
1.0
 40
1.0
 40
1.0
 40
1.0
 10
19.79301995292206
 20
23.46022472145055
 30
0.0
 10
19.90659270277276
 20
23.51342358848757
 30
0.0
 10
20.08130346363192
 20
23.59526024868196
 30
0.0
 10
20.37308148815253
 20
23.648259996411
 30
0.0
 10
20.60915917992616
 20
23.6650669389373
 30
0.0
 10
20.84523283112468
 20
23.65303991057731
 30
0.0
 10
21.13699703709532
 20
23.6059434092075
 30
0.0
 10
21.31168622843897
 20
23.52764454948757
 30
0.0
 10
21.42524489430802
 20
23.47674549854763
 30
0.0
  0
LINE
  5
21D
330
2
100
AcDbEntity
  8
0
100
AcDbLine
 10
21.42524489428862
 20
23.47674549854116
 30
0.0
 11
22.9509040728805
 21
22.62675335118336
 31
0.0
  0
LINE
  5
21E
330
2
100
AcDbEntity
  8
0
100
AcDbLine
 10
39.28960186017619
 20
13.18177970281715
 30
0.0
 11
21.43406957720555
 21
23.12965436818917
 31
0.0
  0
LINE
  5
21F
330
2
100
AcDbEntity
  8
0
100
AcDbLine
 10
21.12436788961638
 20
23.30302962519815
 30
0.0
 11
21.43406957720555
 21
23.12965436818917
 31
0.0
  0
SPLINE
  5
220
330
2
100
AcDbEntity
  8
0
100
AcDbSpline
210
0.0
220
0.0
230
1.0
 70
     8
 71
     3
 72
    11
 73
     7
 74
     0
 42
0.000000001
 43
0.0000000001
 40
0.0
 40
0.0
 40
0.0
 40
0.0
 40
0.2499998882366519
 40
0.5000006405592368
 40
0.7500003613741885
 40
1.0
 40
1.0
 40
1.0
 40
1.0
 10
21.12436788959762
 20
23.30302962517487
 30
0.0
 10
21.04920798387755
 20
23.336140096837
 30
0.0
 10
20.89888791265877
 20
23.4023611546026
 30
0.0
 10
20.60981049745656
 20
23.42853447019679
 30
0.0
 10
20.32063198247972
 20
23.39680908462466
 30
0.0
 10
20.17007523635909
 20
23.32769931365294
 30
0.0
 10
20.0947968756728
 20
23.29314443384719
 30
0.0
  0
LINE
  5
221
330
2
100
AcDbEntity
  8
0
100
AcDbLine
 10
19.91686163043787
 20
23.18995069078331
 30
0.0
 11
20.0947942317552
 21
23.29314596014945
 31
0.0
  0
LINE
  5
222
330
2
100
AcDbEntity
  8
0
100
AcDbLine
 10
15.00243135391698
 20
20.69467678959089
 30
0.0
 11
19.79301995292619
 21
23.46022472146129
 31
0.0
  0
SPLINE
  5
223
330
2
100
AcDbEntity
  8
0
100
AcDbSpline
210
0.0
220
0.0
230
1.0
 70
     8
 71
     3
 72
    11
 73
     7
 74
     0
 42
0.000000001
 43
0.0000000001
 40
0.0
 40
0.0
 40
0.0
 40
0.0
 40
0.2499996104513201
 40
0.4999993421881643
 40
0.7499998181063954
 40
1.0
 40
1.0
 40
1.0
 40
1.0
 10
20.10077936424035
 20
22.93183766672237
 30
0.0
 10
20.17590893187958
 20
22.9662702380399
 30
0.0
 10
20.32616810360678
 20
23.0351353973797
 30
0.0
 10
20.61454456026355
 20
23.06684782094072
 30
0.0
 10
20.90291361104992
 20
23.0409741796557
 30
0.0
 10
21.05315605229728
 20
22.97515066735487
 30
0.0
 10
21.12827722874602
 20
22.94223893055814
 30
0.0
  0
SPLINE
  5
224
330
2
100
AcDbEntity
  8
0
100
AcDbSpline
210
0.0
220
0.0
230
1.0
 70
     8
 71
     3
 72
    11
 73
     7
 74
     0
 42
0.000000001
 43
0.0000000001
 40
0.0
 40
0.0
 40
0.0
 40
0.0
 40
0.24999974855915
 40
0.4999998773023965
 40
0.7499996073889226
 40
1.0
 40
1.0
 40
1.0
 40
1.0
 10
15.12971208653908
 20
19.47933831280652
 30
0.0
 10
15.07035357002225
 20
19.5213498433541
 30
0.0
 10
14.95163644671986
 20
19.60537296833773
 30
0.0
 10
14.90089366225571
 20
19.76842698069963
 30
0.0
 10
14.95168050126667
 20
19.93250943312974
 30
0.0
 10
15.07042060971984
 20
20.01893445189804
 30
0.0
 10
15.1297907426148
 20
20.06214701854087
 30
0.0
  0
LINE
  5
225
330
2
100
AcDbEntity
  8
0
100
AcDbLine
 10
15.12978545481917
 20
20.06215083424937
 30
0.0
 11
15.44250548668876
 21
20.24184691304629
 31
0.0
  0
LINE
  5
226
330
2
100
AcDbEntity
  8
0
100
AcDbLine
 10
15.44250548668876
 20
20.24184691304629
 30
0.0
 11
19.78952141002251
 21
22.75132578982999
 31
0.0
  0
LINE
  5
227
330
2
100
AcDbEntity
  8
0
100
AcDbLine
 10
19.78952273194668
 20
22.75132655294906
 30
0.0
 11
20.10077209352709
 21
22.93184033770664
 31
0.0
  0
LINE
  5
228
330
2
100
AcDbEntity
  8
0
100
AcDbLine
 10
21.12828317752548
 20
22.94224160155292
 30
0.0
 11
21.4394885841998
 21
22.76802574444641
 31
0.0
  0
LINE
  5
229
330
2
100
AcDbEntity
  8
0
100
AcDbLine
 10
21.4394885841998
 20
22.76802574444641
 30
0.0
 11
40.51022649863057
 21
12.14312266209972
 31
0.0
  0
LINE
  5
22A
330
2
100
AcDbEntity
  8
0
100
AcDbLine
 10
40.51022649863057
 20
12.14312266209972
 30
0.0
 11
40.8228996012175
 21
11.96975523225225
 31
0.0
  0
SPLINE
  5
22B
330
2
100
AcDbEntity
  8
0
100
AcDbSpline
210
0.0
220
0.0
230
1.0
 70
     8
 71
     3
 72
    11
 73
     7
 74
     0
 42
0.000000001
 43
0.0000000001
 40
0.0
 40
0.0
 40
0.0
 40
0.0
 40
0.2500000718254036
 40
0.4999993513971727
 40
0.749999149695578
 40
1.0
 40
1.0
 40
1.0
 40
1.0
 10
40.82289431342823
 20
11.96975217969747
 30
0.0
 10
40.882252851582
 20
11.92774129293334
 30
0.0
 10
41.0009697397815
 20
11.8437196525381
 30
0.0
 10
41.05171240169251
 20
11.68066553981981
 30
0.0
 10
41.00092735036382
 20
11.51658332623077
 30
0.0
 10
40.88218762691703
 20
11.4301580907409
 30
0.0
 10
40.82281764027892
 20
11.38694538207614
 30
0.0
  0
LINE
  5
22C
330
2
100
AcDbEntity
  8
0
100
AcDbLine
 10
40.82282292810635
 20
11.38694232946892
 30
0.0
 11
40.51009959133205
 21
11.2072443428429
 31
0.0
  0
LINE
  5
22D
330
2
100
AcDbEntity
  8
0
100
AcDbLine
 10
40.51009959133205
 20
11.2072443428429
 30
0.0
 11
36.1630836679983
 21
8.697765466059243
 31
0.0
  0
LINE
  5
22E
330
2
100
AcDbEntity
  8
0
100
AcDbLine
 10
36.1630836679983
 20
8.697765466059243
 30
0.0
 11
35.85183364548719
 21
8.517251299710746
 31
0.0
  0
SPLINE
  5
22F
330
2
100
AcDbEntity
  8
0
100
AcDbSpline
210
0.0
220
0.0
230
1.0
 70
     8
 71
     3
 72
    11
 73
     7
 74
     0
 42
0.000000001
 43
0.0000000001
 40
0.0
 40
0.0
 40
0.0
 40
0.0
 40
0.2500000228370226
 40
0.50000081319729
 40
0.7499994872002792
 40
1.0
 40
1.0
 40
1.0
 40
1.0
 10
35.85182769670245
 20
8.517253970748646
 30
0.0
 10
35.7766980682956
 20
8.482821133696111
 30
0.0
 10
35.62643858082682
 20
8.413955353879025
 30
0.0
 10
35.33806157427087
 20
8.382243641012863
 30
0.0
 10
35.04969226503336
 20
8.408116880852132
 30
0.0
 10
34.89945060699338
 20
8.473940811392299
 30
0.0
 10
34.824329501709
 20
8.506852897699387
 30
0.0
  0
LINE
  5
230
330
2
100
AcDbEntity
  8
0
100
AcDbLine
 10
34.82432355294766
 20
8.506847937020397
 30
0.0
 11
34.51311781574526
 21
8.681065511442811
 31
0.0
  0
LINE
  5
231
330
2
100
AcDbEntity
  8
0
100
AcDbLine
 10
34.51311781574526
 20
8.681065511442811
 30
0.0
 11
15.44237957084903
 21
19.30596878461631
 31
0.0
  0
LINE
  5
232
330
2
100
AcDbEntity
  8
0
100
AcDbLine
 10
15.44237957084903
 20
19.30596878461631
 30
0.0
 11
15.12970679872756
 21
19.47933449708518
 31
0.0
  0
SPLINE
  5
233
330
2
100
AcDbEntity
  8
0
100
AcDbSpline
210
0.0
220
0.0
230
1.0
 70
     8
 71
     3
 72
    13
 73
     9
 74
     0
 42
0.000000001
 43
0.0000000001
 40
0.0
 40
0.0
 40
0.0
 40
0.0
 40
0.1517540210827065
 40
0.3282378708513383
 40
0.5047220988143712
 40
0.6775394258695605
 40
0.8434580765075468
 40
1.0
 40
1.0
 40
1.0
 40
1.0
 10
20.16116145219765
 20
24.25728641444562
 30
0.0
 10
20.22649381162437
 20
24.27136158760813
 30
0.0
 10
20.36780508893311
 20
24.30180562354058
 30
0.0
 10
20.59981663685912
 20
24.31581027338857
 30
0.0
 10
20.83998255114014
 20
24.30472208113746
 30
0.0
 10
21.06523594224701
 20
24.26595604241138
 30
0.0
 10
21.26593313461778
 20
24.20651328581116
 30
0.0
 10
21.37567631066847
 20
24.15165798130208
 30
0.0
 10
21.42895230546413
 20
24.1250278889109
 30
0.0
  0
ARC
  5
234
330
2
100
AcDbEntity
  8
0
100
AcDbCircle
 10
21.44183992313704
 20
24.10686973026716
 30
0.0
 40
0.022266778266631
100
AcDbArc
 50
66.08732657709984
 51
125.364943246801
  0
LINE
  5
235
330
2
100
AcDbEntity
  8
0
100
AcDbLine
 10
40.50480782210178
 20
12.50475109501566
 30
0.0
 11
39.28960186017619
 21
13.18177970281715
 31
0.0
  0
LINE
  5
236
330
2
100
AcDbEntity
  8
0
100
AcDbLine
 10
15.12492860738184
 20
20.42410360444117
 30
0.0
 11
19.91686163043787
 21
23.18995069078331
 31
0.0
  0
LINE
  5
237
330
2
100
AcDbEntity
  8
0
100
AcDbLine
 10
14.82500175483947
 20
20.59224886227097
 30
0.0
 11
15.00243135391698
 21
20.69467678959089
 31
0.0
  0
SPLINE
  5
238
330
2
100
AcDbEntity
  8
0
100
AcDbSpline
210
0.0
220
0.0
230
1.0
 70
     8
 71
     3
 72
    10
 73
     6
 74
     0
 42
0.000000001
 43
0.0000000001
 40
0.0
 40
0.0
 40
0.0
 40
0.0
 40
0.4952256303533062
 40
0.990450278900994
 40
1.0
 40
1.0
 40
1.0
 40
1.0
 10
15.12493125129345
 20
20.42410207817666
 30
0.0
 10
15.06789433029003
 20
20.38111110083129
 30
0.0
 10
14.95382060136102
 20
20.29512923137214
 30
0.0
 10
14.89391570762436
 20
20.18126621950511
 30
0.0
 10
14.91310531394957
 20
20.12782383642078
 30
0.0
 10
14.9134683581123
 20
20.12681277111314
 30
0.0
  0
SPLINE
  5
239
330
2
100
AcDbEntity
  8
0
100
AcDbSpline
210
0.0
220
0.0
230
1.0
 70
     8
 71
     3
 72
    13
 73
     9
 74
     0
 42
0.000000001
 43
0.0000000001
 40
0.0
 40
0.0
 40
0.0
 40
0.0
 40
0.239456819647827
 40
0.3683606609706322
 40
0.5000001327023997
 40
0.6316395182094061
 40
0.7605433661305488
 40
1.0
 40
1.0
 40
1.0
 40
1.0
 10
14.82487716098674
 20
19.66643431085534
 30
0.0
 10
14.7331236322062
 20
19.72992130965306
 30
0.0
 10
14.59197755602537
 20
19.82758448280701
 30
0.0
 10
14.50376327992999
 20
19.99218697010684
 30
0.0
 10
14.47836343619905
 20
20.12583443578126
 30
0.0
 10
14.50379826243153
 20
20.25999463963554
 30
0.0
 10
14.59205821213642
 20
20.42638626765771
 30
0.0
 10
14.73323093237539
 20
20.52690536081117
 30
0.0
 10
14.82500175485423
 20
20.59224886228865
 30
0.0
  0
LINE
  5
23A
330
2
100
AcDbEntity
  8
0
100
AcDbLine
 10
14.79357237344514
 20
19.6632961597246
 30
0.0
 11
14.7945264914732
 21
19.66279555875366
 31
0.0
  0
LINE
  5
23B
330
2
100
AcDbEntity
  8
0
100
AcDbLine
 10
22.9509040728805
 20
22.62675335118336
 30
0.0
 11
41.11689089444166
 21
12.50591438319874
 31
0.0
  0
LINE
  5
23C
330
2
100
AcDbEntity
  8
0
100
AcDbLine
 10
41.11676663105439
 20
11.58009887785923
 30
0.0
 11
40.93933835396382
 21
11.47767171372109
 31
0.0
  0
SPLINE
  5
23D
330
2
100
AcDbEntity
  8
0
100
AcDbSpline
210
0.0
220
0.0
230
1.0
 70
     8
 71
     3
 72
     9
 73
     5
 74
     0
 42
0.000000001
 43
0.0000000001
 40
0.0
 40
0.0
 40
0.0
 40
0.0
 40
0.4951309764652165
 40
1.0
 40
1.0
 40
1.0
 40
1.0
 10
41.02829903635587
 20
12.04553554138692
 30
0.0
 10
41.01840584138694
 20
12.09902213029917
 30
0.0
 10
40.99842487586624
 20
12.20704726194032
 30
0.0
 10
40.87718356234966
 20
12.29022630790309
 30
0.0
 10
40.8159725787825
 20
12.33222083161687
 30
0.0
  0
LINE
  5
23E
330
2
100
AcDbEntity
  8
0
100
AcDbLine
 10
40.81597257877459
 20
12.33222083163762
 30
0.0
 11
40.50480782210178
 21
12.50475109501566
 31
0.0
  0
SPLINE
  5
23F
330
2
100
AcDbEntity
  8
0
100
AcDbSpline
210
0.0
220
0.0
230
1.0
 70
     8
 71
     3
 72
    13
 73
     9
 74
     0
 42
0.000000001
 43
0.0000000001
 40
0.0
 40
0.0
 40
0.0
 40
0.0
 40
0.2394571133204298
 40
0.3683606010806505
 40
0.4999996787217642
 40
0.6316388708339024
 40
0.7605423735359636
 40
1.0
 40
1.0
 40
1.0
 40
1.0
 10
41.11689089445692
 20
12.50591438321766
 30
0.0
 10
41.20864434469632
 20
12.44242723706609
 30
0.0
 10
41.34979010400512
 20
12.34476397288895
 30
0.0
 10
41.43800705135738
 20
12.18016176802409
 30
0.0
 10
41.4634030603129
 20
12.04651453105891
 30
0.0
 10
41.43797172686119
 20
11.91235365637223
 30
0.0
 10
41.3497088338468
 20
11.74596548838199
 30
0.0
 10
41.20853705846482
 20
11.64544405599795
 30
0.0
 10
41.11676663107707
 20
11.58009887785189
 30
0.0
  0
LWPOLYLINE
  5
240
330
2
100
AcDbEntity
  8
0
100
AcDbPolyline
 90
        3
 70
   128
 43
0.0
 10
41.50849900425757
 20
12.65741808619315
 10
41.48517846928468
 20
12.78592153864767
 10
41.44927428421022
 20
12.86373619724042
  0
LINE
  5
241
330
2
100
AcDbEntity
  8
0
100
AcDbLine
 10
40.94926091707066
 20
11.47439038323749
 30
0.0
 11
40.93933835396382
 21
11.47767171372109
 31
0.0
  0
SPLINE
  5
242
330
2
100
AcDbEntity
  8
0
100
AcDbSpline
210
0.0
220
0.0
230
1.0
 70
     8
 71
     3
 72
     9
 73
     5
 74
     0
 42
0.000000001
 43
0.0000000001
 40
0.0
 40
0.0
 40
0.0
 40
0.0
 40
0.5564520892534548
 40
1.0
 40
1.0
 40
1.0
 40
1.0
 10
40.94926091704114
 20
11.47439038320946
 30
0.0
 10
40.95463327292212
 20
11.47380990533456
 30
0.0
 10
40.96428793319709
 20
11.47276672859737
 30
0.0
 10
40.96987015978017
 20
11.47593108700033
 30
0.0
 10
40.97234614471839
 20
11.4773346315588
 30
0.0
  0
LINE
  5
243
330
2
100
AcDbEntity
  8
0
100
AcDbLine
 10
29.7464439686029
 20
26.54973502997596
 30
0.0
 11
28.53123899813623
 21
27.2267630654852
 31
0.0
  0
LINE
  5
244
330
2
100
AcDbEntity
  8
0
100
AcDbLine
 10
28.22153731054707
 20
27.40013832249418
 30
0.0
 11
28.53123899813623
 21
27.2267630654852
 31
0.0
  0
SPLINE
  5
245
330
2
100
AcDbEntity
  8
0
100
AcDbSpline
210
0.0
220
0.0
230
1.0
 70
     8
 71
     3
 72
    11
 73
     7
 74
     0
 42
0.000000001
 43
0.0000000001
 40
0.0
 40
0.0
 40
0.0
 40
0.0
 40
0.2499997747511758
 40
0.4999995002918318
 40
0.7500004748595514
 40
1.0
 40
1.0
 40
1.0
 40
1.0
 10
28.22153731053059
 20
27.40013832246878
 30
0.0
 10
28.14637738168185
 20
27.43324869013243
 30
0.0
 10
27.99605753877898
 20
27.49946941894238
 30
0.0
 10
27.70698041170793
 20
27.52564444398728
 30
0.0
 10
27.41780188176024
 20
27.49391765464121
 30
0.0
 10
27.26724467950966
 20
27.42480790552812
 30
0.0
 10
27.19196629660584
 20
27.39025313114108
 30
0.0
  0
LINE
  5
246
330
2
100
AcDbEntity
  8
0
100
AcDbLine
 10
27.01403105136856
 20
27.28705938807936
 30
0.0
 11
27.19196365268582
 21
27.39025465744548
 31
0.0
  0
LINE
  5
247
330
2
100
AcDbEntity
  8
0
100
AcDbLine
 10
26.71276109676631
 20
27.45490625461917
 30
0.0
 11
26.89019069578113
 21
27.55733418187638
 31
0.0
  0
SPLINE
  5
248
330
2
100
AcDbEntity
  8
0
100
AcDbSpline
210
0.0
220
0.0
230
1.0
 70
     8
 71
     3
 72
    11
 73
     7
 74
     0
 42
0.000000001
 43
0.0000000001
 40
0.0
 40
0.0
 40
0.0
 40
0.0
 40
0.2499996104513201
 40
0.4999993421881643
 40
0.7499998181063954
 40
1.0
 40
1.0
 40
1.0
 40
1.0
 10
27.19794878517325
 20
27.02894636401628
 30
0.0
 10
27.27307835281255
 20
27.06337893533381
 30
0.0
 10
27.42333752453975
 20
27.13224409467354
 30
0.0
 10
27.71171398119653
 20
27.16395651823456
 30
0.0
 10
28.00008303198289
 20
27.13808287694954
 30
0.0
 10
28.15032547323017
 20
27.07225936464871
 30
0.0
 10
28.22544664967899
 20
27.03934762785203
 30
0.0
  0
SPLINE
  5
249
330
2
100
AcDbEntity
  8
0
100
AcDbSpline
210
0.0
220
0.0
230
1.0
 70
     8
 71
     3
 72
    11
 73
     7
 74
     0
 42
0.000000001
 43
0.0000000001
 40
0.0
 40
0.0
 40
0.0
 40
0.0
 40
0.2499998052492477
 40
0.5000004494611138
 40
0.7499995506986789
 40
1.0
 40
1.0
 40
1.0
 40
1.0
 10
22.22688150747213
 20
23.57644701010036
 30
0.0
 10
22.1675228995495
 20
23.61845853323936
 30
0.0
 10
22.04880548450541
 20
23.70248172050187
 30
0.0
 10
21.99806420330761
 20
23.86553582866065
 30
0.0
 10
22.04884980586749
 20
24.02961826508521
 30
0.0
 10
22.16758993760795
 20
24.11604315458061
 30
0.0
 10
22.22696016354763
 20
24.1592557158347
 30
0.0
  0
LINE
  5
24A
330
2
100
AcDbEntity
  8
0
100
AcDbLine
 10
22.22695553674326
 20
24.1592599131363
 30
0.0
 11
22.53967490761938
 21
24.33895561034234
 31
0.0
  0
LINE
  5
24B
330
2
100
AcDbEntity
  8
0
100
AcDbLine
 10
22.53967490761938
 20
24.33895561034234
 30
0.0
 11
26.8866921528773
 21
26.8484352502451
 31
0.0
  0
LINE
  5
24C
330
2
100
AcDbEntity
  8
0
100
AcDbLine
 10
26.8866921528773
 20
26.8484352502451
 30
0.0
 11
27.19794151445771
 21
27.02894903500269
 31
0.0
  0
LINE
  5
24D
330
2
100
AcDbEntity
  8
0
100
AcDbLine
 10
28.22545259845617
 20
27.03935029884897
 30
0.0
 11
28.53665800513041
 21
26.86513444174244
 31
0.0
  0
LINE
  5
24E
330
2
100
AcDbEntity
  8
0
100
AcDbLine
 10
28.53665800513041
 20
26.86513444174244
 30
0.0
 11
47.60739591956125
 21
16.24023135939577
 31
0.0
  0
LINE
  5
24F
330
2
100
AcDbEntity
  8
0
100
AcDbLine
 10
47.60739591956125
 20
16.24023135939577
 30
0.0
 11
47.92006902214818
 21
16.0668639295483
 31
0.0
  0
SPLINE
  5
250
330
2
100
AcDbEntity
  8
0
100
AcDbSpline
210
0.0
220
0.0
230
1.0
 70
     8
 71
     3
 72
    11
 73
     7
 74
     0
 42
0.000000001
 43
0.0000000001
 40
0.0
 40
0.0
 40
0.0
 40
0.0
 40
0.2500004761707922
 40
0.5000001600866686
 40
0.7500003627300202
 40
1.0
 40
1.0
 40
1.0
 40
1.0
 10
47.92006373436119
 20
16.06686087699138
 30
0.0
 10
47.97942227232213
 20
16.02484999045582
 30
0.0
 10
48.09813916013602
 20
15.94082835051786
 30
0.0
 10
48.14888182493856
 20
15.77777423437023
 30
0.0
 10
48.0980968721407
 20
15.61369238765642
 30
0.0
 10
47.97935783473402
 20
15.52726732498781
 30
0.0
 10
47.91998838316281
 20
15.48405484251596
 30
0.0
  0
LINE
  5
251
330
2
100
AcDbEntity
  8
0
100
AcDbLine
 10
43.26025308892899
 20
12.79487416335527
 30
0.0
 11
42.94900372741127
 21
12.61436037859769
 31
0.0
  0
SPLINE
  5
252
330
2
100
AcDbEntity
  8
0
100
AcDbSpline
210
0.0
220
0.0
230
1.0
 70
     8
 71
     3
 72
    11
 73
     7
 74
     0
 42
0.000000001
 43
0.0000000001
 40
0.0
 40
0.0
 40
0.0
 40
0.0
 40
0.2499993189589147
 40
0.500000899673383
 40
0.7499992197077443
 40
1.0
 40
1.0
 40
1.0
 40
1.0
 10
42.94899711763542
 20
12.61436266804248
 30
0.0
 10
42.87386767581437
 20
12.57993004006282
 30
0.0
 10
42.72360811247275
 20
12.51106447258981
 30
0.0
 10
42.43523137566741
 20
12.4793520490214
 30
0.0
 10
42.14686231983304
 20
12.50522630330357
 30
0.0
 10
41.99662030146215
 20
12.57104972313476
 30
0.0
 10
41.9214989226419
 20
12.60396159499329
 30
0.0
  0
LINE
  5
253
330
2
100
AcDbEntity
  8
0
100
AcDbLine
 10
41.92149363480898
 20
12.6039570158446
 30
0.0
 11
41.61028789766934
 21
12.77817459026701
 31
0.0
  0
LINE
  5
254
330
2
100
AcDbEntity
  8
0
100
AcDbLine
 10
41.61028789766934
 20
12.77817459026701
 30
0.0
 11
22.53954965277318
 21
23.40307786350324
 31
0.0
  0
LINE
  5
255
330
2
100
AcDbEntity
  8
0
100
AcDbLine
 10
22.53954965277318
 20
23.40307786350324
 30
0.0
 11
22.22687688065164
 21
23.57644357597211
 31
0.0
  0
LINE
  5
256
330
2
100
AcDbEntity
  8
0
100
AcDbLine
 10
47.60197724303239
 20
16.60185979224897
 30
0.0
 11
34.00409717121052
 21
24.1776631821538
 31
0.0
  0
LINE
  5
257
330
2
100
AcDbEntity
  8
0
100
AcDbLine
 10
34.00409717121052
 20
24.1776631821538
 30
0.0
 11
29.7464439686029
 21
26.54973502997596
 31
0.0
  0
LINE
  5
258
330
2
100
AcDbEntity
  8
0
100
AcDbLine
 10
22.22209868930592
 20
24.5212126833281
 30
0.0
 11
22.40087072944993
 21
24.62393862040985
 31
0.0
  0
LINE
  5
259
330
2
100
AcDbEntity
  8
0
100
AcDbLine
 10
21.92217117577009
 20
24.689357559567
 30
0.0
 11
22.0996007748476
 21
24.79178548688694
 31
0.0
  0
SPLINE
  5
25A
330
2
100
AcDbEntity
  8
0
100
AcDbSpline
210
0.0
220
0.0
230
1.0
 70
     8
 71
     3
 72
    10
 73
     6
 74
     0
 42
0.000000001
 43
0.0000000001
 40
0.0
 40
0.0
 40
0.0
 40
0.0
 40
0.4952264370199161
 40
0.9904502941621515
 40
1.0
 40
1.0
 40
1.0
 40
1.0
 10
22.22210133320185
 20
24.52121115704347
 30
0.0
 10
22.16506415629186
 20
24.47822006815268
 30
0.0
 10
22.05099009960642
 20
24.39223811433271
 30
0.0
 10
21.9910851286176
 20
24.27837491678684
 30
0.0
 10
22.01027473488361
 20
24.22493253371442
 30
0.0
 10
22.0106377790452
 20
24.22392146840705
 30
0.0
  0
SPLINE
  5
25B
330
2
100
AcDbEntity
  8
0
100
AcDbSpline
210
0.0
220
0.0
230
1.0
 70
     8
 71
     3
 72
    13
 73
     9
 74
     0
 42
0.000000001
 43
0.0000000001
 40
0.0
 40
0.0
 40
0.0
 40
0.0
 40
0.2394565971080746
 40
0.3683606610753282
 40
0.4999997907859469
 40
0.6316395622327261
 40
0.7605433947483742
 40
1.0
 40
1.0
 40
1.0
 40
1.0
 10
21.92204724289513
 20
23.76354338972219
 30
0.0
 10
21.83029285077765
 20
23.8270300285893
 30
0.0
 10
21.68914531529449
 20
23.9246927388465
 30
0.0
 10
21.60093338407895
 20
24.08929556188523
 30
0.0
 10
21.57553163175164
 20
24.22294297308822
 30
0.0
 10
21.60096792318498
 20
24.35710320195878
 30
0.0
 10
21.68922747563894
 20
24.52349496561062
 30
0.0
 10
21.8304002912867
 20
24.62401405836466
 30
0.0
 10
21.9221711757872
 20
24.68935755958256
 30
0.0
  0
LINE
  5
25C
330
2
100
AcDbEntity
  8
0
100
AcDbLine
 10
21.89074245530661
 20
23.7604052385488
 30
0.0
 11
21.89169657333467
 21
23.75990463764058
 31
0.0
  0
LINE
  5
25D
330
2
100
AcDbEntity
  8
0
100
AcDbLine
 10
48.21393737397195
 20
15.67720833827433
 30
0.0
 11
48.03650777489437
 21
15.57478041101712
 31
0.0
  0
SPLINE
  5
25E
330
2
100
AcDbEntity
  8
0
100
AcDbSpline
210
0.0
220
0.0
230
1.0
 70
     8
 71
     3
 72
     9
 73
     5
 74
     0
 42
0.000000001
 43
0.0000000001
 40
0.0
 40
0.0
 40
0.0
 40
0.0
 40
0.4951300452861503
 40
1.0
 40
1.0
 40
1.0
 40
1.0
 10
48.12546977923976
 20
16.1426450018267
 30
0.0
 10
48.11557597139
 20
16.19613130945185
 30
0.0
 10
48.09559373047391
 20
16.30415607614564
 30
0.0
 10
47.97435286830707
 20
16.38733499295033
 30
0.0
 10
47.9131419997154
 20
16.42932952891071
 30
0.0
  0
LINE
  5
25F
330
2
100
AcDbEntity
  8
0
100
AcDbLine
 10
47.9131419997052
 20
16.42932952893365
 30
0.0
 11
47.60197724303239
 21
16.60185979224897
 31
0.0
  0
LINE
  5
260
330
2
100
AcDbEntity
  8
0
100
AcDbLine
 10
48.04643033800136
 20
15.57149908053354
 30
0.0
 11
48.03650777489437
 21
15.57478041101712
 31
0.0
  0
SPLINE
  5
261
330
2
100
AcDbEntity
  8
0
100
AcDbSpline
210
0.0
220
0.0
230
1.0
 70
     8
 71
     3
 72
     9
 73
     5
 74
     0
 42
0.000000001
 43
0.0000000001
 40
0.0
 40
0.0
 40
0.0
 40
0.0
 40
0.5564520892534548
 40
1.0
 40
1.0
 40
1.0
 40
1.0
 10
48.04643033797411
 20
15.5714990805033
 30
0.0
 10
48.05180269385502
 20
15.5709186026284
 30
0.0
 10
48.06145735412992
 20
15.56987542589122
 30
0.0
 10
48.06703958071313
 20
15.57303978429417
 30
0.0
 10
48.06951556565135
 20
15.57444332885264
 30
0.0
  0
SPLINE
  5
262
330
2
100
AcDbEntity
  8
0
100
AcDbSpline
210
0.0
220
0.0
230
1.0
 70
     8
 71
     3
 72
    13
 73
     9
 74
     0
 42
0.000000001
 43
0.0000000001
 40
0.0
 40
0.0
 40
0.0
 40
0.0
 40
0.2394566338694512
 40
0.3683604817905937
 40
0.4999998672976004
 40
0.6316393390293678
 40
0.760543180352173
 40
1.0
 40
1.0
 40
1.0
 40
1.0
 10
12.69585119296451
 20
19.36311640572975
 30
0.0
 10
12.8094235543082
 20
19.41631500103337
 30
0.0
 10
12.98413397709563
 20
19.49815136480416
 30
0.0
 10
13.2759116490174
 20
19.5511507858772
 30
0.0
 10
13.51198935093096
 20
19.56795855107804
 30
0.0
 10
13.7480629759946
 20
19.55593047062571
 30
0.0
 10
14.03982767426031
 20
19.5088351408345
 30
0.0
 10
14.21451687486898
 20
19.43053600123778
 30
0.0
 10
14.32807547337505
 20
19.37963680125372
 30
0.0
  0
LINE
  5
263
330
2
100
AcDbEntity
  8
0
100
AcDbLine
 10
14.32807547335793
 20
19.37963680124513
 30
0.0
 11
32.49406196445387
 21
9.258798024087314
 31
0.0
  0
LINE
  5
264
330
2
100
AcDbEntity
  8
0
100
AcDbLine
 10
32.19243243924557
 20
9.084671005521135
 30
0.0
 11
14.33690015627493
 21
19.03254567089312
 31
0.0
  0
LINE
  5
265
330
2
100
AcDbEntity
  8
0
100
AcDbLine
 10
14.02719846868576
 20
19.2059209279021
 30
0.0
 11
14.33690015627493
 21
19.03254567089312
 31
0.0
  0
SPLINE
  5
266
330
2
100
AcDbEntity
  8
0
100
AcDbSpline
210
0.0
220
0.0
230
1.0
 70
     8
 71
     3
 72
    11
 73
     7
 74
     0
 42
0.000000001
 43
0.0000000001
 40
0.0
 40
0.0
 40
0.0
 40
0.0
 40
0.24999983149424
 40
0.5000000704251459
 40
0.7500004181165436
 40
1.0
 40
1.0
 40
1.0
 40
1.0
 10
14.02719846866472
 20
19.20592092788103
 30
0.0
 10
13.95203855138045
 20
19.23903134754399
 30
0.0
 10
13.80171859432017
 20
19.30525224083168
 30
0.0
 10
13.5126413231819
 20
19.33142641115097
 30
0.0
 10
13.22346280072045
 20
19.29970032369196
 30
0.0
 10
13.07290582653495
 20
19.23059056364966
 30
0.0
 10
12.9976274547399
 20
19.19603573655335
 30
0.0
  0
LINE
  5
267
330
2
100
AcDbEntity
  8
0
100
AcDbLine
 10
12.81969220950725
 20
19.09284199348728
 30
0.0
 11
12.9976241498938
 21
19.19603688126251
 31
0.0
  0
LINE
  5
268
330
2
100
AcDbEntity
  8
0
100
AcDbLine
 10
12.51842159391153
 20
19.2606884784362
 30
0.0
 11
12.69585119298904
 21
19.36311640575615
 31
0.0
  0
SPLINE
  5
269
330
2
100
AcDbEntity
  8
0
100
AcDbSpline
210
0.0
220
0.0
230
1.0
 70
     8
 71
     3
 72
    11
 73
     7
 74
     0
 42
0.000000001
 43
0.0000000001
 40
0.0
 40
0.0
 40
0.0
 40
0.0
 40
0.2500002576400246
 40
0.499999827874034
 40
0.7500001422889492
 40
1.0
 40
1.0
 40
1.0
 40
1.0
 10
13.00360928233196
 20
18.83472858785557
 30
0.0
 10
13.07873904771075
 20
18.8691613155828
 30
0.0
 10
13.22899837189
 20
18.93802667636033
 30
0.0
 10
13.517375104544
 20
18.96973909060699
 30
0.0
 10
13.80574426655525
 20
18.94386560966512
 30
0.0
 10
13.95598623248758
 20
18.87804175097458
 30
0.0
 10
14.03110714683777
 20
18.84512985169125
 30
0.0
  0
SPLINE
  5
26A
330
2
100
AcDbEntity
  8
0
100
AcDbSpline
210
0.0
220
0.0
230
1.0
 70
     8
 71
     3
 72
    11
 73
     7
 74
     0
 42
0.000000001
 43
0.0000000001
 40
0.0
 40
0.0
 40
0.0
 40
0.0
 40
0.2499999440845
 40
0.5000001093339552
 40
0.7500000189661746
 40
1.0
 40
1.0
 40
1.0
 40
1.0
 10
8.032542335118547
 20
15.38222942472614
 30
0.0
 10
7.973184006158489
 20
15.42424105089056
 30
0.0
 10
7.854467295726708
 20
15.50826434038543
 30
0.0
 10
7.803724147909744
 20
15.67131829957369
 30
0.0
 10
7.854511154805945
 20
15.83540065629687
 30
0.0
 10
7.973251040079294
 20
15.92182563495871
 30
0.0
 10
8.032620991194047
 20
15.9650381304605
 30
0.0
  0
LINE
  5
26B
330
2
100
AcDbEntity
  8
0
100
AcDbLine
 10
8.032615786039484
 20
15.96504199386458
 30
0.0
 11
8.345336230990845
 21
16.14473831116369
 31
0.0
  0
LINE
  5
26C
330
2
100
AcDbEntity
  8
0
100
AcDbLine
 10
8.345336230990845
 20
16.14473831116369
 30
0.0
 11
12.6923526500226
 21
18.65421747412485
 31
0.0
  0
LINE
  5
26D
330
2
100
AcDbEntity
  8
0
100
AcDbLine
 10
12.6923526500226
 20
18.65421747412485
 30
0.0
 11
13.00360267259647
 21
18.83473164041063
 31
0.0
  0
LINE
  5
26E
330
2
100
AcDbEntity
  8
0
100
AcDbLine
 10
14.03111375659493
 20
18.84513290425691
 30
0.0
 11
14.34231916326918
 21
18.67091704721311
 31
0.0
  0
LINE
  5
26F
330
2
100
AcDbEntity
  8
0
100
AcDbLine
 10
14.34231916326918
 20
18.67091704721311
 30
0.0
 11
33.41305707769996
 21
8.046013964803691
 31
0.0
  0
LINE
  5
270
330
2
100
AcDbEntity
  8
0
100
AcDbLine
 10
33.41305707769996
 20
8.046013964803691
 30
0.0
 11
33.72573018028688
 21
7.872646534956223
 31
0.0
  0
SPLINE
  5
271
330
2
100
AcDbEntity
  8
0
100
AcDbSpline
210
0.0
220
0.0
230
1.0
 70
     8
 71
     3
 72
    11
 73
     7
 74
     0
 42
0.000000001
 43
0.0000000001
 40
0.0
 40
0.0
 40
0.0
 40
0.0
 40
0.2500004761707922
 40
0.5000001600866686
 40
0.7500003627300202
 40
1.0
 40
1.0
 40
1.0
 40
1.0
 10
33.72572423151984
 20
7.872643100830621
 30
0.0
 10
33.78508276948084
 20
7.830632214295113
 30
0.0
 10
33.90379965729481
 20
7.746610574357102
 30
0.0
 10
33.95454232209733
 20
7.583556458209545
 30
0.0
 10
33.90375736929934
 20
7.419474611495738
 30
0.0
 10
33.7850183318928
 20
7.333049548827125
 30
0.0
 10
33.72564888032146
 20
7.289837066355279
 30
0.0
  0
LINE
  5
272
330
2
100
AcDbEntity
  8
0
100
AcDbLine
 10
33.72565350717567
 20
7.289833632172891
 30
0.0
 11
33.41293017040143
 21
7.110135645546893
 31
0.0
  0
LINE
  5
273
330
2
100
AcDbEntity
  8
0
100
AcDbLine
 10
33.41293017040143
 20
7.110135645546893
 30
0.0
 11
29.06591424706769
 21
4.600656768763196
 31
0.0
  0
LINE
  5
274
330
2
100
AcDbEntity
  8
0
100
AcDbLine
 10
29.065914081835
 20
4.600656673349805
 30
0.0
 11
28.75466389409119
 21
4.420142411650623
 31
0.0
  0
SPLINE
  5
275
330
2
100
AcDbEntity
  8
0
100
AcDbSpline
210
0.0
220
0.0
230
1.0
 70
     8
 71
     3
 72
    11
 73
     7
 74
     0
 42
0.000000001
 43
0.0000000001
 40
0.0
 40
0.0
 40
0.0
 40
0.0
 40
0.2499998035670468
 40
0.5000005065319617
 40
0.7499993218716643
 40
1.0
 40
1.0
 40
1.0
 40
1.0
 10
28.75465794528184
 20
4.420145082668267
 30
0.0
 10
28.67952839479397
 20
4.385712293179618
 30
0.0
 10
28.52926902353273
 20
4.316846590327273
 30
0.0
 10
28.24089212941162
 20
4.285135020599026
 30
0.0
 10
27.95252289633757
 20
4.311008217494762
 30
0.0
 10
27.80228098555098
 20
4.376831997166976
 30
0.0
 10
27.7271597502884
 20
4.40974400961908
 30
0.0
  0
LINE
  5
276
330
2
100
AcDbEntity
  8
0
100
AcDbLine
 10
27.72715413201697
 20
4.409739239724368
 30
0.0
 11
27.41594847743096
 21
4.583956861822133
 31
0.0
  0
LINE
  5
277
330
2
100
AcDbEntity
  8
0
100
AcDbLine
 10
27.41594847743096
 20
4.583956861822133
 30
0.0
 11
8.345210232534796
 21
15.20886013499563
 31
0.0
  0
LINE
  5
278
330
2
100
AcDbEntity
  8
0
100
AcDbLine
 10
8.345210232534796
 20
15.20886013499563
 30
0.0
 11
8.032537377796874
 21
15.38222579978913
 31
0.0
  0
SPLINE
  5
279
330
2
100
AcDbEntity
  8
0
100
AcDbSpline
210
0.0
220
0.0
230
1.0
 70
     8
 71
     3
 72
    13
 73
     9
 74
     0
 42
0.000000001
 43
0.0000000001
 40
0.0
 40
0.0
 40
0.0
 40
0.0
 40
0.1517545542742281
 40
0.3282383191957797
 40
0.5047224623115505
 40
0.6775393922583916
 40
0.843458151767267
 40
1.0
 40
1.0
 40
1.0
 40
1.0
 10
13.06399137028932
 20
20.16017733557873
 30
0.0
 10
13.12932393771507
 20
20.17425266824378
 30
0.0
 10
13.27063536143571
 20
20.20469698379125
 30
0.0
 10
13.50264718746492
 20
20.21870149814265
 30
0.0
 10
13.74281312733724
 20
20.20761361831539
 30
0.0
 10
13.96806581930299
 20
20.1688465849145
 30
0.0
 10
14.16876380326547
 20
20.10940479571861
 30
0.0
 10
14.27850693999228
 20
20.05454934123597
 30
0.0
 10
14.3317828845313
 20
20.02791919161706
 30
0.0
  0
ARC
  5
27A
330
2
100
AcDbEntity
  8
0
100
AcDbCircle
 10
14.34467175989435
 20
20.00975474083006
 30
0.0
 40
0.022272637514889
100
AcDbArc
 50
66.09568886439736
 51
125.3582132668981
  0
LINE
  5
27B
330
2
100
AcDbEntity
  8
0
100
AcDbLine
 10
33.40763840117109
 20
8.407642397719614
 30
0.0
 11
32.19243243924557
 21
9.084671005521135
 31
0.0
  0
LINE
  5
27C
330
2
100
AcDbEntity
  8
0
100
AcDbLine
 10
8.027759269067537
 20
16.32699495488322
 30
0.0
 11
12.81969220950725
 21
19.09284199348728
 31
0.0
  0
LINE
  5
27D
330
2
100
AcDbEntity
  8
0
100
AcDbLine
 10
7.727832251292472
 20
16.4951401172996
 30
0.0
 11
12.51842159391153
 21
19.2606884784362
 31
0.0
  0
SPLINE
  5
27E
330
2
100
AcDbEntity
  8
0
100
AcDbSpline
210
0.0
220
0.0
230
1.0
 70
     8
 71
     3
 72
    10
 73
     6
 74
     0
 42
0.000000001
 43
0.0000000001
 40
0.0
 40
0.0
 40
0.0
 40
0.0
 40
0.495224947707164
 40
0.990450389736082
 40
1.0
 40
1.0
 40
1.0
 40
1.0
 10
8.027761665116733
 20
16.3269932854895
 30
0.0
 10
7.97072514228358
 20
16.28400238743203
 30
0.0
 10
7.856652039684836
 20
16.19802054840464
 30
0.0
 10
7.796744460341558
 20
16.0841573092457
 30
0.0
 10
7.815935782635543
 20
16.03071507550306
 30
0.0
 10
7.816298854557383
 20
16.02970402612263
 30
0.0
  0
SPLINE
  5
27F
330
2
100
AcDbEntity
  8
0
100
AcDbSpline
210
0.0
220
0.0
230
1.0
 70
     8
 71
     3
 72
    13
 73
     9
 74
     0
 42
0.000000001
 43
0.0000000001
 40
0.0
 40
0.0
 40
0.0
 40
0.0
 40
0.239456733258664
 40
0.3683605030160757
 40
0.4999999472450862
 40
0.6316394558763187
 40
0.7605431619916424
 40
1.0
 40
1.0
 40
1.0
 40
1.0
 10
7.727707616120925
 20
15.56932554201655
 30
0.0
 10
7.635954008512338
 20
15.6328124883948
 30
0.0
 10
7.494807820671601
 20
15.73047557426682
 30
0.0
 10
7.406593337281301
 20
15.89507799377274
 30
0.0
 10
7.381193439614717
 20
16.02872551074296
 30
0.0
 10
7.406628668248251
 20
16.16288569996271
 30
0.0
 10
7.49488834773861
 20
16.32927746526355
 30
0.0
 10
7.63606124865987
 20
16.42979656614702
 30
0.0
 10
7.72783225129939
 20
16.49514011729821
 30
0.0
  0
LINE
  5
280
330
2
100
AcDbEntity
  8
0
100
AcDbLine
 10
7.696402911175027
 20
15.56618743852818
 30
0.0
 11
7.697356781354013
 21
15.5656866945312
 31
0.0
  0
LINE
  5
281
330
2
100
AcDbEntity
  8
0
100
AcDbLine
 10
32.49406196445387
 20
9.258798024087314
 30
0.0
 11
34.01972147351105
 21
8.408805685902697
 31
0.0
  0
LINE
  5
282
330
2
100
AcDbEntity
  8
0
100
AcDbLine
 10
34.01959787111718
 20
7.482990562154084
 30
0.0
 11
33.84216827203966
 21
7.380562634834166
 31
0.0
  0
SPLINE
  5
283
330
2
100
AcDbEntity
  8
0
100
AcDbSpline
210
0.0
220
0.0
230
1.0
 70
     8
 71
     3
 72
     9
 73
     5
 74
     0
 42
0.000000001
 43
0.0000000001
 40
0.0
 40
0.0
 40
0.0
 40
0.0
 40
0.4951305108751387
 40
1.0
 40
1.0
 40
1.0
 40
1.0
 10
33.93113027639841
 20
7.948427225666023
 30
0.0
 10
33.92123677498899
 20
8.001913673934694
 30
0.0
 10
33.90125517177087
 20
8.109938623102546
 30
0.0
 10
33.7800140839292
 20
8.193117604485994
 30
0.0
 10
33.71880315784961
 20
8.235112134322964
 30
0.0
  0
LINE
  5
284
330
2
100
AcDbEntity
  8
0
100
AcDbLine
 10
33.71880315784397
 20
8.235112134341578
 30
0.0
 11
33.40763840117109
 21
8.407642397719614
 31
0.0
  0
SPLINE
  5
285
330
2
100
AcDbEntity
  8
0
100
AcDbSpline
210
0.0
220
0.0
230
1.0
 70
     8
 71
     3
 72
    13
 73
     9
 74
     0
 42
0.000000001
 43
0.0000000001
 40
0.0
 40
0.0
 40
0.0
 40
0.0
 40
0.2394572817165905
 40
0.3683610981753697
 40
0.4999999420991248
 40
0.6316396284557572
 40
0.760543221808101
 40
1.0
 40
1.0
 40
1.0
 40
1.0
 10
34.01972147352403
 20
8.408805685923843
 30
0.0
 10
34.1114751853351
 20
8.345318580617458
 30
0.0
 10
34.25262143823686
 20
8.247655316159647
 30
0.0
 10
34.34083632882204
 20
8.083052811332365
 30
0.0
 10
34.36623419217235
 20
7.94940560788077
 30
0.0
 10
34.34080140851203
 20
7.81524471282365
 30
0.0
 10
34.25253908514008
 20
7.648856750574076
 30
0.0
 10
34.11136782634644
 20
7.54833551515312
 30
0.0
 10
34.01959787111953
 20
7.482990562130996
 30
0.0
  0
LWPOLYLINE
  5
286
330
2
100
AcDbEntity
  8
0
100
AcDbPolyline
 90
        3
 70
   128
 43
0.0
 10
34.41132892233349
 20
8.560309007306228
 10
34.38800838742329
 20
8.688812459823447
 10
34.35210420234883
 20
8.766627118353493
  0
LINE
  5
287
330
2
100
AcDbEntity
  8
0
100
AcDbLine
 10
33.85209083514651
 20
7.377281304350569
 30
0.0
 11
33.84216827203966
 21
7.380562634834166
 31
0.0
  0
SPLINE
  5
288
330
2
100
AcDbEntity
  8
0
100
AcDbSpline
210
0.0
220
0.0
230
1.0
 70
     8
 71
     3
 72
     9
 73
     5
 74
     0
 42
0.000000001
 43
0.0000000001
 40
0.0
 40
0.0
 40
0.0
 40
0.0
 40
0.5564537182234666
 40
1.0
 40
1.0
 40
1.0
 40
1.0
 10
33.85209083513282
 20
7.377281304342599
 30
0.0
 10
33.85746346755046
 20
7.3767009851776
 30
0.0
 10
33.86711859652493
 20
7.37565809671091
 30
0.0
 10
33.87270077103664
 20
7.378822413374485
 30
0.0
 10
33.87517672378542
 20
7.380225934264952
 30
0.0
  0
LINE
  5
289
330
2
100
AcDbEntity
  8
0
100
AcDbLine
 10
44.00893466453275
 20
11.29818804348929
 30
0.0
 11
43.70681998334421
 21
10.743301314541
 31
0.0
  0
ARC
  5
28A
330
2
100
AcDbEntity
  8
0
100
AcDbCircle
 10
43.48172638001476
 20
10.8865944718373
 30
0.0
 40
0.2668333921924118
100
AcDbArc
 50
231.1692725590006
 51
327.5194286932979
  0
LINE
  5
28B
330
2
100
AcDbEntity
  8
0
100
AcDbLine
 10
43.31441605914234
 20
10.67873077679784
 30
0.0
 11
43.09305142360424
 21
10.80205978420103
 31
0.0
  0
ARC
  5
28C
330
2
100
AcDbEntity
  8
0
100
AcDbCircle
 10
43.18544966961101
 20
10.9547865705415
 30
0.0
 40
0.1785018406752247
100
AcDbArc
 50
209.3609500460009
 51
238.8264626817982
  0
LINE
  5
28D
330
2
100
AcDbEntity
  8
0
100
AcDbLine
 10
43.02987671446217
 20
10.86726535739694
 30
0.0
 11
42.9022450038876
 21
11.08327406348806
 31
0.0
  0
ARC
  5
28E
330
2
100
AcDbEntity
  8
0
100
AcDbCircle
 10
42.74666973761396
 20
10.99575061110812
 30
0.0
 40
0.1785049528620574
100
AcDbArc
 50
29.36121272260087
 51
58.82620000530169
  0
LINE
  5
28F
330
2
100
AcDbEntity
  8
0
100
AcDbLine
 10
42.83907029480822
 20
11.14847963662124
 30
0.0
 11
42.16620260039523
 21
11.52335610666495
 31
0.0
  0
ARC
  5
290
330
2
100
AcDbEntity
  8
0
100
AcDbCircle
 10
42.37060981365976
 20
11.85019841842745
 30
0.0
 40
0.385497348384289
100
AcDbArc
 50
183.1765015529003
 51
237.9781352054006
  0
LINE
  5
291
330
2
100
AcDbEntity
  8
0
100
AcDbLine
 10
41.98570475344083
 20
11.82883723380988
 30
0.0
 11
41.97437960049154
 21
12.58454753194875
 31
0.0
  0
LINE
  5
292
330
2
100
AcDbEntity
  8
0
100
AcDbLine
 10
41.53107660275492
 20
12.81816120828441
 30
0.0
 11
41.53136082223674
 21
12.79918557888122
 31
0.0
  0
LINE
  5
293
330
2
100
AcDbEntity
  8
0
100
AcDbLine
 10
20.92782486416245
 20
24.27805849297479
 30
0.0
 11
20.59789898104172
 21
24.46187104277379
 31
0.0
  0
LINE
  5
294
330
2
100
AcDbEntity
  8
0
100
AcDbLine
 10
20.59789898104172
 20
24.46187104277379
 30
0.0
 11
20.59662594234637
 21
24.54683585255101
 31
0.0
  0
LINE
  5
295
330
2
100
AcDbEntity
  8
0
100
AcDbLine
 10
20.15347034214164
 20
24.77059152866484
 30
0.0
 11
20.16523173887079
 21
23.98570451147145
 31
0.0
  0
LWPOLYLINE
  5
296
330
2
100
AcDbEntity
  8
0
100
AcDbPolyline
 90
        9
 70
   128
 43
0.0
 10
20.16523173887079
 20
23.98570451147145
 10
20.16242722011683
 20
23.94728848642354
 10
20.15291247888562
 20
23.91414755408606
 10
20.13705435652333
 20
23.88755526497421
 10
20.11546095034792
 20
23.86853293142885
 10
20.0889631065845
 20
23.85781146244123
 10
20.05857872728153
 20
23.85580159285023
 10
20.02547575605637
 20
23.86258319396675
 10
19.99092590968006
 20
23.87789534668995
  0
LINE
  5
297
330
2
100
AcDbEntity
  8
0
100
AcDbLine
 10
19.99092590968006
 20
23.87789534668995
 30
0.0
 11
19.31805821526707
 21
24.25277029018187
 31
0.0
  0
ARC
  5
298
330
2
100
AcDbEntity
  8
0
100
AcDbCircle
 10
19.28294950263329
 20
24.2022418605406
 30
0.0
 40
0.0615283991771083
100
AcDbArc
 50
55.20723432460146
 51
116.1937626225983
  0
LINE
  5
299
330
2
100
AcDbEntity
  8
0
100
AcDbLine
 10
19.25579036446771
 20
24.2574516886079
 30
0.0
 11
19.13253761602755
 21
24.18121959721057
 31
0.0
  0
ARC
  5
29A
330
2
100
AcDbEntity
  8
0
100
AcDbCircle
 10
19.10537906991437
 20
24.23643646284793
 30
0.0
 40
0.0615344527943668
100
AcDbArc
 50
235.2112288211969
 51
296.1903754585021
  0
LINE
  5
29B
330
2
100
AcDbEntity
  8
0
100
AcDbLine
 10
19.07027042615897
 20
24.18590061404569
 30
0.0
 11
18.84890645161442
 21
24.3092292399207
 31
0.0
  0
ARC
  5
29C
330
2
100
AcDbEntity
  8
0
100
AcDbCircle
 10
19.3597057042758
 20
25.12550317678135
 30
0.0
 40
0.9629221237802484
100
AcDbArc
 50
198.7607008748988
 51
237.9629273034008
  0
LINE
  5
29D
330
2
100
AcDbEntity
  8
0
100
AcDbLine
 10
18.44794355666171
 20
24.8158117130432
 30
0.0
 11
17.86923247249228
 21
26.43008610532607
 31
0.0
  0
LWPOLYLINE
  5
29E
330
2
100
AcDbEntity
  8
0
100
AcDbPolyline
 90
        9
 70
   128
 43
0.0
 10
17.86923247249228
 20
26.43008610532607
 10
17.79635993194271
 20
26.6712703051921
 10
17.75234293454862
 20
26.90678611645782
 10
17.73834149213083
 20
27.13043169722865
 10
17.75472376802247
 20
27.33631120287298
 10
17.80105814527264
 20
27.51900423082648
 10
17.87612446328434
 20
27.67369366941585
 10
17.97794508350507
 20
27.79630805077528
 10
18.10383710678233
 20
27.88361352968611
  0
LWPOLYLINE
  5
29F
330
2
100
AcDbEntity
  8
0
100
AcDbPolyline
 90
        3
 70
   128
 43
0.0
 10
18.10383710678233
 20
27.88361352968611
 10
18.6898235474252
 20
28.15278225963308
 10
18.76092070797038
 20
28.18212139796611
  0
LINE
  5
2A0
330
2
100
AcDbEntity
  8
0
100
AcDbLine
 10
19.04319555083033
 20
24.42090967717006
 30
0.0
 11
19.19197450914904
 21
24.51293049608627
 31
0.0
  0
ARC
  5
2A1
330
2
100
AcDbEntity
  8
0
100
AcDbCircle
 10
19.20555435145548
 20
24.48532097583076
 30
0.0
 40
0.0307684534120768
100
AcDbArc
 50
55.21335753199974
 51
116.1904329232995
  0
LINE
  5
2A2
330
2
100
AcDbEntity
  8
0
100
AcDbLine
 10
19.22310843454872
 20
24.51059056014918
 30
0.0
 11
19.94347844976626
 21
24.1092502511539
 31
0.0
  0
LWPOLYLINE
  5
2A3
330
2
100
AcDbEntity
  8
0
100
AcDbPolyline
 90
        9
 70
   128
 43
0.0
 10
19.98705523754499
 20
24.13620082501771
 10
19.98635394265518
 20
24.12659767739801
 10
19.98397575309252
 20
24.1183121581518
 10
19.98001056152418
 20
24.11166484905566
 10
19.9746123752287
 20
24.10690878866499
 10
19.96798807952052
 20
24.10422832603606
 10
19.96039214992747
 20
24.10372538157127
 10
19.95211607660871
 20
24.10542097263016
 10
19.94347844976626
 20
24.1092502511539
  0
LINE
  5
2A4
330
2
100
AcDbEntity
  8
0
100
AcDbLine
 10
19.98705523754499
 20
24.13620082501771
 30
0.0
 11
19.97876924963772
 21
24.68916933481939
 31
0.0
  0
ARC
  5
2A5
330
2
100
AcDbEntity
  8
0
100
AcDbCircle
 10
22.30607422099438
 20
19.54446663972024
 30
0.0
 40
9.08745498777775
100
AcDbArc
 50
113.7644523769992
 51
116.6850095845013
  0
ARC
  5
2A6
330
2
100
AcDbEntity
  8
0
100
AcDbCircle
 10
18.44547152879576
 20
27.23230591996216
 30
0.0
 40
0.4847259442050783
100
AcDbArc
 50
117.0501993085993
 51
145.9830710323986
  0
ARC
  5
2A7
330
2
100
AcDbEntity
  8
0
100
AcDbCircle
 10
18.20012845347375
 20
27.45077760106247
 30
0.0
 40
0.1650720176477873
100
AcDbArc
 50
161.3812873490009
 51
239.2045192969007
  0
ARC
  5
2A8
330
2
100
AcDbEntity
  8
0
100
AcDbCircle
 10
17.71797884515653
 20
26.74097182281912
 30
0.0
 40
0.6933607531653186
100
AcDbArc
 50
17.97183440919979
 51
55.00590584620099
  0
LWPOLYLINE
  5
2A9
330
2
100
AcDbEntity
  8
0
100
AcDbPolyline
 90
        9
 70
   128
 43
0.0
 10
18.37750935445076
 20
26.95490789115976
 10
18.38101318517695
 20
26.94076749783731
 10
18.38181032154986
 20
26.92756376446107
 10
18.37985185136904
 20
26.91612025484808
 10
18.37525939411087
 20
26.90714834810051
 10
18.36831915217466
 20
26.90120487643257
 10
18.35946274244878
 20
26.89866197459578
 10
18.34924075751185
 20
26.89967501965649
 10
18.33828905571812
 20
26.90418377300837
  0
LINE
  5
2AA
330
2
100
AcDbEntity
  8
0
100
AcDbLine
 10
18.20502186864889
 20
26.97843057201648
 30
0.0
 11
18.33828905571812
 21
26.90418377300837
 31
0.0
  0
ARC
  5
2AB
330
2
100
AcDbEntity
  8
0
100
AcDbCircle
 10
18.25101453936798
 20
27.05455470869349
 30
0.0
 40
0.0889393610577676
100
AcDbArc
 50
209.703496743799
 51
238.8604735386975
  0
LWPOLYLINE
  5
2AC
330
2
100
AcDbEntity
  8
0
100
AcDbPolyline
 90
       12
 70
   128
 43
0.0
 10
18.17376169694416
 20
27.01048421649522
 10
18.1336061179645
 20
27.06174318990955
 10
18.08698950415029
 20
27.09503227254749
 10
18.04226394106355
 20
27.1043865295544
 10
18.00744507767911
 20
27.08812790072085
 10
17.98877252191153
 20
27.04917266294679
 10
17.98959213143546
 20
26.99449970806388
 10
18.00975650871921
 20
26.93390750108706
 10
18.04565276212288
 20
26.87825169268102
 10
18.09084827871624
 20
26.83750914490174
 10
18.13724412666654
 20
26.81897786747358
 10
18.17652655715561
 20
26.82597959472619
  0
ARC
  5
2AD
330
2
100
AcDbEntity
  8
0
100
AcDbCircle
 10
18.18973700993183
 20
26.79796588250752
 30
0.0
 40
0.030972312384525
100
AcDbArc
 50
55.35631835219882
 51
115.2472030856012
  0
LINE
  5
2AE
330
2
100
AcDbEntity
  8
0
100
AcDbLine
 10
18.34061172333374
 20
26.74919972277972
 30
0.0
 11
18.20734387533379
 21
26.82344690337875
 31
0.0
  0
ARC
  5
2AF
330
2
100
AcDbEntity
  8
0
100
AcDbCircle
 10
18.29807183396788
 20
26.67399056223832
 30
0.0
 40
0.0864063655847949
100
AcDbArc
 50
346.3166326756004
 51
60.50658290870176
  0
LWPOLYLINE
  5
2B0
330
2
100
AcDbEntity
  8
0
100
AcDbPolyline
 90
        9
 70
   128
 43
0.0
 10
18.38202579952858
 20
26.65355060938814
 10
18.36018584955897
 20
26.61858850318942
 10
18.33242422075799
 20
26.59135738498514
 10
18.29936619589778
 20
26.57247174592087
 10
18.26175801617031
 20
26.562357179043
 10
18.2204463911425
 20
26.56124236312987
 10
18.17636329621923
 20
26.56915257357606
 10
18.13050349930464
 20
26.58590739027518
 10
18.08390010504648
 20
26.61113328961775
  0
LWPOLYLINE
  5
2B1
330
2
100
AcDbEntity
  8
0
100
AcDbPolyline
 90
        9
 70
   128
 43
0.0
 10
18.08390010504648
 20
26.61113328961775
 10
18.06152146006722
 20
26.62190283799283
 10
18.04032728310312
 20
26.62557103321404
 10
18.0216745566382
 20
26.62189948064531
 10
18.00675898520031
 20
26.61112605124667
 10
17.99653633926985
 20
26.59394006743847
 10
17.99166098451685
 20
26.5714414627122
 10
17.99244556238993
 20
26.54507399174259
 10
17.99884049963256
 20
26.51652562148633
  0
ARC
  5
2B2
330
2
100
AcDbEntity
  8
0
100
AcDbCircle
 10
20.03534127047618
 20
27.15455668454338
 30
0.0
 40
2.134108485369363
100
AcDbArc
 50
197.3956551735
 51
199.7302294451
  0
LINE
  5
2B3
330
2
100
AcDbEntity
  8
0
100
AcDbLine
 10
18.02652082843074
 20
26.43409887255434
 30
0.0
 11
18.60523191260017
 21
24.81982448027149
 31
0.0
  0
ARC
  5
2B4
330
2
100
AcDbEntity
  8
0
100
AcDbCircle
 10
19.15228172647837
 20
25.00563443651236
 30
0.0
 40
0.5777446136933289
100
AcDbArc
 50
198.7604770892999
 51
237.9632797574029
  0
LINE
  5
2B5
330
2
100
AcDbEntity
  8
0
100
AcDbLine
 10
18.84580978177046
 20
24.51587553075071
 30
0.0
 11
19.01206162543065
 21
24.42325113965897
 31
0.0
  0
ARC
  5
2B6
330
2
100
AcDbEntity
  8
0
100
AcDbCircle
 10
19.02961696859564
 20
24.44851947739274
 30
0.0
 40
0.0307681485277523
100
AcDbArc
 50
235.2101060952001
 51
296.1880973543022
  0
LINE
  5
2B7
330
2
100
AcDbEntity
  8
0
100
AcDbLine
 10
21.4810394823445
 20
24.22599623375889
 30
0.0
 11
21.47949114742248
 21
24.3293178526221
 31
0.0
  0
LWPOLYLINE
  5
2B8
330
2
100
AcDbEntity
  8
0
100
AcDbPolyline
 90
        9
 70
   128
 43
0.0
 10
21.47949114742248
 20
24.3293178526221
 10
21.48019244231236
 20
24.33892252673088
 10
21.4825709624031
 20
24.34720785521297
 10
21.48653549297797
 20
24.35385554590005
 10
21.49193367927352
 20
24.35861160629068
 10
21.49855830544702
 20
24.36129187815554
 10
21.50615423504014
 20
24.3617948225576
 10
21.51442997783069
 20
24.36009942226281
 10
21.51925906429457
 20
24.35820314939206
  0
LINE
  5
2B9
330
2
100
AcDbEntity
  8
0
100
AcDbLine
 10
21.12581410383683
 20
24.45175267704964
 30
0.0
 11
21.12623514514299
 21
24.42366857765048
 31
0.0
  0
LINE
  5
2BA
330
2
100
AcDbEntity
  8
0
100
AcDbLine
 10
21.12623514514299
 20
24.42366857765048
 30
0.0
 11
21.4810394823445
 21
24.22599623375889
 31
0.0
  0
LINE
  5
2BB
330
2
100
AcDbEntity
  8
0
100
AcDbLine
 10
42.20745672055842
 20
11.7052922573092
 30
0.0
 11
42.9278273967695
 21
11.30395004017123
 31
0.0
  0
ARC
  5
2BC
330
2
100
AcDbEntity
  8
0
100
AcDbCircle
 10
42.88163764792957
 20
11.22759679400688
 30
0.0
 40
0.0892373862068672
100
AcDbArc
 50
29.35864460470073
 51
58.82824001879785
  0
LINE
  5
2BD
330
2
100
AcDbEntity
  8
0
100
AcDbLine
 10
42.95941409034699
 20
11.27134763516417
 30
0.0
 11
43.11347953007361
 21
11.01060310029391
 31
0.0
  0
ARC
  5
2BE
330
2
100
AcDbEntity
  8
0
100
AcDbCircle
 10
43.19125560626924
 20
11.05435367221101
 30
0.0
 40
0.0892369350486408
100
AcDbArc
 50
209.3586092335002
 51
238.8293315818006
  0
LINE
  5
2BF
330
2
100
AcDbEntity
  8
0
100
AcDbLine
 10
43.14506754563818
 20
10.97799993210505
 30
0.0
 11
43.31131872830491
 21
10.88537592266695
 31
0.0
  0
ARC
  5
2C0
330
2
100
AcDbEntity
  8
0
100
AcDbCircle
 10
43.41170565127732
 20
11.01009406455179
 30
0.0
 40
0.1601004348268586
100
AcDbArc
 50
231.1690520682988
 51
327.519422088399
  0
LINE
  5
2C1
330
2
100
AcDbEntity
  8
0
100
AcDbLine
 10
43.5467621403654
 20
10.92411794007774
 30
0.0
 11
43.85333443984272
 21
11.48719192161995
 31
0.0
  0
LINE
  5
2C2
330
2
100
AcDbEntity
  8
0
100
AcDbLine
 10
42.1512738094642
 20
12.51960603515297
 30
0.0
 11
42.16233192832301
 21
11.78166158492998
 31
0.0
  0
ARC
  5
2C3
330
2
100
AcDbEntity
  8
0
100
AcDbCircle
 10
42.25855833097754
 20
11.78700320443573
 30
0.0
 40
0.0963745478130025
100
AcDbArc
 50
183.1772825201997
 51
237.9783488092978
  0
LINE
  5
2C4
330
2
100
AcDbEntity
  8
0
100
AcDbLine
 10
11.65920840297535
 20
22.84511551820342
 30
0.0
 11
12.23791948714478
 21
21.23084112598329
 31
0.0
  0
ARC
  5
2C5
330
2
100
AcDbEntity
  8
0
100
AcDbCircle
 10
13.14968163475888
 20
21.5405325896587
 30
0.0
 40
0.9629221237800214
100
AcDbArc
 50
198.7607008748988
 51
237.9629273034008
  0
LINE
  5
2C6
330
2
100
AcDbEntity
  8
0
100
AcDbLine
 10
12.63888238209742
 20
20.72425865279803
 30
0.0
 11
12.86024635664205
 21
20.60093002698575
 31
0.0
  0
ARC
  5
2C7
330
2
100
AcDbEntity
  8
0
100
AcDbCircle
 10
12.89535500039737
 20
20.65146587578801
 30
0.0
 40
0.0615344527945979
100
AcDbArc
 50
235.2112288211969
 51
296.190375458401
  0
LINE
  5
2C8
330
2
100
AcDbEntity
  8
0
100
AcDbLine
 10
19.13253761602755
 20
24.18121959721057
 30
0.0
 11
12.92251354651056
 21
20.59624901008794
 31
0.0
  0
LWPOLYLINE
  5
2C9
330
2
100
AcDbEntity
  8
0
100
AcDbPolyline
 90
        9
 70
   128
 43
0.0
 10
11.86615055472673
 20
24.2837226159496
 10
11.76792101398814
 20
24.21133746365261
 10
11.66610039370465
 20
24.0887230822932
 10
11.59103407575564
 20
23.93403364370384
 10
11.54469969850554
 20
23.75134061581305
 10
11.52831742255114
 20
23.54546111016874
 10
11.54231886496893
 20
23.32181552933514
 10
11.58633586242578
 20
23.08629971813217
 10
11.65920840297535
 20
22.84511551820342
  0
LINE
  5
2CA
330
2
100
AcDbEntity
  8
0
100
AcDbLine
 10
19.02734668212584
 20
24.41789287443405
 30
0.0
 11
19.19197450914904
 21
24.51293049608627
 31
0.0
  0
ARC
  5
2CB
330
2
100
AcDbEntity
  8
0
100
AcDbCircle
 10
13.06889566354489
 20
20.60439943699535
 30
0.0
 40
0.0745078152575576
100
AcDbArc
 50
58.31198629679992
 51
92.55842226560199
  0
LINE
  5
2CC
330
2
100
AcDbEntity
  8
0
100
AcDbLine
 10
13.10803414575007
 20
20.66779970312196
 30
0.0
 11
13.78090184010037
 21
20.29292475963004
 31
0.0
  0
ARC
  5
2CD
330
2
100
AcDbEntity
  8
0
100
AcDbCircle
 10
13.85143627638679
 20
20.39492530733291
 30
0.0
 40
0.1240129768629783
100
AcDbArc
 50
235.3357399227989
 51
294.6995457558023
  0
LINE
  5
2CE
330
2
100
AcDbEntity
  8
0
100
AcDbLine
 10
18.6268867894757
 20
27.56710554565668
 30
0.0
 11
18.14461929045844
 21
27.28869844452939
 31
0.0
  0
LINE
  5
2CF
330
2
100
AcDbEntity
  8
0
100
AcDbLine
 10
20.59902990996485
 20
24.31146465809034
 30
0.0
 11
20.59789898104172
 21
24.46187104277379
 31
0.0
  0
LINE
  5
2D0
330
2
100
AcDbEntity
  8
0
100
AcDbLine
 10
41.48918530231338
 20
12.7739763317818
 30
0.0
 11
41.53136082223674
 21
12.79918557888122
 31
0.0
  0
LINE
  5
2D1
330
2
100
AcDbEntity
  8
0
100
AcDbLine
 10
20.59789898104172
 20
24.46187104277379
 30
0.0
 11
20.28396605925273
 21
24.28064142459448
 31
0.0
  0
LINE
  5
2D2
330
2
100
AcDbEntity
  8
0
100
AcDbLine
 10
20.44250101483727
 20
24.63270320266529
 30
0.0
 11
20.15799736286425
 21
24.46846274028075
 31
0.0
  0
LINE
  5
2D3
330
2
100
AcDbEntity
  8
0
100
AcDbLine
 10
35.95617853087838
 20
7.938385519542313
 30
0.0
 11
42.16620260039523
 21
11.52335610666495
 31
0.0
  0
ARC
  5
2D4
330
2
100
AcDbEntity
  8
0
100
AcDbCircle
 10
36.16058574414277
 20
8.265227831367518
 30
0.0
 40
0.3854973483843819
100
AcDbArc
 50
183.1765015529003
 51
237.9781352054006
  0
LINE
  5
2D5
330
2
100
AcDbEntity
  8
0
100
AcDbLine
 10
35.77204664099455
 20
8.486351849406899
 30
0.0
 11
35.77568068392384
 21
8.243866646687227
 31
0.0
  0
LINE
  5
2D6
330
2
100
AcDbEntity
  8
0
100
AcDbLine
 10
35.95617853087838
 20
7.938385519542313
 30
0.0
 11
36.62904622522861
 21
7.563509049498576
 31
0.0
  0
LINE
  5
2D7
330
2
100
AcDbEntity
  8
0
100
AcDbLine
 10
36.69222093437067
 20
7.498303476365395
 30
0.0
 11
36.81985264494525
 21
7.282294770274285
 31
0.0
  0
ARC
  5
2D8
330
2
100
AcDbEntity
  8
0
100
AcDbCircle
 10
36.53664566809704
 20
7.41078002404819
 30
0.0
 40
0.1785049528598351
100
AcDbArc
 50
29.36121272240161
 51
58.82620000550005
  0
LINE
  5
2D9
330
2
100
AcDbEntity
  8
0
100
AcDbLine
 10
43.09305142360424
 20
10.80205978420103
 30
0.0
 11
36.88302735408731
 21
7.217089197141122
 31
0.0
  0
ARC
  5
2DA
330
2
100
AcDbEntity
  8
0
100
AcDbCircle
 10
36.9754256000941
 20
7.369815983418828
 30
0.0
 40
0.1785018406769868
100
AcDbArc
 50
209.3609500462009
 51
238.8264626816992
  0
LINE
  5
2DB
330
2
100
AcDbEntity
  8
0
100
AcDbLine
 10
36.88302735408731
 20
7.217089197141122
 30
0.0
 11
37.10439198962542
 21
7.093760189737936
 31
0.0
  0
ARC
  5
2DC
330
2
100
AcDbEntity
  8
0
100
AcDbCircle
 10
37.28060825747295
 20
7.347395126694423
 30
0.0
 40
0.3088411473744849
100
AcDbArc
 50
235.2098419067979
 51
294.8257275523992
  0
LINE
  5
2DD
330
2
100
AcDbEntity
  8
0
100
AcDbLine
 10
36.91176458260859
 20
7.201078964665096
 30
0.0
 11
36.60964990142006
 21
6.646192235654057
 31
0.0
  0
ARC
  5
2DE
330
2
100
AcDbEntity
  8
0
100
AcDbCircle
 10
36.38455629809068
 20
6.7894853930131
 30
0.0
 40
0.266833392192342
100
AcDbArc
 50
231.1692725590006
 51
327.5194286932979
  0
LINE
  5
2DF
330
2
100
AcDbEntity
  8
0
100
AcDbLine
 10
36.21724597721826
 20
6.581621697910923
 30
0.0
 11
35.99588134168016
 21
6.704950705376833
 31
0.0
  0
ARC
  5
2E0
330
2
100
AcDbEntity
  8
0
100
AcDbCircle
 10
36.08827958768694
 20
6.857677491654539
 30
0.0
 40
0.1785018406763954
100
AcDbArc
 50
209.3609500462009
 51
238.8264626816992
  0
LINE
  5
2E1
330
2
100
AcDbEntity
  8
0
100
AcDbLine
 10
35.93270663260085
 20
6.770156278509996
 30
0.0
 11
35.8050749220262
 21
6.986164984601124
 31
0.0
  0
ARC
  5
2E2
330
2
100
AcDbEntity
  8
0
100
AcDbCircle
 10
35.64949965568988
 20
6.898641532283901
 30
0.0
 40
0.1785049528609454
100
AcDbArc
 50
29.36121272240161
 51
58.82620000540104
  0
LINE
  5
2E3
330
2
100
AcDbEntity
  8
0
100
AcDbLine
 10
35.74190021288415
 20
7.051370557734287
 30
0.0
 11
35.06903251847115
 21
7.426247027778024
 31
0.0
  0
ARC
  5
2E4
330
2
100
AcDbEntity
  8
0
100
AcDbCircle
 10
35.27343973173561
 20
7.753089339603229
 30
0.0
 40
0.3854973483844501
100
AcDbArc
 50
183.1765015529003
 51
237.9781352054006
  0
LINE
  5
2E5
330
2
100
AcDbEntity
  8
0
100
AcDbLine
 10
34.88853467151668
 20
7.731728154922938
 30
0.0
 11
34.87720951856739
 21
8.487438453124546
 31
0.0
  0
LINE
  5
2E6
330
2
100
AcDbEntity
  8
0
100
AcDbLine
 10
34.43390652089352
 20
8.72105212939747
 30
0.0
 11
34.4341907403126
 21
8.702076499994294
 31
0.0
  0
LINE
  5
2E7
330
2
100
AcDbEntity
  8
0
100
AcDbLine
 10
13.05630026028024
 20
20.67348244984064
 30
0.0
 11
13.06806165694671
 21
19.88859543264723
 31
0.0
  0
LWPOLYLINE
  5
2E8
330
2
100
AcDbEntity
  8
0
100
AcDbPolyline
 90
        9
 70
   128
 43
0.0
 10
13.06806165694671
 20
19.88859543264723
 10
13.06525713825543
 20
19.8501794075366
 10
13.05574239696146
 20
19.81703847519911
 10
13.03988427459917
 20
19.79044618608725
 10
13.01829086848652
 20
19.77142385254191
 10
12.99179302466034
 20
19.76070238361703
 10
12.96140864535745
 20
19.75869251402601
 10
12.92830567419497
 20
19.76547411507979
 10
12.8937558277559
 20
19.78078626786575
  0
LINE
  5
2E9
330
2
100
AcDbEntity
  8
0
100
AcDbLine
 10
12.8937558277559
 20
19.78078626786575
 30
0.0
 11
12.22088813340567
 21
20.15566121135767
 31
0.0
  0
ARC
  5
2EA
330
2
100
AcDbEntity
  8
0
100
AcDbCircle
 10
12.18577942077196
 20
20.10513278165368
 30
0.0
 40
0.0615283991769176
100
AcDbArc
 50
55.20723432449914
 51
116.1937626225983
  0
LINE
  5
2EB
330
2
100
AcDbEntity
  8
0
100
AcDbLine
 10
12.15862028254356
 20
20.16034260978369
 30
0.0
 11
12.03536753416616
 21
20.08411051832365
 31
0.0
  0
ARC
  5
2EC
330
2
100
AcDbEntity
  8
0
100
AcDbCircle
 10
12.00820898805297
 20
20.13932738402372
 30
0.0
 40
0.0615344527947337
100
AcDbArc
 50
235.2112288212996
 51
296.190375458401
  0
LINE
  5
2ED
330
2
100
AcDbEntity
  8
0
100
AcDbLine
 10
11.97310034429758
 20
20.08879153522146
 30
0.0
 11
11.75173636975302
 21
20.21212016103377
 31
0.0
  0
ARC
  5
2EE
330
2
100
AcDbEntity
  8
0
100
AcDbCircle
 10
12.26253562235172
 20
21.0283940978944
 30
0.0
 40
0.9629221237800512
100
AcDbArc
 50
198.7607008748988
 51
237.9629273034008
  0
LINE
  5
2EF
330
2
100
AcDbEntity
  8
0
100
AcDbLine
 10
11.35077347480031
 20
20.718702634219
 30
0.0
 11
10.77206239063095
 21
22.33297702643913
 31
0.0
  0
LWPOLYLINE
  5
2F0
330
2
100
AcDbEntity
  8
0
100
AcDbPolyline
 90
        9
 70
   128
 43
0.0
 10
10.77206239063095
 20
22.33297702643913
 10
10.69918985001863
 20
22.57416122636788
 10
10.65517285262446
 20
22.80967703757089
 10
10.64117141020674
 20
23.03332261840445
 10
10.65755368609838
 20
23.23920212404878
 10
10.70388806334848
 20
23.42189515193955
 10
10.77895438136018
 20
23.57658459052891
 10
10.88077500158098
 20
23.69919897188832
 10
11.00666702485825
 20
23.78650445079917
  0
LWPOLYLINE
  5
2F1
330
2
100
AcDbEntity
  8
0
100
AcDbPolyline
 90
        3
 70
   128
 43
0.0
 10
11.00666702485825
 20
23.78650445079917
 10
11.59265346550104
 20
24.05567318080886
 10
11.66375062610898
 20
24.08501231907916
  0
LINE
  5
2F2
330
2
100
AcDbEntity
  8
0
100
AcDbLine
 10
11.94602546896893
 20
20.32380059834586
 30
0.0
 11
12.09480442722489
 21
20.41582141719935
 31
0.0
  0
ARC
  5
2F3
330
2
100
AcDbEntity
  8
0
100
AcDbCircle
 10
12.10838426953133
 20
20.3882118969438
 30
0.0
 40
0.0307684534117888
100
AcDbArc
 50
55.21335753180109
 51
116.1904329235977
  0
LINE
  5
2F4
330
2
100
AcDbEntity
  8
0
100
AcDbLine
 10
12.12593835268733
 20
20.41348148126223
 30
0.0
 11
12.84630836790487
 21
20.01214117226698
 31
0.0
  0
LWPOLYLINE
  5
2F5
330
2
100
AcDbEntity
  8
0
100
AcDbPolyline
 90
        9
 70
   128
 43
0.0
 10
12.8898851556836
 20
20.03909174613077
 10
12.8891838607311
 20
20.02948859851107
 10
12.88680567116836
 20
20.02120307926488
 10
12.88284047960003
 20
20.01455577016873
 10
12.87744229330455
 20
20.00979970977807
 10
12.87081799759637
 20
20.00711924714912
 10
12.86322206800332
 20
20.00661630274707
 10
12.85494599474731
 20
20.00831189380594
 10
12.84630836790487
 20
20.01214117226698
  0
LINE
  5
2F6
330
2
100
AcDbEntity
  8
0
100
AcDbLine
 10
12.8898851556836
 20
20.03909174613077
 30
0.0
 11
12.88159916771357
 21
20.59206025593247
 31
0.0
  0
ARC
  5
2F7
330
2
100
AcDbEntity
  8
0
100
AcDbCircle
 10
15.20890413913298
 20
15.44735756077057
 30
0.0
 40
9.087454987858867
100
AcDbArc
 50
113.7644523769992
 51
116.6850095845013
  0
ARC
  5
2F8
330
2
100
AcDbEntity
  8
0
100
AcDbCircle
 10
11.3483014468716
 20
23.13519684107523
 30
0.0
 40
0.4847259442057216
100
AcDbArc
 50
117.0501993087013
 51
145.9830710323986
  0
ARC
  5
2F9
330
2
100
AcDbEntity
  8
0
100
AcDbCircle
 10
11.1029583715496
 20
23.35366852217553
 30
0.0
 40
0.1650720176476579
100
AcDbArc
 50
161.3812873490009
 51
239.2045192969996
  0
ARC
  5
2FA
330
2
100
AcDbEntity
  8
0
100
AcDbCircle
 10
10.62080876323244
 20
22.64386274399489
 30
0.0
 40
0.6933607531661245
100
AcDbArc
 50
17.97183440919979
 51
55.00590584620099
  0
LWPOLYLINE
  5
2FB
330
2
100
AcDbEntity
  8
0
100
AcDbPolyline
 90
        9
 70
   128
 43
0.0
 10
11.28033927252668
 20
22.85779881227281
 10
11.2838431032528
 20
22.84365841895037
 10
11.28464023962571
 20
22.83045468563688
 10
11.28268176944496
 20
22.81901117602386
 10
11.27808931218671
 20
22.81003926921359
 10
11.27114907025058
 20
22.80409579760835
 10
11.26229266052462
 20
22.80155289577156
 10
11.2520706755877
 20
22.80256594083228
 10
11.24111897379397
 20
22.80707469412144
  0
LINE
  5
2FC
330
2
100
AcDbEntity
  8
0
100
AcDbLine
 10
11.10785178672481
 20
22.88132149312955
 30
0.0
 11
11.24111897379397
 21
22.80707469412144
 31
0.0
  0
ARC
  5
2FD
330
2
100
AcDbEntity
  8
0
100
AcDbCircle
 10
11.15384445744382
 20
22.95744562986931
 30
0.0
 40
0.0889393610566621
100
AcDbArc
 50
209.7034967435987
 51
238.860473538802
  0
LWPOLYLINE
  5
2FE
330
2
100
AcDbEntity
  8
0
100
AcDbPolyline
 90
       12
 70
   128
 43
0.0
 10
11.07659161502007
 20
22.91337513767102
 10
11.03643603604035
 20
22.96463411108535
 10
10.98981942228889
 20
22.99792319366053
 10
10.94509385920216
 20
23.00727745073018
 10
10.91027499575496
 20
22.99101882183391
 10
10.89160244005013
 20
22.95206358405985
 10
10.89242204957406
 20
22.89739062917693
 10
10.91258642685781
 20
22.83679842226286
 10
10.94848268019873
 20
22.7811426137941
 10
10.99367819679215
 20
22.74040006607752
 10
11.04007404474246
 20
22.72186878864935
 10
11.07935647523152
 20
22.72887051583927
  0
ARC
  5
2FF
330
2
100
AcDbEntity
  8
0
100
AcDbCircle
 10
11.09256692800767
 20
22.70085680362058
 30
0.0
 40
0.0309723123845794
100
AcDbArc
 50
55.35631835219882
 51
115.2472030853998
  0
LINE
  5
300
330
2
100
AcDbEntity
  8
0
100
AcDbLine
 10
11.24344164140965
 20
22.65209064389278
 30
0.0
 11
11.11017379340964
 21
22.72633782449182
 31
0.0
  0
ARC
  5
301
330
2
100
AcDbEntity
  8
0
100
AcDbCircle
 10
11.20090175204373
 20
22.5768814834141
 30
0.0
 40
0.0864063655848544
100
AcDbArc
 50
346.3166326757001
 51
60.50658290870176
  0
LWPOLYLINE
  5
302
330
2
100
AcDbEntity
  8
0
100
AcDbPolyline
 90
        9
 70
   128
 43
0.0
 10
11.28485571760442
 20
22.55644153050122
 10
11.26301576763488
 20
22.52147942430248
 10
11.23525413883391
 20
22.49424830616094
 10
11.20219611397362
 20
22.47536266709666
 10
11.16458793424616
 20
22.46524810015606
 10
11.1232763092811
 20
22.46413328424293
 10
11.07919321429515
 20
22.47204349468913
 10
11.03333341738056
 20
22.48879831145096
 10
10.98673002312233
 20
22.51402421079353
  0
LWPOLYLINE
  5
303
330
2
100
AcDbEntity
  8
0
100
AcDbPolyline
 90
        9
 70
   128
 43
0.0
 10
10.98673002312233
 20
22.51402421079353
 10
10.96435137820582
 20
22.52479375910591
 10
10.94315720117903
 20
22.52846195432709
 10
10.92450447471405
 20
22.52479040182111
 10
10.90958890327616
 20
22.51401697235975
 10
10.89936625734569
 20
22.49683098855153
 10
10.89449090265546
 20
22.47433238388799
 10
10.89527548046578
 20
22.44796491285563
 10
10.90167041770847
 20
22.41941654259939
  0
ARC
  5
304
330
2
100
AcDbEntity
  8
0
100
AcDbCircle
 10
12.93817118848933
 20
23.05744760565644
 30
0.0
 40
2.134108485235553
100
AcDbArc
 50
197.3956551733993
 51
199.7302294451996
  0
LINE
  5
305
330
2
100
AcDbEntity
  8
0
100
AcDbLine
 10
10.92935074650665
 20
22.33698979373014
 30
0.0
 11
11.50806183067601
 21
20.72271540144727
 31
0.0
  0
ARC
  5
306
330
2
100
AcDbEntity
  8
0
100
AcDbCircle
 10
12.05511164455429
 20
20.90852535762543
 30
0.0
 40
0.5777446136941876
100
AcDbArc
 50
198.7604770892999
 51
237.9632797572971
  0
LINE
  5
307
330
2
100
AcDbEntity
  8
0
100
AcDbLine
 10
11.7486396998463
 20
20.41876645186375
 30
0.0
 11
11.9148915435065
 21
20.32614206083477
 31
0.0
  0
ARC
  5
308
330
2
100
AcDbEntity
  8
0
100
AcDbCircle
 10
11.93244688667149
 20
20.35141039850581
 30
0.0
 40
0.030768148527852
100
AcDbArc
 50
235.210106095001
 51
296.1880973539981
  0
LINE
  5
309
330
2
100
AcDbEntity
  8
0
100
AcDbLine
 10
14.38386940042034
 20
20.12888715487197
 30
0.0
 11
14.3823210654984
 21
20.23220877373516
 31
0.0
  0
LWPOLYLINE
  5
30A
330
2
100
AcDbEntity
  8
0
100
AcDbPolyline
 90
        9
 70
   128
 43
0.0
 10
14.3823210654984
 20
20.23220877373516
 10
14.3830223603882
 20
20.24181344790666
 10
14.38540088047902
 20
20.25009877638877
 10
14.38936541105389
 20
20.25674646701309
 10
14.39476359734937
 20
20.26150252740375
 10
14.4013882235857
 20
20.2641827992686
 10
14.40898415311599
 20
20.26468574367067
 10
14.41725989596936
 20
20.2629903434386
 10
14.42208898237048
 20
20.26109407050514
  0
LINE
  5
30B
330
2
100
AcDbEntity
  8
0
100
AcDbLine
 10
14.02864402191267
 20
20.35464359816272
 30
0.0
 11
14.0290650632816
 21
20.32655949876356
 31
0.0
  0
LINE
  5
30C
330
2
100
AcDbEntity
  8
0
100
AcDbLine
 10
14.0290650632816
 20
20.32655949876356
 30
0.0
 11
14.38386940042034
 21
20.12888715487197
 31
0.0
  0
LINE
  5
30D
330
2
100
AcDbEntity
  8
0
100
AcDbLine
 10
35.11028663863427
 20
7.608183178422278
 30
0.0
 11
35.83065731484535
 21
7.206840961284307
 31
0.0
  0
ARC
  5
30E
330
2
100
AcDbEntity
  8
0
100
AcDbCircle
 10
35.78446756600549
 20
7.13048771511994
 30
0.0
 40
0.0892373862049409
100
AcDbArc
 50
29.35864460439907
 51
58.82824001910142
  0
LINE
  5
30F
330
2
100
AcDbEntity
  8
0
100
AcDbLine
 10
35.86224400842291
 20
7.17423855627725
 30
0.0
 11
36.01630944814953
 21
6.913494021406958
 31
0.0
  0
ARC
  5
310
330
2
100
AcDbEntity
  8
0
100
AcDbCircle
 10
36.09408552440785
 20
6.957244593386813
 30
0.0
 40
0.0892369350499099
100
AcDbArc
 50
209.3586092336019
 51
238.8293315813979
  0
LINE
  5
311
330
2
100
AcDbEntity
  8
0
100
AcDbLine
 10
36.0478974637141
 20
6.880890853218128
 30
0.0
 11
36.21414864638076
 21
6.788266843780027
 31
0.0
  0
ARC
  5
312
330
2
100
AcDbEntity
  8
0
100
AcDbCircle
 10
36.31453556935316
 20
6.912984985727577
 30
0.0
 40
0.1601004348268739
100
AcDbArc
 50
231.1690520682988
 51
327.519422088399
  0
LINE
  5
313
330
2
100
AcDbEntity
  8
0
100
AcDbLine
 10
36.44959205844126
 20
6.827008861190821
 30
0.0
 11
36.75616435791865
 21
7.390082842733028
 31
0.0
  0
LINE
  5
314
330
2
100
AcDbEntity
  8
0
100
AcDbLine
 10
35.05410372754005
 20
8.422496956266053
 30
0.0
 11
35.06516184639892
 21
7.684552506105761
 31
0.0
  0
ARC
  5
315
330
2
100
AcDbEntity
  8
0
100
AcDbCircle
 10
35.16138824905346
 20
7.689894125548812
 30
0.0
 40
0.0963745478127534
100
AcDbArc
 50
183.1772825201002
 51
237.9783488092978
  0
LINE
  5
316
330
2
100
AcDbEntity
  8
0
100
AcDbLine
 10
4.562038899428425
 20
18.74800677323203
 30
0.0
 11
5.140749983597856
 21
17.13373238094916
 31
0.0
  0
LINE
  5
317
330
2
100
AcDbEntity
  8
0
100
AcDbLine
 10
5.541712878550494
 20
16.62714990782667
 30
0.0
 11
5.763076853095054
 21
16.50382128201439
 31
0.0
  0
ARC
  5
318
330
2
100
AcDbEntity
  8
0
100
AcDbCircle
 10
5.798185496850375
 20
16.55435713081665
 30
0.0
 40
0.0615344527947411
100
AcDbArc
 50
235.2112288211969
 51
296.1903754582997
  0
LINE
  5
319
330
2
100
AcDbEntity
  8
0
100
AcDbLine
 10
12.03536753416616
 20
20.08411051832365
 30
0.0
 11
5.82534404296363
 21
16.49914026511654
 31
0.0
  0
LWPOLYLINE
  5
31A
330
2
100
AcDbEntity
  8
0
100
AcDbPolyline
 90
        9
 70
   128
 43
0.0
 10
4.768981051179737
 20
20.18661387097823
 10
4.670751510441143
 20
20.11422871868125
 10
4.568930890157653
 20
19.99161433732182
 10
4.493864572208642
 20
19.83692489873246
 10
4.447530194895856
 20
19.65423187077895
 10
4.431147919004144
 20
19.44835236513462
 10
4.445149361421933
 20
19.22470678436378
 10
4.489166358878787
 20
18.98919097309806
 10
4.562038899428425
 20
18.74800677323203
  0
LINE
  5
31B
330
2
100
AcDbEntity
  8
0
100
AcDbLine
 10
11.93017792218876
 20
20.32078455872893
 30
0.0
 11
12.09480442722489
 21
20.41582141719935
 31
0.0
  0
ARC
  5
31C
330
2
100
AcDbEntity
  8
0
100
AcDbCircle
 10
5.971726159997892
 20
16.50729069196126
 30
0.0
 40
0.074507815257131
100
AcDbArc
 50
58.31198629689935
 51
92.55842226579758
  0
LINE
  5
31D
330
2
100
AcDbEntity
  8
0
100
AcDbLine
 10
6.010864642203074
 20
16.57069095808784
 30
0.0
 11
6.683732336553375
 21
16.19581601459594
 31
0.0
  0
ARC
  5
31E
330
2
100
AcDbEntity
  8
0
100
AcDbCircle
 10
6.754266772839859
 20
16.2978165622988
 30
0.0
 40
0.1240129768628001
100
AcDbArc
 50
235.3357399227026
 51
294.6995457558023
  0
LINE
  5
31F
330
2
100
AcDbEntity
  8
0
100
AcDbLine
 10
11.52971736854509
 20
23.46999684836065
 30
0.0
 11
11.04744986952782
 21
23.19158974723336
 31
0.0
  0
LINE
  5
320
330
2
100
AcDbEntity
  8
0
100
AcDbLine
 10
34.39201588138277
 20
8.676867634485772
 30
0.0
 11
34.4341907403126
 21
8.702076499994294
 31
0.0
  0
LINE
  5
321
330
2
100
AcDbEntity
  8
0
100
AcDbLine
 10
28.85900902733132
 20
3.841276774570932
 30
0.0
 11
35.06903251847115
 21
7.426247027778024
 31
0.0
  0
ARC
  5
322
330
2
100
AcDbEntity
  8
0
100
AcDbCircle
 10
29.06341624059577
 20
4.168119086333414
 30
0.0
 40
0.3854973483840724
100
AcDbArc
 50
183.1765015529003
 51
237.9781352055004
  0
LINE
  5
323
330
2
100
AcDbEntity
  8
0
100
AcDbLine
 10
28.67487713744747
 20
4.389243104435536
 30
0.0
 11
28.67851118031416
 21
4.146757901715846
 31
0.0
  0
LINE
  5
324
330
2
100
AcDbEntity
  8
0
100
AcDbLine
 10
28.85900902733132
 20
3.841276774570932
 30
0.0
 11
29.53187672168162
 21
3.466400304527195
 31
0.0
  0
LINE
  5
325
330
2
100
AcDbEntity
  8
0
100
AcDbLine
 10
29.59505143082367
 20
3.401194731394032
 30
0.0
 11
29.72268314139825
 21
3.185186025302922
 31
0.0
  0
ARC
  5
326
330
2
100
AcDbEntity
  8
0
100
AcDbCircle
 10
29.43947616448735
 20
3.313671279014086
 30
0.0
 40
0.1785049528599395
100
AcDbArc
 50
29.36121272240161
 51
58.82620000550005
  0
LINE
  5
327
330
2
100
AcDbEntity
  8
0
100
AcDbLine
 10
35.99588134168016
 20
6.704950705376833
 30
0.0
 11
29.78585785054031
 21
3.119980452169741
 31
0.0
  0
ARC
  5
328
330
2
100
AcDbEntity
  8
0
100
AcDbCircle
 10
29.8782560965471
 20
3.272707238447447
 30
0.0
 40
0.1785018406767751
100
AcDbArc
 50
209.3609500462009
 51
238.8264626816992
  0
LINE
  5
329
330
2
100
AcDbEntity
  8
0
100
AcDbLine
 10
29.78585785054031
 20
3.119980452169741
 30
0.0
 11
30.00722248601566
 21
2.996651444703814
 31
0.0
  0
ARC
  5
32A
330
2
100
AcDbEntity
  8
0
100
AcDbCircle
 10
30.18343875392595
 20
3.25028638172306
 30
0.0
 40
0.3088411473744084
100
AcDbArc
 50
235.2098419067979
 51
294.8257275523992
  0
ARC
  5
32B
330
2
100
AcDbEntity
  8
0
100
AcDbCircle
 10
50.58780174792048
 20
15.02947441105038
 30
0.0
 40
0.3088411473747598
100
AcDbArc
 50
235.2098419069001
 51
294.8257275523992
  0
LINE
  5
32C
330
2
100
AcDbEntity
  8
0
100
AcDbLine
 10
50.41158548007302
 20
14.77583947409389
 30
0.0
 11
50.19022084453485
 21
14.89916848149708
 31
0.0
  0
LINE
  5
32D
330
2
100
AcDbEntity
  8
0
100
AcDbLine
 10
49.29759865079682
 20
15.60139618744747
 30
0.0
 11
49.26337202132593
 21
15.62046480396099
 31
0.0
  0
ARC
  5
32E
330
2
100
AcDbEntity
  8
0
100
AcDbCircle
 10
49.46723057850866
 20
15.94677315299308
 30
0.0
 40
0.3847537524018554
100
AcDbArc
 50
197.9990939844997
 51
238.0052446503016
  0
LINE
  5
32F
330
2
100
AcDbEntity
  8
0
100
AcDbLine
 10
18.75637782390604
 20
26.94222421549947
 30
0.0
 11
19.33508890807547
 21
25.32794982327932
 31
0.0
  0
LINE
  5
330
330
2
100
AcDbEntity
  8
0
100
AcDbLine
 10
25.94607587254504
 20
28.40633793721673
 30
0.0
 11
19.73605180302811
 21
24.82136735009408
 31
0.0
  0
ARC
  5
331
330
2
100
AcDbEntity
  8
0
100
AcDbCircle
 10
20.24685105568949
 20
25.63764128695473
 30
0.0
 40
0.96292212378015
100
AcDbArc
 50
198.7607008748988
 51
237.9629273034008
  0
LINE
  5
332
330
2
100
AcDbEntity
  8
0
100
AcDbLine
 10
19.73605180302811
 20
24.82136735009408
 30
0.0
 11
19.95741577757267
 21
24.6980387242818
 31
0.0
  0
ARC
  5
333
330
2
100
AcDbEntity
  8
0
100
AcDbCircle
 10
19.99252442132799
 20
24.74857457308404
 30
0.0
 40
0.06153445279444
100
AcDbArc
 50
235.2112288211969
 51
296.190375458401
  0
LWPOLYLINE
  5
334
330
2
100
AcDbEntity
  8
0
100
AcDbPolyline
 90
        9
 70
   128
 43
0.0
 10
18.96331997565735
 20
28.38083131324563
 10
18.86509043491876
 20
28.30844616094864
 10
18.76326981463527
 20
28.18583177958923
 10
18.68820349668625
 20
28.03114234099986
 10
18.64186911943616
 20
27.8484493131091
 10
18.62548684348176
 20
27.64256980746476
 10
18.63948828589962
 20
27.41892422663119
 10
18.6835052833564
 20
27.18340841542822
 10
18.75637782390604
 20
26.94222421549947
  0
ARC
  5
335
330
2
100
AcDbEntity
  8
0
100
AcDbCircle
 10
20.16606508447551
 20
24.70150813429139
 30
0.0
 40
0.0745078152570241
100
AcDbArc
 50
58.31198629679992
 51
92.55842226579758
  0
LINE
  5
336
330
2
100
AcDbEntity
  8
0
100
AcDbLine
 10
20.20520356668069
 20
24.76490840041799
 30
0.0
 11
20.87807126103099
 21
24.39003345692605
 31
0.0
  0
ARC
  5
337
330
2
100
AcDbEntity
  8
0
100
AcDbCircle
 10
20.94860569731748
 20
24.49203400462895
 30
0.0
 40
0.1240129768628424
100
AcDbArc
 50
235.3357399227026
 51
294.6995457558023
  0
LINE
  5
338
330
2
100
AcDbEntity
  8
0
100
AcDbLine
 10
43.053347951809
 20
12.03549421683834
 30
0.0
 11
49.26337202132593
 21
15.62046480396099
 31
0.0
  0
ARC
  5
339
330
2
100
AcDbEntity
  8
0
100
AcDbCircle
 10
43.25775516507338
 20
12.36233652866353
 30
0.0
 40
0.3854973483845115
100
AcDbArc
 50
183.1765015529003
 51
237.9781352054006
  0
LINE
  5
33A
330
2
100
AcDbEntity
  8
0
100
AcDbLine
 10
42.86921606192509
 20
12.58346054670291
 30
0.0
 11
42.87285010485453
 21
12.34097534398326
 31
0.0
  0
LINE
  5
33B
330
2
100
AcDbEntity
  8
0
100
AcDbLine
 10
43.053347951809
 20
12.03549421683834
 30
0.0
 11
43.72621564615923
 21
11.66061774679461
 31
0.0
  0
LINE
  5
33C
330
2
100
AcDbEntity
  8
0
100
AcDbLine
 10
43.78939035530128
 20
11.59541217366144
 30
0.0
 11
43.91702206587594
 21
11.37940346757033
 31
0.0
  0
ARC
  5
33D
330
2
100
AcDbEntity
  8
0
100
AcDbCircle
 10
43.63381508902764
 20
11.50788872134424
 30
0.0
 40
0.1785049528606627
100
AcDbArc
 50
29.36121272240161
 51
58.82620000540104
  0
LINE
  5
33E
330
2
100
AcDbEntity
  8
0
100
AcDbLine
 10
50.19022084453485
 20
14.89916848149708
 30
0.0
 11
43.980196775018
 21
11.31419789443715
 31
0.0
  0
ARC
  5
33F
330
2
100
AcDbEntity
  8
0
100
AcDbCircle
 10
44.07259502102478
 20
11.46692468071486
 30
0.0
 40
0.1785018406757155
100
AcDbArc
 50
209.3609500460992
 51
238.8264626817982
  0
LINE
  5
340
330
2
100
AcDbEntity
  8
0
100
AcDbLine
 10
43.980196775018
 20
11.31419789443715
 30
0.0
 11
44.20156141055602
 21
11.19086888703396
 31
0.0
  0
ARC
  5
341
330
2
100
AcDbEntity
  8
0
100
AcDbCircle
 10
44.37777767840356
 20
11.44450382399047
 30
0.0
 40
0.3088411473741033
100
AcDbArc
 50
235.2098419067979
 51
294.8257275524994
  0
LINE
  5
342
330
2
100
AcDbEntity
  8
0
100
AcDbLine
 10
33.96991938167421
 20
31.00024435369605
 30
0.0
 11
33.97064104290434
 21
31.02369214807493
 31
0.0
  0
ARC
  5
343
330
2
100
AcDbEntity
  8
0
100
AcDbCircle
 10
33.91621196293757
 20
30.99417085939706
 30
0.0
 40
0.0540497378031742
100
AcDbArc
 50
231.8268853628014
 51
6.451874002600198
  0
LINE
  5
344
330
2
100
AcDbEntity
  8
0
100
AcDbLine
 10
32.5817514258771
 20
31.6765388347346
 30
0.0
 11
33.88280708605993
 21
30.95167982088096
 31
0.0
  0
LWPOLYLINE
  5
345
330
2
100
AcDbEntity
  8
0
100
AcDbPolyline
 90
        9
 70
   128
 43
0.0
 10
32.57865483864944
 20
31.88318355133745
 10
32.54482826455325
 20
31.89423052363936
 10
32.51638723563641
 20
31.88786556991925
 10
32.49766155398395
 20
31.86505744767076
 10
32.49150200663908
 20
31.82927968448456
 10
32.49884651769719
 20
31.78597791848553
 10
32.51857679935135
 20
31.7417451234997
 10
32.5476891314805
 20
31.70331549209823
 10
32.5817514258771
 20
31.6765388347346
  0
LINE
  5
346
330
2
100
AcDbEntity
  8
0
100
AcDbLine
 10
33.72024438378109
 20
31.24716899935976
 30
0.0
 11
32.57865483864944
 21
31.88318355133745
 31
0.0
  0
ARC
  5
347
330
2
100
AcDbEntity
  8
0
100
AcDbCircle
 10
33.75364982743076
 20
31.28965902132474
 30
0.0
 40
0.0540492888989175
100
AcDbArc
 50
231.8257470397004
 51
6.453012325599678
  0
LINE
  5
348
330
2
100
AcDbEntity
  8
0
100
AcDbLine
 10
33.80735667939538
 20
31.29573353211213
 30
0.0
 11
33.80735667939538
 21
41.66056259051194
 31
0.0
  0
ARC
  5
349
330
2
100
AcDbEntity
  8
0
100
AcDbCircle
 10
43.42663964277241
 20
26.06181624645083
 30
0.0
 40
0.1945457827232321
100
AcDbArc
 50
186.1619976771998
 51
237.8150400426
  0
LINE
  5
34A
330
2
100
AcDbEntity
  8
0
100
AcDbLine
 10
44.46460319048112
 20
25.26115063274805
 30
0.0
 11
43.3230140274422
 21
25.8971657274091
 31
0.0
  0
LWPOLYLINE
  5
34B
330
2
100
AcDbEntity
  8
0
100
AcDbPolyline
 90
        9
 70
   128
 43
0.0
 10
44.46460319048112
 20
25.26115063274805
 10
44.49866589802209
 20
25.23437373694497
 10
44.52777789962317
 20
25.19594429637036
 10
44.54750801604464
 20
25.15171159673519
 10
44.55485277495182
 20
25.10840968764744
 10
44.54869314499051
 20
25.07263197219927
 10
44.52996771118712
 20
25.04982370679932
 10
44.50152659965396
 20
25.04345880081726
 10
44.46769986032501
 20
25.05450586853258
  0
LINE
  5
34C
330
2
100
AcDbEntity
  8
0
100
AcDbLine
 10
41.94858833944037
 20
26.45798145655257
 30
0.0
 11
44.46769986032501
 21
25.05450586853258
 31
0.0
  0
LINE
  5
34D
330
2
100
AcDbEntity
  8
0
100
AcDbLine
 10
35.52518074740748
 20
30.03666223500896
 30
0.0
 11
35.96868633409498
 21
29.78957132812446
 31
0.0
  0
ARC
  5
34E
330
2
100
AcDbEntity
  8
0
100
AcDbCircle
 10
41.17128132752398
 20
37.50650192275961
 30
0.0
 40
0.0523489887086959
100
AcDbArc
 50
346.8692712812997
 51
49.53343957970012
  0
LWPOLYLINE
  5
34F
330
2
100
AcDbEntity
  8
0
100
AcDbPolyline
 90
        3
 70
   128
 43
0.0
 10
42.96222587977835
 20
33.09946715683977
 10
42.96002218772764
 20
33.09799073075705
 10
42.95296561407503
 20
33.09587642607765
  0
LWPOLYLINE
  5
350
330
2
100
AcDbEntity
  8
0
100
AcDbPolyline
 90
        3
 70
   128
 43
0.0
 10
42.9311276470232
 20
33.08112287727198
 10
42.92843020632778
 20
33.07932397839554
 10
42.92054212558197
 20
33.07672965061335
  0
ARC
  5
351
330
2
100
AcDbEntity
  8
0
100
AcDbCircle
 10
43.95152990921208
 20
33.80551367381684
 30
0.0
 40
0.1101564530177903
100
AcDbArc
 50
340.6523373444004
 51
41.43898625729962
  0
ARC
  5
352
330
2
100
AcDbEntity
  8
0
100
AcDbCircle
 10
44.25108915823022
 20
34.73194118817314
 30
0.0
 40
0.0611499675077727
100
AcDbArc
 50
9.20368570250036
 51
67.17594872579979
  0
LWPOLYLINE
  5
353
330
2
100
AcDbEntity
  8
0
100
AcDbPolyline
 90
        5
 70
   128
 43
0.0
 10
44.26764044564513
 20
34.80459828010195
 10
44.27270814423235
 20
34.81792270974646
 10
44.2742488779489
 20
34.82882136889902
 10
44.27220844683457
 20
34.83688472294738
 10
44.27057121070421
 20
34.83906820880938
  0
LWPOLYLINE
  5
354
330
2
100
AcDbEntity
  8
0
100
AcDbPolyline
 90
       17
 70
   128
 43
0.0
 10
38.90228976016503
 20
30.30750970886738
 10
38.78825233112607
 20
30.36919908567157
 10
38.50035853623217
 20
30.55008500417701
 10
38.21552770139293
 20
30.76506037596323
 10
37.93709874407102
 20
31.01160538741909
 10
37.6683365522785
 20
31.28683003219929
 10
37.41239199594469
 20
31.58750559212876
 10
37.17226590349343
 20
31.91010909426819
 10
36.95077303873263
 20
32.25085708255587
 10
36.75051070463648
 20
32.6057550360567
 10
36.57382652058756
 20
32.97064115913755
 10
36.42279214887381
 20
33.34123894879769
 10
36.29917834267074
 20
33.71320289330063
 10
36.20443396010991
 20
34.0821718036901
 10
36.1396702660444
 20
34.44382061925627
 10
36.10564639081984
 20
34.79390772888533
 10
36.10055357517027
 20
35.04630690901063
  0
LWPOLYLINE
  5
355
330
2
100
AcDbEntity
  8
0
100
AcDbPolyline
 90
       13
 70
   128
 43
0.0
 10
11.57302976614466
 20
11.86722187775776
 10
11.62197103049219
 20
11.80740582316703
 10
11.64632136514543
 20
11.70993627707756
 10
11.63751518954424
 20
11.58676845466342
 10
11.59620422550982
 20
11.44703582090896
 10
11.52545473800163
 20
11.30110314663495
 10
11.4305128890169
 20
11.15979217461306
 10
11.31841872774769
 20
11.03358402369052
 10
11.19748732506165
 20
10.93183878081544
 10
11.07668811743389
 20
10.8621028826823
 10
10.96497864383298
 20
10.82954740626787
 10
10.87064555322236
 20
10.83658764126821
 10
10.82658757529876
 20
10.85882483301479
  0
SPLINE
  5
356
330
2
100
AcDbEntity
  8
0
100
AcDbSpline
210
0.0
220
0.0
230
1.0
 70
     8
 71
     3
 72
    11
 73
     7
 74
     0
 42
0.000000001
 43
0.0000000001
 40
0.0
 40
0.0
 40
0.0
 40
0.0
 40
0.4245452500026911
 40
0.6622588627983857
 40
0.9122185431514008
 40
1.0
 40
1.0
 40
1.0
 40
1.0
 10
34.92282508508343
 20
45.74781169991054
 30
0.0
 10
34.89046858515628
 20
45.72596684627443
 30
0.0
 10
34.83999486334286
 20
45.69189050711632
 30
0.0
 10
34.80755619563693
 20
45.64000883261132
 30
0.0
 10
34.79191098386991
 20
45.60630695785376
 30
0.0
 10
34.79976509197584
 20
45.58885918149186
 30
0.0
 10
34.8018064336304
 20
45.58432437344188
 30
0.0
  0
ARC
  5
357
330
2
100
AcDbEntity
  8
0
100
AcDbCircle
 10
34.99317051874896
 20
45.76349609179333
 30
0.0
 40
0.0720727423003472
100
AcDbArc
 50
134.965676076201
 51
192.5692186996995
  0
SPLINE
  5
358
330
2
100
AcDbEntity
  8
0
100
AcDbSpline
210
0.0
220
0.0
230
1.0
 70
     8
 71
     3
 72
     9
 73
     5
 74
     0
 42
0.000000001
 43
0.0000000001
 40
0.0
 40
0.0
 40
0.0
 40
0.0
 40
0.0942951804523432
 40
1.0
 40
1.0
 40
1.0
 40
1.0
 10
46.26239685742177
 20
23.19652540678058
 30
0.0
 10
46.25750044618805
 20
23.20131508841022
 30
0.0
 10
46.20557402523714
 20
23.25210964234841
 30
0.0
 10
46.14975011347556
 20
23.28398054917407
 30
0.0
 10
46.09919012754711
 20
23.31284618308942
 30
0.0
  0
LINE
  5
359
330
2
100
AcDbEntity
  8
0
100
AcDbLine
 10
46.39745000005712
 20
23.10704815319691
 30
0.0
 11
46.26239685742177
 21
23.19652540678058
 31
0.0
  0
LINE
  5
35A
330
2
100
AcDbEntity
  8
0
100
AcDbLine
 10
44.99771952890852
 20
24.45729599705123
 30
0.0
 11
44.97062482427728
 21
24.44165455703459
 31
0.0
  0
SPLINE
  5
35B
330
2
100
AcDbEntity
  8
0
100
AcDbSpline
210
0.0
220
0.0
230
1.0
 70
     8
 71
     3
 72
    10
 73
     6
 74
     0
 42
0.000000001
 43
0.0000000001
 40
0.0
 40
0.0
 40
0.0
 40
0.0
 40
0.433757942559017
 40
0.822469696484396
 40
1.0
 40
1.0
 40
1.0
 40
1.0
 10
50.5791229209264
 20
17.20213272500303
 30
0.0
 10
50.59816493562277
 20
17.24428666646112
 30
0.0
 10
50.63427143307459
 20
17.32421682112794
 30
0.0
 10
50.63918495886484
 20
17.45115064943389
 30
0.0
 10
50.61541503505225
 20
17.52696119895301
 30
0.0
 10
50.60796260064972
 20
17.55072960274593
 30
0.0
  0
LINE
  5
35C
330
2
100
AcDbEntity
  8
0
100
AcDbLine
 10
6.403246072552662
 20
15.66805321908832
 30
0.0
 11
6.254734148324291
 21
16.02862559826743
 31
0.0
  0
ARC
  5
35D
330
2
100
AcDbEntity
  8
0
100
AcDbCircle
 10
21.43840491966685
 20
24.1088137563257
 30
0.0
 40
0.0222317633949212
100
AcDbArc
 50
354.7744951303997
 51
55.91023717880108
  0
LINE
  5
35E
330
2
100
AcDbEntity
  8
0
100
AcDbLine
 10
15.06929265349613
 20
19.53026392168174
 30
0.0
 11
14.82487716098674
 21
19.66643431087734
 31
0.0
  0
ARC
  5
35F
330
2
100
AcDbEntity
  8
0
100
AcDbCircle
 10
14.80632613254391
 20
19.69277144584057
 30
0.0
 40
0.0322146757694016
100
AcDbArc
 50
248.5135277512986
 51
305.1596311743995
  0
ARC
  5
360
330
2
100
AcDbEntity
  8
0
100
AcDbCircle
 10
41.13443933264934
 20
11.60571828995174
 30
0.0
 40
0.0311236028940772
100
AcDbArc
 50
235.4014350270003
 51
293.9714073842986
  0
SPLINE
  5
361
330
2
100
AcDbEntity
  8
0
100
AcDbSpline
210
0.0
220
0.0
230
1.0
 70
     8
 71
     3
 72
    11
 73
     7
 74
     0
 42
0.000000001
 43
0.0000000001
 40
0.0
 40
0.0
 40
0.0
 40
0.0
 40
0.4726342965597464
 40
0.7270619083638485
 40
0.9868880719558973
 40
1.0
 40
1.0
 40
1.0
 40
1.0
 10
26.89019069580588
 20
27.55733418189045
 30
0.0
 10
27.00379706950856
 20
27.61090478932807
 30
0.0
 10
27.17855981412482
 20
27.69331342610993
 30
0.0
 10
27.47008051832358
 20
27.74350476909612
 30
0.0
 10
27.63148613219334
 20
27.76119884327386
 30
0.0
 10
27.71428440596254
 20
27.75696010710304
 30
0.0
 10
27.71826202961098
 20
27.75675647849507
 30
0.0
  0
LINE
  5
362
330
2
100
AcDbEntity
  8
0
100
AcDbLine
 10
22.16646273535753
 20
23.62737300056867
 30
0.0
 11
21.9220472429109
 21
23.76354338970156
 31
0.0
  0
ARC
  5
363
330
2
100
AcDbEntity
  8
0
100
AcDbCircle
 10
21.9034963317117
 20
23.78987954663029
 30
0.0
 40
0.0322138086103671
100
AcDbArc
 50
248.5126964842981
 51
305.1604624412013
  0
SPLINE
  5
364
330
2
100
AcDbEntity
  8
0
100
AcDbSpline
210
0.0
220
0.0
230
1.0
 70
     8
 71
     3
 72
    10
 73
     6
 74
     0
 42
0.000000001
 43
0.0000000001
 40
0.0
 40
0.0
 40
0.0
 40
0.0
 40
0.2504243498931605
 40
0.51272996757708
 40
1.0
 40
1.0
 40
1.0
 40
1.0
 10
48.55044657234458
 20
16.13478303989103
 30
0.0
 10
48.54573019342413
 20
16.09272401563778
 30
0.0
 10
48.53607366916029
 20
16.00661049612213
 30
0.0
 10
48.44560620664754
 20
15.84307374158515
 30
0.0
 10
48.30520605946384
 20
15.74255298199477
 30
0.0
 10
48.21393737396082
 20
15.67720833829171
 30
0.0
  0
ARC
  5
365
330
2
100
AcDbEntity
  8
0
100
AcDbCircle
 10
48.23161007550421
 20
15.70282775036687
 30
0.0
 40
0.0311236028943038
100
AcDbArc
 50
235.4014350271984
 51
293.9714073841988
  0
ARC
  5
366
330
2
100
AcDbEntity
  8
0
100
AcDbCircle
 10
14.34120088869833
 20
20.01168873618548
 30
0.0
 40
0.0222653752734857
100
AcDbArc
 50
354.8255685885
 51
55.85916372099785
  0
LINE
  5
367
330
2
100
AcDbEntity
  8
0
100
AcDbLine
 10
7.972123108609634
 20
15.43315515280997
 30
0.0
 11
7.727707616100243
 21
15.56932554200557
 31
0.0
  0
ARC
  5
368
330
2
100
AcDbEntity
  8
0
100
AcDbCircle
 10
7.709156319734503
 20
15.59566359039065
 30
0.0
 40
0.0322155768476219
100
AcDbArc
 50
248.5143549294026
 51
305.1590853176986
  0
ARC
  5
369
330
2
100
AcDbEntity
  8
0
100
AcDbCircle
 10
34.03727057271221
 20
7.508609974246623
 30
0.0
 40
0.0311236028942098
100
AcDbArc
 50
235.4014350271021
 51
293.9714073840989
  0
LINE
  5
36A
330
2
100
AcDbEntity
  8
0
100
AcDbLine
 10
19.94189475266525
 20
24.1101302319597
 30
0.0
 11
19.98705523754499
 21
24.13620082501771
 31
0.0
  0
LINE
  5
36B
330
2
100
AcDbEntity
  8
0
100
AcDbLine
 10
18.1789873686454
 20
27.63742579032034
 30
0.0
 11
18.22503223865406
 21
27.66400692804495
 31
0.0
  0
LINE
  5
36C
330
2
100
AcDbEntity
  8
0
100
AcDbLine
 10
43.42148614620233
 20
10.85179764800936
 30
0.0
 11
43.5467621403654
 21
10.92411794007774
 31
0.0
  0
LINE
  5
36D
330
2
100
AcDbEntity
  8
0
100
AcDbLine
 10
12.84472533173463
 20
20.01302153472641
 30
0.0
 11
12.8898851556836
 21
20.03909174613077
 31
0.0
  0
LINE
  5
36E
330
2
100
AcDbEntity
  8
0
100
AcDbLine
 10
11.08181728672131
 20
23.54031671149611
 30
0.0
 11
11.12786215672991
 21
23.56689784915799
 31
0.0
  0
LINE
  5
36F
330
2
100
AcDbEntity
  8
0
100
AcDbLine
 10
36.32431606427825
 20
6.754688569185158
 30
0.0
 11
36.44959205844126
 21
6.827008861190821
 31
0.0
  0
ARC
  5
370
330
2
100
AcDbEntity
  8
0
100
AcDbCircle
 10
50.24833375612471
 20
33.700861622149
 30
0.0
 40
0.2176372507711017
100
AcDbArc
 50
67.48754401999041
 51
121.0268002552806
  0
LINE
  5
371
330
2
100
AcDbEntity
  8
0
100
AcDbLine
 10
22.0996007748476
 20
24.79178548688694
 30
0.0
 11
26.71276109676631
 21
27.45490625461917
 31
0.0
  0
LINE
  5
372
330
2
100
AcDbEntity
  8
0
100
AcDbLine
 10
27.01403105136856
 20
27.28705938807936
 30
0.0
 11
22.40087072944993
 21
24.62393862040985
 31
0.0
  0
LINE
  5
373
330
2
100
AcDbEntity
  8
0
100
AcDbLine
 10
48.03650777489437
 20
15.57478041101712
 30
0.0
 11
43.26025308892899
 21
12.79487416335527
 31
0.0
  0
POLYLINE
  5
374
330
2
100
AcDbEntity
  8
0
100
AcDb2dPolyline
 66
     1
 10
0.0
 20
0.0
 30
0.0
 70
     2
  0
VERTEX
  5
375
330
374
100
AcDbEntity
  8
0
100
AcDbVertex
100
AcDb2dVertex
 10
10.18008222478191
 20
9.563226287996485
 30
0.0
 42
-0.0663836303553861
  0
VERTEX
  5
376
330
374
100
AcDbEntity
  8
0
100
AcDbVertex
100
AcDb2dVertex
 10
10.34508972950002
 20
9.900620373165688
 30
0.0
 42
-0.1308718445304587
 70
     1
  0
VERTEX
  5
377
330
374
100
AcDbEntity
  8
0
100
AcDbVertex
100
AcDb2dVertex
 10
10.48973618897808
 20
10.02828011985764
 30
0.0
 42
-0.0464887977211944
  0
VERTEX
  5
378
330
374
100
AcDbEntity
  8
0
100
AcDbVertex
100
AcDb2dVertex
 10
10.89148172010806
 20
10.18406670404433
 30
0.0
 42
-0.0414476963944212
 70
     1
  0
VERTEX
  5
379
330
374
100
AcDbEntity
  8
0
100
AcDbVertex
100
AcDb2dVertex
 10
11.36549121846974
 20
10.27727659767049
 30
0.0
 42
-0.0160739906847759
  0
VERTEX
  5
37A
330
374
100
AcDbEntity
  8
0
100
AcDbVertex
100
AcDb2dVertex
 10
11.46149725262287
 20
10.28489340061405
 30
0.0
 42
-0.0115545323037543
 70
     1
  0
VERTEX
  5
37B
330
374
100
AcDbEntity
  8
0
100
AcDbVertex
100
AcDb2dVertex
 10
11.59541987076205
 20
10.28809712320892
 30
0.0
  0
SEQEND
  5
37C
330
374
100
AcDbEntity
  8
0
  0
LINE
  5
37D
330
2
100
AcDbEntity
  8
0
100
AcDbLine
 10
49.94833704237479
 20
33.249277158467
 30
0.0
 11
51.17632280967219
 21
32.56116025444926
 31
0.0
  0
LINE
  5
37E
330
2
100
AcDbEntity
  8
0
100
AcDbLine
 10
12.55273137742812
 20
9.894717627450145
 30
0.0
 11
13.6946593369978
 21
9.065520424949388
 31
0.0
  0
ENDSEC
  0
SECTION
  2
OBJECTS
  0
DICTIONARY
  5
9
330
0
100
AcDbDictionary
281
     1
  3
ACAD_COLOR
350
3B
  3
ACAD_GROUP
350
32
  3
ACAD_LAYOUT
350
16
  3
ACAD_MATERIAL
350
B
  3
ACAD_MLEADERSTYLE
350
3E
  3
ACAD_MLINESTYLE
350
33
  3
ACAD_PLOTSETTINGS
350
34
  3
ACAD_PLOTSTYLENAME
350
8
  3
ACAD_SCALELIST
350
3C
  3
ACAD_TABLESTYLE
350
3D
  3
ACAD_VISUALSTYLE
350
2B
  3
ACDB_RECOMPOSE_DATA
350
38D
  3
AcDbVariableDictionary
350
37F
  3
AcDsDecomposeData
350
393
  0
DICTIONARY
  5
1E
330
1D
100
AcDbDictionary
280
     1
281
     1
  3
ACAD_LAYERSTATES
360
1F
  0
DICTIONARY
  5
6
330
5
100
AcDbDictionary
280
     1
281
     1
  0
DICTIONARY
  5
3
330
2
100
AcDbDictionary
280
     1
281
     1
  0
DICTIONARY
  5
3B
102
{ACAD_REACTORS
330
9
102
}
330
9
100
AcDbDictionary
281
     1
  0
DICTIONARY
  5
32
102
{ACAD_REACTORS
330
9
102
}
330
9
100
AcDbDictionary
281
     1
  0
DICTIONARY
  5
16
102
{ACAD_REACTORS
330
9
102
}
330
9
100
AcDbDictionary
281
     1
  3
Model
350
15
  3
レイアウト1
350
1C
  0
DICTIONARY
  5
B
102
{ACAD_REACTORS
330
9
102
}
330
9
100
AcDbDictionary
281
     1
  3
ByBlock
350
38
  3
ByLayer
350
35
  3
Global
350
A
  0
DICTIONARY
  5
3E
102
{ACAD_REACTORS
330
9
102
}
330
9
100
AcDbDictionary
281
     1
  0
DICTIONARY
  5
33
102
{ACAD_REACTORS
330
9
102
}
330
9
100
AcDbDictionary
281
     1
  3
Standard
350
3F
  0
DICTIONARY
  5
34
102
{ACAD_REACTORS
330
9
102
}
330
9
100
AcDbDictionary
281
     1
  0
ACDBDICTIONARYWDFLT
  5
8
102
{ACAD_REACTORS
330
9
102
}
330
9
100
AcDbDictionary
281
     1
  3
Normal
350
7
100
AcDbDictionaryWithDefault
340
7
  0
DICTIONARY
  5
3C
102
{ACAD_REACTORS
330
9
102
}
330
9
100
AcDbDictionary
281
     1
  3
A0
350
44
  3
A1
350
45
  3
A2
350
46
  3
A3
350
47
  3
A4
350
48
  3
A5
350
49
  3
A6
350
4A
  3
A7
350
4B
  3
A8
350
4C
  3
A9
350
4D
  3
B0
350
4E
  3
B1
350
4F
  3
B2
350
50
  3
B3
350
51
  3
B4
350
52
  3
B5
350
53
  3
B6
350
54
  0
DICTIONARY
  5
3D
102
{ACAD_REACTORS
330
9
102
}
330
9
100
AcDbDictionary
281
     1
  3
Standard
350
40
  0
DICTIONARY
  5
2B
102
{ACAD_REACTORS
330
9
102
}
330
9
100
AcDbDictionary
281
     1
  3
2dWireframe
350
2A
  3
Realistic
350
42
  3
Wireframe
350
43
  0
XRECORD
  5
38D
102
{ACAD_REACTORS
330
9
102
}
330
9
100
AcDbXrecord
280
     1
 90
        1
330
40
  0
DICTIONARY
  5
37F
102
{ACAD_REACTORS
330
9
102
}
330
9
100
AcDbDictionary
281
     1
  3
CANNOSCALE
350
385
  3
CMLEADERSTYLE
350
381
  3
CTABLESTYLE
350
380
  3
CVIEWDETAILSTYLE
350
382
  3
CVIEWSECTIONSTYLE
350
383
  3
LAYEREVAL
350
387
  3
LAYERNOTIFY
350
388
  3
LIGHTINGUNITS
350
386
  3
MSLTSCALE
350
384
  3
PSOLHEIGHT
350
38A
  3
PSOLWIDTH
350
389
  3
XCLIPFRAME
350
38B
  0
DICTIONARY
  5
393
102
{ACAD_REACTORS
330
9
102
}
330
9
100
AcDbDictionary
281
     1
  3
AcDsRecords
350
395
  3
AcDsSchemas
350
394
1001
ACAD
1070
     2
  0
DICTIONARY
  5
1F
102
{ACAD_REACTORS
330
1E
102
}
330
1E
100
AcDbDictionary
281
     1
  0
LAYOUT
  5
15
102
{ACAD_XDICTIONARY
360
17
102
}
102
{ACAD_REACTORS
330
16
102
}
330
16
100
AcDbPlotSettings
  1

  2
none_device
  4
ISO_A4_(210.00_x_297.00_MM)
  6

 40
7.5
 41
20.0
 42
7.5
 43
20.0
 44
210.0
 45
297.0
 46
11.54999923706054
 47
-13.65000009536743
 48
0.0
 49
0.0
140
0.0
141
0.0
142
1.0
143
8.704084754739808
 70
 11952
 72
     1
 73
     0
 74
     0
  7

 75
     0
147
0.1148885871608098
 76
     0
 77
     2
 78
   300
148
0.0
149
0.0
100
AcDbLayout
  1
Model
 70
     1
 71
     0
 10
0.0
 20
0.0
 11
12.0
 21
9.0
 12
0.0
 22
0.0
 32
0.0
 14
0.0
 24
0.0
 34
0.0
 15
0.0
 25
0.0
 35
0.0
146
0.0
 13
0.0
 23
0.0
 33
0.0
 16
1.0
 26
0.0
 36
0.0
 17
0.0
 27
1.0
 37
0.0
 76
     0
330
2
331
29
1001
ACAD_PSEXT
1000
None
1000
None
1000
Not applicable
1000
The layout will not be plotted unless a new plotter configuration name is selected.
1070
     0
  0
LAYOUT
  5
1C
102
{ACAD_REACTORS
330
16
102
}
330
16
100
AcDbPlotSettings
  1

  2
C:\Documents and Settings\basas\Application Data\Autodesk\AutoCAD 2005\R16.1\enu\plotters\Default Windows System Printer.pc3
  4

  6

 40
0.0
 41
0.0
 42
0.0
 43
0.0
 44
0.0
 45
0.0
 46
0.0
 47
0.0
 48
0.0
 49
0.0
140
0.0
141
0.0
142
1.0
143
1.0
 70
   688
 72
     0
 73
     0
 74
     5
  7

 75
    16
147
1.0
 76
     0
 77
     2
 78
   300
148
0.0
149
0.0
100
AcDbLayout
  1
レイアウト1
 70
     1
 71
     1
 10
0.0
 20
0.0
 11
12.0
 21
9.0
 12
0.0
 22
0.0
 32
0.0
 14
0.0
 24
0.0
 34
0.0
 15
0.0
 25
0.0
 35
0.0
146
0.0
 13
0.0
 23
0.0
 33
0.0
 16
1.0
 26
0.0
 36
0.0
 17
0.0
 27
1.0
 37
0.0
 76
     0
330
19
  0
MATERIAL
  5
38
102
{ACAD_XDICTIONARY
360
39
102
}
102
{ACAD_REACTORS
330
B
102
}
330
B
100
AcDbMaterial
  1
ByBlock
  0
MATERIAL
  5
35
102
{ACAD_XDICTIONARY
360
36
102
}
102
{ACAD_REACTORS
330
B
102
}
330
B
100
AcDbMaterial
  1
ByLayer
  0
MATERIAL
  5
A
102
{ACAD_XDICTIONARY
360
C
102
}
102
{ACAD_REACTORS
330
B
102
}
330
B
100
AcDbMaterial
  1
Global
 43
0.0007999999797903
 43
0.0
 43
0.0
 43
0.0
 43
0.0
 43
0.0007999999797903
 43
0.0
 43
0.0
 43
0.0
 43
0.0
 43
1.0
 43
0.0
 43
0.0
 43
0.0
 43
0.0
 43
1.0
 49
0.0007999999797903
 49
0.0
 49
0.0
 49
0.0
 49
0.0
 49
0.0007999999797903
 49
0.0
 49
0.0
 49
0.0
 49
0.0
 49
1.0
 49
0.0
 49
0.0
 49
0.0
 49
0.0
 49
1.0
142
0.0007999999797903
142
0.0
142
0.0
142
0.0
142
0.0
142
0.0007999999797903
142
0.0
142
0.0
142
0.0
142
0.0
142
1.0
142
0.0
142
0.0
142
0.0
142
0.0
142
1.0
144
0.0007999999797903
144
0.0
144
0.0
144
0.0
144
0.0
144
0.0007999999797903
144
0.0
144
0.0
144
0.0
144
0.0
144
1.0
144
0.0
144
0.0
144
0.0
144
0.0
144
1.0
1001
ACAD
1070
    -1
1070
     3
1070
     0
1000

1071
        0
1070
     0
  0
MLINESTYLE
  5
3F
102
{ACAD_REACTORS
330
33
102
}
330
33
100
AcDbMlineStyle
  2
STANDARD
 70
     0
  3

 62
   256
 51
90.0
 52
90.0
 71
     2
 49
0.5
 62
   256
  6
BYLAYER
 49
-0.5
 62
   256
  6
BYLAYER
  0
ACDBPLACEHOLDER
  5
7
102
{ACAD_REACTORS
330
8
102
}
330
8
  0
SCALE
  5
44
102
{ACAD_REACTORS
330
3C
102
}
330
3C
100
AcDbScale
 70
     0
300
1:1
140
1.0
141
1.0
290
     1
  0
SCALE
  5
45
102
{ACAD_REACTORS
330
3C
102
}
330
3C
100
AcDbScale
 70
     0
300
1:2
140
1.0
141
2.0
290
     0
  0
SCALE
  5
46
102
{ACAD_REACTORS
330
3C
102
}
330
3C
100
AcDbScale
 70
     0
300
1:4
140
1.0
141
4.0
290
     0
  0
SCALE
  5
47
102
{ACAD_REACTORS
330
3C
102
}
330
3C
100
AcDbScale
 70
     0
300
1:5
140
1.0
141
5.0
290
     0
  0
SCALE
  5
48
102
{ACAD_REACTORS
330
3C
102
}
330
3C
100
AcDbScale
 70
     0
300
1:8
140
1.0
141
8.0
290
     0
  0
SCALE
  5
49
102
{ACAD_REACTORS
330
3C
102
}
330
3C
100
AcDbScale
 70
     0
300
1:10
140
1.0
141
10.0
290
     0
  0
SCALE
  5
4A
102
{ACAD_REACTORS
330
3C
102
}
330
3C
100
AcDbScale
 70
     0
300
1:16
140
1.0
141
16.0
290
     0
  0
SCALE
  5
4B
102
{ACAD_REACTORS
330
3C
102
}
330
3C
100
AcDbScale
 70
     0
300
1:20
140
1.0
141
20.0
290
     0
  0
SCALE
  5
4C
102
{ACAD_REACTORS
330
3C
102
}
330
3C
100
AcDbScale
 70
     0
300
1:30
140
1.0
141
30.0
290
     0
  0
SCALE
  5
4D
102
{ACAD_REACTORS
330
3C
102
}
330
3C
100
AcDbScale
 70
     0
300
1:40
140
1.0
141
40.0
290
     0
  0
SCALE
  5
4E
102
{ACAD_REACTORS
330
3C
102
}
330
3C
100
AcDbScale
 70
     0
300
1:50
140
1.0
141
50.0
290
     0
  0
SCALE
  5
4F
102
{ACAD_REACTORS
330
3C
102
}
330
3C
100
AcDbScale
 70
     0
300
1:100
140
1.0
141
100.0
290
     0
  0
SCALE
  5
50
102
{ACAD_REACTORS
330
3C
102
}
330
3C
100
AcDbScale
 70
     0
300
2:1
140
2.0
141
1.0
290
     0
  0
SCALE
  5
51
102
{ACAD_REACTORS
330
3C
102
}
330
3C
100
AcDbScale
 70
     0
300
4:1
140
4.0
141
1.0
290
     0
  0
SCALE
  5
52
102
{ACAD_REACTORS
330
3C
102
}
330
3C
100
AcDbScale
 70
     0
300
8:1
140
8.0
141
1.0
290
     0
  0
SCALE
  5
53
102
{ACAD_REACTORS
330
3C
102
}
330
3C
100
AcDbScale
 70
     0
300
10:1
140
10.0
141
1.0
290
     0
  0
SCALE
  5
54
102
{ACAD_REACTORS
330
3C
102
}
330
3C
100
AcDbScale
 70
     0
300
100:1
140
100.0
141
1.0
290
     0
  0
TABLESTYLE
  5
40
102
{ACAD_XDICTIONARY
360
41
102
}
102
{ACAD_REACTORS
330
3D
102
}
330
3D
100
AcDbTableStyle
  3
Standard
 70
     0
 71
     0
 40
1.5
 41
1.5
280
     0
281
     0
  7
Standard
140
4.5
170
     2
 62
     0
 63
     7
283
     0
274
    -2
284
     1
 64
     0
275
    -2
285
     1
 65
     0
276
    -2
286
     1
 66
     0
277
    -2
287
     1
 67
     0
278
    -2
288
     1
 68
     0
279
    -2
289
     1
 69
     0
  7
Standard
140
6.0
170
     5
 62
     0
 63
     7
283
     0
274
    -2
284
     1
 64
     0
275
    -2
285
     1
 65
     0
276
    -2
286
     1
 66
     0
277
    -2
287
     1
 67
     0
278
    -2
288
     1
 68
     0
279
    -2
289
     1
 69
     0
  7
Standard
140
4.5
170
     5
 62
     0
 63
     7
283
     0
274
    -2
284
     1
 64
     0
275
    -2
285
     1
 65
     0
276
    -2
286
     1
 66
     0
277
    -2
287
     1
 67
     0
278
    -2
288
     1
 68
     0
279
    -2
289
     1
 69
     0
  0
VISUALSTYLE
  5
2A
102
{ACAD_XDICTIONARY
360
397
102
}
102
{ACAD_REACTORS
330
2B
102
}
330
2B
100
AcDbVisualStyle
  2
2dWireframe
 70
     4
 71
     0
 72
     2
 73
     1
 90
        0
 40
-0.6
 41
-30.0
 62
     5
 63
     7
421
 16777215
 74
     1
 91
        4
 64
     7
 65
   257
 75
     1
175
     1
 42
1.0
 92
        0
 66
   257
 43
1.0
 76
     1
 77
     6
 78
     2
 67
     7
 79
     5
170
     0
171
     0
290
     0
174
     0
 93
        1
 44
0.0
173
     0
291
     0
 45
0.0
1001
ACAD
1000
AcDbSavedByObjectVersion
1070
     0
  0
VISUALSTYLE
  5
42
102
{ACAD_XDICTIONARY
360
39C
102
}
102
{ACAD_REACTORS
330
2B
102
}
330
2B
100
AcDbVisualStyle
  2
Realistic
 70
     8
 71
     2
 72
     3
 73
     0
 90
        2
 40
-0.6
 41
30.0
 62
     5
 63
     7
421
 16777215
 74
     0
 91
        0
 64
     7
 65
   257
 75
     1
175
     1
 42
1.0
 92
        8
 66
   257
 43
1.0
 76
     1
 77
     6
 78
     2
 67
     7
 79
     3
170
     0
171
     0
290
     0
174
     0
 93
       13
 44
0.0
173
     0
291
     0
 45
0.0
1001
ACAD
1000
AcDbSavedByObjectVersion
1070
     0
  0
VISUALSTYLE
  5
43
102
{ACAD_XDICTIONARY
360
39E
102
}
102
{ACAD_REACTORS
330
2B
102
}
330
2B
100
AcDbVisualStyle
  2
Wireframe
 70
     5
 71
     0
 72
     2
 73
     0
 90
        0
 40
-0.6
 41
-30.0
 62
     5
 63
     7
421
 16777215
 74
     1
 91
        4
 64
     7
 65
   257
 75
     1
175
     1
 42
1.0
 92
        0
 66
   257
 43
1.0
 76
     1
 77
     6
 78
     2
 67
     7
 79
     3
170
     0
171
     0
290
     0
174
     0
 93
        1
 44
0.0
173
     0
291
     0
 45
0.0
1001
ACAD
1000
AcDbSavedByObjectVersion
1070
     0
  0
DICTIONARYVAR
  5
385
102
{ACAD_REACTORS
330
37F
102
}
330
37F
100
DictionaryVariables
280
     0
  1
1:1
  0
DICTIONARYVAR
  5
381
102
{ACAD_REACTORS
330
37F
102
}
330
37F
100
DictionaryVariables
280
     0
  1
STANDARD
  0
DICTIONARYVAR
  5
380
102
{ACAD_REACTORS
330
37F
102
}
330
37F
100
DictionaryVariables
280
     0
  1
STANDARD
  0
DICTIONARYVAR
  5
382
102
{ACAD_REACTORS
330
37F
102
}
330
37F
100
DictionaryVariables
280
     0
  1

  0
DICTIONARYVAR
  5
383
102
{ACAD_REACTORS
330
37F
102
}
330
37F
100
DictionaryVariables
280
     0
  1

  0
DICTIONARYVAR
  5
387
102
{ACAD_REACTORS
330
37F
102
}
330
37F
100
DictionaryVariables
280
     0
  1
0
  0
DICTIONARYVAR
  5
388
102
{ACAD_REACTORS
330
37F
102
}
330
37F
100
DictionaryVariables
280
     0
  1
0
  0
DICTIONARYVAR
  5
386
102
{ACAD_REACTORS
330
37F
102
}
330
37F
100
DictionaryVariables
280
     0
  1
2
  0
DICTIONARYVAR
  5
384
102
{ACAD_REACTORS
330
37F
102
}
330
37F
100
DictionaryVariables
280
     0
  1
1
  0
DICTIONARYVAR
  5
38A
102
{ACAD_REACTORS
330
37F
102
}
330
37F
100
DictionaryVariables
280
     0
  1
80.000000
  0
DICTIONARYVAR
  5
389
102
{ACAD_REACTORS
330
37F
102
}
330
37F
100
DictionaryVariables
280
     0
  1
5.000000
  0
DICTIONARYVAR
  5
38B
102
{ACAD_REACTORS
330
37F
102
}
330
37F
100
DictionaryVariables
280
     0
  1
2
  0
DICTIONARY
  5
395
102
{ACAD_REACTORS
330
393
102
}
330
393
100
AcDbDictionary
281
     1
  0
DICTIONARY
  5
394
102
{ACAD_REACTORS
330
393
102
}
330
393
100
AcDbDictionary
281
     1
  3
1841700738144
350
38E
  3
1841700738160
350
38F
  3
1841700738176
350
390
  3
1841700738192
350
391
  3
1841700738208
350
392
  0
DICTIONARY
  5
17
330
15
100
AcDbDictionary
280
     1
281
     1
  0
DICTIONARY
  5
39
330
38
100
AcDbDictionary
280
     1
281
     1
  3
ACAD_XREC_ROUNDTRIP
360
39A
  3
FBXASSET
360
3A
  0
DICTIONARY
  5
36
330
35
100
AcDbDictionary
280
     1
281
     1
  3
ACAD_XREC_ROUNDTRIP
360
399
  3
FBXASSET
360
37
  0
DICTIONARY
  5
C
330
A
100
AcDbDictionary
280
     1
281
     1
  3
ACAD_XREC_ROUNDTRIP
360
396
  3
BUMPTILE
360
D
  3
DIFFUSETILE
360
E
  3
FBXASSET
360
F
  3
OPACITYTILE
360
10
  3
REFLECTIONTILE
360
11
  0
DICTIONARY
  5
41
330
40
100
AcDbDictionary
280
     1
281
     1
  3
ACAD_ROUNDTRIP_2008_TABLESTYLE_CELLSTYLEMAP
360
38C
  3
ACAD_XREC_ROUNDTRIP
360
39B
  0
DICTIONARY
  5
397
330
2A
100
AcDbDictionary
280
     1
281
     1
  3
ACAD_XREC_ROUNDTRIP
360
398
  0
DICTIONARY
  5
39C
330
42
100
AcDbDictionary
280
     1
281
     1
  3
ACAD_XREC_ROUNDTRIP
360
39D
  0
DICTIONARY
  5
39E
330
43
100
AcDbDictionary
280
     1
281
     1
  3
ACAD_XREC_ROUNDTRIP
360
39F
  0
XRECORD
  5
38E
102
{ACAD_REACTORS
330
394
102
}
330
394
100
AcDbXrecord
280
     1
  1
AcDb_Thumbnail_Schema
102
{ATTRRECORD
341
38F
  2
AcDbDs::TreatedAsObjectData
280
     1
291
     1
102
ATTRRECORD}
102
{ATTRRECORD
341
390
  2
AcDbDs::Legacy
280
     1
291
     1
102
ATTRRECORD}
  2
AcDbDs::ID
280
    10
 91
        8
102
{ATTRRECORD
341
391
  2
AcDs:Indexable
280
     1
291
     1
102
ATTRRECORD}
102
{ATTRRECORD
341
392
  2
AcDbDs::HandleAttribute
280
     7
282
     1
102
ATTRRECORD}
  2
Thumbnail_Data
280
    15
 91
        0
  0
XRECORD
  5
38F
102
{ACAD_REACTORS
330
394
102
}
330
394
100
AcDbXrecord
280
     1
  1
AcDbDs::TreatedAsObjectDataSchema
  2
AcDbDs::TreatedAsObjectData
280
     1
 91
        0
  0
XRECORD
  5
390
102
{ACAD_REACTORS
330
394
102
}
330
394
100
AcDbXrecord
280
     1
  1
AcDbDs::LegacySchema
  2
AcDbDs::Legacy
280
     1
 91
        0
  0
XRECORD
  5
391
102
{ACAD_REACTORS
330
394
102
}
330
394
100
AcDbXrecord
280
     1
  1
AcDbDs::IndexedPropertySchema
  2
AcDs:Indexable
280
     1
 91
        0
  0
XRECORD
  5
392
102
{ACAD_REACTORS
330
394
102
}
330
394
100
AcDbXrecord
280
     1
  1
AcDbDs::HandleAttributeSchema
  2
AcDbDs::HandleAttribute
280
     7
 91
        1
284
     1
  0
XRECORD
  5
39A
102
{ACAD_REACTORS
330
39
102
}
330
39
100
AcDbXrecord
280
     1
102
MATERIAL
148
0.0
149
0.0
149
0.0
 93
        0
 94
       63
282
     0
 72
     1
 77
     1
171
     1
175
     1
179
     1
273
     0
  0
XRECORD
  5
3A
102
{ACAD_REACTORS
330
39
102
}
330
39
100
AcDbXrecord
280
     1
 70
     1
 90
429727718
  1
D62C5603-E3A1-4AEA-B7FB-FE5D8D0755AF
310
504B03040A0000080000CC70623B3DEE336E79000000790000001B0000006175746F6465736B2D64657369676E2D7061636B6167652E786D6C3C3F786D6C2076657273696F6E3D22312E302220656E636F64696E673D227574662D3822203F3E3C666F726D6174733E3C666F726D61743E687474703A2F2F736368656D612E
310
6175746F6465736B2E636F6D2F64657369676E2D7061636B6167652F323030393C2F666F726D61743E3C2F666F726D6174733E504B0304140006080800CC70623BD486FD9CA0000000F4000000130000005B436F6E74656E745F54797065735D2E786D6C7D8EC10E82300C865F65E91D8A1E8C310C0EEA1BF002731658846E
310
D98AC1B77784ABF1D8FE5FBFBF75BBCE937A534CCEB38643598122B6FEE978D0B0485F9C41B54DDD7D022595594E1A469170414C76A4D9A4D207E29CF43ECE46F218070CC6BECC4078ACAA135ACF422C856C0E68EA1BF5669944DDD7BCDE7B1F8E415D77AECB980613C2E4AC91FC167A2B244592486606FC29C8FD7F045B9A
310
EF7053A7E60B504B0304140006080800CC70623B853B8169EB0000007C01000008000000636F72652E786D6C8D90416EC3201045AF62CDB6C206821CC7C244919D9CA01740401C94182C03558F5F9C3852BBEB6A467FFE9B197D7EFC9E1EC5975982F5AE035262288C535E5B377690E21535501C055FBC8FBF6C503839990E
310
5619041F179FE64D52DE45E362569DD7661365082642A11EB9E920A89B99642953CC8E702F67A9EE7234257977194EC9EAE275C4EABCCF5EAD5940D4AC6F0E35A568B8F43562CD7046CD199FD07E60174276A7BE677B5EADB0E0D14EEFFB6A31321A0D82627C4084204C3F096B71DD52F6819B16635EADF63F509AF53FA164
310
5DDCD1EDDD17164090FCC8732078B56691CB33A85CD7DCC40F504B0304140006080800CC70623B55019EA25F0000007C00000007000000636E782E786D6C4DCB3B0E80201045D1AD90E915ED2CF8AC45050C11660C8261F98AB1B07AC9C97D42D718D865D3E909258CFD00CCE24AC6E326A164D74DC0B4128928FF32603847
310
2BA13128B1252AC747C6BAB984FC68F0B87FE8960A5C09FE86CFB69FBA01504B0304140006080800CC70623BDBABAAF470010000D40300000C0000006662782F636F72652E786D6CC553D16E823014FD95A6AF4B694182CC941A83FA05FB810A9511A125A5257EFE2E82712ECEB8A7F100CD39F7F69E734AF9FADC366850B6
310
AF8DCE7018308C942E4C59EB2AC3DE1D498AD15A706B8CFB56869196ADCAF00863C12B6B7C374385D14E6907A836A59A41D9F7CA615434B0C8705F7CAA5606D23BA8E84F41278B93AC54100640439DE0BDB320004D43C63716C7C399D30917DCFBBA9CD9BA8469F5B156168B24CED3F7248AC8769F27244EB73B92EED8862C
310
B7F13E0C179B3C8F979C8ECD82BBBABDAA2BAC924E9558448CBD9330242CFA08E3154B5651FCC6D215639C8EE5774DBE2B5F6CF2B5768B68963BB5F5588420E442FC700B1139D4CB01F450C1E918227C2E09DF070D8140C84E1E9AAB8F1340832A9CB13130A5F1376A908D57309505ECF2A0DF179C4E9D30F5B239B87E3823
310
7A79C6F31DE1A8A5AEC08474B03C7837EAE4938639B44E5932B833D2C6B6B279CDC613877FA26EE21F4A2A4C63EC7F29A2F301D1F9F7A0E37D145F504B0304140006080800CC70623B9C113CC27E0000009D0000000B0000006662782F636E782E786D6C4DCCDF0A83201C86E15B91DFB94BFB330DD428C8FB886521330DA7
310
6397BF1A1DECE883878F57749FCDA1B7892F1BBC047A23808C7F84D9FA55424E0BE6803A256208E9EF06C84F9B91703228B1C690F78B66B34CD9A5439DF5CF0BFBF65E35BCA1B8D6A5C6F540381E886698B5741C695F9503EBA150A2F8958E3DC3EA0B504B0304140006080800CC70623B7DF2F77C2A010000120200003100
310
00006662782F41393633353835312D344632462D344230382D423046372D3739314545314133324237412F636F72652E786D6C8D51DB8EC22014FC15C2939B0D2DB4B45643319AE817EC0F6041255A68B86CFCFC856D4D76DF7CE190393373060EDB3DC707F856CE6B6B7A480A0C81328395DA5C7B18C3057510EC3873D686
310
3F34088C18550F330C39BB3A1BA7051AAC09CA84841A2BD5020AEF55806078A44B0FFD7053A328440C89E1EFC52486BBB8AA8214A99D789CF9E05200300FC927E4FB4D5B375D43103D5527440FB843077C5AA3F5861C8F645F5787F59E95B390B318B55CE45AA638FAA2957BD7248B390B7A7CC51F9C124149C82B8C378810
310
84AB2F42B7B8DD56F413775B8C5999E9FF4471926F8AA236A1AE96B8B3CC434E5839373893369E1FAF30EA395917409EB7F26AF8801C171837A4A6AC9C89E9F9C9B1A58BA30FD6A5EF5DDDCF894B9AD9B6A59C957943A9FCAE2FD5BC4DFE03504B0304140006080800CC70623BAD7543B64E01000033030000300000006662
310
782F41393633353835312D344632462D344230382D423046372D3739314545314133324237412F636E782E786D6CD593CD6EC32010845F0571AD6CE3D48AD20813A9873E410FBD12D82434182C7EAAE6EDBB2424CD25871E7B41D6EC30B3FA84F9E67BB2E40B4234DE8DB46F1925E094D7C6ED479AD3AE5951B2113C789FEE
310
6C943839C1488B4C05DF079FE72A69D8C96C13AAD6B8631503449F83828872B949AC57D26200B826A308D316B4064D6E46FCDA41C05550DC9E483A00797BFD207EFB092A45DE9514C1BBD22178396BD39D891265658C238DEA00936C654E5E433CB65A26D9F6EDB5EBC14EBF49A45CB856E66048291F6939A9A81BB5C89177
310
38143CA680F4AA299D66A042CEB3354A2684DC9D8D178FE0D9B8B41CAAD720F880EE7EF93C0C18769E099ECC04D5A102C8049A8A05632F4DDF376CF1DE0F6BB65C2F8627B65A33C6BB62177CEBBDAD973006829F89F22E814B54F4BC2BE347F8AA8F681390B50FA73F804400B5F542E796F19FF974E7F78DB802FE05E20750
310
4B0304140006080800CC70623BE75B7789680500003C100000340000006662782F41393633353835312D344632462D344230382D423046372D3739314545314133324237412F6F626A656374732E786D6CAD575B8F9B3818FD2B887D06C22499CB8AA1CA655245D5B455A356FB305264C061D8018C6C3393D95FBFC7600890
310
A4CD5EF210B0B1BFEBF98E3F7B1FF6596ABC522E1296DF9BAE3D320D9A872C4AF2F8DE2CE5CEBA358D0FBEC719939D65A691938CDE9B6ADAF4BD98B3B2D05311DD91329583D9D5FC0F438434A7A611A644887B5384CF34233629258BA878B12322891DEFF6B66BD70BFB62634E8AE781D082709A4B588AF91C528CDA28B73F
310
1C998EEF39EABBEFA97FBD6A7C7E9553F9D3D79FE442923C3C523610337627CB87ABE99D359D4CC6D6E4FACAB5E6ABF9D2726FC6A3C5F56271377BB88362213924694B38DD99FE47C48627A1E7D49F5A8BB5E1A74C0A599ED3B0F21F1E56366B89112D681E218F0915D0D6F17AD41FBA2A369DCF6335D62ABBD39779D5DDD1
310
11D4D8DE3CBB96B2E04FB8202E41051754A1AA8E8F76B4C6DFE810B580B1547F4B84911149794252234D024EF8BBE963A95AE27B3D310A9D5C215C7960FAEE415ED75694C6AFB17BCACA5D99A60A9AA65F217B0BFC53292ACB92BF283FAD0D3621576592CB5BED907C2FA8E9DF794E35E97BEA31BED21FEB401ABB94C44839
310
DCACBF0E1C5DA8DA5B2F4DFFD32AD86F543D9E565E7056502E157C00AD2671CD534549AB752FCA9CDA00677A313F04E51B22FF19E57B300579E3C97EB29F682D92935CEC18CF901B7B54FD8C51F362B56FC72FE0B3C1EAE335EDCCBF5AEC39ADB17DC238973F804BA5E6F6BFE7AF1FB32E523BE9F3BD571418E3631DCA4D48
310
5250CF639223210A9446CA30052EDF057BD35F8329C1ECD84552BF0DC8D18BE7BCE23BFE6BD960AB4A7DE79923A103BEBD80F911CBAA2C60DB19B01CF164A5583B772EE6D3FFA56666CBCDA74DC97724A48F9A58967497E489C4D979006FD7A05E227A1EBDD0F737C623387A9C844D3709995625106D157315F8B8392CD4E0
310
A0B9A720C4BE9829CEF37EA1E13111214D53925356365ADA634861B52519DD27A00AEB808EAF0628E6F435519D446F45CF2C9CF5214F0A15B2F6D06B79DA3EE3CBF7F56780D2F4E7EF73A0F5E5B02A38D07DC852C6B7C1FBB6664213E0C39E3EBA7FF4E1AD23EA2829407C85E586727488B751B2DB9502BC7B228A3FD68B6E
310
A65A22397E690AA8D158D7E404EC8CDA235CC3B7D1898680131CEC2CDF2638C65196279577750F15884AEE19F94199155B92B13297978469D4F8D358DF0AEF7631E28DC8F0D9F437D5D39A83B2231A1D52D543813A824EF8D44BCFF2FA6A31BD1E8DAD87F1CCB526B3879935BF59CDADD5C37479BB1CDD4CA7B3556B516589
310
EF352754B706114D9C885EC9131DE6EFEB43D99AFE2391C2F958179413D7CFEF6B1B6DB1E7600F00DE6E5C67454A339A4BA2E0FBA85ED26F045D454F463DBFCE484C2F90F2E5E3666003662ED8F755951A7D1BECD5B30B550B2785C8E7320B7292A4838DDA71BBC863ED7613CAF659337A3354231D4FF4A182A54904C2898C
310
98B28C4AD0CE056CCF332A80986E571EE9DBC305BB5FEB7E509220A58D25CF042D712A806AC0AD0C657FDEF80D2D9CEAA2EE4D1C76F60BFE74219A06527D6F82DF6412526107381E55E353090704D085B52408A8913C4ED159D79BDA71BB4BC506F4831350EB6F975CD22D69BF7AC49B91A2C0A9DDA3D5CA36AD20FC478E37
310
E61844E2352865EBCB61A275A65283CAAA9DD27703B4102F5AF51EF5F573B75CBB5AD38BC845F7A49F82A0966A49C2E3EA5EA0ECD326CD965F1DB402C6FA8B51A4658C5C5E2EC9E214602E55810345408596591009A82E7E7FFACA19EEA299B14A0081A705CB3296EBC14CDF658DCD336EA6D1136881AAEB87B81AB9EE53D5
310
F5EB8BC8362082DA24122F98680A4E7930C01A0079749CEA14382A0783E5EBA5A10F8C098456A03D6A4AEB6BB881E2513747552A5DB22C7EDAF83BD5528081A365F7FF06504B0304140006080000CC70623B000000000000000000000000350000006662782F41393633353835312D344632462D344230382D423046372D37
310
39314545314133324237412F76657274696365732E62696E504B0304140006080800CC70623BF270F1330600000004000000360000006662782F41393633353835312D344632462D344230382D423046372D3739314545314133324237412F747269616E676C65732E62696E636660600000504B0304140006080000CC7062
310
3B000000000000000000000000370000006662782F41393633353835312D344632462D344230382D423046372D3739314545314133324237412F617474726962757465732E62696E504B0304140006080800CC70623B08DA0BD19000000041010000360000006662782F41393633353835312D344632462D344230382D4230
310
46372D3739314545314133324237412F6469726563746F72792E786D6C858F410AC3201045AF22B36F53E9A60B35CBEEBAE80D244E44489C6234F4F835464A48035D0DF398FF9F8AF63D0E6CC63039F212F8F9020C7D47C6792B21C5FE7403D62A1188E2E60C98D7234A5830286103A55745067B9D86B8A3CF9C7F90C11DE6
310
07FB144396D7B6A82D282E9A152AD114D5EF2CB866EEE831B8EEA07A7BB5A8D7D61A2BAAEB7FD5F70921FF497D00504B0304140006080800CC70623BEDD1DC58FD000000A00100003B0000006662782F41393633353835312D344632462D344230382D423046372D3739314545314133324237412F7265736F75726365732F
310
636F72652E786D6C8D504B6E833010BD0A9A6D65B00922041947112427E8052C33A156828DFCA97AFC9A40A576D7CDCCE87D344F8F9FBFE667F689CE6B6B3A6039850C8DB2A336530731DC4903D95970676DF82583CCC8193B5861107C72362E3BA4AC096842428D1D7107A5F7182053CF7474E0D507CE32973124857FE48B
310
540F3961CEF244279DE03EB81420DB9EAC1384436FA353E879B1B182C7A8C75DA3C7F453DF353A1075D537A7BA6464B8F535A99AE14A9A2BBD90E350DD183B5CFABE3AF262350B1EF4FC9351399401471025A527C218A1E53BAB5A5AB765F5469B96525EACF23FA6B88CFF34456DC2A1DCE36E360F82A5202F42F062ED2BAD
310
579969AFDD8A6F504B010214000A0000080000CC70623B3DEE336E79000000790000001B00000000000000000000000000000000006175746F6465736B2D64657369676E2D7061636B6167652E786D6C504B01021400140006080800CC70623BD486FD9CA0000000F40000001300000000000000000000000000B20000005B
310
436F6E74656E745F54797065735D2E786D6C504B01021400140006080800CC70623B853B8169EB0000007C010000080000000000000000000000000083010000636F72652E786D6C504B01021400140006080800CC70623B55019EA25F0000007C000000070000000000000000000000000094020000636E782E786D6C504B
310
01021400140006080800CC70623BDBABAAF470010000D40300000C00000000000000000000000000180300006662782F636F72652E786D6C504B01021400140006080800CC70623B9C113CC27E0000009D0000000B00000000000000000000000000B20400006662782F636E782E786D6C504B01021400140006080800CC70
310
623B7DF2F77C2A010000120200003100000000000000000000000000590500006662782F41393633353835312D344632462D344230382D423046372D3739314545314133324237412F636F72652E786D6C504B01021400140006080800CC70623BAD7543B64E010000330300003000000000000000000000000000D2060000
310
6662782F41393633353835312D344632462D344230382D423046372D3739314545314133324237412F636E782E786D6C504B01021400140006080800CC70623BE75B7789680500003C10000034000000000000000000000000006E0800006662782F41393633353835312D344632462D344230382D423046372D3739314545
310
314133324237412F6F626A656374732E786D6C504B01021400140006080000CC70623B0000000000000000000000003500000000000000000000000000280E00006662782F41393633353835312D344632462D344230382D423046372D3739314545314133324237412F76657274696365732E62696E504B01021400140006
310
080800CC70623BF270F133060000000400000036000000000000000000000000007B0E00006662782F41393633353835312D344632462D344230382D423046372D3739314545314133324237412F747269616E676C65732E62696E504B01021400140006080000CC70623B0000000000000000000000003700000000000000
310
000000000000D50E00006662782F41393633353835312D344632462D344230382D423046372D3739314545314133324237412F617474726962757465732E62696E504B01021400140006080800CC70623B08DA0BD1900000004101000036000000000000000000000000002A0F00006662782F41393633353835312D344632
310
462D344230382D423046372D3739314545314133324237412F6469726563746F72792E786D6C504B01021400140006080800CC70623BEDD1DC58FD000000A00100003B000000000000000000000000000E1000006662782F41393633353835312D344632462D344230382D423046372D3739314545314133324237412F7265
310
736F75726365732F636F72652E786D6C504B0506000000000E000E0080040000641100000000
  0
XRECORD
  5
399
102
{ACAD_REACTORS
330
36
102
}
330
36
100
AcDbXrecord
280
     1
102
MATERIAL
148
0.0
149
0.0
149
0.0
 93
        0
 94
       63
282
     0
 72
     1
 77
     1
171
     1
175
     1
179
     1
273
     0
  0
XRECORD
  5
37
102
{ACAD_REACTORS
330
36
102
}
330
36
100
AcDbXrecord
280
     1
 70
     1
 90
429727718
  1
30362254-06B7-45E0-A893-8CFA70E3D6BC
310
504B03040A0000080000CC70623B3DEE336E79000000790000001B0000006175746F6465736B2D64657369676E2D7061636B6167652E786D6C3C3F786D6C2076657273696F6E3D22312E302220656E636F64696E673D227574662D3822203F3E3C666F726D6174733E3C666F726D61743E687474703A2F2F736368656D612E
310
6175746F6465736B2E636F6D2F64657369676E2D7061636B6167652F323030393C2F666F726D61743E3C2F666F726D6174733E504B0304140006080800CC70623BD486FD9CA0000000F4000000130000005B436F6E74656E745F54797065735D2E786D6C7D8EC10E82300C865F65E91D8A1E8C310C0EEA1BF002731658846E
310
D98AC1B77784ABF1D8FE5FBFBF75BBCE937A534CCEB38643598122B6FEE978D0B0485F9C41B54DDD7D022595594E1A469170414C76A4D9A4D207E29CF43ECE46F218070CC6BECC4078ACAA135ACF422C856C0E68EA1BF5669944DDD7BCDE7B1F8E415D77AECB980613C2E4AC91FC167A2B244592486606FC29C8FD7F045B9A
310
EF7053A7E60B504B0304140006080800CC70623B1EC5D7A3EB0000007C01000008000000636F72652E786D6C8D90416EC3201045AF82665B6103C6756C6122AB4D4ED00B204C5C94182C03558F5F9C3852BBEB6A467FFE9B197D71FC9E6FE8CBACC17AD7032D0820E3B41FAD9B7A48F1820F808E52ACDEC75F36404ECDA687
310
4D0629A6D5A76597B477D1B89855E747B38B2A041301E95B6E7A08FAD3CCAA50296647B8168BD2573599823EBB0CA76447F43862C7BCCF5EAC59410E4DDD9C7973C2755553CCCFA4C603E3040F1565ED3B1FDE4E432BCA0D9622DAF9795FAF464533826484B498524CD807E51D79ED187F21878E10516EF63F505AC67F42C9
310
BA58B1FDDD071640D2FCC87D2045B96591CB3DA85CB7DCE40F504B0304140006080800CC70623B55019EA25F0000007C00000007000000636E782E786D6C4DCB3B0E80201045D1AD90E915ED2CF8AC45050C11660C8261F98AB1B07AC9C97D42D718D865D3E909258CFD00CCE24AC6E326A164D74DC0B4128928FF32603847
310
2BA13128B1252AC747C6BAB984FC68F0B87FE8960A5C09FE86CFB69FBA01504B0304140006080800CC70623B8C9102E971010000D40300000C0000006662782F636F72652E786D6CC5535B6E833010BC8AE5DF0A6C08340F1947A84D4ED00B38C6A128602363A31CBFCB234A53A551FA553EC09AD9F5CE8C31DB9E9B1AF5CA
310
7695D1198E428A91D2D214952E33ECDD315861B4E5CC1AE3BE9561A445A3323CC098B3D21ADFCE9034DA29ED00D5A6503328BA4E398C640D8B0C77F253352214DE4145770A5B214FA2546114020D759C75CE8200340D19DE981F0F6746269C33EFAB6266AB02A655C74A59CCF365BADC27CB5D902ED22848F6340DF238A141
310
BE88E2F57B92BFEDF23523433367AE6A2EEAA455C2A902F398D2751045018D3FA264435F3771F242571B4A1919CA6F9A7C5B3CD9E42BED16F12C776AEB308F40C848FC700B1139D4891EF410CEC810227CC6846F8386402064270EF5C5C709A05E49676C024C61FC95EA45ED154CA5211D1FF4FB8291A913A68E9B83EBBB33
310
E2A7673CDE118E5AE8124C0807CB8377834E366998436B950D7A7746DAD846D4CFD978E0F04FD455FC5D49D2D4C6FE9722321F10997F0F32DC47FE05504B0304140006080800CC70623BFFEA85907E0000009D0000000B0000006662782F636E782E786D6C4DCCD10A83201886E15B91FFDC95D95A811AB6F23E625948A6C3
310
E9D8E5AF46073BFAE0E1E365ED67B3E8ADC3CB78C7815C7240DA3DFC64DCC221C519D7805AC182F7F1EF06C88D9BE6703008B6049F9E274D7A1E938DBB5AE3D6131B2589BA0D3D965551E0B2EA732C9B9A624AAEB41E3A557677029960D9AFB4EF11165F504B0304140006080800CC70623B4FEEA4082C0100001202000031
310
0000006662782F39464131463745442D413632322D343644302D413938332D3331353338454246344243312F636F72652E786D6C8D515B6EC32010BC0AE2AB55850DD871ED0813254D72825EC00192A2C460F1A872FC42ED48ED5F7E00CDCECCCEB26C731F6FE05B39AFADE921293004CA082BB5B9F43086336A21D870E6AC
310
0D7F68109861543DCC30E4ECE26C9C164858139409093556AA051CBC570102714B8F1E7AF1A5C6A11862480C7F2DA6415C878B2A4891CA89C7990F2E050073937C42DE1DB7E4F87ED8A36D4329AA9B3D46DBAEAD504556557BD81DEBDD0761E52CE42C462D17B996298E3E6BE59E35C962CE821E1FF18553435012728A7187
310
0841987E927A8D9B35ADDF70BBC6989599FE4F1427F9A4286A132ABAC49D651EF234CD5CE04CDA78BA3DC2A8FB645D00B9DF8B57E215725C60BCA2A463E54C4CE327C7A65E1C7DB02E7DEFCBF594B864C5CA6CDBD49C957943E9FA5D5FBAF336F90F504B0304140006080800CC70623BAD7543B64E01000033030000300000
310
006662782F39464131463745442D413632322D343644302D413938332D3331353338454246344243312F636E782E786D6CD593CD6EC32010845F0571AD6CE3D48AD20813A9873E410FBD12D82434182C7EAAE6EDBB2424CD25871E7B41D6EC30B3FA84F9E67BB2E40B4234DE8DB46F1925E094D7C6ED479AD3AE5951B2113C
310
789FEE6C943839C1488B4C05DF079FE72A69D8C96C13AAD6B8631503449F83828872B949AC57D26200B826A308D316B4064D6E46FCDA41C05550DC9E483A00797BFD207EFB092A45DE9514C1BBD22178396BD39D891265658C238DEA00936C654E5E433CB65A26D9F6EDB5EBC14EBF49A45CB856E66048291F6939A9A81BB5
310
C8917738143CA680F4AA299D66A042CEB3354A2684DC9D8D178FE0D9B8B41CAAD720F880EE7EF93C0C18769E099ECC04D5A102C8049A8A05632F4DDF376CF1DE0F6BB65C2F8627B65A33C6BB62177CEBBDAD973006829F89F22E814B54F4BC2BE347F8AA8F681390B50FA73F804400B5F542E796F19FF974E7F78DB802FE05
310
E207504B0304140006080800CC70623B16AB87BA640500003C100000340000006662782F39464131463745442D413632322D343644302D413938332D3331353338454246344243312F6F626A656374732E786D6CAD575B6FA33818FD2B887DE6924B3BED8A326A92B68A663B534DD4D13E548A0C38942D60649B369D5FBFC7
310
600890A493BDE42160637FD7F31D7FF63E6FB3D478A55C242CBF3247B66B1A340F5994E4F19559CA8D75611A9F7D8F33263BCB4C232719BD32D5B4E97B316765A1A722BA21652A07B3B7B33F0D11D29C9A46981221AE4C113ED38CD8A4942CA2E2C58E882476BCD9DA23BB5ED8171B73523C0F841684D35CC252CCE79062D4
310
468DFA43D7747CCF51DF7D4FFDEB5593E3AB9CCA9FBEFE241792E4E19EB28198C968BAB8199F5D5A67D3E9C49A9E8F47D6EC76B6B0469F26EEFC7C3EBFBCBEB98462213924694B38DD98FE1D62C393D073EA4FADC5DAF04326852CCF6958F90F0F2B9BB5C48816348F90C7840A68EB78EDF68723159BCEE7891A6B95DDE9D3
310
BCEAEEE8086A6C6F9E5D4B59F0175C10A7A0820BAA5055C7473B5AE3CFDD452D602CD5DF12616444529E90D448938013FE6EFA58AA96F85E4F8C42275708571E98FE6827AF6B2B4AE3D7D83D64E5A64C53054DD3AF90BD06FEA9149565C94FCA0F6B834DC85599E4F2423B24DF0B6AFA979E534DFA9E7A4CC6FA631D486393
310
921829879BF5D781A373557BCB85E97FB90DB62B558F8795179C15944B051F40AB495CF35451D26A4727654E6D8033BD98EF82F21D91FF8AF2DD9982BCF1643BDD4EB516C9492E368C67C88DED563FC36D5EACF66DFF057C3658BDBFA69DF9578B3DA735B64F18C7F20770A9D45CFCF7FCF563D6456A277DBEF78A02637CA2
310
43B90A490AEAB94F72244481D24819A6C0E59B606BFA4B3025981DBB48EAB701D97BF19C577CC77F2D1B6C55A9EF3C732474C0B727303F625995056C3B02963D9EAC146BE78EC5FCEC7FA999EBC5EACBAAE41B12D27B4D2C0BBA49F244E2ECDC81B76B502F113D8F5EE8FB1BE3111CDD4FC2AA9B844CAB1288B68AB90A7CDC
310
1C166AB0D3DC5310625FCC14E779BFD0709F8890A629C9292B1B2DED31A4B0DA928CEE135085754027E3018A397D4D5427D15BD1330B677DC8934285AC3DF45A9EB68FF8F2B8FC0A509AFEECFD0FF2DE25CC6047F7214B195F07EFEB9A094D800F7BFAE8FED187B78EA8A3A400F115961BCAD1215E47C966530AF0EE8128FE
310
58CEBB996A8964FFA529A046635D9353B0336A8F700DDF46271A024E70B0B37C9DE01847591E54DED53D54202AB947E4076556AC49C6CA5C9E1226B7F1A7B1BE15DEED62C41B91E1B3E9AFAAA735036547343A925075041DF0A9979E893B391F8FCFA6967B3EFB644DCF6E5CEBFAE272625DCC6FAF3FB93793C5F90CE1EF57
310
407342756B10D1C489E8953CD1617E5CEECAD6F4EF8914CE5D5D504E5C3F1F9736DA62CFC11E00BCDDB8CC8A9466349744C1F75EBDA4DF09BA8A9E8C7A7E9991989E20E5DBDD6A6003664ED8F7A04A8DBE0DF6EAD9B9AA858342E47399053949D2C146EDB85DE4B176BB0965FBAC19BD19AA918E27FA50C1D22402E144464C
310
59462568E704B6E71915404CB72B8FF4EDE184DDAF753F284990D2C6926782963815403548A70C657FDEF80D2D9CEAA2AE4C1C76F60BFE74219A06527D6582DF6412526107381E55E353090704D085B52408D0933C4ED159D79BDA71BB4BC506F4831350EB6F979CD22D69BF7AC49B91A2C0A9DDA3D5CA36AD20FC478E37E6
310
1844E2352865EBCB6EA275A652E3836BE04EFB400BF1A2556F515F1FBB35B2AB35BD889C744FFA1004B5544B121E57F70215746DD2F5E2C1412B602CBF19455AC6C8E5E9922C4E01E65215385004546899059180EAFCF7A707CE7017CD8CDB0410789AB32C63B91E5CEBBBACB17AC6CD347A022D5075FD106377347AAABA7E
310
7D11590744509B44E205134DC1290F06580320F78E537D3D73540E06CB970B431F185308AD40BBD794D6D77003C5A36E8EAA54BA64597CD8F83BD552A080A365F7FF06504B0304140006080000CC70623B000000000000000000000000350000006662782F39464131463745442D413632322D343644302D413938332D3331
310
353338454246344243312F76657274696365732E62696E504B0304140006080800CC70623BF270F1330600000004000000360000006662782F39464131463745442D413632322D343644302D413938332D3331353338454246344243312F747269616E676C65732E62696E636660600000504B0304140006080000CC70623B
310
000000000000000000000000370000006662782F39464131463745442D413632322D343644302D413938332D3331353338454246344243312F617474726962757465732E62696E504B0304140006080800CC70623B08DA0BD19000000041010000360000006662782F39464131463745442D413632322D343644302D413938
310
332D3331353338454246344243312F6469726563746F72792E786D6C858F410AC3201045AF22B36F53E9A60B35CBEEBAE80D244E44489C6234F4F835464A48035D0DF398FF9F8AF63D0E6CC63039F212F8F9020C7D47C6792B21C5FE7403D62A1188E2E60C98D7234A5830286103A55745067B9D86B8A3CF9C7F90C11DE607
310
FB144396D7B6A82D282E9A152AD114D5EF2CB866EEE831B8EEA07A7BB5A8D7D61A2BAAEB7FD5F70921FF497D00504B0304140006080800CC70623B0D6EF93BFE000000A00100003B0000006662782F39464131463745442D413632322D343644302D413938332D3331353338454246344243312F7265736F75726365732F63
310
6F72652E786D6C8D50596E833010BD0A9ADFCA60B334011947A8694ED00B586642AC041B79A97AFC9A40A5F6AF3F33A3B7689E1E3F7DCD8FEC139DD7D6F4C0720A191A65476DA61E62B892236427C19DB5E1970C322367EC618541F0C9D9B8EC90B226A009093576C41D94DE63804C3DD2D18357379C652E63480A7FCF17A9
310
EE72C29CE5894E3AC17D702940B63D59270887DE46A7D0F36263058F518FBB468FE9A7BE6A7420864373B8D4873369AA8691FA421B3294352543C5CAF65C0F6FEF43CB8BD52C78D0F34F46E550061C419494B6843142CB0F5677F4B52BEB177AEC28E5C52AFF638ACBF84F53D42654E51E77B379102C05791282176B5F693D
310
CB4C7BED567C03504B010214000A0000080000CC70623B3DEE336E79000000790000001B00000000000000000000000000000000006175746F6465736B2D64657369676E2D7061636B6167652E786D6C504B01021400140006080800CC70623BD486FD9CA0000000F40000001300000000000000000000000000B20000005B
310
436F6E74656E745F54797065735D2E786D6C504B01021400140006080800CC70623B1EC5D7A3EB0000007C010000080000000000000000000000000083010000636F72652E786D6C504B01021400140006080800CC70623B55019EA25F0000007C000000070000000000000000000000000094020000636E782E786D6C504B
310
01021400140006080800CC70623B8C9102E971010000D40300000C00000000000000000000000000180300006662782F636F72652E786D6C504B01021400140006080800CC70623BFFEA85907E0000009D0000000B00000000000000000000000000B30400006662782F636E782E786D6C504B01021400140006080800CC70
310
623B4FEEA4082C0100001202000031000000000000000000000000005A0500006662782F39464131463745442D413632322D343644302D413938332D3331353338454246344243312F636F72652E786D6C504B01021400140006080800CC70623BAD7543B64E010000330300003000000000000000000000000000D5060000
310
6662782F39464131463745442D413632322D343644302D413938332D3331353338454246344243312F636E782E786D6C504B01021400140006080800CC70623B16AB87BA640500003C1000003400000000000000000000000000710800006662782F39464131463745442D413632322D343644302D413938332D3331353338
310
454246344243312F6F626A656374732E786D6C504B01021400140006080000CC70623B0000000000000000000000003500000000000000000000000000270E00006662782F39464131463745442D413632322D343644302D413938332D3331353338454246344243312F76657274696365732E62696E504B01021400140006
310
080800CC70623BF270F133060000000400000036000000000000000000000000007A0E00006662782F39464131463745442D413632322D343644302D413938332D3331353338454246344243312F747269616E676C65732E62696E504B01021400140006080000CC70623B0000000000000000000000003700000000000000
310
000000000000D40E00006662782F39464131463745442D413632322D343644302D413938332D3331353338454246344243312F617474726962757465732E62696E504B01021400140006080800CC70623B08DA0BD190000000410100003600000000000000000000000000290F00006662782F39464131463745442D413632
310
322D343644302D413938332D3331353338454246344243312F6469726563746F72792E786D6C504B01021400140006080800CC70623B0D6EF93BFE000000A00100003B000000000000000000000000000D1000006662782F39464131463745442D413632322D343644302D413938332D3331353338454246344243312F7265
310
736F75726365732F636F72652E786D6C504B0506000000000E000E0080040000641100000000
  0
XRECORD
  5
396
102
{ACAD_REACTORS
330
C
102
}
330
C
100
AcDbXrecord
280
     1
102
MATERIAL
148
0.0
149
0.0
149
0.0
 93
        0
 94
       63
282
     0
 72
     1
 77
     1
171
     1
175
     1
179
     1
273
     0
  0
XRECORD
  5
D
102
{ACAD_REACTORS
330
C
102
}
330
C
100
AcDbXrecord
280
     1
270
     1
271
     1
  0
XRECORD
  5
E
102
{ACAD_REACTORS
330
C
102
}
330
C
100
AcDbXrecord
280
     1
270
     1
271
     1
  0
XRECORD
  5
F
102
{ACAD_REACTORS
330
C
102
}
330
C
100
AcDbXrecord
280
     1
 70
     0
 90
1673772943
  1
ECE7A1D2-D628-4531-984C-D00F80459256
310
504B03040A0000080000CC70623B3DEE336E79000000790000001B0000006175746F6465736B2D64657369676E2D7061636B6167652E786D6C3C3F786D6C2076657273696F6E3D22312E302220656E636F64696E673D227574662D3822203F3E3C666F726D6174733E3C666F726D61743E687474703A2F2F736368656D612E
310
6175746F6465736B2E636F6D2F64657369676E2D7061636B6167652F323030393C2F666F726D61743E3C2F666F726D6174733E504B0304140006080800CC70623BD486FD9CA0000000F4000000130000005B436F6E74656E745F54797065735D2E786D6C7D8EC10E82300C865F65E91D8A1E8C310C0EEA1BF002731658846E
310
D98AC1B77784ABF1D8FE5FBFBF75BBCE937A534CCEB38643598122B6FEE978D0B0485F9C41B54DDD7D022595594E1A469170414C76A4D9A4D207E29CF43ECE46F218070CC6BECC4078ACAA135ACF422C856C0E68EA1BF5669944DDD7BCDE7B1F8E415D77AECB980613C2E4AC91FC167A2B244592486606FC29C8FD7F045B9A
310
EF7053A7E60B504B0304140006080800CC70623BD9DDAED0EC0000007C01000008000000636F72652E786D6C8D90416EC3201045AF82665B61836D9CD8C2444DD39CA01740405C94182C03558F5F9C3852BBEB6A467FFE9B197D7EF89E6EE8CB2CC17A37002D0820E394D7D68D03A478C17B4007C117EFE32F1B20272733C0
310
2A83E0E3E2D3BC49CABB685CCCAAF3DA6CA20CC14440EA969B0182FA34932C648AD911AEC52CD5558EA6A0CF2EC329598D1E47ACCEFBECC59A050463A7EA5833865FEBDD0E37353BE3EE8DBDE3F6786A48D375FBF6CC78B9C282473B3DEFABC5C86834888A900E538A49F5419B9EB47DD5BC907D4F082F57FB1F28CDFA9F50
310
B22ED6D5F6EE030B20687EE43E10BC5CB3C8E51E54AE6B6EE207504B0304140006080800CC70623B55019EA25F0000007C00000007000000636E782E786D6C4DCB3B0E80201045D1AD90E915ED2CF8AC45050C11660C8261F98AB1B07AC9C97D42D718D865D3E909258CFD00CCE24AC6E326A164D74DC0B4128928FF326038
310
472BA13128B1252AC747C6BAB984FC68F0B87FE8960A5C09FE86CFB69FBA01504B0304140006080800CC70623BA24EB22D72010000D40300000C0000006662782F636F72652E786D6CC5535B6E833010BC8AE5DF0A6C5E49888CA3A6694ED00B38E05014B091B1518EDFE511A5A9D228FD2A1F60CDEC7A67C6986DCE4D8D7A
310
69BA4AAB0C073EC548AA5C17952A33ECECD15B61B4E1CC686DBF9561A44423333CC098B3D268D7CE50AE9595CA02AA74216750749DB418E5352C32DCE59FB211BE70162ABA93DF8AFC244AE9073ED050C759670D0840D390E18DF9F1706664C23973AE2A66B62A605A75ACA4C13C4976E1364A12EF355A2EBD384AF65EFA96
310
BC7B8BED2EA6719AAE16FB8491A199335B351775B991C2CA02F390D2D40B028F861F41BCA68B7518BFD0D59A524686F29B26D7164F36B94AD9289CE54E6D1DE6010819891F6E21228B3AD1831EC219194284CF98F06DD01008846CC5A1BEF83801D4CBDC6A1303536877A57A513B0953A94FC707FDBE6064EA84A9E3E6E0FA
310
EE8CF0E9198F7784A316AA0413C2C2F2E0ECA0934D1AE6D05A69BCDE9E91D2A611F573361E38FC1375157F5752AE6B6DFE4B11990F88CCBF0719EE23FF02504B0304140006080800CC70623B408A7D3B7C0000009D0000000B0000006662782F636E782E786D6C4DCCD10A83201886E15B91FFDC552A92A0064DBC8F581632
310
D3703A76F9ABD1C18E3E78F878E5F0D9027ABBFCF2292AE86E2D20171F69F6715550CB827B40839639A5F2770314A7CD293819B45C73AAFB45B35BA61ACAA1C1C7E7855C58C15BC331339661262CC762340413D68D77DA5B42298546CBE6573AF60CEB2F504B0304140006080800CC70623B449FB9BD290100001202000031
310
0000006662782F36394639363044362D344446342D343946362D394244322D3234314243333846323333332F636F72652E786D6C8D515B6EC32010BC0AE22B55850D98B871848994463E412FE002495162B07854397EA176A4F62F3F2C9A9D991D587EB84F37F0AD7D30CEF6905418026DA553C65E7A98E219ED203808EE9D
310
8B7F6810D871D23D2C3014FCE25D9A57483A1BB58D19B54EE9151C43D0110279CB971E06F9A5A7B11A53CC8C70ADE6515EC78BAE4895DB992778883E0700CB907242D17643D7E2538BD869608875438BBAE38922CAC8F1BDD90DB4691A5E2F42C153326A951B95E398B3D1FE599322163C9AE9115F7A3D46ADA0A018778810
310
84E907617BDCEE297BC5BB3DC6BC2EF47FA234AB2745C9D8D8D035EE220B50105E2F0DC1954B9FB747187D9F9D8FA0CCDB042D5FA0C015C65B42DF78BD10F3F3B363CB56C7109DCFDFBBB97E662ED92EB62D13BC2E1BCAE5777DB9966D8A1F504B0304140006080800CC70623BAD7543B64E01000033030000300000006662
310
782F36394639363044362D344446342D343946362D394244322D3234314243333846323333332F636E782E786D6CD593CD6EC32010845F0571AD6CE3D48AD20813A9873E410FBD12D82434182C7EAAE6EDBB2424CD25871E7B41D6EC30B3FA84F9E67BB2E40B4234DE8DB46F1925E094D7C6ED479AD3AE5951B2113C789FEE
310
6C943839C1488B4C05DF079FE72A69D8C96C13AAD6B8631503449F83828872B949AC57D26200B826A308D316B4064D6E46FCDA41C05550DC9E483A00797BFD207EFB092A45DE9514C1BBD22178396BD39D891265658C238DEA00936C654E5E433CB65A26D9F6EDB5EBC14EBF49A45CB856E66048291F6939A9A81BB5C89177
310
38143CA680F4AA299D66A042CEB3354A2684DC9D8D178FE0D9B8B41CAAD720F880EE7EF93C0C18769E099ECC04D5A102C8049A8A05632F4DDF376CF1DE0F6BB65C2F8627B65A33C6BB62177CEBBDAD973006829F89F22E814B54F4BC2BE347F8AA8F681390B50FA73F804400B5F542E796F19FF974E7F78DB802FE05E20750
310
4B0304140006080800CC70623B8D05915C650500003B100000340000006662782F36394639363044362D344446342D343946362D394244322D3234314243333846323333332F6F626A656374732E786D6CAD575B6FA33814FE2B887D06429276DA1565D4266D158D3A339A6846FB502932E050B66023DB74D2FDF5FB190C01
310
9276B2973C046C8ECFF53B17071F77456EBD502133CEAE6CDF9DD81665314F32965ED995DA3A17B6F5310C04E7AA47665B8C14F4CAD6DB7618A48257A5D94AE89654B91AEDDEDDFC61C998326A5B714EA4BCB265FC440BE2924AF184CA6737218AB8E976E7FA6E4338649B0A523E8D98964450A6A029F619B8588D52FE7039
310
B1BD30F0F4F730D0FF866AF6369557DB33949F31A9088B0F848DD8CCFCF9F2767A76E99CCDE733677E3EF59D9BBB9BA5E37F984D16E78BC5E5F5ED25044B25C0C96822E8D60EEFE11B91C581D77CEA34368A1F5329E68CD1B8B61F16D63A1B8E092D294B10C78C4A48EB593D192E7DED9BDEE7995E1B91FDEDD3ACEA9FE831
310
6A756F9F7D4D79F4274C90A7A04248AA51D5F8C718DAE06FB2F75AC4796EBE65D22A88A22223B995679120E2D50E41AA49C260C046A35368846B0BECD0DFF3EBEB8AD4F835768F69B9ADF25C43D30E6B646F807FAA64AD59F61715C7A54127C4AACA98BA3006A9D792DAE165E0D59B61A01FB3A9F9D838D2DAE62445C86166
310
F37564E842E7DE6A69879FEEA2DD5AE7E371E1A5E025154AC307D06A03D73EB5978C58FFA4C8E9033066E0F3BD53BEC1F39F91BE7B55103791EDE6BBB991A2046172CB4581D8B893FA674DDA17A77B3B7C413D1B511FD2743BFF8A38F03A658705E3ADF8015C3A3417FF3D7E439FF591DA0B5F18BC20C1B8981957AE6392A3
310
F43C640C01D1A0B4728E2DD4F26DB4B3C3152A252A3B4E913CEC1C72F012782FF88EFF8637AA552DBEF76408E8A8DE9E50F9E1CB3A2DA0DB1B6039A893B56063DC5B3E3FFB5F72E67AB9FEB4AEC496C4F4C1149625DD662C53E89D7BF0F6151A046260D1337DFDC94502430F83B0EE07A130A224BCAD7DAE1D9FB6CD422FF6
310
920702629C4BB9AE79C12F243C6432A6794E18E5552BA56B431AAB5D91317302B2B071E86C3A42B1A02F999E24061403B5D0EB639195DA655DD3EBEAB4FB862DDF579F014AD0E73C22F99E28DA57FB98E75C6CA2D74D53086D600F4786E0FE3144B771A8A7B900F03594DB8A633CBC49B2EDB69228BB479CF863B5E807AAAB
310
23872F6DFEB4129B949CA33823F58830E86D65621E10047D9DB34D862E8EAC3C2ABC2F7B2C40D67CDFE01F5545B92105AF983AC54D93D69E56FB8E797F88913F898A9FEC705D3F9D1B54EC8426FB500D40A03BD0119B06E1B95DDC7EB8F6975367793EBD70E66733DFB9BC982F9CE564727731999F5D4ECFCE3B8D6A4DC2A0
310
6D50FD148437D110834A64C6CDDF57FBACB5C307A2A477DFE4939736CFEF2B175371E0E10CF0DD1D5C15654E0BCA14D1E87DD02FF93782A162C0A3D95F1524A52770F972BF1EE9809D13CE7DD599467F8ECE9ADD85CE85A34CD45355448C64F9E8A031DC2D596ACC6E5DD93D9B82DE2EF5CAF81363A8E47996A0DE24564A79
310
4115AACE09C55E14540231FDA13C319787134EBF34E3A022514E5B4D9E0826E25C02D5805B15ABE1BEF51B26383D445DD9E875EE33FE4C22DA16427D65A3BCA92CA6D28DD01DF5DC53330704308475351050232CCD31583787BA75774AFB06E5070DD0C8EF484E19968C5D83BA5B90B244D31E54D55A372320FE4786B7EA58
310
44E135AA5467CB7EA333A61683CC6A8C3257034C10CF46F40EF9F5BE59BE5BD30C3C72D235E95D10345C1D45445A5F0BB47E46A5EBE5570F9380B5FA629579952296A773720405982B9DE04011506178964401AA8BDF1FBF0A8EAB6861DD6580C0E38217056766716DAEB2D6FA0917D3E4116581EADB879C4E7CFFB11EFACD
310
3D641311495D92C8676CB409A72D18610D803CE8A626049E8EC1887CB5B44CC39883690DDA8399B4B9855B481E7D71D4A9D22F96E5BB73BF5793020C02137BF837504B0304140006080000CC70623B000000000000000000000000350000006662782F36394639363044362D344446342D343946362D394244322D32343142
310
43333846323333332F76657274696365732E62696E504B0304140006080800CC70623BF270F1330600000004000000360000006662782F36394639363044362D344446342D343946362D394244322D3234314243333846323333332F747269616E676C65732E62696E636660600000504B0304140006080000CC70623B0000
310
00000000000000000000370000006662782F36394639363044362D344446342D343946362D394244322D3234314243333846323333332F617474726962757465732E62696E504B0304140006080800CC70623B08DA0BD19000000041010000360000006662782F36394639363044362D344446342D343946362D394244322D
310
3234314243333846323333332F6469726563746F72792E786D6C858F410AC3201045AF22B36F53E9A60B35CBEEBAE80D244E44489C6234F4F835464A48035D0DF398FF9F8AF63D0E6CC63039F212F8F9020C7D47C6792B21C5FE7403D62A1188E2E60C98D7234A5830286103A55745067B9D86B8A3CF9C7F90C11DE607FB14
310
4396D7B6A82D282E9A152AD114D5EF2CB866EEE831B8EEA07A7BB5A8D7D61A2BAAEB7FD5F70921FF497D00504B0304140006080800CC70623BCA768048FE000000A00100003B0000006662782F36394639363044362D344446342D343946362D394244322D3234314243333846323333332F7265736F75726365732F636F72
310
652E786D6C8D50596E833010BD0A9ADFCA60D600328E9AA639412F609909B1126CE4A5EAF16B0295DABFFECC8CDEA2797AECF8353F924FB44E193D409E5248504B332A3D0D10FC95B4901C39B3C6F85F3248B49871801506CE266BC2B243D2688FDA47549B11775038871E12F988C7004EDE7016A9083E2ADC3D5D84BC8B09
310
D33C8D74D471E6BC8D0192EDC93A815B742658898E651BCB59086ADC356A8C3FD555A1055ED7E7E254D615792D0F075295F585746FF53B694EE78A565DD736979A65AB9933AFE69F8CD2A2F038022F28ED489E135A7CE4554F9BBEA85E68DB53CAB255FEC71496F19FA6A0B42F8B3DEE6673C0F318E4497096AD7DC5F52C33
310
EEB55BFE0D504B010214000A0000080000CC70623B3DEE336E79000000790000001B00000000000000000000000000000000006175746F6465736B2D64657369676E2D7061636B6167652E786D6C504B01021400140006080800CC70623BD486FD9CA0000000F40000001300000000000000000000000000B20000005B436F
310
6E74656E745F54797065735D2E786D6C504B01021400140006080800CC70623BD9DDAED0EC0000007C010000080000000000000000000000000083010000636F72652E786D6C504B01021400140006080800CC70623B55019EA25F0000007C000000070000000000000000000000000095020000636E782E786D6C504B0102
310
1400140006080800CC70623BA24EB22D72010000D40300000C00000000000000000000000000190300006662782F636F72652E786D6C504B01021400140006080800CC70623B408A7D3B7C0000009D0000000B00000000000000000000000000B50400006662782F636E782E786D6C504B01021400140006080800CC70623B
310
449FB9BD290100001202000031000000000000000000000000005A0500006662782F36394639363044362D344446342D343946362D394244322D3234314243333846323333332F636F72652E786D6C504B01021400140006080800CC70623BAD7543B64E010000330300003000000000000000000000000000D20600006662
310
782F36394639363044362D344446342D343946362D394244322D3234314243333846323333332F636E782E786D6C504B01021400140006080800CC70623B8D05915C650500003B10000034000000000000000000000000006E0800006662782F36394639363044362D344446342D343946362D394244322D32343142433338
310
46323333332F6F626A656374732E786D6C504B01021400140006080000CC70623B0000000000000000000000003500000000000000000000000000250E00006662782F36394639363044362D344446342D343946362D394244322D3234314243333846323333332F76657274696365732E62696E504B010214001400060808
310
00CC70623BF270F13306000000040000003600000000000000000000000000780E00006662782F36394639363044362D344446342D343946362D394244322D3234314243333846323333332F747269616E676C65732E62696E504B01021400140006080000CC70623B00000000000000000000000037000000000000000000
310
00000000D20E00006662782F36394639363044362D344446342D343946362D394244322D3234314243333846323333332F617474726962757465732E62696E504B01021400140006080800CC70623B08DA0BD190000000410100003600000000000000000000000000270F00006662782F36394639363044362D344446342D
310
343946362D394244322D3234314243333846323333332F6469726563746F72792E786D6C504B01021400140006080800CC70623BCA768048FE000000A00100003B000000000000000000000000000B1000006662782F36394639363044362D344446342D343946362D394244322D3234314243333846323333332F7265736F
310
75726365732F636F72652E786D6C504B0506000000000E000E0080040000621100000000
  0
XRECORD
  5
10
102
{ACAD_REACTORS
330
C
102
}
330
C
100
AcDbXrecord
280
     1
270
     1
271
     1
  0
XRECORD
  5
11
102
{ACAD_REACTORS
330
C
102
}
330
C
100
AcDbXrecord
280
     1
270
     1
271
     1
  0
CELLSTYLEMAP
  5
38C
102
{ACAD_REACTORS
330
41
102
}
330
41
100
AcDbCellStyleMap
 90
        3
300
CELLSTYLE
  1
TABLEFORMAT_BEGIN
 90
        5
170
     1
 91
        0
 92
    32768
 62
   257
 93
        1
300
CONTENTFORMAT
  1
CONTENTFORMAT_BEGIN
 90
        0
 91
        0
 92
      512
 93
        0
300

 40
0.0
140
1.0
 94
        5
 62
     0
340
21
144
6.0
309
CONTENTFORMAT_END
171
     1
301
MARGIN
  1
CELLMARGIN_BEGIN
 40
1.5
 40
1.5
 40
1.5
 40
1.5
 40
4.5
 40
4.5
309
CELLMARGIN_END
 94
        6
 95
        1
302
GRIDFORMAT
  1
GRIDFORMAT_BEGIN
 90
        0
 91
        1
 62
     0
 92
       -2
340
24
 93
        0
 40
1.125
309
GRIDFORMAT_END
 95
        2
302
GRIDFORMAT
  1
GRIDFORMAT_BEGIN
 90
        0
 91
        1
 62
     0
 92
       -2
340
24
 93
        0
 40
1.125
309
GRIDFORMAT_END
 95
        4
302
GRIDFORMAT
  1
GRIDFORMAT_BEGIN
 90
        0
 91
        1
 62
     0
 92
       -2
340
24
 93
        0
 40
1.125
309
GRIDFORMAT_END
 95
        8
302
GRIDFORMAT
  1
GRIDFORMAT_BEGIN
 90
        0
 91
        1
 62
     0
 92
       -2
340
24
 93
        0
 40
1.125
309
GRIDFORMAT_END
 95
       16
302
GRIDFORMAT
  1
GRIDFORMAT_BEGIN
 90
        0
 91
        1
 62
     0
 92
       -2
340
24
 93
        0
 40
1.125
309
GRIDFORMAT_END
 95
       32
302
GRIDFORMAT
  1
GRIDFORMAT_BEGIN
 90
        0
 91
        1
 62
     0
 92
       -2
340
24
 93
        0
 40
1.125
309
GRIDFORMAT_END
309
TABLEFORMAT_END
  1
CELLSTYLE_BEGIN
 90
        1
 91
        1
300
_TITLE
309
CELLSTYLE_END
300
CELLSTYLE
  1
TABLEFORMAT_BEGIN
 90
        5
170
     1
 91
        0
 92
        0
 62
   257
 93
        1
300
CONTENTFORMAT
  1
CONTENTFORMAT_BEGIN
 90
        0
 91
        0
 92
      512
 93
        0
300

 40
0.0
140
1.0
 94
        5
 62
     0
340
21
144
4.5
309
CONTENTFORMAT_END
171
     1
301
MARGIN
  1
CELLMARGIN_BEGIN
 40
1.5
 40
1.5
 40
1.5
 40
1.5
 40
4.5
 40
4.5
309
CELLMARGIN_END
 94
        6
 95
        1
302
GRIDFORMAT
  1
GRIDFORMAT_BEGIN
 90
        0
 91
        1
 62
     0
 92
       -2
340
24
 93
        0
 40
1.125
309
GRIDFORMAT_END
 95
        2
302
GRIDFORMAT
  1
GRIDFORMAT_BEGIN
 90
        0
 91
        1
 62
     0
 92
       -2
340
24
 93
        0
 40
1.125
309
GRIDFORMAT_END
 95
        4
302
GRIDFORMAT
  1
GRIDFORMAT_BEGIN
 90
        0
 91
        1
 62
     0
 92
       -2
340
24
 93
        0
 40
1.125
309
GRIDFORMAT_END
 95
        8
302
GRIDFORMAT
  1
GRIDFORMAT_BEGIN
 90
        0
 91
        1
 62
     0
 92
       -2
340
24
 93
        0
 40
1.125
309
GRIDFORMAT_END
 95
       16
302
GRIDFORMAT
  1
GRIDFORMAT_BEGIN
 90
        0
 91
        1
 62
     0
 92
       -2
340
24
 93
        0
 40
1.125
309
GRIDFORMAT_END
 95
       32
302
GRIDFORMAT
  1
GRIDFORMAT_BEGIN
 90
        0
 91
        1
 62
     0
 92
       -2
340
24
 93
        0
 40
1.125
309
GRIDFORMAT_END
309
TABLEFORMAT_END
  1
CELLSTYLE_BEGIN
 90
        2
 91
        1
300
_HEADER
309
CELLSTYLE_END
300
CELLSTYLE
  1
TABLEFORMAT_BEGIN
 90
        5
170
     1
 91
        0
 92
        0
 62
   257
 93
        1
300
CONTENTFORMAT
  1
CONTENTFORMAT_BEGIN
 90
        0
 91
        0
 92
      512
 93
        0
300

 40
0.0
140
1.0
 94
        2
 62
     0
340
21
144
4.5
309
CONTENTFORMAT_END
171
     1
301
MARGIN
  1
CELLMARGIN_BEGIN
 40
1.5
 40
1.5
 40
1.5
 40
1.5
 40
4.5
 40
4.5
309
CELLMARGIN_END
 94
        6
 95
        1
302
GRIDFORMAT
  1
GRIDFORMAT_BEGIN
 90
        0
 91
        1
 62
     0
 92
       -2
340
24
 93
        0
 40
1.125
309
GRIDFORMAT_END
 95
        2
302
GRIDFORMAT
  1
GRIDFORMAT_BEGIN
 90
        0
 91
        1
 62
     0
 92
       -2
340
24
 93
        0
 40
1.125
309
GRIDFORMAT_END
 95
        4
302
GRIDFORMAT
  1
GRIDFORMAT_BEGIN
 90
        0
 91
        1
 62
     0
 92
       -2
340
24
 93
        0
 40
1.125
309
GRIDFORMAT_END
 95
        8
302
GRIDFORMAT
  1
GRIDFORMAT_BEGIN
 90
        0
 91
        1
 62
     0
 92
       -2
340
24
 93
        0
 40
1.125
309
GRIDFORMAT_END
 95
       16
302
GRIDFORMAT
  1
GRIDFORMAT_BEGIN
 90
        0
 91
        1
 62
     0
 92
       -2
340
24
 93
        0
 40
1.125
309
GRIDFORMAT_END
 95
       32
302
GRIDFORMAT
  1
GRIDFORMAT_BEGIN
 90
        0
 91
        1
 62
     0
 92
       -2
340
24
 93
        0
 40
1.125
309
GRIDFORMAT_END
309
TABLEFORMAT_END
  1
CELLSTYLE_BEGIN
 90
        3
 91
        2
300
_DATA
309
CELLSTYLE_END
  0
XRECORD
  5
39B
102
{ACAD_REACTORS
330
41
102
}
330
41
100
AcDbXrecord
280
     1
102
ACAD_ROUNDTRIP_PRE2007_TABLESTYLE
 90
      512
 91
        0
  1

 92
      512
 93
        0
  2

 94
      512
 95
        0
  3

  0
XRECORD
  5
398
102
{ACAD_REACTORS
330
397
102
}
330
397
100
AcDbXrecord
280
     1
102
RTVSPost2010Prop28
280
     1
102
RTVSPost2010PropOp28
 70
     1
102
RTVSPost2010Prop29
280
     1
102
RTVSPost2010PropOp29
 70
     1
102
RTVSPost2010Prop30
280
     0
102
RTVSPost2010PropOp30
 70
     1
102
RTVSPost2010Prop31
280
     0
102
RTVSPost2010PropOp31
 70
     1
102
RTVSPost2010Prop32
280
     0
102
RTVSPost2010PropOp32
 70
     1
102
RTVSPost2010Prop33
280
     0
102
RTVSPost2010PropOp33
 70
     1
102
RTVSPost2010Prop34
280
     0
102
RTVSPost2010PropOp34
 70
     1
102
RTVSPost2010Prop35
280
     0
102
RTVSPost2010PropOp35
 70
     1
102
RTVSPost2010Prop36
280
     0
102
RTVSPost2010PropOp36
 70
     1
102
RTVSPost2010Prop37
 90
       50
102
RTVSPost2010PropOp37
 70
     1
102
RTVSPost2010Prop38
140
0.0
102
RTVSPost2010PropOp38
 70
     1
102
RTVSPost2010Prop39
140
1.0
102
RTVSPost2010PropOp39
 70
     1
102
RTVSPost2010Prop40
 90
        0
102
RTVSPost2010PropOp40
 70
     1
102
RTVSPost2010Prop41ColorIndex
 90
       18
102
RTVSPost2010Prop41ColorRGB
 90
        0
102
RTVSPost2010PropOp41
 70
     1
102
RTVSPost2010Prop42
 90
       50
102
RTVSPost2010PropOp42
 70
     1
102
RTVSPost2010Prop43
 90
        3
102
RTVSPost2010PropOp43
 70
     1
102
RTVSPost2010Prop44ColorIndex
 90
        5
102
RTVSPost2010Prop44ColorRGB
 90
      255
102
RTVSPost2010PropOp44
 70
     1
102
RTVSPost2010Prop45
280
     0
102
RTVSPost2010PropOp45
 70
     1
102
RTVSPost2010Prop46
 90
       50
102
RTVSPost2010PropOp46
 70
     1
102
RTVSPost2010Prop47
 90
       50
102
RTVSPost2010PropOp47
 70
     1
102
RTVSPost2010Prop48
 90
       50
102
RTVSPost2010PropOp48
 70
     1
102
RTVSPost2010Prop49
280
     0
102
RTVSPost2010PropOp49
 70
     1
102
RTVSPost2010Prop50
 90
       50
102
RTVSPost2010PropOp50
 70
     1
102
RTVSPost2010Prop51ColorIndex
 90
      256
102
RTVSPost2010Prop51ColorRGB
 90
-16777216
102
RTVSPost2010PropOp51
 70
     0
102
RTVSPost2010Prop52
140
1.0
102
RTVSPost2010PropOp52
 70
     0
102
RTVSPost2010Prop53
 90
        2
102
RTVSPost2010PropOp53
 70
     1
102
RTVSPost2010Prop54
  1
strokes_ogs.tif
102
RTVSPost2010PropOp54
 70
     1
102
RTVSPost2010Prop55
280
     0
102
RTVSPost2010PropOp55
 70
     1
102
RTVSPost2010Prop56
140
1.0
102
RTVSPost2010PropOp56
 70
     1
102
RTVSPost2010Prop57
140
1.0
102
RTVSPost2010PropOp57
 70
     1
102
RTVSPropertyOp0
 70
     1
102
RTVSPropertyOp1
 70
     1
102
RTVSPropertyOp2
 70
     1
102
RTVSPropertyOp3
 70
     1
102
RTVSPropertyOp4
 70
     1
102
RTVSPropertyOp5
 70
     1
102
RTVSPropertyOp6
 70
     1
102
RTVSPropertyOp7
 70
     1
102
RTVSPropertyOp8
 70
     1
102
RTVSPropertyOp9
 70
     1
102
RTVSPropertyOp10
 70
     1
102
RTVSPropertyOp11
 70
     1
102
RTVSPropertyOp12
 70
     1
102
RTVSPropertyOp13
 70
     1
102
RTVSPropertyOp14
 70
     1
102
RTVSPropertyOp15
 70
     1
102
RTVSPropertyOp16
 70
     1
102
RTVSPropertyOp17
 70
     1
102
RTVSPropertyOp18
 70
     1
102
RTVSPropertyOp19
 70
     1
102
RTVSPropertyOp20
 70
     1
102
RTVSPropertyOp21
 70
     1
102
RTVSPropertyOp22
 70
     1
102
RTVSPropertyOp23
 70
     1
102
RTVSPropertyOp24
 70
     1
102
RTVSPropertyOp25
 70
     1
102
RTVSPropertyOp26
 70
     1
102
RTVSPropertyOp27
 70
     1
102
RTVSPropertyOp28
 70
     1
102
RTVSPropertyOp29
 70
     1
102
RTVSPropertyOp30
 70
     1
102
RTVSPropertyOp31
 70
     1
102
RTVSPropertyOp32
 70
     1
102
RTVSPropertyOp33
 70
     1
102
RTVSPropertyOp34
 70
     1
102
RTVSPropertyOp35
 70
     1
102
RTVSPropertyOp36
 70
     1
102
RTVSPropertyOp37
 70
     1
102
RTVSPropertyOp38
 70
     1
102
RTVSPropertyOp39
 70
     1
102
RTVSPropertyOp40
 70
     1
102
RTVSPropertyOp41
 70
     1
102
RTVSPropertyOp42
 70
     1
102
RTVSPropertyOp43
 70
     1
102
RTVSPropertyOp44
 70
     1
102
RTVSPropertyOp45
 70
     1
102
RTVSPropertyOp46
 70
     1
102
RTVSPropertyOp47
 70
     1
102
RTVSPropertyOp48
 70
     1
102
RTVSPropertyOp49
 70
     1
102
RTVSPropertyOp50
 70
     1
102
RTVSPropertyOp51
 70
     0
102
RTVSPropertyOp52
 70
     0
102
RTVSPropertyOp53
 70
     1
102
RTVSPropertyOp54
 70
     1
102
RTVSPropertyOp55
 70
     1
102
RTVSPropertyOp56
 70
     1
102
RTVSPropertyOp57
 70
     1
102
RTVSPropertyOp58
 70
     1
102
RTVSPropertyOp59
 70
     1
102
RTVSPropertyOp60
 70
     1
102
RTVSPropertyOp61
 70
     1
102
RTVSPropertyOp62
 70
     1
  0
XRECORD
  5
39D
102
{ACAD_REACTORS
330
39C
102
}
330
39C
100
AcDbXrecord
280
     1
102
RTVSPost2010Prop28
280
     0
102
RTVSPost2010PropOp28
 70
     1
102
RTVSPost2010Prop29
280
     1
102
RTVSPost2010PropOp29
 70
     1
102
RTVSPost2010Prop30
280
     1
102
RTVSPost2010PropOp30
 70
     1
102
RTVSPost2010Prop31
280
     0
102
RTVSPost2010PropOp31
 70
     1
102
RTVSPost2010Prop32
280
     0
102
RTVSPost2010PropOp32
 70
     1
102
RTVSPost2010Prop33
280
     0
102
RTVSPost2010PropOp33
 70
     1
102
RTVSPost2010Prop34
280
     0
102
RTVSPost2010PropOp34
 70
     1
102
RTVSPost2010Prop35
280
     0
102
RTVSPost2010PropOp35
 70
     1
102
RTVSPost2010Prop36
280
     0
102
RTVSPost2010PropOp36
 70
     1
102
RTVSPost2010Prop37
 90
       50
102
RTVSPost2010PropOp37
 70
     1
102
RTVSPost2010Prop38
140
0.0
102
RTVSPost2010PropOp38
 70
     1
102
RTVSPost2010Prop39
140
1.0
102
RTVSPost2010PropOp39
 70
     1
102
RTVSPost2010Prop40
 90
        0
102
RTVSPost2010PropOp40
 70
     1
102
RTVSPost2010Prop41ColorIndex
 90
       18
102
RTVSPost2010Prop41ColorRGB
 90
        0
102
RTVSPost2010PropOp41
 70
     1
102
RTVSPost2010Prop42
 90
       50
102
RTVSPost2010PropOp42
 70
     1
102
RTVSPost2010Prop43
 90
        3
102
RTVSPost2010PropOp43
 70
     1
102
RTVSPost2010Prop44ColorIndex
 90
        5
102
RTVSPost2010Prop44ColorRGB
 90
      255
102
RTVSPost2010PropOp44
 70
     1
102
RTVSPost2010Prop45
280
     0
102
RTVSPost2010PropOp45
 70
     1
102
RTVSPost2010Prop46
 90
       50
102
RTVSPost2010PropOp46
 70
     1
102
RTVSPost2010Prop47
 90
       50
102
RTVSPost2010PropOp47
 70
     1
102
RTVSPost2010Prop48
 90
       50
102
RTVSPost2010PropOp48
 70
     1
102
RTVSPost2010Prop49
280
     0
102
RTVSPost2010PropOp49
 70
     1
102
RTVSPost2010Prop50
 90
       50
102
RTVSPost2010PropOp50
 70
     1
102
RTVSPost2010Prop51ColorIndex
 90
      256
102
RTVSPost2010Prop51ColorRGB
 90
-16777216
102
RTVSPost2010PropOp51
 70
     0
102
RTVSPost2010Prop52
140
1.0
102
RTVSPost2010PropOp52
 70
     0
102
RTVSPost2010Prop53
 90
        2
102
RTVSPost2010PropOp53
 70
     1
102
RTVSPost2010Prop54
  1
strokes_ogs.tif
102
RTVSPost2010PropOp54
 70
     1
102
RTVSPost2010Prop55
280
     0
102
RTVSPost2010PropOp55
 70
     1
102
RTVSPost2010Prop56
140
1.0
102
RTVSPost2010PropOp56
 70
     1
102
RTVSPost2010Prop57
140
1.0
102
RTVSPost2010PropOp57
 70
     1
102
RTVSPropertyOp0
 70
     1
102
RTVSPropertyOp1
 70
     1
102
RTVSPropertyOp2
 70
     1
102
RTVSPropertyOp3
 70
     1
102
RTVSPropertyOp4
 70
     1
102
RTVSPropertyOp5
 70
     1
102
RTVSPropertyOp6
 70
     1
102
RTVSPropertyOp7
 70
     1
102
RTVSPropertyOp8
 70
     1
102
RTVSPropertyOp9
 70
     1
102
RTVSPropertyOp10
 70
     1
102
RTVSPropertyOp11
 70
     1
102
RTVSPropertyOp12
 70
     1
102
RTVSPropertyOp13
 70
     1
102
RTVSPropertyOp14
 70
     1
102
RTVSPropertyOp15
 70
     1
102
RTVSPropertyOp16
 70
     1
102
RTVSPropertyOp17
 70
     1
102
RTVSPropertyOp18
 70
     1
102
RTVSPropertyOp19
 70
     1
102
RTVSPropertyOp20
 70
     1
102
RTVSPropertyOp21
 70
     1
102
RTVSPropertyOp22
 70
     1
102
RTVSPropertyOp23
 70
     1
102
RTVSPropertyOp24
 70
     1
102
RTVSPropertyOp25
 70
     1
102
RTVSPropertyOp26
 70
     1
102
RTVSPropertyOp27
 70
     1
102
RTVSPropertyOp28
 70
     1
102
RTVSPropertyOp29
 70
     1
102
RTVSPropertyOp30
 70
     1
102
RTVSPropertyOp31
 70
     1
102
RTVSPropertyOp32
 70
     1
102
RTVSPropertyOp33
 70
     1
102
RTVSPropertyOp34
 70
     1
102
RTVSPropertyOp35
 70
     1
102
RTVSPropertyOp36
 70
     1
102
RTVSPropertyOp37
 70
     1
102
RTVSPropertyOp38
 70
     1
102
RTVSPropertyOp39
 70
     1
102
RTVSPropertyOp40
 70
     1
102
RTVSPropertyOp41
 70
     1
102
RTVSPropertyOp42
 70
     1
102
RTVSPropertyOp43
 70
     1
102
RTVSPropertyOp44
 70
     1
102
RTVSPropertyOp45
 70
     1
102
RTVSPropertyOp46
 70
     1
102
RTVSPropertyOp47
 70
     1
102
RTVSPropertyOp48
 70
     1
102
RTVSPropertyOp49
 70
     1
102
RTVSPropertyOp50
 70
     1
102
RTVSPropertyOp51
 70
     0
102
RTVSPropertyOp52
 70
     0
102
RTVSPropertyOp53
 70
     1
102
RTVSPropertyOp54
 70
     1
102
RTVSPropertyOp55
 70
     1
102
RTVSPropertyOp56
 70
     1
102
RTVSPropertyOp57
 70
     1
102
RTVSPropertyOp58
 70
     1
102
RTVSPropertyOp59
 70
     1
102
RTVSPropertyOp60
 70
     1
102
RTVSPropertyOp61
 70
     1
102
RTVSPropertyOp62
 70
     1
  0
XRECORD
  5
39F
102
{ACAD_REACTORS
330
39E
102
}
330
39E
100
AcDbXrecord
280
     1
102
RTVSPost2010Prop28
280
     0
102
RTVSPost2010PropOp28
 70
     1
102
RTVSPost2010Prop29
280
     1
102
RTVSPost2010PropOp29
 70
     1
102
RTVSPost2010Prop30
280
     1
102
RTVSPost2010PropOp30
 70
     1
102
RTVSPost2010Prop31
280
     0
102
RTVSPost2010PropOp31
 70
     1
102
RTVSPost2010Prop32
280
     0
102
RTVSPost2010PropOp32
 70
     1
102
RTVSPost2010Prop33
280
     0
102
RTVSPost2010PropOp33
 70
     1
102
RTVSPost2010Prop34
280
     0
102
RTVSPost2010PropOp34
 70
     1
102
RTVSPost2010Prop35
280
     0
102
RTVSPost2010PropOp35
 70
     1
102
RTVSPost2010Prop36
280
     0
102
RTVSPost2010PropOp36
 70
     1
102
RTVSPost2010Prop37
 90
       50
102
RTVSPost2010PropOp37
 70
     1
102
RTVSPost2010Prop38
140
0.0
102
RTVSPost2010PropOp38
 70
     1
102
RTVSPost2010Prop39
140
1.0
102
RTVSPost2010PropOp39
 70
     1
102
RTVSPost2010Prop40
 90
        0
102
RTVSPost2010PropOp40
 70
     1
102
RTVSPost2010Prop41ColorIndex
 90
       18
102
RTVSPost2010Prop41ColorRGB
 90
        0
102
RTVSPost2010PropOp41
 70
     1
102
RTVSPost2010Prop42
 90
       50
102
RTVSPost2010PropOp42
 70
     1
102
RTVSPost2010Prop43
 90
        3
102
RTVSPost2010PropOp43
 70
     1
102
RTVSPost2010Prop44ColorIndex
 90
        5
102
RTVSPost2010Prop44ColorRGB
 90
      255
102
RTVSPost2010PropOp44
 70
     1
102
RTVSPost2010Prop45
280
     0
102
RTVSPost2010PropOp45
 70
     1
102
RTVSPost2010Prop46
 90
       50
102
RTVSPost2010PropOp46
 70
     1
102
RTVSPost2010Prop47
 90
       50
102
RTVSPost2010PropOp47
 70
     1
102
RTVSPost2010Prop48
 90
       50
102
RTVSPost2010PropOp48
 70
     1
102
RTVSPost2010Prop49
280
     0
102
RTVSPost2010PropOp49
 70
     1
102
RTVSPost2010Prop50
 90
       50
102
RTVSPost2010PropOp50
 70
     1
102
RTVSPost2010Prop51ColorIndex
 90
      256
102
RTVSPost2010Prop51ColorRGB
 90
-16777216
102
RTVSPost2010PropOp51
 70
     0
102
RTVSPost2010Prop52
140
1.0
102
RTVSPost2010PropOp52
 70
     0
102
RTVSPost2010Prop53
 90
        2
102
RTVSPost2010PropOp53
 70
     1
102
RTVSPost2010Prop54
  1
strokes_ogs.tif
102
RTVSPost2010PropOp54
 70
     1
102
RTVSPost2010Prop55
280
     0
102
RTVSPost2010PropOp55
 70
     1
102
RTVSPost2010Prop56
140
1.0
102
RTVSPost2010PropOp56
 70
     1
102
RTVSPost2010Prop57
140
1.0
102
RTVSPost2010PropOp57
 70
     1
102
RTVSPropertyOp0
 70
     1
102
RTVSPropertyOp1
 70
     1
102
RTVSPropertyOp2
 70
     1
102
RTVSPropertyOp3
 70
     1
102
RTVSPropertyOp4
 70
     1
102
RTVSPropertyOp5
 70
     1
102
RTVSPropertyOp6
 70
     1
102
RTVSPropertyOp7
 70
     1
102
RTVSPropertyOp8
 70
     1
102
RTVSPropertyOp9
 70
     1
102
RTVSPropertyOp10
 70
     1
102
RTVSPropertyOp11
 70
     1
102
RTVSPropertyOp12
 70
     1
102
RTVSPropertyOp13
 70
     1
102
RTVSPropertyOp14
 70
     1
102
RTVSPropertyOp15
 70
     1
102
RTVSPropertyOp16
 70
     1
102
RTVSPropertyOp17
 70
     1
102
RTVSPropertyOp18
 70
     1
102
RTVSPropertyOp19
 70
     1
102
RTVSPropertyOp20
 70
     1
102
RTVSPropertyOp21
 70
     1
102
RTVSPropertyOp22
 70
     1
102
RTVSPropertyOp23
 70
     1
102
RTVSPropertyOp24
 70
     1
102
RTVSPropertyOp25
 70
     1
102
RTVSPropertyOp26
 70
     1
102
RTVSPropertyOp27
 70
     1
102
RTVSPropertyOp28
 70
     1
102
RTVSPropertyOp29
 70
     1
102
RTVSPropertyOp30
 70
     1
102
RTVSPropertyOp31
 70
     1
102
RTVSPropertyOp32
 70
     1
102
RTVSPropertyOp33
 70
     1
102
RTVSPropertyOp34
 70
     1
102
RTVSPropertyOp35
 70
     1
102
RTVSPropertyOp36
 70
     1
102
RTVSPropertyOp37
 70
     1
102
RTVSPropertyOp38
 70
     1
102
RTVSPropertyOp39
 70
     1
102
RTVSPropertyOp40
 70
     1
102
RTVSPropertyOp41
 70
     1
102
RTVSPropertyOp42
 70
     1
102
RTVSPropertyOp43
 70
     1
102
RTVSPropertyOp44
 70
     1
102
RTVSPropertyOp45
 70
     1
102
RTVSPropertyOp46
 70
     1
102
RTVSPropertyOp47
 70
     1
102
RTVSPropertyOp48
 70
     1
102
RTVSPropertyOp49
 70
     1
102
RTVSPropertyOp50
 70
     1
102
RTVSPropertyOp51
 70
     0
102
RTVSPropertyOp52
 70
     0
102
RTVSPropertyOp53
 70
     1
102
RTVSPropertyOp54
 70
     1
102
RTVSPropertyOp55
 70
     1
102
RTVSPropertyOp56
 70
     1
102
RTVSPropertyOp57
 70
     1
102
RTVSPropertyOp58
 70
     1
102
RTVSPropertyOp59
 70
     1
102
RTVSPropertyOp60
 70
     1
102
RTVSPropertyOp61
 70
     1
102
RTVSPropertyOp62
 70
     1
  0
ENDSEC
  0
EOF
