  0
SECTION
  2
HEADER
  9
$ACADVER
  1
AC1018
  9
$ACADMAINTVER
 70
     0
  9
$DWGCODEPAGE
  3
ANSI_932
  9
$INSBASE
 10
0.0
 20
0.0
 30
0.0
  9
$EXTMIN
 10
97.520606
 20
70.52684500000002
 30
0.0
  9
$EXTMAX
 10
154.4613551393737
 20
158.72684
 30
0.0
  9
$LIMMIN
 10
0.0
 20
0.0
  9
$LIMMAX
 10
297.0
 20
210.0
  9
$ORTHOMODE
 70
     0
  9
$REGENMODE
 70
     1
  9
$FILLMODE
 70
     1
  9
$QTEXTMODE
 70
     0
  9
$MIRRTEXT
 70
     1
  9
$LTSCALE
 40
1.0
  9
$ATTMODE
 70
     1
  9
$TEXTSIZE
 40
0.2
  9
$TRACEWID
 40
0.05
  9
$TEXTSTYLE
  7
STANDARD
  9
$CLAYER
  8
0
  9
$CELTYPE
  6
CONTINUOUS
  9
$CECOLOR
 62
   256
  9
$CELTSCALE
 40
1.0
  9
$DISPSILH
 70
     0
  9
$DIMSCALE
 40
1.0
  9
$DIMASZ
 40
0.18
  9
$DIMEXO
 40
0.0625
  9
$DIMDLI
 40
0.38
  9
$DIMRND
 40
0.0
  9
$DIMDLE
 40
0.0
  9
$DIMEXE
 40
0.18
  9
$DIMTP
 40
0.0
  9
$DIMTM
 40
0.0
  9
$DIMTXT
 40
0.18
  9
$DIMCEN
 40
0.09
  9
$DIMTSZ
 40
0.0
  9
$DIMTOL
 70
     0
  9
$DIMLIM
 70
     0
  9
$DIMTIH
 70
     1
  9
$DIMTOH
 70
     1
  9
$DIMSE1
 70
     0
  9
$DIMSE2
 70
     0
  9
$DIMTAD
 70
     0
  9
$DIMZIN
 70
     0
  9
$DIMBLK
  1

  9
$DIMASO
 70
     1
  9
$DIMSHO
 70
     1
  9
$DIMPOST
  1

  9
$DIMAPOST
  1

  9
$DIMALT
 70
     0
  9
$DIMALTD
 70
     2
  9
$DIMALTF
 40
25.4
  9
$DIMLFAC
 40
1.0
  9
$DIMTOFL
 70
     0
  9
$DIMTVP
 40
0.0
  9
$DIMTIX
 70
     0
  9
$DIMSOXD
 70
     0
  9
$DIMSAH
 70
     0
  9
$DIMBLK1
  1

  9
$DIMBLK2
  1

  9
$DIMSTYLE
  2
STANDARD
  9
$DIMCLRD
 70
     0
  9
$DIMCLRE
 70
     0
  9
$DIMCLRT
 70
     0
  9
$DIMTFAC
 40
1.0
  9
$DIMGAP
 40
0.09
  9
$DIMJUST
 70
     0
  9
$DIMSD1
 70
     0
  9
$DIMSD2
 70
     0
  9
$DIMTOLJ
 70
     1
  9
$DIMTZIN
 70
     0
  9
$DIMALTZ
 70
     0
  9
$DIMALTTZ
 70
     0
  9
$DIMUPT
 70
     0
  9
$DIMDEC
 70
     4
  9
$DIMTDEC
 70
     4
  9
$DIMALTU
 70
     2
  9
$DIMALTTD
 70
     2
  9
$DIMTXSTY
  7
STANDARD
  9
$DIMAUNIT
 70
     0
  9
$DIMADEC
 70
     0
  9
$DIMALTRND
 40
0.0
  9
$DIMAZIN
 70
     0
  9
$DIMDSEP
 70
    46
  9
$DIMATFIT
 70
     3
  9
$DIMFRAC
 70
     0
  9
$DIMLDRBLK
  1

  9
$DIMLUNIT
 70
     2
  9
$DIMLWD
 70
    -2
  9
$DIMLWE
 70
    -2
  9
$DIMTMOVE
 70
     0
  9
$LUNITS
 70
     2
  9
$LUPREC
 70
     4
  9
$SKETCHINC
 40
0.1
  9
$FILLETRAD
 40
0.0
  9
$AUNITS
 70
     0
  9
$AUPREC
 70
     0
  9
$MENU
  1
.
  9
$ELEVATION
 40
0.0
  9
$PELEVATION
 40
0.0
  9
$THICKNESS
 40
0.0
  9
$LIMCHECK
 70
     0
  9
$CHAMFERA
 40
0.0
  9
$CHAMFERB
 40
0.0
  9
$CHAMFERC
 40
0.0
  9
$CHAMFERD
 40
0.0
  9
$SKPOLY
 70
     0
  9
$TDCREATE
 40
2453367.582530995
  9
$TDUCREATE
 40
2453367.207530996
  9
$TDUPDATE
 40
2456168.502205162
  9
$TDUUPDATE
 40
2456168.127205162
  9
$TDINDWG
 40
0.0108155556
  9
$TDUSRTIMER
 40
0.0108146528
  9
$USRTIMER
 70
     1
  9
$ANGBASE
 50
0.0
  9
$ANGDIR
 70
     0
  9
$PDMODE
 70
     0
  9
$PDSIZE
 40
0.0
  9
$PLINEWID
 40
0.0
  9
$SPLFRAME
 70
     0
  9
$SPLINETYPE
 70
     6
  9
$SPLINESEGS
 70
     8
  9
$HANDSEED
  5
AF6
  9
$SURFTAB1
 70
     6
  9
$SURFTAB2
 70
     6
  9
$SURFTYPE
 70
     6
  9
$SURFU
 70
     6
  9
$SURFV
 70
     6
  9
$UCSBASE
  2

  9
$UCSNAME
  2

  9
$UCSORG
 10
0.0
 20
0.0
 30
0.0
  9
$UCSXDIR
 10
1.0
 20
0.0
 30
0.0
  9
$UCSYDIR
 10
0.0
 20
1.0
 30
0.0
  9
$UCSORTHOREF
  2

  9
$UCSORTHOVIEW
 70
     0
  9
$UCSORGTOP
 10
0.0
 20
0.0
 30
0.0
  9
$UCSORGBOTTOM
 10
0.0
 20
0.0
 30
0.0
  9
$UCSORGLEFT
 10
0.0
 20
0.0
 30
0.0
  9
$UCSORGRIGHT
 10
0.0
 20
0.0
 30
0.0
  9
$UCSORGFRONT
 10
0.0
 20
0.0
 30
0.0
  9
$UCSORGBACK
 10
0.0
 20
0.0
 30
0.0
  9
$PUCSBASE
  2

  9
$PUCSNAME
  2

  9
$PUCSORG
 10
0.0
 20
0.0
 30
0.0
  9
$PUCSXDIR
 10
1.0
 20
0.0
 30
0.0
  9
$PUCSYDIR
 10
0.0
 20
1.0
 30
0.0
  9
$PUCSORTHOREF
  2

  9
$PUCSORTHOVIEW
 70
     0
  9
$PUCSORGTOP
 10
0.0
 20
0.0
 30
0.0
  9
$PUCSORGBOTTOM
 10
0.0
 20
0.0
 30
0.0
  9
$PUCSORGLEFT
 10
0.0
 20
0.0
 30
0.0
  9
$PUCSORGRIGHT
 10
0.0
 20
0.0
 30
0.0
  9
$PUCSORGFRONT
 10
0.0
 20
0.0
 30
0.0
  9
$PUCSORGBACK
 10
0.0
 20
0.0
 30
0.0
  9
$USERI1
 70
     0
  9
$USERI2
 70
     0
  9
$USERI3
 70
     0
  9
$USERI4
 70
     0
  9
$USERI5
 70
     0
  9
$USERR1
 40
0.0
  9
$USERR2
 40
0.0
  9
$USERR3
 40
0.0
  9
$USERR4
 40
0.0
  9
$USERR5
 40
0.0
  9
$WORLDVIEW
 70
     1
  9
$SHADEDGE
 70
     3
  9
$SHADEDIF
 70
    70
  9
$TILEMODE
 70
     1
  9
$MAXACTVP
 70
    48
  9
$PINSBASE
 10
0.0
 20
0.0
 30
0.0
  9
$PLIMCHECK
 70
     0
  9
$PEXTMIN
 10
1.000000000000000E+20
 20
1.000000000000000E+20
 30
1.000000000000000E+20
  9
$PEXTMAX
 10
-1.000000000000000E+20
 20
-1.000000000000000E+20
 30
-1.000000000000000E+20
  9
$PLIMMIN
 10
0.0
 20
0.0
  9
$PLIMMAX
 10
12.0
 20
9.0
  9
$UNITMODE
 70
     0
  9
$VISRETAIN
 70
     1
  9
$PLINEGEN
 70
     0
  9
$PSLTSCALE
 70
     1
  9
$TREEDEPTH
 70
  3020
  9
$CMLSTYLE
  2
Standard
  9
$CMLJUST
 70
     0
  9
$CMLSCALE
 40
1.0
  9
$PROXYGRAPHICS
 70
     1
  9
$MEASUREMENT
 70
     0
  9
$CELWEIGHT
370
    -1
  9
$ENDCAPS
280
     0
  9
$JOINSTYLE
280
     0
  9
$LWDISPLAY
290
     0
  9
$INSUNITS
 70
     0
  9
$HYPERLINKBASE
  1

  9
$STYLESHEET
  1

  9
$XEDIT
290
     1
  9
$CEPSNTYPE
380
     0
  9
$PSTYLEMODE
290
     1
  9
$FINGERPRINTGUID
  2
{28A947E7-09DC-48C4-9308-A9EE239E0B9F}
  9
$VERSIONGUID
  2
{11063FD1-B869-488D-A781-E1F9EAB6FC8B}
  9
$EXTNAMES
290
     1
  9
$PSVPSCALE
 40
0.0
  9
$OLESTARTUP
290
     0
  9
$SORTENTS
280
   127
  9
$INDEXCTL
280
     0
  9
$HIDETEXT
280
     0
  9
$XCLIPFRAME
290
     0
  9
$HALOGAP
280
     0
  9
$OBSCOLOR
 70
   257
  9
$OBSLTYPE
280
     0
  9
$INTERSECTIONDISPLAY
280
     0
  9
$INTERSECTIONCOLOR
 70
   257
  9
$DIMASSOC
280
     1
  9
$PROJECTNAME
  1

  0
ENDSEC
  0
SECTION
  2
CLASSES
  0
CLASS
  1
ACDBDICTIONARYWDFLT
  2
AcDbDictionaryWithDefault
  3
ObjectDBX Classes
 90
        0
 91
        1
280
     0
281
     0
  0
ENDSEC
  0
SECTION
  2
TABLES
  0
TABLE
  2
VPORT
  5
AB1
330
0
100
AcDbSymbolTable
 70
     2
  0
VPORT
  5
AF5
330
AB1
100
AcDbSymbolTableRecord
100
AcDbViewportTableRecord
  2
*Active
 70
     0
 10
0.0
 20
0.0
 11
1.0
 21
1.0
 12
127.3221025553264
 22
119.3348552285835
 13
0.0
 23
0.0
 14
1.0
 24
1.0
 15
0.0
 25
0.0
 16
0.0
 26
0.0
 36
1.0
 17
0.0
 27
0.0
 37
0.0
 40
161.4003092362175
 41
2.329230769230769
 42
50.0
 43
0.0
 44
0.0
 50
0.0
 51
0.0
 71
     0
 72
   100
 73
     1
 74
     1
 75
     0
 76
     0
 77
     0
 78
     0
281
     0
 65
     1
110
0.0
120
0.0
130
0.0
111
1.0
121
0.0
131
0.0
112
0.0
122
1.0
132
0.0
 79
     0
146
0.0
  0
ENDTAB
  0
TABLE
  2
LTYPE
  5
AAE
330
0
100
AcDbSymbolTable
 70
    20
  0
LTYPE
  5
ABC
330
AAE
100
AcDbSymbolTableRecord
100
AcDbLinetypeTableRecord
  2
ByBlock
 70
     0
  3

 72
    65
 73
     0
 40
0.0
  0
LTYPE
  5
ABD
330
AAE
100
AcDbSymbolTableRecord
100
AcDbLinetypeTableRecord
  2
ByLayer
 70
     0
  3

 72
    65
 73
     0
 40
0.0
  0
LTYPE
  5
ABE
330
AAE
100
AcDbSymbolTableRecord
100
AcDbLinetypeTableRecord
  2
CONTINUOUS
 70
     0
  3
実線
 72
    65
 73
     0
 40
0.0
  0
LTYPE
  5
ACE
330
AAE
100
AcDbSymbolTableRecord
100
AcDbLinetypeTableRecord
  2
DASHED1
 70
     0
  3
--  --  --  --  --  --  --  --  
 72
    65
 73
     2
 40
2.5
 49
1.25
 74
     0
 49
-1.25
 74
     0
  0
LTYPE
  5
ACF
330
AAE
100
AcDbSymbolTableRecord
100
AcDbLinetypeTableRecord
  2
DASHED2
 70
     0
  3
----    ----    ----    ----    
 72
    65
 73
     2
 40
5.0
 49
2.5
 74
     0
 49
-2.5
 74
     0
  0
LTYPE
  5
AD0
330
AAE
100
AcDbSymbolTableRecord
100
AcDbLinetypeTableRecord
  2
DASHED3
 70
     0
  3
------  ------  ------  ------  
 72
    65
 73
     2
 40
5.0
 49
3.75
 74
     0
 49
-1.25
 74
     0
  0
LTYPE
  5
AD1
330
AAE
100
AcDbSymbolTableRecord
100
AcDbLinetypeTableRecord
  2
CENTER1
 70
     0
  3
----- - ----- - ----- - ----- - 
 72
    65
 73
     4
 40
10.0
 49
6.25
 74
     0
 49
-1.25
 74
     0
 49
1.25
 74
     0
 49
-1.25
 74
     0
  0
LTYPE
  5
AD2
330
AAE
100
AcDbSymbolTableRecord
100
AcDbLinetypeTableRecord
  2
CENTER2
 70
     0
  3
----------  --  ----------  --  
 72
    65
 73
     4
 40
20.0
 49
12.5
 74
     0
 49
-2.5
 74
     0
 49
2.5
 74
     0
 49
-2.5
 74
     0
  0
LTYPE
  5
AD3
330
AAE
100
AcDbSymbolTableRecord
100
AcDbLinetypeTableRecord
  2
PHANTOM1
 70
     0
  3
--- - - --- - - --- - - --- - - 
 72
    65
 73
     6
 40
10.0
 49
3.25
 74
     0
 49
-1.25
 74
     0
 49
1.25
 74
     0
 49
-1.25
 74
     0
 49
1.25
 74
     0
 49
-1.25
 74
     0
  0
LTYPE
  5
AD4
330
AAE
100
AcDbSymbolTableRecord
100
AcDbLinetypeTableRecord
  2
PHANTOM2
 70
     0
  3
--------  -  -  --------  -  -  
 72
    65
 73
     6
 40
20.0
 49
10.0
 74
     0
 49
-2.5
 74
     0
 49
1.25
 74
     0
 49
-2.5
 74
     0
 49
1.25
 74
     0
 49
-2.5
 74
     0
  0
LTYPE
  5
AD5
330
AAE
100
AcDbSymbolTableRecord
100
AcDbLinetypeTableRecord
  2
DOT
 70
     0
  3
-   -   -   -   -   -   -   -   
 72
    65
 73
     2
 40
2.5
 49
0.625
 74
     0
 49
-1.875
 74
     0
  0
LTYPE
  5
AD6
330
AAE
100
AcDbSymbolTableRecord
100
AcDbLinetypeTableRecord
  2
DUMMY
 70
     0
  3
ダミー
 72
    65
 73
     0
 40
0.0
  0
LTYPE
  5
AD7
330
AAE
100
AcDbSymbolTableRecord
100
AcDbLinetypeTableRecord
  2
RAND1
 70
     0
  3
----- - ----- - ----- - ----- - 
 72
    65
 73
     4
 40
10.0
 49
6.25
 74
     0
 49
-1.25
 74
     0
 49
1.25
 74
     0
 49
-1.25
 74
     0
  0
LTYPE
  5
AD8
330
AAE
100
AcDbSymbolTableRecord
100
AcDbLinetypeTableRecord
  2
RAND2
 70
     0
  3
----------  --  ----------  --  
 72
    65
 73
     4
 40
20.0
 49
12.5
 74
     0
 49
-2.5
 74
     0
 49
2.5
 74
     0
 49
-2.5
 74
     0
  0
LTYPE
  5
AD9
330
AAE
100
AcDbSymbolTableRecord
100
AcDbLinetypeTableRecord
  2
RAND3
 70
     0
  3
--- - - --- - - --- - - --- - - 
 72
    65
 73
     6
 40
10.0
 49
3.25
 74
     0
 49
-1.25
 74
     0
 49
1.25
 74
     0
 49
-1.25
 74
     0
 49
1.25
 74
     0
 49
-1.25
 74
     0
  0
LTYPE
  5
ADA
330
AAE
100
AcDbSymbolTableRecord
100
AcDbLinetypeTableRecord
  2
RAND4
 70
     0
  3
--------  -  -  --------  -  -  
 72
    65
 73
     6
 40
20.0
 49
10.0
 74
     0
 49
-2.5
 74
     0
 49
1.25
 74
     0
 49
-2.5
 74
     0
 49
1.25
 74
     0
 49
-2.5
 74
     0
  0
LTYPE
  5
ADB
330
AAE
100
AcDbSymbolTableRecord
100
AcDbLinetypeTableRecord
  2
RAND5
 70
     0
  3
----- - ----- - ----- - ----- - 
 72
    65
 73
     4
 40
10.0
 49
6.25
 74
     0
 49
-1.25
 74
     0
 49
1.25
 74
     0
 49
-1.25
 74
     0
  0
LTYPE
  5
ADC
330
AAE
100
AcDbSymbolTableRecord
100
AcDbLinetypeTableRecord
  2
LONG1
 70
     0
  3
----------  --  ----------  --  
 72
    65
 73
     4
 40
20.0
 49
12.5
 74
     0
 49
-2.5
 74
     0
 49
2.5
 74
     0
 49
-2.5
 74
     0
  0
LTYPE
  5
ADD
330
AAE
100
AcDbSymbolTableRecord
100
AcDbLinetypeTableRecord
  2
LONG2
 70
     0
  3
--- - - --- - - --- - - --- - - 
 72
    65
 73
     6
 40
10.0
 49
3.25
 74
     0
 49
-1.25
 74
     0
 49
1.25
 74
     0
 49
-1.25
 74
     0
 49
1.25
 74
     0
 49
-1.25
 74
     0
  0
LTYPE
  5
ADE
330
AAE
100
AcDbSymbolTableRecord
100
AcDbLinetypeTableRecord
  2
LONG3
 70
     0
  3
--------  -  -  --------  -  -  
 72
    65
 73
     6
 40
20.0
 49
10.0
 74
     0
 49
-2.5
 74
     0
 49
1.25
 74
     0
 49
-2.5
 74
     0
 49
1.25
 74
     0
 49
-2.5
 74
     0
  0
LTYPE
  5
ADF
330
AAE
100
AcDbSymbolTableRecord
100
AcDbLinetypeTableRecord
  2
LONG4
 70
     0
  3
----- - ----- - ----- - ----- - 
 72
    65
 73
     4
 40
10.0
 49
6.25
 74
     0
 49
-1.25
 74
     0
 49
1.25
 74
     0
 49
-1.25
 74
     0
  0
LTYPE
  5
AE0
330
AAE
100
AcDbSymbolTableRecord
100
AcDbLinetypeTableRecord
  2
LONG5
 70
     0
  3
----------  --  ----------  --  
 72
    65
 73
     4
 40
20.0
 49
12.5
 74
     0
 49
-2.5
 74
     0
 49
2.5
 74
     0
 49
-2.5
 74
     0
  0
ENDTAB
  0
TABLE
  2
LAYER
  5
AAB
330
0
100
AcDbSymbolTable
 70
     6
  0
LAYER
  5
AB9
330
AAB
100
AcDbSymbolTableRecord
100
AcDbLayerTableRecord
  2
0
 70
     0
 62
     7
  6
CONTINUOUS
370
    -3
390
AB8
  0
LAYER
  5
AE1
330
AAB
100
AcDbSymbolTableRecord
100
AcDbLayerTableRecord
  2
_0-0_0
 70
     0
 62
     7
  6
CONTINUOUS
370
    -3
390
AB8
  0
LAYER
  5
AE2
330
AAB
100
AcDbSymbolTableRecord
100
AcDbLayerTableRecord
  2
_0-4_LAY-4
 70
     0
 62
     7
  6
CONTINUOUS
370
    -3
390
AB8
  0
LAYER
  5
AE3
330
AAB
100
AcDbSymbolTableRecord
100
AcDbLayerTableRecord
  2
ADD_LINE
 70
     0
 62
     7
  6
CONTINUOUS
370
    -3
390
AB8
  0
LAYER
  5
AE4
330
AAB
100
AcDbSymbolTableRecord
100
AcDbLayerTableRecord
  2
2
 70
     0
 62
     5
  6
CONTINUOUS
370
    -3
390
AB8
  0
LAYER
  5
AE5
330
AAB
100
AcDbSymbolTableRecord
100
AcDbLayerTableRecord
  2
20
 70
     0
 62
     2
  6
CONTINUOUS
370
    -3
390
AB8
  0
ENDTAB
  0
TABLE
  2
STYLE
  5
AAC
330
0
100
AcDbSymbolTable
 70
     3
  0
STYLE
  5
ABA
330
AAC
100
AcDbSymbolTableRecord
100
AcDbTextStyleTableRecord
  2
STANDARD
 70
     0
 40
0.0
 41
1.0
 50
0.0
 71
     0
 42
0.2
  3
txt
  4
bigfont.shx
  0
STYLE
  5
AE6
330
AAC
100
AcDbSymbolTableRecord
100
AcDbTextStyleTableRecord
  2
ANNOTATIVE
 70
     0
 40
0.0
 41
1.0
 50
0.0
 71
     0
 42
0.2
  3
txt
  4

  0
STYLE
  5
AE7
330
AAC
100
AcDbSymbolTableRecord
100
AcDbTextStyleTableRecord
  2
STANDARD1
 70
     0
 40
0.0
 41
1.0
 50
0.0
 71
     0
 42
2.799999952316284
  3
MONOTXT
  4
BIGFONT
  0
ENDTAB
  0
TABLE
  2
VIEW
  5
AAF
330
0
100
AcDbSymbolTable
 70
     0
  0
ENDTAB
  0
TABLE
  2
UCS
  5
AB0
330
0
100
AcDbSymbolTable
 70
     0
  0
ENDTAB
  0
TABLE
  2
APPID
  5
AB2
330
0
100
AcDbSymbolTable
 70
     4
  0
APPID
  5
ABB
330
AB2
100
AcDbSymbolTableRecord
100
AcDbRegAppTableRecord
  2
ACAD
 70
     0
  0
APPID
  5
AE8
330
AB2
100
AcDbSymbolTableRecord
100
AcDbRegAppTableRecord
  2
ACADANNOTATIVE
 70
     0
  0
APPID
  5
AE9
330
AB2
100
AcDbSymbolTableRecord
100
AcDbRegAppTableRecord
  2
ACAD_MLEADERVER
 70
     0
  0
APPID
  5
AEA
330
AB2
100
AcDbSymbolTableRecord
100
AcDbRegAppTableRecord
  2
ACAD_EXEMPT_FROM_CAD_STANDARDS
 70
     0
  0
ENDTAB
  0
TABLE
  2
DIMSTYLE
  5
AB3
330
0
100
AcDbSymbolTable
 70
     2
100
AcDbDimStyleTable
 71
     0
  0
DIMSTYLE
105
AEB
330
AB3
100
AcDbSymbolTableRecord
100
AcDbDimStyleTableRecord
  2
STANDARD
 70
     0
279
     2
340
ABA
  0
DIMSTYLE
105
AEC
330
AB3
100
AcDbSymbolTableRecord
100
AcDbDimStyleTableRecord
  2
ANNOTATIVE
 70
     0
279
     2
340
ABA
  0
ENDTAB
  0
TABLE
  2
BLOCK_RECORD
  5
AAA
330
0
100
AcDbSymbolTable
 70
     2
  0
BLOCK_RECORD
  5
AC9
330
AAA
100
AcDbSymbolTableRecord
100
AcDbBlockTableRecord
  2
*Model_Space
340
ACC
  0
BLOCK_RECORD
  5
AC5
330
AAA
100
AcDbSymbolTableRecord
100
AcDbBlockTableRecord
  2
*Paper_Space
340
AC8
  0
BLOCK_RECORD
  5
AF0
330
AAA
100
AcDbSymbolTableRecord
100
AcDbBlockTableRecord
  2
$MODEL_SPACE
340
0
  0
BLOCK_RECORD
  5
AF2
330
AAA
100
AcDbSymbolTableRecord
100
AcDbBlockTableRecord
  2
$PAPER_SPACE
340
0
  0
ENDTAB
  0
ENDSEC
  0
SECTION
  2
BLOCKS
  0
BLOCK
  5
ACA
330
AC9
100
AcDbEntity
  8
0
100
AcDbBlockBegin
  2
*Model_Space
 70
     0
 10
0.0
 20
0.0
 30
0.0
  3
*Model_Space
  1

  0
ENDBLK
  5
ACB
330
AC9
100
AcDbEntity
  8
0
100
AcDbBlockEnd
  0
BLOCK
  5
AC6
330
AC5
100
AcDbEntity
 67
     1
  8
0
100
AcDbBlockBegin
  2
*Paper_Space
 70
     0
 10
0.0
 20
0.0
 30
0.0
  3
*Paper_Space
  1

  0
ENDBLK
  5
AC7
330
AC5
100
AcDbEntity
 67
     1
  8
0
100
AcDbBlockEnd
  0
BLOCK
  5
AF1
330
AF0
100
AcDbEntity
  8
0
100
AcDbBlockBegin
  2
$MODEL_SPACE
 70
     0
 10
0.0
 20
0.0
 30
0.0
  3
$MODEL_SPACE
  1

  0
ENDBLK
  5
636
330
AF0
100
AcDbEntity
  8
0
100
AcDbBlockEnd
  0
BLOCK
  5
AF3
330
AF2
100
AcDbEntity
  8
0
100
AcDbBlockBegin
  2
$PAPER_SPACE
 70
     0
 10
0.0
 20
0.0
 30
0.0
  3
$PAPER_SPACE
  1

  0
ENDBLK
  5
632
330
AF2
100
AcDbEntity
  8
0
100
AcDbBlockEnd
  0
ENDSEC
  0
SECTION
  2
ENTITIES
  0
TEXT
  5
3D9
330
AC9
100
AcDbEntity
  8
_0-4_LAY-4
 62
     7
100
AcDbText
 10
97.520606
 20
154.52684
 30
0.0
 40
4.5
  1
吊具
 41
0.9698259999999999
100
AcDbText
  0
TEXT
  5
3DA
330
AC9
100
AcDbEntity
  8
_0-4_LAY-4
 62
     7
100
AcDbText
 10
97.520606
 20
70.52684499999999
 30
0.0
 40
4.5
  1
三菱　Ｃ１４７Ｐ
 41
0.989333
100
AcDbText
  0
LWPOLYLINE
  5
6A7
330
AC9
100
AcDbEntity
  8
0
  6
Continuous
 62
     7
100
AcDbPolyline
 90
        8
 70
     0
 43
0.0
 10
146.0578087761333
 20
122.1861369311612
 10
147.976836225745
 20
122.7379185609285
 10
149.754543641012
 20
123.5883694003185
 10
151.3226646863462
 20
124.7048310028936
 10
152.6209814222796
 20
126.0444297541442
 10
153.5996367546508
 20
127.5557232754646
 10
154.2210490135113
 20
129.1806758800974
 10
154.4613551393737
 20
130.8568872209042
  0
LWPOLYLINE
  5
6A8
330
AC9
100
AcDbEntity
  8
0
  6
Continuous
 62
     7
100
AcDbPolyline
 90
       18
 70
     0
 43
0.0
 10
154.4487491533017
 20
130.6061437660702
 10
154.1575950769781
 20
131.7984701363167
 10
153.50621232501
 20
132.9148988121076
 10
152.5183400511088
 20
133.9147423913553
 10
151.2299805161362
 20
134.7615623279927
 10
149.6880870128277
 20
135.4244969073353
 10
147.9488526884087
 20
135.8793859780253
 10
146.0756626276738
 20
136.1096514505475
 10
144.1367838313192
 20
136.106901473214
 10
142.202877276528
 20
135.8712362668772
 10
140.3444227308846
 20
135.4112444724565
 10
138.629150170338
 20
134.7436901443892
 10
137.1195714112489
 20
133.8929017972954
 10
135.8707019143321
 20
132.8898857715895
 10
134.9280557876338
 20
131.7711962307598
 10
134.3259870591498
 20
130.5776029724171
 10
134.0864376701534
 20
129.3526056037325
 10
134.2181378176751
 20
128.1408482310214
  0
LWPOLYLINE
  5
6A9
330
AC9
100
AcDbEntity
  8
0
  6
Continuous
 62
     7
100
AcDbPolyline
 90
        8
 70
     0
 43
0.0
 10
134.0860994929375
 20
128.9941334248196
 10
134.4305618756349
 20
127.3741254337698
 10
135.1432251366934
 20
125.8707068722149
 10
136.1971306970188
 20
124.540748958889
 10
137.5524114862031
 20
123.4345612545025
 10
139.1578000314487
 20
122.5939885549798
 10
140.9525678001668
 20
122.0508279892634
 10
142.8688224349254
 20
121.8256261996062
  0
LWPOLYLINE
  5
6AA
330
AC9
100
AcDbEntity
  8
0
  6
Continuous
 62
     7
100
AcDbPolyline
 90
       18
 70
     0
 43
0.0
 10
154.4487491533017
 20
130.6061437660702
 10
154.1468692873791
 20
131.8884950273304
 10
153.4796634640991
 20
133.0904600886208
 10
152.4718183570914
 20
134.1675661378845
 10
151.1606243231807
 20
135.0799601573946
 10
149.594595655934
 20
135.7938834888852
 10
147.8316755525682
 20
136.2829209068502
 10
145.9370922106023
 20
136.5289779841897
 10
143.980945378862
 20
136.5229505875906
 10
142.0356126606619
 20
136.2650617312525
 10
140.1730715361725
 20
135.764853325343
 10
138.4622361893797
 20
135.0408331244898
 10
136.9664076772682
 20
134.1197899392458
 10
135.7409317851949
 20
133.0358024477633
 10
134.8311512280055
 20
131.8289782817306
 10
134.2707279656324
 20
130.543970040504
 10
134.080397707642
 20
129.2283231410384
 10
134.267202690173
 20
127.9307166333139
  0
LWPOLYLINE
  5
6AB
330
AC9
100
AcDbEntity
  8
0
  6
Continuous
 62
     7
100
AcDbPolyline
 90
       18
 70
     0
 43
0.0
 10
145.3685561866975
 20
121.8935605954078
 10
145.3541935440429
 20
121.9846167121662
 10
145.3115947186672
 20
122.0677143991024
 10
145.2422103625317
 20
122.1400238640455
 10
145.1484032767567
 20
122.1990826947993
 10
145.0333679492601
 20
122.2428797136394
 10
144.9010217702983
 20
122.2699234655616
 10
144.7558716304349
 20
122.2792930079947
 10
144.6028604437815
 20
122.2706692723966
 10
144.4471988229802
 20
122.2443459297512
 10
144.2941876380326
 20
122.2012193899548
 10
144.1490375015226
 20
122.1427582756513
 10
144.0166913274478
 20
122.0709534100471
 10
143.9016560062053
 20
121.9882500218126
 10
143.8078489278386
 20
121.8974644757491
 10
143.738464580013
 20
121.8016883648593
 10
143.6958657635663
 20
121.7041832298525
 10
143.6815031301554
 20
121.6082694912824
  0
LWPOLYLINE
  5
6AC
330
AC9
100
AcDbEntity
  8
0
  6
Continuous
 62
     7
100
AcDbPolyline
 90
       32
 70
     1
 43
0.0
 10
145.3814992193096
 20
99.87696623785616
 10
145.3644819298042
 20
99.94356896240327
 10
145.3152489958146
 20
100.0073253328619
 10
145.2356924113838
 20
100.0657852276704
 10
145.1288694914357
 20
100.1167020658558
 10
144.9988853808769
 20
100.1581191418812
 10
144.8507352961802
 20
100.1884448207419
 10
144.690112562017
 20
100.2065137036062
 10
144.5231898199828
 20
100.2116314134387
 10
144.356381817443
 20
100.2036012795206
 10
144.1960988923878
 20
100.182731895395
 10
144.0485006277396
 20
100.1498252597902
 10
143.9192591420346
 20
100.1061459562582
 10
143.8133411130891
 20
100.0533725559381
 10
143.734816911356
 20
99.99353311100858
 10
143.6867041778708
 20
99.92892721777989
 10
143.6708518579997
 20
99.86203764449742
 10
143.6878691475051
 20
99.79543491995029
 10
143.7371020814947
 20
99.73167854949164
 10
143.8166586659255
 20
99.67321865468322
 10
143.9234815858736
 20
99.62230181649779
 10
144.0534656964325
 20
99.58088474047237
 10
144.2016157811292
 20
99.5505590616116
 10
144.3622385152924
 20
99.53249017874732
 10
144.5291612573264
 20
99.5273724689148
 10
144.6959692598664
 20
99.53540260283295
 10
144.8562521849215
 20
99.5562719869585
 10
145.0038504495698
 20
99.58917862256337
 10
145.1330919352747
 20
99.63285792609536
 10
145.2390099642201
 20
99.68563132641545
 10
145.3175341659534
 20
99.74547077134502
 10
145.3656468994385
 20
99.81007666457372
  0
LWPOLYLINE
  5
6AD
330
AC9
100
AcDbEntity
  8
0
  6
Continuous
 62
     7
100
AcDbPolyline
 90
       32
 70
     1
 43
0.0
 10
145.1270225266742
 20
99.87027248250385
 10
145.1151104240204
 20
99.91689438968679
 10
145.0806473702276
 20
99.96152384900783
 10
145.0249577611261
 20
100.0024457753738
 10
144.9501817171624
 20
100.0380875621035
 10
144.8591928397712
 20
100.0670795153213
 10
144.7554877804834
 20
100.0883074905239
 10
144.6430518665693
 20
100.1009557085289
 10
144.5262059471455
 20
100.1045381054116
 10
144.4094403453675
 20
100.0989170116689
 10
144.2972422978289
 20
100.084308442781
 10
144.1939235125751
 20
100.0612737978576
 10
144.1034544725816
 20
100.0306982853852
 10
144.0293118523198
 20
99.99375690516121
 10
143.9743449111066
 20
99.95186929371051
 10
143.940665997667
 20
99.90664516845042
 10
143.9295693737572
 20
99.8598224671527
 10
143.941481476411
 20
99.81320055996972
 10
143.9759445302037
 20
99.76857110064862
 10
144.0316341393053
 20
99.72764917428271
 10
144.1064101832689
 20
99.69200738755295
 10
144.1973990606601
 20
99.66301543433516
 10
144.3011041199478
 20
99.64178745913264
 10
144.4135400338621
 20
99.6291392411276
 10
144.5303859532859
 20
99.62555684424485
 10
144.6471515550639
 20
99.63117793798751
 10
144.7593496026025
 20
99.64578650687544
 10
144.8626683878563
 20
99.66882115179885
 10
144.9531374278497
 20
99.69939666427123
 10
145.0272800481116
 20
99.73633804449532
 10
145.0822469893248
 20
99.778225655946
 10
145.1159259027644
 20
99.82344978120606
  0
LINE
  5
6AE
330
AC9
100
AcDbEntity
  8
0
  6
Continuous
 62
     7
100
AcDbLine
 10
150.8467058893494
 20
103.035277853229
 30
0.0
 11
147.1289218863476
 21
104.9435857663298
 31
0.0
  0
LINE
  5
6AF
330
AC9
100
AcDbEntity
  8
0
  6
Continuous
 62
     7
100
AcDbLine
 10
150.8467058893494
 20
103.035277853229
 30
0.0
 11
150.8467058893494
 21
101.7447684073805
 31
0.0
  0
LINE
  5
6B0
330
AC9
100
AcDbEntity
  8
0
  6
Continuous
 62
     7
100
AcDbLine
 10
147.1289218863476
 20
104.9435857663298
 30
0.0
 11
147.1289218863476
 21
103.4783995593463
 31
0.0
  0
LINE
  5
6B1
330
AC9
100
AcDbEntity
  8
0
  6
Continuous
 62
     7
100
AcDbLine
 10
150.3919026771377
 20
101.5494597892424
 30
0.0
 11
150.8325417356856
 21
101.7513732607052
 31
0.0
  0
LINE
  5
6B2
330
AC9
100
AcDbEntity
  8
0
  6
Continuous
 62
     7
100
AcDbLine
 10
148.1291145125081
 20
100.5125852665641
 30
0.0
 11
149.41348256265
 21
101.1011195932637
 31
0.0
  0
LINE
  5
6B3
330
AC9
100
AcDbEntity
  8
0
  6
Continuous
 62
     7
100
AcDbLine
 10
150.8467058893494
 20
101.7447684073805
 30
0.0
 11
150.3919026771376
 21
101.9568466281883
 31
0.0
  0
LINE
  5
6B4
330
AC9
100
AcDbEntity
  8
0
  6
Continuous
 62
     7
100
AcDbLine
 10
147.9114898421118
 20
103.1134821285466
 30
0.0
 11
147.1289218863477
 21
103.4783995593462
 31
0.0
  0
LINE
  5
6B5
330
AC9
100
AcDbEntity
  8
0
  6
Continuous
 62
     7
100
AcDbLine
 10
150.3919026771377
 20
100.6858048949908
 30
0.0
 11
147.9114898421118
 21
101.7386776772621
 31
0.0
  0
LINE
  5
6B6
330
AC9
100
AcDbEntity
  8
0
  6
Continuous
 62
     7
100
AcDbLine
 10
143.1783739428909
 20
99.23017067725165
 30
0.0
 11
143.1783739428909
 21
98.24401375586473
 31
0.0
  0
LINE
  5
6B7
330
AC9
100
AcDbEntity
  8
0
  6
Continuous
 62
     7
100
AcDbLine
 10
143.1490522443206
 20
98.23057771148178
 30
0.0
 11
142.64292029894
 21
98.46659091364955
 31
0.0
  0
LINE
  5
6B8
330
AC9
100
AcDbEntity
  8
0
  6
Continuous
 62
     7
100
AcDbLine
 10
143.1490522443206
 20
98.23057771148178
 30
0.0
 11
147.7082171178354
 21
100.3197179924553
 31
0.0
  0
LINE
  5
6B9
330
AC9
100
AcDbEntity
  8
0
  6
Continuous
 62
     7
100
AcDbLine
 10
143.1783739428908
 20
99.23017067725165
 30
0.0
 11
142.2368464896891
 21
99.6692121390428
 31
0.0
  0
LINE
  5
6BA
330
AC9
100
AcDbEntity
  8
0
  6
Continuous
 62
     7
100
AcDbLine
 10
141.965080041169
 20
97.65470475475312
 30
0.0
 11
141.7440459029003
 21
97.7485281799708
 31
0.0
  0
LWPOLYLINE
  5
6BB
330
AC9
100
AcDbEntity
  8
0
  6
Continuous
 62
     7
100
AcDbPolyline
 90
       27
 70
     0
 43
0.0
 10
142.2597082174399
 20
99.91213215227761
 10
142.2924888171325
 20
99.92311562672377
 10
142.3186952689673
 20
99.9366991993633
 10
142.3373783798435
 20
99.95239087557166
 10
142.347861450754
 20
99.96962230558182
 10
142.3497647867042
 20
99.98776937001345
 10
142.3430194491993
 20
100.0061747853677
 10
142.3278697531833
 20
100.0241719107205
 10
142.3048644179957
 20
100.0411088933402
 10
142.2748366928518
 20
100.0563722786794
 10
142.2388741767036
 20
100.0694092295914
 10
142.1982794255938
 20
100.0797475499952
 10
142.1545227743056
 20
100.0870127877342
 10
142.1091890810934
 20
100.0909417971687
 10
142.0639203243944
 20
100.0913922702645
 10
142.0203561306562
 20
100.0883478909646
 10
141.9800743873544
 20
100.0819189261548
 10
141.9445340921841
 20
100.0723382318157
 10
141.9150225084188
 20
100.0599528190201
 10
141.8926085404592
 20
100.0452112852527
 10
141.8781040183034
 20
100.0286475662875
 10
141.8720342932064
 20
100.0108615971275
 10
141.8746192095493
 20
99.99249758246408
 10
141.8857651421143
 20
99.9742206636955
 10
141.9050683871741
 20
99.956692827622
 10
141.9318297845696
 20
99.94054892939972
 10
141.965080041169
 20
99.92637369819782
  0
LINE
  5
6BC
330
AC9
100
AcDbEntity
  8
0
  6
Continuous
 62
     7
100
AcDbLine
 10
141.7440459029004
 20
97.10111570528788
 30
0.0
 11
141.1613746756854
 21
97.34844496737068
 31
0.0
  0
LINE
  5
6BD
330
AC9
100
AcDbEntity
  8
0
  6
Continuous
 62
     7
100
AcDbLine
 10
142.64292029894
 20
97.36697863591636
 30
0.0
 11
142.2597082174399
 21
97.5296425137804
 31
0.0
  0
LINE
  5
6BE
330
AC9
100
AcDbEntity
  8
0
  6
Continuous
 62
     7
100
AcDbLine
 10
139.5119919301607
 20
101.1171258785451
 30
0.0
 11
139.5119919301607
 21
99.92656678914601
 31
0.0
  0
LINE
  5
6BF
330
AC9
100
AcDbEntity
  8
0
  6
Continuous
 62
     7
100
AcDbLine
 10
141.1613746756854
 20
97.99585744205352
 30
0.0
 11
140.1093294043256
 21
98.44242416525808
 31
0.0
  0
LINE
  5
6C0
330
AC9
100
AcDbEntity
  8
0
  6
Continuous
 62
     7
100
AcDbLine
 10
140.1093294043254
 20
99.64802375044001
 30
0.0
 11
139.5119919301607
 21
99.92656678914601
 31
0.0
  0
LINE
  5
6C1
330
AC9
100
AcDbEntity
  8
0
  6
Continuous
 62
     7
100
AcDbLine
 10
139.5119919301607
 20
101.1171258785451
 30
0.0
 11
147.1289218863476
 21
104.9435857663298
 31
0.0
  0
LINE
  5
6C2
330
AC9
100
AcDbEntity
  8
0
  6
Continuous
 62
     7
100
AcDbLine
 10
139.5119919301606
 20
99.98457094011342
 30
0.0
 11
147.1289218863476
 21
103.4901428181192
 31
0.0
  0
LINE
  5
6C3
330
AC9
100
AcDbEntity
  8
0
  6
Continuous
 62
     7
100
AcDbLine
 10
145.3685561866974
 20
121.8935607676802
 30
0.0
 11
145.3685561866974
 21
104.0592440727224
 31
0.0
  0
LINE
  5
6C4
330
AC9
100
AcDbEntity
  8
0
  6
Continuous
 62
     7
100
AcDbLine
 10
143.6815031301553
 20
121.6082695216239
 30
0.0
 11
143.6815031301553
 21
103.2117319009479
 31
0.0
  0
LINE
  5
6C5
330
AC9
100
AcDbEntity
  8
0
  6
Continuous
 62
     7
100
AcDbLine
 10
145.3685561866974
 20
102.6799622693684
 30
0.0
 11
145.3685561866974
 21
99.93498658258594
 31
0.0
  0
LINE
  5
6C6
330
AC9
100
AcDbEntity
  8
0
  6
Continuous
 62
     7
100
AcDbLine
 10
143.6815031301553
 20
101.9035227083201
 30
0.0
 11
143.6815031301553
 21
99.9171518605928
 31
0.0
  0
LINE
  5
6C7
330
AC9
100
AcDbEntity
  8
0
  6
Continuous
 62
     7
100
AcDbLine
 10
146.060992141564
 20
122.918647362683
 30
0.0
 11
146.0609921414909
 21
122.1086473626747
 31
0.0
  0
LINE
  5
6C8
330
AC9
100
AcDbEntity
  8
0
  6
Continuous
 62
     7
100
AcDbLine
 10
142.8688224349254
 20
122.5589625383183
 30
0.0
 11
142.8688224349254
 21
121.7489625383183
 31
0.0
  0
LWPOLYLINE
  5
6C9
330
AC9
100
AcDbEntity
  8
0
  6
Continuous
 62
     7
100
AcDbPolyline
 90
       28
 70
     0
 43
0.0
 10
145.2870339699232
 20
120.9644149760021
 10
145.5349650745383
 20
121.134367702607
 10
145.7428850683678
 20
121.3340256630255
 10
145.9030195022052
 20
121.5559233382213
 10
146.009380702623
 20
121.7917636319263
 10
146.057991660316
 20
122.0327281118651
 10
146.0470347366122
 20
122.2698067445371
 10
145.9769196277858
 20
122.4941347942632
 10
145.8502680458815
 20
122.6973242893238
 10
145.6718156888586
 20
122.8717776611561
 10
145.4482351655408
 20
123.0109718291597
 10
145.1878864964828
 20
123.109702108739
 10
144.900504519909
 20
123.1642768224866
 10
144.5968348911007
 20
123.1726553376949
 10
144.2882322857736
 20
123.1345243687595
 10
143.9862358312427
 20
123.0513096914115
 10
143.7021376406572
 20
122.9261228307638
 10
143.4465605834764
 20
122.763644716589
 10
143.2290610799982
 20
122.5699506561365
 10
143.0577717720678
 20
122.352283169026
 10
142.9390974310571
 20
122.1187811782696
 10
142.8774754735864
 20
121.8781756833895
 10
142.875210039674
 20
121.6394632948813
 10
142.9323858373873
 20
121.4115698370743
 10
143.0468649754781
 20
121.2030165977946
 10
143.2143669024326
 20
121.0216017042727
 10
143.4286284628942
 20
120.8741085391406
 10
143.6816380867005
 20
120.7660520992947
  0
LWPOLYLINE
  5
6CA
330
AC9
100
AcDbEntity
  8
0
  6
Continuous
 62
     7
100
AcDbPolyline
 90
       18
 70
     0
 43
0.0
 10
146.060992141564
 20
122.9186473625109
 10
146.0338157638897
 20
123.1421860483599
 10
145.9532120897733
 20
123.3519880747215
 10
145.8219259806635
 20
123.5409088852176
 10
145.6444282275458
 20
123.7025150082317
 10
145.4267633035179
 20
123.8313031410698
 10
145.1763435265076
 20
123.922887558332
 10
144.9016966416758
 20
123.9741494625319
 10
144.6121754192834
 20
123.9833431910036
 10
144.3176391573169
 20
123.9501556623508
 10
144.0281179349207
 20
123.8757170380576
 10
143.7534710500814
 20
123.7625622361953
 10
143.5030512730604
 20
123.6145446078272
 10
143.2853863490185
 20
123.4367047157599
 10
143.1078885958845
 20
123.2350986842228
 10
142.9766024867563
 20
123.0165919648203
 10
142.8959988126202
 20
122.788625541812
 10
142.8688224349255
 20
122.5589625383182
  0
LWPOLYLINE
  5
6CB
330
AC9
100
AcDbEntity
  8
2
  6
Continuous
 62
     7
100
AcDbPolyline
 90
        9
 70
     0
 43
0.0
 10
145.3265757737631
 20
101.8580066416234
 10
145.3684749319946
 20
101.9258130821377
 10
145.3787441258204
 20
101.9931134922093
 10
145.3569972514214
 20
102.0573774935241
 10
145.3040519534349
 20
102.1161888714538
 10
145.2218988829389
 20
102.1673364205218
 10
145.1136268524353
 20
102.2088970818811
 10
144.9833067018746
 20
102.2393082469817
 10
144.8358382421572
 20
102.2574265089318
  0
LWPOLYLINE
  5
6CC
330
AC9
100
AcDbEntity
  8
2
  6
Continuous
 62
     7
100
AcDbPolyline
 90
       20
 70
     0
 43
0.0
 10
145.3265757737631
 20
101.0600066416234
 10
145.3682272354786
 20
101.1271751869304
 10
145.3788468480914
 20
101.1938706616474
 10
145.358042767546
 20
101.2576321261657
 10
145.3065826259201
 20
101.316106900424
 10
145.226365207222
 20
101.3671373734492
 10
145.1203503857732
 20
101.4088406152098
 10
144.9924499123233
 20
101.4396778532494
 10
144.8473830776855
 20
101.4585112505431
 10
144.6905025796371
 20
101.4646458895786
 10
144.5275970182764
 20
101.4578554135267
 10
144.3646773073894
 20
101.4383903783891
 10
144.2077548828535
 20
101.4069690079458
 10
144.062619891777
 20
101.3647506926263
 10
143.9346275467836
 20
101.3132932101484
 10
143.8285005285761
 20
101.2544952464025
 10
143.7481547277574
 20
101.1905263374555
 10
143.6965547557115
 20
101.1237468176844
 10
143.6756045559304
 20
101.0566207278049
 10
143.6860771520213
 20
100.9916248963286
  0
LWPOLYLINE
  5
6CD
330
AC9
100
AcDbEntity
  8
2
  6
Continuous
 62
     7
100
AcDbPolyline
 90
       20
 70
     0
 43
0.0
 10
145.3265757737631
 20
99.9960066416235
 10
145.3682272354786
 20
100.0631751869305
 10
145.3788468480914
 20
100.1298706616475
 10
145.358042767546
 20
100.1936321261658
 10
145.3065826259201
 20
100.252106900424
 10
145.226365207222
 20
100.3031373734493
 10
145.1203503857732
 20
100.34484061521
 10
144.9924499123233
 20
100.3756778532495
 10
144.8473830776855
 20
100.3945112505431
 10
144.6905025796371
 20
100.4006458895787
 10
144.5275970182764
 20
100.3938554135268
 10
144.3646773073894
 20
100.3743903783892
 10
144.2077548828535
 20
100.3429690079459
 10
144.062619891777
 20
100.3007506926264
 10
143.9346275467836
 20
100.2492932101485
 10
143.8285005285761
 20
100.1904952464025
 10
143.7481547277574
 20
100.1265263374556
 10
143.6965547557115
 20
100.0597468176845
 10
143.6756045559304
 20
99.99262072780501
 10
143.6860771520213
 20
99.92762489632866
  0
LWPOLYLINE
  5
6CE
330
AC9
100
AcDbEntity
  8
2
  6
Continuous
 62
     7
100
AcDbPolyline
 90
       20
 70
     0
 43
0.0
 10
145.3265757737631
 20
100.7940066416234
 10
145.3682272354786
 20
100.8611751869304
 10
145.3788468480914
 20
100.9278706616475
 10
145.358042767546
 20
100.9916321261657
 10
145.3065826259201
 20
101.050106900424
 10
145.226365207222
 20
101.1011373734492
 10
145.1203503857732
 20
101.1428406152099
 10
144.9924499123233
 20
101.1736778532494
 10
144.8473830776855
 20
101.1925112505431
 10
144.6905025796371
 20
101.1986458895787
 10
144.5275970182764
 20
101.1918554135268
 10
144.3646773073894
 20
101.1723903783892
 10
144.2077548828535
 20
101.1409690079458
 10
144.062619891777
 20
101.0987506926263
 10
143.9346275467836
 20
101.0472932101484
 10
143.8285005285761
 20
100.9884952464025
 10
143.7481547277574
 20
100.9245263374555
 10
143.6965547557115
 20
100.8577468176844
 10
143.6756045559304
 20
100.7906207278049
 10
143.6860771520213
 20
100.7256248963286
  0
LWPOLYLINE
  5
6CF
330
AC9
100
AcDbEntity
  8
2
  6
Continuous
 62
     7
100
AcDbPolyline
 90
       20
 70
     0
 43
0.0
 10
145.3265757737631
 20
100.5280066416235
 10
145.3682272354786
 20
100.5951751869304
 10
145.3788468480914
 20
100.6618706616475
 10
145.358042767546
 20
100.7256321261658
 10
145.3065826259201
 20
100.784106900424
 10
145.226365207222
 20
100.8351373734493
 10
145.1203503857732
 20
100.8768406152099
 10
144.9924499123233
 20
100.9076778532495
 10
144.8473830776855
 20
100.9265112505431
 10
144.6905025796372
 20
100.9326458895787
 10
144.5275970182764
 20
100.9258554135268
 10
144.3646773073894
 20
100.9063903783892
 10
144.2077548828537
 20
100.8749690079459
 10
144.0626198917771
 20
100.8327506926264
 10
143.9346275467836
 20
100.7812932101485
 10
143.8285005285763
 20
100.7224952464025
 10
143.7481547277574
 20
100.6585263374556
 10
143.6965547557115
 20
100.5917468176844
 10
143.6756045559304
 20
100.5246207278049
 10
143.6860771520213
 20
100.4596248963286
  0
LWPOLYLINE
  5
6D0
330
AC9
100
AcDbEntity
  8
2
  6
Continuous
 62
     7
100
AcDbPolyline
 90
       20
 70
     0
 43
0.0
 10
145.3265757737631
 20
100.2620066416235
 10
145.3682272354786
 20
100.3291751869304
 10
145.3788468480914
 20
100.3958706616475
 10
145.358042767546
 20
100.4596321261658
 10
145.3065826259201
 20
100.518106900424
 10
145.226365207222
 20
100.5691373734493
 10
145.1203503857732
 20
100.6108406152099
 10
144.9924499123233
 20
100.6416778532494
 10
144.8473830776855
 20
100.6605112505431
 10
144.6905025796371
 20
100.6666458895787
 10
144.5275970182764
 20
100.6598554135268
 10
144.3646773073894
 20
100.6403903783892
 10
144.2077548828535
 20
100.6089690079458
 10
144.062619891777
 20
100.5667506926263
 10
143.9346275467836
 20
100.5152932101484
 10
143.8285005285761
 20
100.4564952464025
 10
143.7481547277574
 20
100.3925263374556
 10
143.6965547557115
 20
100.3257468176844
 10
143.6756045559304
 20
100.2586207278049
 10
143.6860771520213
 20
100.1936248963286
  0
LWPOLYLINE
  5
6D1
330
AC9
100
AcDbEntity
  8
2
  6
Continuous
 62
     7
100
AcDbPolyline
 90
       20
 70
     0
 43
0.0
 10
145.3265757737631
 20
101.5920066416234
 10
145.3682272354786
 20
101.6591751869304
 10
145.3788468480914
 20
101.7258706616474
 10
145.358042767546
 20
101.7896321261657
 10
145.3065826259201
 20
101.8481069004239
 10
145.226365207222
 20
101.8991373734492
 10
145.1203503857732
 20
101.9408406152098
 10
144.9924499123233
 20
101.9716778532494
 10
144.8473830776855
 20
101.990511250543
 10
144.6905025796371
 20
101.9966458895786
 10
144.5275970182764
 20
101.9898554135267
 10
144.3646773073894
 20
101.9703903783891
 10
144.2077548828535
 20
101.9389690079457
 10
144.062619891777
 20
101.8967506926263
 10
143.9346275467836
 20
101.8452932101484
 10
143.8285005285761
 20
101.7864952464025
 10
143.7481547277574
 20
101.7225263374555
 10
143.6965547557115
 20
101.6557468176843
 10
143.6756045559304
 20
101.5886207278048
 10
143.6860771520213
 20
101.5236248963285
  0
LWPOLYLINE
  5
6D2
330
AC9
100
AcDbEntity
  8
2
  6
Continuous
 62
     7
100
AcDbPolyline
 90
       20
 70
     0
 43
0.0
 10
145.3265757737631
 20
101.3260066416234
 10
145.3682272354786
 20
101.3931751869304
 10
145.3788468480914
 20
101.4598706616474
 10
145.358042767546
 20
101.5236321261657
 10
145.3065826259201
 20
101.5821069004239
 10
145.226365207222
 20
101.6331373734492
 10
145.1203503857732
 20
101.6748406152099
 10
144.9924499123233
 20
101.7056778532494
 10
144.8473830776855
 20
101.7245112505431
 10
144.6905025796371
 20
101.7306458895786
 10
144.5275970182764
 20
101.7238554135267
 10
144.3646773073894
 20
101.7043903783892
 10
144.2077548828535
 20
101.6729690079458
 10
144.062619891777
 20
101.6307506926263
 10
143.9346275467836
 20
101.5792932101484
 10
143.8285005285761
 20
101.5204952464025
 10
143.7481547277574
 20
101.4565263374555
 10
143.6965547557115
 20
101.3897468176844
 10
143.6756045559304
 20
101.3226207278049
 10
143.6860771520213
 20
101.2576248963286
  0
LINE
  5
6D3
330
AC9
100
AcDbEntity
  8
2
  6
Continuous
 62
     7
100
AcDbLine
 10
150.3919026771377
 20
101.9568466281881
 30
0.0
 11
150.3919026771377
 21
100.6858048949908
 31
0.0
  0
LINE
  5
6D4
330
AC9
100
AcDbEntity
  8
2
  6
Continuous
 62
     7
100
AcDbLine
 10
147.9114898421118
 20
103.1134821285466
 30
0.0
 11
147.9114898421118
 21
101.7386776772621
 31
0.0
  0
LINE
  5
6D5
330
AC9
100
AcDbEntity
  8
2
  6
Continuous
 62
     7
100
AcDbLine
 10
142.64292029894
 20
98.46659091364955
 30
0.0
 11
142.64292029894
 21
97.36697863591636
 31
0.0
  0
LINE
  5
6D6
330
AC9
100
AcDbEntity
  8
2
  6
Continuous
 62
     7
100
AcDbLine
 10
142.4005987084277
 20
100.4169263194476
 30
0.0
 11
142.2678618916614
 21
100.5068002057994
 31
0.0
  0
LINE
  5
6D7
330
AC9
100
AcDbEntity
  8
2
  6
Continuous
 62
     7
100
AcDbLine
 10
142.0343324176737
 20
100.5494507983537
 30
0.0
 11
142.2678618916614
 21
100.5068002057994
 31
0.0
  0
LINE
  5
6D8
330
AC9
100
AcDbEntity
  8
2
  6
Continuous
 62
     7
100
AcDbLine
 10
141.827489503876
 20
100.0246484294781
 30
0.0
 11
141.827489503876
 21
100.4634476920903
 31
0.0
  0
LINE
  5
6D9
330
AC9
100
AcDbEntity
  8
2
  6
Continuous
 62
     7
100
AcDbLine
 10
142.0343324176737
 20
100.1106515357414
 30
0.0
 11
142.0343324176737
 21
100.5494507983537
 31
0.0
  0
LINE
  5
6DA
330
AC9
100
AcDbEntity
  8
2
  6
Continuous
 62
     7
100
AcDbLine
 10
141.827489503876
 20
100.4634476920903
 30
0.0
 11
142.0343324176737
 21
100.5494507983537
 31
0.0
  0
LINE
  5
6DB
330
AC9
100
AcDbEntity
  8
2
  6
Continuous
 62
     7
100
AcDbLine
 10
141.827489503876
 20
100.0246484294779
 30
0.0
 11
142.0343324176737
 21
100.1106515357413
 31
0.0
  0
LINE
  5
6DC
330
AC9
100
AcDbEntity
  8
2
  6
Continuous
 62
     7
100
AcDbLine
 10
141.9357570665935
 20
99.92376274603692
 30
0.0
 11
141.965080041169
 21
99.9184073524767
 31
0.0
  0
LINE
  5
6DD
330
AC9
100
AcDbEntity
  8
2
  6
Continuous
 62
     7
100
AcDbLine
 10
142.4005987084279
 20
99.97812705683513
 30
0.0
 11
142.4005987084276
 21
100.4169263194475
 31
0.0
  0
LINE
  5
6DE
330
AC9
100
AcDbEntity
  8
2
  6
Continuous
 62
     7
100
AcDbLine
 10
142.0343324176737
 20
100.1106515357413
 30
0.0
 11
142.2678618916614
 21
100.0680009431871
 31
0.0
  0
LINE
  5
6DF
330
AC9
100
AcDbEntity
  8
2
  6
Continuous
 62
     7
100
AcDbLine
 10
141.827489503876
 20
100.0246484294779
 30
0.0
 11
141.9357570665935
 21
99.92376274603692
 31
0.0
  0
LINE
  5
6E0
330
AC9
100
AcDbEntity
  8
2
  6
Continuous
 62
     7
100
AcDbLine
 10
142.4005987084277
 20
99.97812705683536
 30
0.0
 11
142.2678618916614
 21
100.0680009431871
 31
0.0
  0
LINE
  5
6E1
330
AC9
100
AcDbEntity
  8
2
  6
Continuous
 62
     7
100
AcDbLine
 10
141.1613746756854
 20
97.99585744205359
 30
0.0
 11
141.1613746756854
 21
97.34844496737068
 31
0.0
  0
LINE
  5
6E2
330
AC9
100
AcDbEntity
  8
2
  6
Continuous
 62
     7
100
AcDbLine
 10
142.4005987084277
 20
99.97812705683536
 30
0.0
 11
142.2597082174399
 21
99.90830522059344
 31
0.0
  0
LINE
  5
6E3
330
AC9
100
AcDbEntity
  8
2
  6
Continuous
 62
     7
100
AcDbLine
 10
141.7440459029003
 20
97.7485281799708
 30
0.0
 11
141.7440459029004
 21
97.10111570528788
 31
0.0
  0
LINE
  5
6E4
330
AC9
100
AcDbEntity
  8
2
  6
Continuous
 62
     7
100
AcDbLine
 10
142.2678618916614
 20
100.0680009431871
 30
0.0
 11
142.2678618916614
 21
100.5068002057994
 31
0.0
  0
LINE
  5
6E5
330
AC9
100
AcDbEntity
  8
2
  6
Continuous
 62
     7
100
AcDbLine
 10
141.965080041169
 20
99.80936451757791
 30
0.0
 11
140.6287301179828
 21
100.4985320778478
 31
0.0
  0
LINE
  5
6E6
330
AC9
100
AcDbEntity
  8
2
  6
Continuous
 62
     7
100
AcDbLine
 10
140.1093294043254
 20
99.64802375044001
 30
0.0
 11
140.1093294043256
 21
98.44242416525808
 31
0.0
  0
LINE
  5
6E7
330
AC9
100
AcDbEntity
  8
2
  6
Continuous
 62
     7
100
AcDbLine
 10
143.1783739428908
 20
99.23017067725165
 30
0.0
 11
143.9780904288276
 21
99.60280710599331
 31
0.0
  0
LINE
  5
6E8
330
AC9
100
AcDbEntity
  8
2
  6
Continuous
 62
     7
100
AcDbLine
 10
145.3283709779967
 20
100.2319847339276
 30
0.0
 11
147.7082171178354
 21
101.340899433198
 31
0.0
  0
LINE
  5
6E9
330
AC9
100
AcDbEntity
  8
20
  6
Continuous
 62
     7
100
AcDbLine
 10
147.7082171178354
 20
103.2082697565707
 30
0.0
 11
147.7082171178354
 21
99.0261239967921
 31
0.0
  0
LINE
  5
6EA
330
AC9
100
AcDbEntity
  8
20
  6
Continuous
 62
     7
100
AcDbLine
 10
148.129114512508
 20
101.6463014852931
 30
0.0
 11
148.129114512508
 21
98.97660665624259
 31
0.0
  0
LWPOLYLINE
  5
6EB
330
AC9
100
AcDbEntity
  8
20
  6
Continuous
 62
     7
100
AcDbPolyline
 90
       32
 70
     1
 43
0.0
 10
147.7081220350158
 20
99.02843290299664
 10
147.7104527190847
 20
99.0114903790436
 10
147.720826822172
 20
98.99434413552114
 10
147.7388456733143
 20
98.97765309295209
 10
147.7638168181671
 20
98.96205867874186
 10
147.7947806296376
 20
98.94816017748324
 10
147.8305471858162
 20
98.93649170078512
 10
147.8697419980065
 20
98.92750166166329
 10
147.910858831557
 20
98.92153554227952
 10
147.9523175896129
 20
98.91882261725589
 10
147.9925250353524
 20
98.91946714277963
 10
148.0299360191844
 20
98.92344435009633
 10
148.0631128579805
 20
98.93060139735924
 10
148.0907805844316
 20
98.94066324325578
 10
148.1118759433264
 20
98.95324321669091
 10
148.125588251853
 20
98.96785787634035
 10
148.1313905536847
 20
98.98394558902992
 10
148.129059869616
 20
99.00088811298292
 10
148.1186857665286
 20
99.01803435650538
 10
148.1006669153864
 20
99.03472539907445
 10
148.0756957705336
 20
99.05031981328464
 10
148.0447319590629
 20
99.06421831454329
 10
148.0089654028845
 20
99.0758867912414
 10
147.9697705906941
 20
99.08487683036325
 10
147.9286537571437
 20
99.09084294974702
 10
147.8871949990878
 20
99.09355587477065
 10
147.8469875533482
 20
99.09291134924689
 10
147.8095765695162
 20
99.0889341419302
 10
147.7763997307201
 20
99.08177709466729
 10
147.748732004269
 20
99.07171524877071
 10
147.7276366453742
 20
99.05913527533563
 10
147.7139243368475
 20
99.04452061568612
  0
LWPOLYLINE
  5
6EC
330
AC9
100
AcDbEntity
  8
20
  6
Continuous
 62
     7
100
AcDbPolyline
 90
       17
 70
     0
 43
0.0
 10
142.2577381136067
 20
99.9664399987424
 10
142.2564765229606
 20
99.97798632383151
 10
142.24983382678
 20
99.98977648179943
 10
142.2380565513863
 20
100.0013729117238
 10
142.2215817795982
 20
100.0123452423929
 10
142.2010209295457
 20
100.0222862644088
 10
142.1771370634827
 20
100.0308270427012
 10
142.1508165687236
 20
100.0376506085884
 10
142.1230362616938
 20
100.0425037232428
 10
142.0948271359387
 20
100.0452062759882
 10
142.0672360994904
 20
100.0456579686373
 10
142.0412871216114
 20
100.0438420377971
 10
142.0179432308477
 20
100.0398258769984
 10
141.9980707747412
 20
100.0337585355606
 10
141.9824072676019
 20
100.0258651870159
 10
141.9715340195911
 20
100.0164387723818
 10
141.9658545629125
 20
100.0058291284195
  0
LINE
  5
6ED
330
AC9
100
AcDbEntity
  8
20
  6
Continuous
 62
     7
100
AcDbLine
 10
141.965080041169
 20
100.0011825216112
 30
0.0
 11
141.965080041169
 21
96.55875543160851
 31
0.0
  0
LINE
  5
6EE
330
AC9
100
AcDbEntity
  8
20
  6
Continuous
 62
     7
100
AcDbLine
 10
142.2597082174399
 20
99.97719891382729
 30
0.0
 11
142.2597082174399
 21
96.53291085474242
 31
0.0
  0
LWPOLYLINE
  5
6EF
330
AC9
100
AcDbEntity
  8
20
  6
Continuous
 62
     7
100
AcDbPolyline
 90
       32
 70
     1
 43
0.0
 10
141.9660677109608
 20
96.5696097833287
 10
141.9674768017794
 20
96.55784985524531
 10
141.9744530517396
 20
96.54585164455854
 10
141.9867283674683
 20
96.53407623577631
 10
142.0038310154657
 20
96.52297615125441
 10
142.0251037505606
 20
96.51297796101601
 10
142.0497290734733
 20
96.50446588990497
 10
142.0767606468542
 20
96.49776705204038
 10
142.1051596624978
 20
96.4931388800047
 10
142.1338347621592
 20
96.49075923185371
 10
142.1616839778397
 20
96.49071955613138
 10
142.1876370797988
 20
96.49302137755341
 10
142.2106967048826
 20
96.49757623841349
 10
142.2299766846313
 20
96.50420909796309
 10
142.2447361002355
 20
96.5126650591295
 10
142.2544077556306
 20
96.52261916406727
 10
142.2586199745238
 20
96.53368888210597
 10
142.2572108837053
 20
96.54544881018928
 10
142.2502346337449
 20
96.55744702087609
 10
142.2379593180163
 20
96.56922242965832
 10
142.220856670019
 20
96.58032251418026
 10
142.199583934924
 20
96.5903207044186
 10
142.1749586120114
 20
96.59883277552969
 10
142.1479270386305
 20
96.60553161339425
 10
142.1195280229869
 20
96.61015978542993
 10
142.0908529233254
 20
96.61253943358092
 10
142.0630037076449
 20
96.61257910930324
 10
142.0370506056859
 20
96.6102772878812
 10
142.0139909806021
 20
96.60572242702116
 10
141.9947110008533
 20
96.59908956747157
 10
141.9799515852492
 20
96.59063360630511
 10
141.970279929854
 20
96.58067950136739
  0
ENDSEC
  0
SECTION
  2
OBJECTS
  0
DICTIONARY
  5
AB5
330
0
100
AcDbDictionary
281
     1
  3
ACAD_COLOR
350
AC4
  3
ACAD_GROUP
350
AB6
  3
ACAD_LAYOUT
350
AC2
  3
ACAD_MATERIAL
350
AC3
  3
ACAD_MLINESTYLE
350
ABF
  3
ACAD_PLOTSETTINGS
350
AC1
  3
ACAD_PLOTSTYLENAME
350
AB7
  0
DICTIONARY
  5
AC4
102
{ACAD_REACTORS
330
AB5
102
}
330
AB5
100
AcDbDictionary
281
     1
  0
DICTIONARY
  5
AB6
102
{ACAD_REACTORS
330
AB5
102
}
330
AB5
100
AcDbDictionary
281
     1
  0
DICTIONARY
  5
AC2
102
{ACAD_REACTORS
330
AB5
102
}
330
AB5
100
AcDbDictionary
281
     1
  3
Model
350
ACC
  3
レイアウト1
350
AC8
  0
DICTIONARY
  5
AC3
102
{ACAD_REACTORS
330
AB5
102
}
330
AB5
100
AcDbDictionary
281
     1
  0
DICTIONARY
  5
ABF
102
{ACAD_REACTORS
330
AB5
102
}
330
AB5
100
AcDbDictionary
281
     1
  3
Standard
350
AC0
  0
DICTIONARY
  5
AC1
102
{ACAD_REACTORS
330
AB5
102
}
330
AB5
100
AcDbDictionary
281
     1
  0
ACDBDICTIONARYWDFLT
  5
AB7
102
{ACAD_REACTORS
330
AB5
102
}
330
AB5
100
AcDbDictionary
281
     1
  3
Normal
350
AB8
100
AcDbDictionaryWithDefault
340
AB8
  0
LAYOUT
  5
ACC
102
{ACAD_REACTORS
330
AC2
102
}
330
AC2
100
AcDbPlotSettings
  1

  2
DocuCentre-IV C4470
  4

  6

 40
0.0
 41
0.0
 42
0.0
 43
0.0
 44
0.0
 45
0.0
 46
0.0
 47
0.0
 48
0.0
 49
0.0
140
0.0
141
0.0
142
1.0
143
1.0
 70
  1712
 72
     0
 73
     0
 74
     0
  7

 75
     0
147
1.0
 76
     0
 77
     2
 78
   300
148
0.0
149
0.0
100
AcDbLayout
  1
Model
 70
     1
 71
     0
 10
0.0
 20
0.0
 11
12.0
 21
9.0
 12
0.0
 22
0.0
 32
0.0
 14
0.0
 24
0.0
 34
0.0
 15
0.0
 25
0.0
 35
0.0
146
0.0
 13
0.0
 23
0.0
 33
0.0
 16
1.0
 26
0.0
 36
0.0
 17
0.0
 27
1.0
 37
0.0
 76
     0
330
AC9
  0
LAYOUT
  5
AC8
102
{ACAD_REACTORS
330
AC2
102
}
330
AC2
100
AcDbPlotSettings
  1

  2
DocuCentre-IV C4470
  4

  6

 40
0.0
 41
0.0
 42
0.0
 43
0.0
 44
0.0
 45
0.0
 46
0.0
 47
0.0
 48
0.0
 49
0.0
140
0.0
141
0.0
142
1.0
143
1.0
 70
   688
 72
     0
 73
     0
 74
     5
  7

 75
    16
147
1.0
 76
     0
 77
     2
 78
   300
148
0.0
149
0.0
100
AcDbLayout
  1
レイアウト1
 70
     1
 71
     1
 10
0.0
 20
0.0
 11
12.0
 21
9.0
 12
0.0
 22
0.0
 32
0.0
 14
1.000000000000000E+20
 24
1.000000000000000E+20
 34
1.000000000000000E+20
 15
-1.000000000000000E+20
 25
-1.000000000000000E+20
 35
-1.000000000000000E+20
146
0.0
 13
0.0
 23
0.0
 33
0.0
 16
1.0
 26
0.0
 36
0.0
 17
0.0
 27
1.0
 37
0.0
 76
     0
330
AC5
  0
MLINESTYLE
  5
AC0
102
{ACAD_REACTORS
330
ABF
102
}
330
ABF
100
AcDbMlineStyle
  2
STANDARD
 70
     0
  3

 62
   256
 51
90.0
 52
90.0
 71
     2
 49
0.5
 62
   256
  6
BYLAYER
 49
-0.5
 62
   256
  6
BYLAYER
  0
ACDBPLACEHOLDER
  5
AB8
102
{ACAD_REACTORS
330
AB7
102
}
330
AB7
  0
ENDSEC
  0
EOF
