  0
SECTION
  2
HEADER
  9
$ACADVER
  1
AC1015
  9
$ACADMAINTVER
 70
     6
  9
$DWGCODEPAGE
  3
DOS932
  9
$INSBASE
 10
0.0
 20
0.0
 30
0.0
  9
$EXTMIN
 10
0.0
 20
0.0
 30
0.0
  9
$EXTMAX
 10
210.0
 20
297.0
 30
0.0
  9
$LIMMIN
 10
0.0
 20
0.0
  9
$LIMMAX
 10
210.0
 20
297.0
  9
$ORTHOMODE
 70
     0
  9
$REGENMODE
 70
     1
  9
$FILLMODE
 70
     1
  9
$QTEXTMODE
 70
     0
  9
$MIRRTEXT
 70
     1
  9
$LTSCALE
 40
1.0
  9
$ATTMODE
 70
     1
  9
$TEXTSIZE
 40
3.5
  9
$TRACEWID
 40
1.0
  9
$TEXTSTYLE
  7
Standard
  9
$CLAYER
  8
0
  9
$CELTYPE
  6
ByLayer
  9
$CECOLOR
 62
   256
  9
$CELTSCALE
 40
1.0
  9
$DISPSILH
 70
     0
  9
$DIMSCALE
 40
1.0
  9
$DIMASZ
 40
2.0
  9
$DIMEXO
 40
1.0
  9
$DIMDLI
 40
3.75
  9
$DIMRND
 40
0.0
  9
$DIMDLE
 40
0.0
  9
$DIMEXE
 40
1.0
  9
$DIMTP
 40
0.0
  9
$DIMTM
 40
0.0
  9
$DIMTXT
 40
3.5
  9
$DIMCEN
 40
2.5
  9
$DIMTSZ
 40
0.0
  9
$DIMTOL
 70
     0
  9
$DIMLIM
 70
     0
  9
$DIMTIH
 70
     1
  9
$DIMTOH
 70
     1
  9
$DIMSE1
 70
     0
  9
$DIMSE2
 70
     0
  9
$DIMTAD
 70
     1
  9
$DIMZIN
 70
     0
  9
$DIMBLK
  1

  9
$DIMASO
 70
     1
  9
$DIMSHO
 70
     1
  9
$DIMPOST
  1

  9
$DIMAPOST
  1

  9
$DIMALT
 70
     0
  9
$DIMALTD
 70
     3
  9
$DIMALTF
 40
0.0393700787
  9
$DIMLFAC
 40
5.0
  9
$DIMTOFL
 70
     1
  9
$DIMTVP
 40
0.0
  9
$DIMTIX
 70
     0
  9
$DIMSOXD
 70
     0
  9
$DIMSAH
 70
     0
  9
$DIMBLK1
  1

  9
$DIMBLK2
  1

  9
$DIMSTYLE
  2
ISO-25
  9
$DIMCLRD
 70
     0
  9
$DIMCLRE
 70
     0
  9
$DIMCLRT
 70
     0
  9
$DIMTFAC
 40
1.0
  9
$DIMGAP
 40
1.524
  9
$DIMJUST
 70
     0
  9
$DIMSD1
 70
     0
  9
$DIMSD2
 70
     0
  9
$DIMTOLJ
 70
     0
  9
$DIMTZIN
 70
     0
  9
$DIMALTZ
 70
     0
  9
$DIMALTTZ
 70
     0
  9
$DIMUPT
 70
     0
  9
$DIMDEC
 70
     1
  9
$DIMTDEC
 70
     1
  9
$DIMALTU
 70
     2
  9
$DIMALTTD
 70
     3
  9
$DIMTXSTY
  7
Standard
  9
$DIMAUNIT
 70
     0
  9
$DIMADEC
 70
     1
  9
$DIMALTRND
 40
0.0
  9
$DIMAZIN
 70
     0
  9
$DIMDSEP
 70
    44
  9
$DIMATFIT
 70
     3
  9
$DIMFRAC
 70
     0
  9
$DIMLDRBLK
  1

  9
$DIMLUNIT
 70
     2
  9
$DIMLWD
 70
    -2
  9
$DIMLWE
 70
    -2
  9
$DIMTMOVE
 70
     0
  9
$LUNITS
 70
     2
  9
$LUPREC
 70
     1
  9
$SKETCHINC
 40
1.0
  9
$FILLETRAD
 40
10.0
  9
$AUNITS
 70
     0
  9
$AUPREC
 70
     1
  9
$MENU
  1
.
  9
$ELEVATION
 40
0.0
  9
$PELEVATION
 40
0.0
  9
$THICKNESS
 40
0.0
  9
$LIMCHECK
 70
     0
  9
$CHAMFERA
 40
10.0
  9
$CHAMFERB
 40
10.0
  9
$CHAMFERC
 40
20.0
  9
$CHAMFERD
 40
0.0
  9
$SKPOLY
 70
     0
  9
$TDCREATE
 40
2456469.841848067
  9
$TDUCREATE
 40
2456469.466848067
  9
$TDUPDATE
 40
2456469.841848079
  9
$TDUUPDATE
 40
2456469.466848079
  9
$TDINDWG
 40
0.0000000116
  9
$TDUSRTIMER
 40
0.0000000116
  9
$USRTIMER
 70
     1
  9
$ANGBASE
 50
0.0
  9
$ANGDIR
 70
     0
  9
$PDMODE
 70
     0
  9
$PDSIZE
 40
-1.0
  9
$PLINEWID
 40
0.0
  9
$SPLFRAME
 70
     0
  9
$SPLINETYPE
 70
     6
  9
$SPLINESEGS
 70
     8
  9
$HANDSEED
  5
B8
  9
$SURFTAB1
 70
     6
  9
$SURFTAB2
 70
     6
  9
$SURFTYPE
 70
     6
  9
$SURFU
 70
     6
  9
$SURFV
 70
     6
  9
$UCSBASE
  2

  9
$UCSNAME
  2

  9
$UCSORG
 10
0.0
 20
0.0
 30
0.0
  9
$UCSXDIR
 10
1.0
 20
0.0
 30
0.0
  9
$UCSYDIR
 10
0.0
 20
1.0
 30
0.0
  9
$UCSORTHOREF
  2

  9
$UCSORTHOVIEW
 70
     0
  9
$UCSORGTOP
 10
0.0
 20
0.0
 30
0.0
  9
$UCSORGBOTTOM
 10
0.0
 20
0.0
 30
0.0
  9
$UCSORGLEFT
 10
0.0
 20
0.0
 30
0.0
  9
$UCSORGRIGHT
 10
0.0
 20
0.0
 30
0.0
  9
$UCSORGFRONT
 10
0.0
 20
0.0
 30
0.0
  9
$UCSORGBACK
 10
0.0
 20
0.0
 30
0.0
  9
$PUCSBASE
  2

  9
$PUCSNAME
  2

  9
$PUCSORG
 10
0.0
 20
0.0
 30
0.0
  9
$PUCSXDIR
 10
1.0
 20
0.0
 30
0.0
  9
$PUCSYDIR
 10
0.0
 20
1.0
 30
0.0
  9
$PUCSORTHOREF
  2

  9
$PUCSORTHOVIEW
 70
     0
  9
$PUCSORGTOP
 10
0.0
 20
0.0
 30
0.0
  9
$PUCSORGBOTTOM
 10
0.0
 20
0.0
 30
0.0
  9
$PUCSORGLEFT
 10
0.0
 20
0.0
 30
0.0
  9
$PUCSORGRIGHT
 10
0.0
 20
0.0
 30
0.0
  9
$PUCSORGFRONT
 10
0.0
 20
0.0
 30
0.0
  9
$PUCSORGBACK
 10
0.0
 20
0.0
 30
0.0
  9
$USERI1
 70
     0
  9
$USERI2
 70
     0
  9
$USERI3
 70
     0
  9
$USERI4
 70
     0
  9
$USERI5
 70
     0
  9
$USERR1
 40
0.0
  9
$USERR2
 40
0.0
  9
$USERR3
 40
0.0
  9
$USERR4
 40
0.0
  9
$USERR5
 40
0.0
  9
$WORLDVIEW
 70
     1
  9
$SHADEDGE
 70
     3
  9
$SHADEDIF
 70
    70
  9
$TILEMODE
 70
     1
  9
$MAXACTVP
 70
    64
  9
$PINSBASE
 10
0.0
 20
0.0
 30
0.0
  9
$PLIMCHECK
 70
     0
  9
$PEXTMIN
 10
1.0000000000E+20
 20
1.0000000000E+20
 30
1.0000000000E+20
  9
$PEXTMAX
 10
-1.0000000000E+20
 20
-1.0000000000E+20
 30
-1.0000000000E+20
  9
$PLIMMIN
 10
0.0
 20
0.0
  9
$PLIMMAX
 10
420.0
 20
297.0
  9
$UNITMODE
 70
     0
  9
$VISRETAIN
 70
     1
  9
$PLINEGEN
 70
     0
  9
$PSLTSCALE
 70
     1
  9
$TREEDEPTH
 70
  3020
  9
$CMLSTYLE
  2
Standard
  9
$CMLJUST
 70
     0
  9
$CMLSCALE
 40
20.0
  9
$PROXYGRAPHICS
 70
     1
  9
$MEASUREMENT
 70
     1
  9
$CELWEIGHT
370
    -1
  9
$ENDCAPS
280
     0
  9
$JOINSTYLE
280
     0
  9
$LWDISPLAY
290
     1
  9
$INSUNITS
 70
     4
  9
$HYPERLINKBASE
  1

  9
$STYLESHEET
  1

  9
$XEDIT
290
     1
  9
$CEPSNTYPE
380
     0
  9
$PSTYLEMODE
290
     1
  9
$FINGERPRINTGUID
  2
{9249C64A-E853-4127-8AA2-4EA824FFF4DE}
  9
$VERSIONGUID
  2
{FAEB1C32-E019-11D5-929B-00C0DF256EC4}
  9
$EXTNAMES
290
     1
  9
$PSVPSCALE
 40
0.0
  9
$OLESTARTUP
290
     0
  0
ENDSEC
  0
SECTION
  2
CLASSES
  0
CLASS
  1
ACDBDICTIONARYWDFLT
  2
AcDbDictionaryWithDefault
  3
ObjectDBX Classes
 90
        0
280
     0
281
     0
  0
CLASS
  1
VISUALSTYLE
  2
AcDbVisualStyle
  3
ObjectDBX Classes
 90
     4095
280
     0
281
     0
  0
CLASS
  1
MATERIAL
  2
AcDbMaterial
  3
ObjectDBX Classes
 90
     1153
280
     0
281
     0
  0
CLASS
  1
ACDBPLACEHOLDER
  2
AcDbPlaceHolder
  3
ObjectDBX Classes
 90
        0
280
     0
281
     0
  0
CLASS
  1
LAYOUT
  2
AcDbLayout
  3
ObjectDBX Classes
 90
        0
280
     0
281
     0
  0
ENDSEC
  0
SECTION
  2
TABLES
  0
TABLE
  2
VPORT
  5
8
330
0
100
AcDbSymbolTable
 70
     1
  0
VPORT
  5
29
330
8
100
AcDbSymbolTableRecord
100
AcDbViewportTableRecord
  2
*Active
 70
     0
 10
0.0
 20
0.0
 11
1.0
 21
1.0
 12
105.0
 22
148.5
 13
0.0
 23
0.0
 14
10.0
 24
10.0
 15
10.0
 25
10.0
 16
0.0
 26
0.0
 36
1.0
 17
0.0
 27
0.0
 37
0.0
 40
297.0
 41
0.7070707071
 42
50.0
 43
0.0
 44
0.0
 50
0.0
 51
0.0
 71
     0
 72
  2000
 73
     1
 74
     3
 75
     0
 76
     0
 77
     0
 78
     0
281
     0
 65
     1
110
0.0
120
0.0
130
0.0
111
1.0
121
0.0
131
0.0
112
0.0
122
1.0
132
0.0
 79
     0
146
0.0
  0
ENDTAB
  0
TABLE
  2
LTYPE
  5
5
330
0
100
AcDbSymbolTable
 70
     6
  0
LTYPE
  5
14
330
5
100
AcDbSymbolTableRecord
100
AcDbLinetypeTableRecord
  2
ByBlock
 70
     0
  3

 72
    65
 73
     0
 40
0.0
  0
LTYPE
  5
15
330
5
100
AcDbSymbolTableRecord
100
AcDbLinetypeTableRecord
  2
ByLayer
 70
     0
  3

 72
    65
 73
     0
 40
0.0
  0
LTYPE
  5
16
330
5
100
AcDbSymbolTableRecord
100
AcDbLinetypeTableRecord
  2
Continuous
 70
     0
  3
Solid line
 72
    65
 73
     0
 40
0.0
  0
LTYPE
  5
3F
330
5
100
AcDbSymbolTableRecord
100
AcDbLinetypeTableRecord
  2
HIDDEN
 70
     0
  3
Hidden __ __ __ __ __ __ __ __ __ __ __ __ __ __
 72
    65
 73
     2
 40
1.905
 49
1.27
 74
     0
 49
-0.635
 74
     0
  0
LTYPE
  5
40
330
5
100
AcDbSymbolTableRecord
100
AcDbLinetypeTableRecord
  2
PHANTOM
 70
     0
  3
Phantom ______  __  __  ______  __  __  ______
 72
    65
 73
     6
 40
12.7
 49
6.35
 74
     0
 49
-1.27
 74
     0
 49
1.27
 74
     0
 49
-1.27
 74
     0
 49
1.27
 74
     0
 49
-1.27
 74
     0
  0
LTYPE
  5
41
330
5
100
AcDbSymbolTableRecord
100
AcDbLinetypeTableRecord
  2
CENTER
 70
     0
  3
Center ____ _ ____ _ ____ _ ____ _ ____ _ ____
 72
    65
 73
     4
 40
10.16
 49
6.35
 74
     0
 49
-1.27
 74
     0
 49
1.27
 74
     0
 49
-1.27
 74
     0
  0
LTYPE
  5
42
330
5
100
AcDbSymbolTableRecord
100
AcDbLinetypeTableRecord
  2
CENTERX2
 70
     0
  3
Center (2x) ________  __  ________  __  _____
 72
    65
 73
     4
 40
20.32
 49
12.7
 74
     0
 49
-2.54
 74
     0
 49
2.54
 74
     0
 49
-2.54
 74
     0
  0
LTYPE
  5
43
330
5
100
AcDbSymbolTableRecord
100
AcDbLinetypeTableRecord
  2
DOT2
 70
     0
  3
Dot (.5x) ........................................
 72
    65
 73
     2
 40
0.635
 49
0.0
 74
     0
 49
-0.635
 74
     0
  0
ENDTAB
  0
TABLE
  2
LAYER
  5
2
330
0
100
AcDbSymbolTable
 70
     4
  0
LAYER
  5
10
330
2
100
AcDbSymbolTableRecord
100
AcDbLayerTableRecord
  2
0
 70
     0
 62
     7
  6
Continuous
370
    -3
390
F
  0
LAYER
  5
44
330
2
100
AcDbSymbolTableRecord
100
AcDbLayerTableRecord
  2
FORMAT
 70
     0
 62
     7
  6
Continuous
370
    -3
390
F
  0
LAYER
  5
45
330
2
100
AcDbSymbolTableRecord
100
AcDbLayerTableRecord
  2
図枠
 70
     0
 62
     7
  6
Continuous
370
    15
390
F
  0
LAYER
  5
46
330
2
100
AcDbSymbolTableRecord
100
AcDbLayerTableRecord
  2
ﾚｲﾔｰ2
 70
     0
 62
     7
  6
Continuous
370
    -3
390
F
  0
ENDTAB
  0
TABLE
  2
STYLE
  5
3
330
0
100
AcDbSymbolTable
 70
     1
  0
STYLE
  5
11
330
3
100
AcDbSymbolTableRecord
100
AcDbTextStyleTableRecord
  2
Standard
 70
     0
 40
0.0
 41
1.0
 50
0.0
 71
     0
 42
2.5
  3
txt
  4
bigfont
  0
ENDTAB
  0
TABLE
  2
VIEW
  5
6
330
0
100
AcDbSymbolTable
 70
     0
  0
ENDTAB
  0
TABLE
  2
UCS
  5
7
330
0
100
AcDbSymbolTable
 70
     0
  0
ENDTAB
  0
TABLE
  2
APPID
  5
9
330
0
100
AcDbSymbolTable
 70
     1
  0
APPID
  5
12
330
9
100
AcDbSymbolTableRecord
100
AcDbRegAppTableRecord
  2
ACAD
 70
     0
  0
ENDTAB
  0
TABLE
  2
DIMSTYLE
  5
A
330
0
100
AcDbSymbolTable
 70
     1
100
AcDbDimStyleTable
  0
DIMSTYLE
105
27
330
A
100
AcDbSymbolTableRecord
100
AcDbDimStyleTableRecord
  2
ISO-25
 70
     0
 41
2.5
 42
0.625
 43
3.75
 44
1.25
 73
     0
 74
     0
 77
     1
 78
     8
140
2.5
141
2.5
143
0.0393700787
147
0.625
171
     3
172
     1
271
     2
272
     2
274
     3
278
    44
283
     0
284
     8
340
11
  0
ENDTAB
  0
TABLE
  2
BLOCK_RECORD
  5
1
330
0
100
AcDbSymbolTable
 70
     1
  0
BLOCK_RECORD
  5
1F
330
1
100
AcDbSymbolTableRecord
100
AcDbBlockTableRecord
  2
*Model_Space
340
22
  0
BLOCK_RECORD
  5
1B
330
1
100
AcDbSymbolTableRecord
100
AcDbBlockTableRecord
  2
*Paper_Space
340
1E
  0
BLOCK_RECORD
  5
23
330
1
100
AcDbSymbolTableRecord
100
AcDbBlockTableRecord
  2
*Paper_Space0
340
26
  0
ENDTAB
  0
ENDSEC
  0
SECTION
  2
BLOCKS
  0
BLOCK
  5
20
330
1F
100
AcDbEntity
  8
0
100
AcDbBlockBegin
  2
*Model_Space
 70
     0
 10
0.0
 20
0.0
 30
0.0
  3
*Model_Space
  1

  0
ENDBLK
  5
21
330
1F
100
AcDbEntity
  8
0
100
AcDbBlockEnd
  0
BLOCK
  5
1C
330
1B
100
AcDbEntity
 67
     1
  8
0
100
AcDbBlockBegin
  2
*Paper_Space
 70
     0
 10
0.0
 20
0.0
 30
0.0
  3
*Paper_Space
  1

  0
ENDBLK
  5
1D
330
1B
100
AcDbEntity
 67
     1
  8
0
100
AcDbBlockEnd
  0
BLOCK
  5
24
330
23
100
AcDbEntity
  8
0
100
AcDbBlockBegin
  2
*Paper_Space0
 70
     0
 10
0.0
 20
0.0
 30
0.0
  3
*Paper_Space0
  1

  0
ENDBLK
  5
25
330
23
100
AcDbEntity
  8
0
100
AcDbBlockEnd
  0
ENDSEC
  0
SECTION
  2
ENTITIES
  0
LINE
  5
47
330
1F
100
AcDbEntity
  8
0
  6
Continuous
 62
     7
370
    15
100
AcDbLine
 10
87.2956266214
 20
236.5473835416
 30
0.0
 11
88.834048701
 21
213.8866827684
 31
0.0
  0
LINE
  5
48
330
1F
100
AcDbEntity
  8
0
  6
Continuous
 62
     7
370
    15
100
AcDbLine
 10
120.8156287184
 20
213.8866827684
 30
0.0
 11
122.3540507979
 21
236.5473835416
 31
0.0
  0
LINE
  5
49
330
1F
100
AcDbEntity
  8
0
  6
Continuous
 62
     7
370
    15
100
AcDbLine
 10
91.7608934148
 20
209.5392820232
 30
0.0
 11
92.9856382862
 21
208.6732566195
 31
0.0
  0
LINE
  5
4A
330
1F
100
AcDbEntity
  8
0
  6
Continuous
 62
     7
370
    15
100
AcDbLine
 10
116.6640391331
 20
208.6732566195
 30
0.0
 11
117.8887840045
 21
209.5392820232
 31
0.0
  0
LWPOLYLINE
  5
4B
330
1F
100
AcDbEntity
  8
0
  6
Continuous
 62
     7
370
    15
100
AcDbPolyline
 90
       27
 70
   128
 43
0.0
 10
104.3647228626
 20
193.9472784574
 10
104.3634681608
 20
193.9477175692
 10
104.3918460964
 20
193.9339226696
 10
104.4654043104
 20
193.8929238185
 10
104.627883067
 20
193.790799241
 10
104.7262351143
 20
193.7263646744
 10
104.7757386574
 20
193.6941554173
 10
104.800370384
 20
193.6783102487
 10
104.8126291492
 20
193.6704853682
 10
104.8187406235
 20
193.6666015445
 10
104.8217914091
 20
193.6646673175
 10
104.8233155032
 20
193.663702192
 10
104.8240772179
 20
193.6632201347
 10
104.8244579912
 20
193.6629792334
 10
104.8246483567
 20
193.6628588148
 10
104.8247435342
 20
193.6627986134
 10
104.8247911216
 20
193.6627685148
 10
104.824814915
 20
193.662753466
 10
104.8248268116
 20
193.6627459417
 10
104.8248327598
 20
193.6627421796
 10
104.824835734
 20
193.6627402985
 10
104.824835734
 20
193.6627402985
 10
104.8248432692
 20
193.6627413002
 10
105.0087988705
 20
193.7823114042
 10
105.2166515367
 20
193.9116236904
 10
105.2799995398
 20
193.9448795007
 10
105.2844339665
 20
193.946956945
  0
LINE
  5
4C
330
1F
100
AcDbEntity
  8
0
  6
Continuous
 62
     7
370
    15
100
AcDbLine
 10
103.1998387097
 20
211.2135978039
 30
0.0
 11
103.1998387097
 21
194.4770017957
 31
0.0
  0
LINE
  5
4D
330
1F
100
AcDbEntity
  8
0
  6
Continuous
 62
     7
370
    15
100
AcDbLine
 10
106.4498387097
 20
194.4770017957
 30
0.0
 11
106.4498387097
 21
211.2135978039
 31
0.0
  0
LINE
  5
4E
330
1F
100
AcDbEntity
  8
0
  6
Continuous
 62
     7
370
    15
100
AcDbLine
 10
100.6498387097
 20
212.8590460711
 30
0.0
 11
100.6498387097
 21
211.2135978039
 31
0.0
  0
LINE
  5
4F
330
1F
100
AcDbEntity
  8
0
  6
Continuous
 62
     7
370
    15
100
AcDbLine
 10
108.9998387097
 20
211.2135978039
 30
0.0
 11
108.9998387097
 21
212.8590460711
 31
0.0
  0
LINE
  5
50
330
1F
100
AcDbEntity
  8
0
  6
Continuous
 62
     7
370
    15
100
AcDbLine
 10
86.1800825953
 20
256.03798124
 30
0.0
 11
86.6800395494
 21
236.988702756
 31
0.0
  0
LINE
  5
51
330
1F
100
AcDbEntity
  8
0
  6
Continuous
 62
     7
370
    15
100
AcDbLine
 10
122.9696378699
 20
236.988702756
 30
0.0
 11
123.469594824
 21
256.03798124
 31
0.0
  0
LINE
  5
52
330
1F
100
AcDbEntity
  8
0
  6
Continuous
 62
     7
370
    15
100
AcDbLine
 10
106.4498387097
 20
172.631947819
 30
0.0
 11
106.4498387097
 21
188.776302259
 31
0.0
  0
LINE
  5
53
330
1F
100
AcDbEntity
  8
0
  6
Continuous
 62
     7
370
    15
100
AcDbLine
 10
103.1998387097
 20
188.776302259
 30
0.0
 11
103.1998387097
 21
172.631947819
 31
0.0
  0
SPLINE
  5
54
330
1F
100
AcDbEntity
  8
0
  6
Continuous
 62
     7
370
    15
100
AcDbSpline
210
0.0
220
0.0
230
1.0
 70
     8
 71
     3
 72
     9
 73
     5
 74
     0
 42
0.00000001
 43
0.00000001
 40
0.0
 40
0.0
 40
0.0
 40
0.0
 40
0.82084640177267
 40
1.0
 40
1.0
 40
1.0
 40
1.0
 10
104.824838709677
 20
189.940217240518
 30
0.0
 10
104.7868658766173
 20
189.8248681267604
 30
0.0
 10
104.7406052936649
 20
189.6843435249491
 30
0.0
 10
104.6640417291548
 20
189.5937805365579
 30
0.0
 10
104.6503250910797
 20
189.5775558513199
 30
0.0
  0
SPLINE
  5
55
330
1F
100
AcDbEntity
  8
0
  6
Continuous
 62
     7
370
    15
100
AcDbSpline
210
0.0
220
0.0
230
1.0
 70
     8
 71
     3
 72
     9
 73
     5
 74
     0
 42
0.00000001
 43
0.00000001
 40
0.0
 40
0.0
 40
0.0
 40
0.0
 40
0.7200107844485472
 40
1.0
 40
1.0
 40
1.0
 40
1.0
 10
105.0127163545897
 20
189.5671263966361
 30
0.0
 10
104.9570414525575
 20
189.646787430449
 30
0.0
 10
104.8797163579413
 20
189.7574260979997
 30
0.0
 10
104.8368428340102
 20
189.9002328812904
 30
0.0
 10
104.8248387096774
 20
189.9402172405189
 30
0.0
  0
ARC
  5
56
330
1F
100
AcDbEntity
  8
0
  6
Continuous
 62
     7
370
    15
100
AcDbCircle
 10
104.8248387097
 20
110.6611101859
 30
0.0
 40
62.50000000000033
100
AcDbArc
 50
212.831817475
 51
222.546477974
  0
ARC
  5
57
330
1F
100
AcDbEntity
  8
0
  6
Continuous
 62
     7
370
    15
100
AcDbCircle
 10
104.8248387097
 20
110.6611101859
 30
0.0
 40
62.50000000000031
100
AcDbArc
 50
317.453522026
 51
327.168182525
  0
ARC
  5
58
330
1F
100
AcDbEntity
  8
0
  6
Continuous
 62
     7
370
    15
100
AcDbCircle
 10
104.8248387097
 20
110.6611101859
 30
0.0
 40
62.50000000000037
100
AcDbArc
 50
222.980466574
 51
231.8619839572
  0
ARC
  5
59
330
1F
100
AcDbEntity
  8
0
  6
Continuous
 62
     7
370
    15
100
AcDbCircle
 10
104.8248387097
 20
110.6611101859
 30
0.0
 40
62.50000000000037
100
AcDbArc
 50
305.5228585714
 51
317.019533426
  0
ARC
  5
5A
330
1F
100
AcDbEntity
  8
0
  6
Continuous
 62
     7
370
    15
100
AcDbCircle
 10
104.8248387097
 20
110.6611101859
 30
0.0
 40
62.50000000000013
100
AcDbArc
 50
203.7426978523
 51
212.4534342072
  0
ARC
  5
5B
330
1F
100
AcDbEntity
  8
0
  6
Continuous
 62
     7
370
    15
100
AcDbCircle
 10
104.8248387097
 20
110.6611101859
 30
0.0
 40
62.50000000000013
100
AcDbArc
 50
327.5465657928
 51
336.2573021477
  0
ARC
  5
5C
330
1F
100
AcDbEntity
  8
0
  6
Continuous
 62
     7
370
    15
100
AcDbCircle
 10
104.8248387097
 20
110.6611101859
 30
0.0
 40
62.50000000000021
100
AcDbArc
 50
235.0292449981
 51
246.9462372415
  0
ARC
  5
5D
330
1F
100
AcDbEntity
  8
0
  6
Continuous
 62
     7
370
    15
100
AcDbCircle
 10
104.8248387097
 20
110.6611101859
 30
0.0
 40
62.50000000000031
100
AcDbArc
 50
292.7935578629
 51
304.9707550019
  0
ARC
  5
5E
330
1F
100
AcDbEntity
  8
0
  6
Continuous
 62
     7
370
    15
100
AcDbCircle
 10
104.8248387097
 20
110.6611101859
 30
0.0
 40
62.5000000000001
100
AcDbArc
 50
195.3355569693
 51
203.3950816531
  0
ARC
  5
5F
330
1F
100
AcDbEntity
  8
0
  6
Continuous
 62
     7
370
    15
100
AcDbCircle
 10
104.8248387097
 20
110.6611101859
 30
0.0
 40
62.5000000000001
100
AcDbArc
 50
336.6049183469
 51
344.6644430307
  0
SPLINE
  5
60
330
1F
100
AcDbEntity
  8
0
  6
Continuous
 62
     7
370
    15
100
AcDbSpline
210
0.0
220
0.0
230
1.0
 70
     8
 71
     3
 72
     9
 73
     5
 74
     0
 42
0.00000001
 43
0.00000001
 40
0.0
 40
0.0
 40
0.0
 40
0.0
 40
0.2977483239382562
 40
1.0
 40
1.0
 40
1.0
 40
1.0
 10
52.2505584510177
 20
76.79403387623915
 30
0.0
 10
52.29992841872236
 20
76.71177951573414
 30
0.0
 10
52.46573948711655
 20
76.43552486074198
 30
0.0
 10
52.67238325327109
 20
76.16669637251358
 30
0.0
 10
52.81749918440096
 20
75.97791111608251
 30
0.0
  0
LINE
  5
61
330
1F
100
AcDbEntity
  8
0
  6
Continuous
 62
     7
370
    15
100
AcDbLine
 10
157.21245806
 20
76.521740616
 30
0.0
 11
157.3181893806
 21
76.6810226978
 31
0.0
  0
SPLINE
  5
62
330
1F
100
AcDbEntity
  8
0
  6
Continuous
 62
     7
370
    15
100
AcDbSpline
210
0.0
220
0.0
230
1.0
 70
     8
 71
     3
 72
     9
 73
     5
 74
     0
 42
0.00000001
 43
0.00000001
 40
0.0
 40
0.0
 40
0.0
 40
0.0
 40
0.0822393470166134
 40
1.0
 40
1.0
 40
1.0
 40
1.0
 10
58.54747522734174
 20
68.58736285110953
 30
0.0
 10
58.57534982554338
 20
68.55365155639556
 30
0.0
 10
58.91429461551337
 20
68.14373469862198
 30
0.0
 10
59.31621194222539
 20
67.74890040971913
 30
0.0
 10
59.68507585043517
 20
67.38653703491823
 30
0.0
  0
SPLINE
  5
63
330
1F
100
AcDbEntity
  8
0
  6
Continuous
 62
     7
370
    15
100
AcDbSpline
210
0.0
220
0.0
230
1.0
 70
     8
 71
     3
 72
    10
 73
     6
 74
     0
 42
0.00000001
 43
0.00000001
 40
0.0
 40
0.0
 40
0.0
 40
0.0
 40
0.2596235805919179
 40
0.7028456295871415
 40
1.0
 40
1.0
 40
1.0
 40
1.0
 10
149.0960915318364
 20
66.57613691386064
 30
0.0
 10
149.3422470192528
 20
66.79757745555735
 30
0.0
 10
150.0086322071267
 20
67.39705503995184
 30
0.0
 10
150.8562668308707
 20
68.27856063529356
 30
0.0
 10
151.4076957185261
 20
68.94856734398799
 30
0.0
 10
151.6290149010983
 20
69.21747842283474
 30
0.0
  0
SPLINE
  5
64
330
1F
100
AcDbEntity
  8
0
  6
Continuous
 62
     7
370
    15
100
AcDbSpline
210
0.0
220
0.0
230
1.0
 70
     8
 71
     3
 72
     9
 73
     5
 74
     0
 42
0.00000001
 43
0.00000001
 40
0.0
 40
0.0
 40
0.0
 40
0.0
 40
0.3037633626112201
 40
1.0
 40
1.0
 40
1.0
 40
1.0
 10
161.7470767669923
 20
84.80883755453524
 30
0.0
 10
161.7736443413222
 20
84.85671657868862
 30
0.0
 10
161.8611057589913
 20
85.01433606164086
 30
0.0
 10
161.9255584492109
 20
85.17506396316408
 30
0.0
 10
161.9704327735202
 20
85.286968616856
 30
0.0
  0
ARC
  5
65
330
1F
100
AcDbEntity
  8
0
  6
Continuous
 62
     7
370
    15
100
AcDbCircle
 10
104.8248387097
 20
110.6611101859
 30
0.0
 40
62.50000000000036
100
AcDbArc
 50
187.1999271242
 51
195.0054346633
  0
ARC
  5
66
330
1F
100
AcDbEntity
  8
0
  6
Continuous
 62
     7
370
    15
100
AcDbCircle
 10
104.8248387097
 20
110.6611101859
 30
0.0
 40
62.50000000000036
100
AcDbArc
 50
344.9945653367
 51
352.8000728758
  0
SPLINE
  5
67
330
1F
100
AcDbEntity
  8
0
  6
Continuous
 62
     7
370
    15
100
AcDbSpline
210
0.0
220
0.0
230
1.0
 70
     8
 71
     3
 72
    13
 73
     9
 74
     0
 42
0.00000001
 43
0.00000001
 40
0.0
 40
0.0
 40
0.0
 40
0.0
 40
0.0984085614918486
 40
0.3177894443326407
 40
0.5372072590053101
 40
0.7566242896262282
 40
0.976008444240712
 40
1.0
 40
1.0
 40
1.0
 40
1.0
 10
65.91404961549411
 20
61.82759524767653
 30
0.0
 10
66.08859026927973
 20
61.66226620882617
 30
0.0
 10
66.65223205551466
 20
61.12837136683644
 30
0.0
 10
67.73414393203083
 20
60.26393288296725
 30
0.0
 10
69.14684147613751
 20
59.23523363200631
 30
0.0
 10
70.68834846599961
 20
58.25581718670178
 30
0.0
 10
71.8190851252766
 20
57.58541650157675
 30
0.0
 10
72.46390959608809
 20
57.25705823431546
 30
0.0
 10
72.52747527494243
 20
57.22468924537203
 30
0.0
  0
SPLINE
  5
68
330
1F
100
AcDbEntity
  8
0
  6
Continuous
 62
     7
370
    15
100
AcDbSpline
210
0.0
220
0.0
230
1.0
 70
     8
 71
     3
 72
    13
 73
     9
 74
     0
 42
0.00000001
 43
0.00000001
 40
0.0
 40
0.0
 40
0.0
 40
0.0
 40
0.0585607072689904
 40
0.2760514216996343
 40
0.4936553762367625
 40
0.7112509776942045
 40
0.9287235429199135
 40
1.0
 40
1.0
 40
1.0
 40
1.0
 10
137.3611137192258
 20
57.35778258484367
 30
0.0
 10
137.5091263051019
 20
57.43545126157154
 30
0.0
 10
138.2068481507907
 20
57.8015764269266
 30
0.0
 10
139.3599870390613
 20
58.50042197866487
 30
0.0
 10
140.8142316514155
 20
59.45188484271033
 30
0.0
 10
142.1493816583185
 20
60.44745278571326
 30
0.0
 10
143.1261773957363
 20
61.24031029921226
 30
0.0
 10
143.6178955496742
 20
61.711410671176
 30
0.0
 10
143.7392740659193
 20
61.82769977641464
 30
0.0
  0
ARC
  5
69
330
1F
100
AcDbEntity
  8
0
  6
Continuous
 62
     7
370
    15
100
AcDbCircle
 10
104.8248387097
 20
110.6611101859
 30
0.0
 40
62.50000000000044
100
AcDbArc
 50
254.0357697026
 51
270.0
  0
ARC
  5
6A
330
1F
100
AcDbEntity
  8
0
  6
Continuous
 62
     7
370
    15
100
AcDbCircle
 10
104.8248387097
 20
110.6611101859
 30
0.0
 40
62.50000000000044
100
AcDbArc
 50
270.0
 51
285.9642302974
  0
ARC
  5
6B
330
1F
100
AcDbEntity
  8
0
  6
Continuous
 62
     7
370
    15
100
AcDbCircle
 10
104.8248387097
 20
110.6611101859
 30
0.0
 40
62.50000000000043
100
AcDbArc
 50
179.2428975795
 51
186.8788891956
  0
ARC
  5
6C
330
1F
100
AcDbEntity
  8
0
  6
Continuous
 62
     7
370
    15
100
AcDbCircle
 10
104.8248387097
 20
110.6611101859
 30
0.0
 40
62.50000000000043
100
AcDbArc
 50
353.1211108045
 51
0.7571024205
  0
SPLINE
  5
6D
330
1F
100
AcDbEntity
  8
0
  6
Continuous
 62
     7
370
    15
100
AcDbSpline
210
0.0
220
0.0
230
1.0
 70
     8
 71
     3
 72
    19
 73
    15
 74
     0
 42
0.00000001
 43
0.00000001
 40
0.0
 40
0.0
 40
0.0
 40
0.0
 40
0.0065741274135334
 40
0.100461799688981
 40
0.1943392886408137
 40
0.2881790384134321
 40
0.3819512527891699
 40
0.4756198634131943
 40
0.5691368266827971
 40
0.6624327302356231
 40
0.7553994463909076
 40
0.8478546068577569
 40
0.9394599518238453
 40
0.9999999999999999
 40
0.9999999999999999
 40
0.9999999999999999
 40
0.9999999999999999
 10
76.68238558511834
 20
55.35458306495619
 30
0.0
 10
76.71186707381885
 20
55.33330092846931
 30
0.0
 10
77.16238517698528
 20
55.00808031768575
 30
0.0
 10
78.13670738518877
 20
54.41880985550316
 30
0.0
 10
79.60714205247434
 20
53.59386996075963
 30
0.0
 10
81.18739543229961
 20
52.8229907402453
 30
0.0
 10
82.85534109477136
 20
52.10321786368641
 30
0.0
 10
84.6077866215639
 20
51.43890471617227
 30
0.0
 10
86.43555449890874
 20
50.83214697232694
 30
0.0
 10
88.33009948296846
 20
50.28566930540499
 30
0.0
 10
90.28054649913645
 20
49.80078563236476
 30
0.0
 10
92.27591774661406
 20
49.38265521889249
 30
0.0
 10
94.07522582684483
 20
49.06052609126507
 30
0.0
 10
95.22100470892828
 20
48.90467423672138
 30
0.0
 10
95.67692064097147
 20
48.84265935353979
 30
0.0
  0
SPLINE
  5
6E
330
1F
100
AcDbEntity
  8
0
  6
Continuous
 62
     7
370
    15
100
AcDbSpline
210
0.0
220
0.0
230
1.0
 70
     8
 71
     3
 72
    20
 73
    16
 74
     0
 42
0.00000001
 43
0.00000001
 40
0.0
 40
0.0
 40
0.0
 40
0.0
 40
0.0522777907527614
 40
0.1291816905566407
 40
0.208366016318197
 40
0.2892363871864723
 40
0.371368027709557
 40
0.454443831121264
 40
0.5382217607746395
 40
0.6225123825080529
 40
0.7071636275891423
 40
0.7920501462282014
 40
0.8770656400096163
 40
0.962117124477454
 40
1.0
 40
1.0
 40
1.0
 40
1.0
 10
112.0033204396326
 20
48.60303727835855
 30
0.0
 10
112.4180203022162
 20
48.6470301202728
 30
0.0
 10
113.4427695992079
 20
48.75573918408446
 30
0.0
 10
115.0697127813087
 20
48.98636857297009
 30
0.0
 10
116.8923986594689
 20
49.2920761066826
 30
0.0
 10
118.7170587044978
 20
49.65792157812562
 30
0.0
 10
120.5266330861784
 20
50.08133019783531
 30
0.0
 10
122.3058356452275
 20
50.56204369193693
 30
0.0
 10
124.0418453812423
 20
51.09848193829644
 30
0.0
 10
125.7235820209569
 20
51.68878437523225
 30
0.0
 10
127.3407088868702
 20
52.33092413432769
 30
0.0
 10
128.8863565305779
 20
53.02160540802656
 30
0.0
 10
130.3458656017042
 20
53.76091666228653
 30
0.0
 10
131.4810628930759
 20
54.39206265448912
 30
0.0
 10
132.0932753978767
 20
54.79036699646042
 30
0.0
 10
132.2819319306356
 20
54.91310659349533
 30
0.0
  0
ARC
  5
6F
330
1F
100
AcDbEntity
  8
0
  6
Continuous
 62
     7
370
    15
100
AcDbCircle
 10
104.8248387097
 20
110.6611101859
 30
0.0
 40
62.50000000000016
100
AcDbArc
 50
171.320021777
 51
178.9242388497
  0
ARC
  5
70
330
1F
100
AcDbEntity
  8
0
  6
Continuous
 62
     7
370
    15
100
AcDbCircle
 10
104.8248387097
 20
110.6611101859
 30
0.0
 40
62.50000000000014
100
AcDbArc
 50
1.0757611503
 51
8.679978223
  0
ARC
  5
71
330
1F
100
AcDbEntity
  8
0
  6
Continuous
 62
     7
370
    15
100
AcDbCircle
 10
104.8248387097
 20
110.6611101859
 30
0.0
 40
62.50000000000033
100
AcDbArc
 50
163.1900422138
 51
170.9975724911
  0
ARC
  5
72
330
1F
100
AcDbEntity
  8
0
  6
Continuous
 62
     7
370
    15
100
AcDbCircle
 10
104.8248387097
 20
110.6611101859
 30
0.0
 40
62.50000000000033
100
AcDbArc
 50
9.0024275089
 51
16.8099577862
  0
SPLINE
  5
73
330
1F
100
AcDbEntity
  8
0
  6
Continuous
 62
     7
370
    15
100
AcDbSpline
210
0.0
220
0.0
230
1.0
 70
     8
 71
     3
 72
    12
 73
     8
 74
     0
 42
0.00000001
 43
0.00000001
 40
0.0
 40
0.0
 40
0.0
 40
0.0
 40
0.1557958624462622
 40
0.4005513809879275
 40
0.5835409226115048
 40
0.7902987910030583
 40
1.0
 40
1.0
 40
1.0
 40
1.0
 10
99.37153191345286
 20
49.61300566325819
 30
0.0
 10
99.64777628400238
 20
49.57365520545129
 30
0.0
 10
100.3580009483564
 20
49.47248512320532
 30
0.0
 10
101.4156997649053
 20
49.37320486076932
 30
0.0
 10
102.5724706428014
 20
49.29233044050282
 30
0.0
 10
103.6724909094268
 20
49.24415342476205
 30
0.0
 10
104.4389171938333
 20
49.23783427927695
 30
0.0
 10
104.8248387097116
 20
49.23465237613242
 30
0.0
  0
LINE
  5
74
330
1F
100
AcDbEntity
  8
0
  6
Continuous
 62
     7
370
    15
100
AcDbLine
 10
104.8248387097
 20
49.2346523761
 30
0.0
 11
106.6437673793
 21
49.2752918384
 31
0.0
  0
ARC
  5
75
330
1F
100
AcDbEntity
  8
0
  6
Continuous
 62
     7
370
    15
100
AcDbCircle
 10
104.8248387097
 20
110.6611101859
 30
0.0
 40
62.50000000000025
100
AcDbArc
 50
154.7246063852
 51
162.8569076915
  0
ARC
  5
76
330
1F
100
AcDbEntity
  8
0
  6
Continuous
 62
     7
370
    15
100
AcDbCircle
 10
104.8248387097
 20
110.6611101859
 30
0.0
 40
62.50000000000025
100
AcDbArc
 50
17.1430923085
 51
25.2753936148
  0
SPLINE
  5
77
330
1F
100
AcDbEntity
  8
0
  6
Continuous
 62
     7
370
    15
100
AcDbSpline
210
0.0
220
0.0
230
1.0
 70
     8
 71
     3
 72
    10
 73
     6
 74
     0
 42
0.00000001
 43
0.00000001
 40
0.0
 40
0.0
 40
0.0
 40
0.0
 40
0.0319532195572065
 40
0.6469569761319726
 40
1.0
 40
1.0
 40
1.0
 40
1.0
 10
161.6744516251697
 20
136.7427160809993
 30
0.0
 10
161.6654195149393
 20
136.7671906579222
 30
0.0
 10
161.4825463395996
 20
137.2627275239115
 30
0.0
 10
161.1096333340124
 20
138.0193374065168
 30
0.0
 10
160.6834014250159
 20
138.7410893097485
 30
0.0
 10
160.5279562491621
 20
139.0043095172313
 30
0.0
  0
ARC
  5
78
330
1F
100
AcDbEntity
  8
0
  6
Continuous
 62
     7
370
    15
100
AcDbCircle
 10
104.8248387097
 20
110.6611101859
 30
0.0
 40
62.50000000000037
100
AcDbArc
 50
145.465941922
 51
154.3717417275
  0
ARC
  5
79
330
1F
100
AcDbEntity
  8
0
  6
Continuous
 62
     7
370
    15
100
AcDbCircle
 10
104.8248387097
 20
110.6611101859
 30
0.0
 40
62.50000000000037
100
AcDbArc
 50
25.6282582725
 51
34.534058078
  0
SPLINE
  5
7A
330
1F
100
AcDbEntity
  8
0
  6
Continuous
 62
     7
370
    15
100
AcDbSpline
210
0.0
220
0.0
230
1.0
 70
     8
 71
     3
 72
    11
 73
     7
 74
     0
 42
0.00000001
 43
0.00000001
 40
0.0
 40
0.0
 40
0.0
 40
0.0
 40
0.2263470403803298
 40
0.5608098643586862
 40
0.8950840743974713
 40
1.0
 40
1.0
 40
1.0
 40
1.0
 10
54.56183053332433
 20
147.8359059946013
 30
0.0
 10
54.32648533413867
 20
147.5525771202846
 30
0.0
 10
53.7433811370999
 20
146.8505859331754
 30
0.0
 10
52.96468924233891
 20
145.7000548559572
 30
0.0
 10
52.34891997116789
 20
144.6955613813623
 30
0.0
 10
52.07667254670714
 20
144.1145695203141
 30
0.0
 10
52.01163672688294
 20
143.9757792927509
 30
0.0
  0
SPLINE
  5
7B
330
1F
100
AcDbEntity
  8
0
  6
Continuous
 62
     7
370
    15
100
AcDbSpline
210
0.0
220
0.0
230
1.0
 70
     8
 71
     3
 72
    12
 73
     8
 74
     0
 42
0.00000001
 43
0.00000001
 40
0.0
 40
0.0
 40
0.0
 40
0.0
 40
0.0747584101330595
 40
0.3166788411030039
 40
0.5587009801928459
 40
0.8007980830862785
 40
1.0
 40
1.0
 40
1.0
 40
1.0
 10
157.4320092994354
 20
144.3745905666707
 30
0.0
 10
157.3626478718499
 20
144.5133758454573
 30
0.0
 10
157.0688308087797
 20
145.1012743998818
 30
0.0
 10
156.4141559369116
 20
146.1188113586069
 30
0.0
 10
155.4639207543204
 20
147.4217734883609
 30
0.0
 10
154.4505594609093
 20
148.6248879971112
 30
0.0
 10
153.6993808468074
 20
149.378388363448
 30
0.0
 10
153.3602996044809
 20
149.7185176423086
 30
0.0
  0
ARC
  5
7C
330
1F
100
AcDbEntity
  8
0
  6
Continuous
 62
     7
370
    15
100
AcDbCircle
 10
104.8248387097
 20
110.6611101859
 30
0.0
 40
62.50000000000053
100
AcDbArc
 50
135.1332991524
 51
145.0782657478
  0
ARC
  5
7D
330
1F
100
AcDbEntity
  8
0
  6
Continuous
 62
     7
370
    15
100
AcDbCircle
 10
104.8248387097
 20
110.6611101859
 30
0.0
 40
62.50000000000053
100
AcDbArc
 50
36.9960381232
 51
44.8667008476
  0
SPLINE
  5
7E
330
1F
100
AcDbEntity
  8
0
  6
Continuous
 62
     7
370
    15
100
AcDbSpline
210
0.0
220
0.0
230
1.0
 70
     8
 71
     3
 72
    14
 73
    10
 74
     0
 42
0.00000001
 43
0.00000001
 40
0.0
 40
0.0
 40
0.0
 40
0.0
 40
0.1217419383473654
 40
0.2914154285393412
 40
0.4610678656912947
 40
0.6306322611768724
 40
0.8000431119976498
 40
0.9692346074374453
 40
1.0
 40
1.0
 40
1.0
 40
1.0
 10
65.64575228473393
 20
158.9631337782329
 30
0.0
 10
65.27527519616285
 20
158.7208627087779
 30
0.0
 10
64.38845886158076
 20
158.1409349658287
 30
0.0
 10
63.10766114575453
 20
157.1779696661432
 30
0.0
 10
61.79107949589282
 20
156.0844122452294
 30
0.0
 10
60.58924605825969
 20
154.9574543208991
 30
0.0
 10
59.5149324239487
 20
153.7995352927708
 30
0.0
 10
58.79088275356361
 20
152.9436301101392
 30
0.0
 10
58.46295019098893
 20
152.4677669518412
 30
0.0
 10
58.41249444464128
 20
152.3945505849662
 30
0.0
  0
LINE
  5
7F
330
1F
100
AcDbEntity
  8
0
  6
Continuous
 62
     7
370
    15
100
AcDbLine
 10
104.82483871
 20
168.6335163731
 30
0.0
 11
102.7462675453
 21
168.6027002452
 31
0.0
  0
LINE
  5
80
330
1F
100
AcDbEntity
  8
0
  6
Continuous
 62
     7
370
    15
100
AcDbLine
 10
105.4337802268
 20
168.6273813844
 30
0.0
 11
104.82483871
 21
168.6335163731
 31
0.0
  0
SPLINE
  5
81
330
1F
100
AcDbEntity
  8
0
  6
Continuous
 62
     7
370
    15
100
AcDbSpline
210
0.0
220
0.0
230
1.0
 70
     8
 71
     3
 72
    15
 73
    11
 74
     0
 42
0.00000001
 43
0.00000001
 40
0.0
 40
0.0
 40
0.0
 40
0.0
 40
0.0207150462780003
 40
0.1815462587467132
 40
0.3424566564856959
 40
0.5034205325586694
 40
0.6644161970774499
 40
0.8254245538531244
 40
0.986427401189705
 40
1.0
 40
1.0
 40
1.0
 40
1.0
 10
151.0686102200628
 20
152.6235464072081
 30
0.0
 10
151.0308681352547
 20
152.6770619939621
 30
0.0
 10
150.7000972452327
 20
153.1460715452497
 30
0.0
 10
149.9520573227992
 20
154.006035633822
 30
0.0
 10
148.8192671405341
 20
155.1978705237542
 30
0.0
 10
147.5486379234247
 20
156.3542600652572
 30
0.0
 10
146.1640816339175
 20
157.476801630354
 30
0.0
 10
144.6508863936015
 20
158.5552642894985
 30
0.0
 10
143.5512175387229
 20
159.2881040965887
 30
0.0
 10
142.927186018884
 20
159.6471777254864
 30
0.0
 10
142.8786698635446
 20
159.675094379379
 30
0.0
  0
ARC
  5
82
330
1F
100
AcDbEntity
  8
0
  6
Continuous
 62
     7
370
    15
100
AcDbCircle
 10
104.8248387097
 20
110.6611101859
 30
0.0
 40
62.50000000000058
100
AcDbArc
 50
122.4593983629
 51
131.2864456658
  0
ARC
  5
83
330
1F
100
AcDbEntity
  8
0
  6
Continuous
 62
     7
370
    15
100
AcDbCircle
 10
104.8248387097
 20
110.6611101859
 30
0.0
 40
62.50000000000023
100
AcDbArc
 50
48.3392531475
 51
57.5406016371
  0
SPLINE
  5
84
330
1F
100
AcDbEntity
  8
0
  6
Continuous
 62
     7
370
    15
100
AcDbSpline
210
0.0
220
0.0
230
1.0
 70
     8
 71
     3
 72
    24
 73
    20
 74
     0
 42
0.00000001
 43
0.00000001
 40
0.0
 40
0.0
 40
0.0
 40
0.0
 40
0.0233973896042323
 40
0.0812556944134995
 40
0.14088396080428
 40
0.2018445349042868
 40
0.2638251288473321
 40
0.3265933611053218
 40
0.3899728135630818
 40
0.4538265934889044
 40
0.5180462388430522
 40
0.5825440368202638
 40
0.6472475868211905
 40
0.7120958601564868
 40
0.7770362689656172
 40
0.8420224187952875
 40
0.9070123197095346
 40
0.9719668928133864
 40
1.0
 40
1.0
 40
1.0
 40
1.0
 10
96.29807601079935
 20
171.2468326408647
 30
0.0
 10
96.0238592081545
 20
171.2201326781191
 30
0.0
 10
95.07154456555337
 20
171.1274076326998
 30
0.0
 10
93.44220651468085
 20
170.9155754716991
 30
0.0
 10
91.40196464002628
 20
170.607523972381
 30
0.0
 10
89.35051405141517
 20
170.2366705335554
 30
0.0
 10
87.30491224292695
 20
169.8067287251614
 30
0.0
 10
85.28103277978164
 20
169.3170670732886
 30
0.0
 10
83.29197001009928
 20
168.7689178898628
 30
0.0
 10
81.34929095694324
 20
168.1635551071729
 30
0.0
 10
79.46321676358085
 20
167.5027079241458
 30
0.0
 10
77.64290073097816
 20
166.7883898277051
 30
0.0
 10
75.8966445909989
 20
166.0228756274948
 30
0.0
 10
74.23176100421038
 20
165.2087368365649
 30
0.0
 10
72.65558901772398
 20
164.3485303507375
 30
0.0
 10
71.17202362971123
 20
163.4458438182209
 30
0.0
 10
69.79470344891672
 20
162.5012732942155
 30
0.0
 10
68.743212905824
 20
161.7115353104594
 30
0.0
 10
68.19175214313269
 20
161.2255667500472
 30
0.0
 10
68.02550260747911
 20
161.0790612269399
 30
0.0
  0
SPLINE
  5
85
330
1F
100
AcDbEntity
  8
0
  6
Continuous
 62
     7
370
    15
100
AcDbSpline
210
0.0
220
0.0
230
1.0
 70
     8
 71
     3
 72
    12
 73
     8
 74
     0
 42
0.00000001
 43
0.00000001
 40
0.0
 40
0.0
 40
0.0
 40
0.0
 40
0.3149116044274263
 40
0.4406827584050327
 40
0.6495536562736116
 40
0.8659245382588527
 40
1.0
 40
1.0
 40
1.0
 40
1.0
 10
104.8248387100673
 20
171.684530943069
 30
0.0
 10
103.9233713841758
 20
171.6766887591534
 30
0.0
 10
102.6618710069251
 20
171.6657145200622
 30
0.0
 10
100.80797949889
 20
171.5933588120548
 30
0.0
 10
99.24048810452071
 20
171.505899701525
 30
0.0
 10
97.65587139455292
 20
171.3885392737935
 30
0.0
 10
96.67380119173511
 20
171.2860452872866
 30
0.0
 10
96.29807601079935
 20
171.2468326408647
 30
0.0
  0
SPLINE
  5
86
330
1F
100
AcDbEntity
  8
0
  6
Continuous
 62
     7
370
    15
100
AcDbSpline
210
0.0
220
0.0
230
1.0
 70
     8
 71
     3
 72
    11
 73
     7
 74
     0
 42
0.00000001
 43
0.00000001
 40
0.0
 40
0.0
 40
0.0
 40
0.0
 40
0.0497501975146757
 40
0.3599709630959264
 40
0.7222444550237724
 40
1.0
 40
1.0
 40
1.0
 40
1.0
 10
109.5470569684904
 20
171.5507418062172
 30
0.0
 10
109.4692369982852
 20
171.5558322885742
 30
0.0
 10
108.9061652714895
 20
171.5926648224726
 30
0.0
 10
107.7694786220937
 20
171.6358800379125
 30
0.0
 10
106.2727072780358
 20
171.6783933232788
 30
0.0
 10
105.2630172664405
 20
171.682673472413
 30
0.0
 10
104.8248387100673
 20
171.684530943069
 30
0.0
  0
SPLINE
  5
87
330
1F
100
AcDbEntity
  8
0
  6
Continuous
 62
     7
370
    15
100
AcDbSpline
210
0.0
220
0.0
230
1.0
 70
     8
 71
     3
 72
    24
 73
    20
 74
     0
 42
0.00000001
 43
0.00000001
 40
0.0
 40
0.0
 40
0.0
 40
0.0
 40
0.0488994107545138
 40
0.1105661410667621
 40
0.1722358260508119
 40
0.2338983013709904
 40
0.2955431900159224
 40
0.3571590014389838
 40
0.4187320109556218
 40
0.4802446796871803
 40
0.541673198546013
 40
0.6029833556656478
 40
0.6641230474521519
 40
0.7250075864635191
 40
0.7854880105210231
 40
0.8452738479480721
 40
0.9037102102360579
 40
0.9589405607424926
 40
0.9999999999999999
 40
0.9999999999999999
 40
0.9999999999999999
 40
0.9999999999999999
 10
141.513802689956
 20
161.1774946380917
 30
0.0
 10
141.1821756497641
 20
161.4552430502094
 30
0.0
 10
140.4323358962464
 20
162.0832581866187
 30
0.0
 10
139.1255092445189
 20
163.0156963685212
 30
0.0
 10
137.6241631334699
 20
163.979226997494
 30
0.0
 10
136.0130079646135
 20
164.8963457457935
 30
0.0
 10
134.3021748111205
 20
165.7655193732004
 30
0.0
 10
132.4963879102089
 20
166.5835443348205
 30
0.0
 10
130.6023790772283
 20
167.3478624880107
 30
0.0
 10
128.6269482312873
 20
168.0559525579608
 30
0.0
 10
126.5775748014368
 20
168.7055016341974
 30
0.0
 10
124.46243559953
 20
169.2943697956281
 30
0.0
 10
122.290758155703
 20
169.8205849185497
 30
0.0
 10
120.0735038199511
 20
170.2823865043985
 30
0.0
 10
117.8249125995533
 20
170.6779578115642
 30
0.0
 10
115.5670059689239
 20
171.0060920945291
 30
0.0
 10
113.3437693790119
 20
171.2625935891645
 30
0.0
 10
111.3403624862616
 20
171.4434047783259
 30
0.0
 10
110.0831511242538
 20
171.5186542713382
 30
0.0
 10
109.5470569684904
 20
171.5507418062172
 30
0.0
  0
ARC
  5
88
330
1F
100
AcDbEntity
  8
0
  6
Continuous
 62
     7
370
    15
100
AcDbCircle
 10
104.8248387097
 20
110.6611101859
 30
0.0
 40
62.49999999999997
100
AcDbArc
 50
113.3527865931
 51
117.4619680913
  0
ARC
  5
89
330
1F
100
AcDbEntity
  8
0
  6
Continuous
 62
     7
370
    15
100
AcDbCircle
 10
104.8248387097
 20
110.6611101859
 30
0.0
 40
62.49999999999996
100
AcDbArc
 50
61.4304695929
 51
66.6472134069
  0
LWPOLYLINE
  5
8A
330
1F
100
AcDbEntity
  8
0
  6
Continuous
 62
     7
370
    15
100
AcDbPolyline
 90
       34
 70
   128
 43
0.0
 10
87.2956266214
 20
236.5473835416
 10
87.2855305667
 20
236.8448955998
 10
87.3755190847
 20
237.7321067867
 10
87.6445612348
 20
238.6102139861
 10
88.0898962804
 20
239.4702066301
 10
88.7069544813
 20
240.3032600302
 10
89.4894039854
 20
241.1008259315
 10
90.4292158019
 20
241.8547202283
 10
91.5167461898
 20
242.557206945
 10
92.7408356157
 20
243.2010776173
 10
94.0889232656
 20
243.7797252609
 10
95.547175936
 20
244.2872121678
 10
97.1006299811
 20
244.7183308357
 10
98.7333448604
 20
245.0686574036
 10
100.4285667096
 20
245.3345970468
 10
102.1689002586
 20
245.5134208648
 10
103.9364873302
 20
245.6032938832
 10
105.7131900891
 20
245.6032938832
 10
107.4807771607
 20
245.5134208648
 10
109.2211107098
 20
245.3345970468
 10
110.916332559
 20
245.0686574036
 10
112.5490474382
 20
244.7183308357
 10
114.1025014833
 20
244.2872121678
 10
115.5607541537
 20
243.7797252609
 10
116.9088418037
 20
243.2010776173
 10
118.1329312296
 20
242.557206945
 10
119.2204616175
 20
241.8547202283
 10
120.160273434
 20
241.1008259315
 10
120.9427229381
 20
240.3032600302
 10
121.559781139
 20
239.4702066301
 10
122.0051161846
 20
238.6102139861
 10
122.2741583346
 20
237.7321067867
 10
122.3641468526
 20
236.8448955998
 10
122.3540507979
 20
236.5473835416
  0
LWPOLYLINE
  5
8B
330
1F
100
AcDbEntity
  8
0
  6
Continuous
 62
     7
370
    15
100
AcDbPolyline
 90
       37
 70
   128
 43
0.0
 10
88.8248387097
 20
214.1580841768
 10
88.9124883838
 20
214.9943118829
 10
89.1744770979
 20
215.8213777033
 10
89.607934449
 20
216.6302201318
 10
90.2081113874
 20
217.4119773214
 10
90.9684322491
 20
218.1580841768
 10
91.8805667997
 20
218.8603661951
 10
92.934521502
 20
219.5111290276
 10
94.1187490079
 20
220.1032427806
 10
95.420274673
 20
220.6302201318
 10
96.8248387097
 20
221.086287407
 10
98.3170524205
 20
221.4664478379
 10
99.8805667997
 20
221.7665363071
 10
101.4982516566
 20
221.9832649826
 10
103.1523832974
 20
222.1142593397
 10
104.8248387097
 20
222.1580841768
 10
106.497294122
 20
222.1142593397
 10
108.1514257628
 20
221.9832649826
 10
109.7691106197
 20
221.7665363071
 10
111.3326249989
 20
221.4664478379
 10
112.8248387097
 20
221.086287407
 10
114.2294027464
 20
220.6302201318
 10
115.5309284114
 20
220.1032427806
 10
116.7151559173
 20
219.5111290276
 10
117.7691106197
 20
218.8603661951
 10
118.6812451702
 20
218.1580841768
 10
119.441566032
 20
217.4119773214
 10
120.0417429704
 20
216.6302201318
 10
120.4752003214
 20
215.8213777033
 10
120.7371890356
 20
214.9943118829
 10
120.8248387097
 20
214.1580841768
 10
120.7371890356
 20
213.3218564706
 10
120.4752003214
 20
212.4947906502
 10
120.0417429704
 20
211.6859482218
 10
119.441566032
 20
210.9041910321
 10
118.6812451702
 20
210.1580841768
 10
117.8887840045
 20
209.5392820232
  0
ARC
  5
8C
330
1F
100
AcDbEntity
  8
0
  6
Continuous
 62
     7
370
    15
100
AcDbCircle
 10
94.7955159651
 20
214.7109027824
 30
0.0
 40
5.996215081126519
100
AcDbArc
 50
185.2898730161
 51
239.5962857392
  0
LWPOLYLINE
  5
8D
330
1F
100
AcDbEntity
  8
0
  6
Continuous
 62
     7
370
    15
100
AcDbPolyline
 90
       43
 70
   128
 43
0.0
 10
90.3248387097
 20
212.8590460711
 10
90.4128438886
 20
213.6566056733
 10
90.6757911616
 20
214.4444839823
 10
91.110488705
 20
215.2131172228
 10
91.7116598796
 20
215.9531752284
 10
92.4720072815
 20
216.6556746975
 10
93.3823013234
 20
217.3120882381
 10
94.4314922687
 20
217.914447879
 10
95.6068443606
 20
218.4554417902
 10
96.8940904169
 20
218.9285030385
 10
98.2776050142
 20
219.3278893011
 10
99.7405941594
 20
219.6487525698
 10
101.2652991461
 20
219.8871979991
 10
102.8332121213
 20
220.0403311847
 10
104.4253007453
 20
220.106293297
 10
106.022239219
 20
220.0842836454
 10
107.6046428726
 20
219.9745693972
 10
109.1533034692
 20
219.7784823347
 10
110.6494223671
 20
219.4984026893
 10
112.0748387097
 20
219.1377302485
 10
113.4122498733
 20
218.7008430871
 10
114.6454214983
 20
218.1930444235
 10
115.7593845514
 20
217.6204982454
 10
116.7406170304
 20
216.990154488
 10
117.5772081022
 20
216.3096646706
 10
118.2590026843
 20
215.5872890177
 10
118.7777247142
 20
214.8317961912
 10
119.127077609
 20
214.0523568506
 10
119.302820698
 20
213.2584323337
 10
119.302820698
 20
212.4596598085
 10
119.127077609
 20
211.6657352915
 10
118.7777247142
 20
210.8862959509
 10
118.2590026843
 20
210.1308031245
 10
117.5772081022
 20
209.4084274716
 10
116.7406170304
 20
208.7279376541
 10
115.7593845514
 20
208.0975938967
 10
114.6454214983
 20
207.5250477187
 10
113.4122498733
 20
207.017249055
 10
112.0748387097
 20
206.5803618936
 10
110.6494223671
 20
206.2196894528
 10
109.1533034692
 20
205.9396098074
 10
107.6046428726
 20
205.743522745
 10
106.4498387097
 20
205.6547179449
  0
LWPOLYLINE
  5
8E
330
1F
100
AcDbEntity
  8
0
  6
Continuous
 62
     7
370
    15
100
AcDbPolyline
 90
       15
 70
   128
 43
0.0
 10
103.1998387097
 20
205.6547179449
 10
102.8332121213
 20
205.6777609575
 10
101.2652991461
 20
205.830894143
 10
99.7405941594
 20
206.0693395724
 10
98.2776050142
 20
206.3902028411
 10
96.8940904169
 20
206.7895891037
 10
95.6068443606
 20
207.2626503519
 10
94.4314922687
 20
207.8036442631
 10
93.3823013234
 20
208.4060039041
 10
92.4720072815
 20
209.0624174447
 10
91.7116598796
 20
209.7649169137
 10
91.110488705
 20
210.5049749193
 10
90.6757911616
 20
211.2736081598
 10
90.4128438886
 20
212.0614864689
 10
90.3248387097
 20
212.8590460711
  0
LWPOLYLINE
  5
8F
330
1F
100
AcDbEntity
  8
0
  6
Continuous
 62
     7
370
    15
100
AcDbPolyline
 90
       17
 70
   128
 43
0.0
 10
100.6498387097
 20
212.8590460711
 10
100.7410724766
 20
213.2930617257
 10
101.010786424
 20
213.7081088135
 10
101.4471927582
 20
214.0860477852
 10
102.0312184281
 20
214.4103608943
 10
102.7373387097
 20
214.6668741015
 10
103.5346927582
 20
214.8443765488
 10
104.3884323755
 20
214.9351105277
 10
105.2612450438
 20
214.9351105277
 10
106.1149846612
 20
214.8443765488
 10
106.9123387097
 20
214.6668741015
 10
107.6184589912
 20
214.4103608943
 10
108.2024846612
 20
214.0860477852
 10
108.6388909953
 20
213.7081088135
 10
108.9086049427
 20
213.2930617257
 10
108.9998387097
 20
212.8590460711
 10
108.9998387097
 20
212.8590460711
  0
LWPOLYLINE
  5
90
330
1F
100
AcDbEntity
  8
0
  6
Continuous
 62
     7
370
    15
100
AcDbPolyline
 90
       20
 70
   128
 43
0.0
 10
103.1998387097
 20
194.4770017957
 10
103.2878856919
 20
194.7408201144
 10
103.5424853819
 20
194.9760496247
 10
103.9360479527
 20
195.1571995593
 10
104.4259247931
 20
195.2646395117
 10
104.9590301461
 20
195.2867266962
 10
105.4775937747
 20
195.2210676236
 10
105.9254212636
 20
195.0747774731
 10
106.2539835554
 20
194.8637090525
 10
106.4276758277
 20
194.6107349003
 10
106.4276758277
 20
194.3432686911
 10
106.2539835554
 20
194.0902945388
 10
105.9254212636
 20
193.8792261182
 10
105.4775937747
 20
193.7329359678
 10
104.9590301461
 20
193.6672768951
 10
104.4259247931
 20
193.6893640796
 10
103.9360479527
 20
193.7968040321
 10
103.5424853819
 20
193.9779539666
 10
103.2878856919
 20
194.2131834769
 10
103.1998387097
 20
194.4770017957
  0
LWPOLYLINE
  5
91
330
1F
100
AcDbEntity
  8
0
  6
Continuous
 62
     7
370
    15
100
AcDbPolyline
 90
       11
 70
   128
 43
0.0
 10
103.1998387097
 20
211.2135978039
 10
103.2878856919
 20
211.4774161226
 10
103.5424853819
 20
211.7126456329
 10
103.9360479527
 20
211.8937955675
 10
104.4259247931
 20
212.00123552
 10
104.9590301461
 20
212.0233227045
 10
105.4775937747
 20
211.9576636318
 10
105.9254212636
 20
211.8113734813
 10
106.2539835554
 20
211.6003050607
 10
106.4276758277
 20
211.3473309085
 10
106.4498387097
 20
211.2135978039
  0
LWPOLYLINE
  5
92
330
1F
100
AcDbEntity
  8
0
  6
Continuous
 62
     7
370
    15
100
AcDbPolyline
 90
       22
 70
   128
 43
0.0
 10
100.6498387097
 20
211.2135978039
 10
100.7410724766
 20
211.6476134585
 10
101.010786424
 20
212.0626605463
 10
101.4471927582
 20
212.440599518
 10
102.0312184281
 20
212.7649126271
 10
102.7373387097
 20
213.0214258343
 10
103.5346927582
 20
213.1989282817
 10
104.3884323755
 20
213.2896622605
 10
105.2612450438
 20
213.2896622605
 10
106.1149846612
 20
213.1989282817
 10
106.9123387097
 20
213.0214258343
 10
107.6184589912
 20
212.7649126271
 10
108.2024846612
 20
212.440599518
 10
108.6388909953
 20
212.0626605463
 10
108.9086049427
 20
211.6476134585
 10
108.9998387097
 20
211.2135978039
 10
108.9086049427
 20
210.7795821493
 10
108.6388909953
 20
210.3645350615
 10
108.2024846612
 20
209.9865960897
 10
107.6184589912
 20
209.6622829807
 10
106.9123387097
 20
209.4057697735
 10
106.4498387097
 20
209.2907093516
  0
LWPOLYLINE
  5
93
330
1F
100
AcDbEntity
  8
0
  6
Continuous
 62
     7
370
    15
100
AcDbPolyline
 90
        7
 70
   128
 43
0.0
 10
103.1998387097
 20
209.2907093516
 10
102.7373387097
 20
209.4057697735
 10
102.0312184281
 20
209.6622829807
 10
101.4471927582
 20
209.9865960897
 10
101.010786424
 20
210.3645350615
 10
100.7410724766
 20
210.7795821493
 10
100.6498387097
 20
211.2135978039
  0
LWPOLYLINE
  5
94
330
1F
100
AcDbEntity
  8
0
  6
Continuous
 62
     7
370
    15
100
AcDbPolyline
 90
       35
 70
   128
 43
0.0
 10
86.1800825953
 20
256.03798124
 10
86.1784772954
 20
256.1603162603
 10
86.2682646222
 20
257.074147772
 10
86.5367619015
 20
257.9791785867
 10
86.9813833577
 20
258.8666927629
 10
87.5978470432
 20
259.7281430539
 10
88.3802160757
 20
260.5552332225
 10
89.3209558137
 20
261.3399979382
 10
90.4110064193
 20
262.0748794879
 10
91.6398701092
 20
262.7528005605
 10
92.9957122544
 20
263.3672324055
 10
94.4654753538
 20
263.9122577083
 10
96.0350047853
 20
264.3826275773
 10
97.6891851225
 20
264.7738120935
 10
99.4120857046
 20
265.0820439363
 10
101.1871140569
 20
265.3043546644
 10
102.9971756863
 20
265.438603304
 10
104.8248387097
 20
265.4834969674
 10
106.6525017331
 20
265.438603304
 10
108.4625633624
 20
265.3043546644
 10
110.2375917148
 20
265.0820439363
 10
111.9604922968
 20
264.7738120935
 10
113.614672634
 20
264.3826275773
 10
115.1842020656
 20
263.9122577083
 10
116.653965165
 20
263.3672324055
 10
118.0098073102
 20
262.7528005605
 10
119.2386710001
 20
262.0748794879
 10
120.3287216057
 20
261.3399979382
 10
121.2694613436
 20
260.5552332225
 10
122.0518303761
 20
259.7281430539
 10
122.6682940616
 20
258.8666927629
 10
123.1129155179
 20
257.9791785867
 10
123.3814127972
 20
257.074147772
 10
123.4712001239
 20
256.1603162603
 10
123.469594824
 20
256.03798124
  0
LWPOLYLINE
  5
95
330
1F
100
AcDbEntity
  8
0
  6
Continuous
 62
     7
370
    15
100
AcDbPolyline
 90
       36
 70
   128
 43
0.0
 10
86.6784772954
 20
237.107757377
 10
86.7686506416
 20
238.0111544418
 10
87.0382744969
 20
238.9055731407
 10
87.4846692182
 20
239.7821243388
 10
88.1033983344
 20
240.6320964766
 10
88.8883126375
 20
241.447042149
 10
89.8316112965
 20
242.2188620598
 10
90.9239193854
 20
242.939885516
 10
92.1543810559
 20
243.6029466626
 10
93.510767427
 20
244.2014557
 10
94.9795981216
 20
244.7294643765
 10
96.5462752403
 20
245.1817251046
 10
98.1952284421
 20
245.553743114
 10
99.9100696891
 20
245.8418211227
 10
101.6737561188
 20
246.0430960819
 10
103.4687594229
 20
246.1555676307
 10
105.2772400523
 20
246.1781179763
 10
107.0812245138
 20
246.1105230032
 10
108.8627839995
 20
245.9534545007
 10
110.6042125708
 20
245.708473486
 10
112.2882031281
 20
245.3780146907
 10
113.8980194168
 20
244.9653623625
 10
115.4176623593
 20
244.4746176259
 10
116.8320290614
 20
243.9106577224
 10
118.1270629113
 20
243.2790875389
 10
119.2898932808
 20
242.5861839037
 10
120.3089634393
 20
241.8388332044
 10
121.1741454096
 20
241.0444629479
 10
121.8768406248
 20
240.2109679429
 10
122.4100653839
 20
239.3466318371
 10
122.7685202599
 20
238.4600447911
 10
122.9486427671
 20
237.5600181051
 10
122.9486427671
 20
236.6554966489
 10
122.7685202599
 20
235.755469963
 10
122.4100653839
 20
234.868882917
 10
122.2162736645
 20
234.5179493345
  0
ARC
  5
96
330
1F
100
AcDbEntity
  8
0
  6
Continuous
 62
     7
370
    15
100
AcDbCircle
 10
91.7253462168
 20
237.1739804542
 30
0.0
 40
5.0473033796263
100
AcDbArc
 50
180.7517700869
 51
211.7509318576
  0
LWPOLYLINE
  5
97
330
1F
100
AcDbEntity
  8
0
  6
Continuous
 62
     7
370
    15
100
AcDbPolyline
 90
       12
 70
   128
 43
0.0
 10
106.4498387097
 20
188.776302259
 10
106.4442885108
 20
188.8433979772
 10
106.3129703655
 20
189.1026797915
 10
106.0203900645
 20
189.3265935359
 10
105.5982532234
 20
189.4908746818
 10
105.0923049189
 20
189.577720818
 10
104.5573725005
 20
189.577720818
 10
104.051424196
 20
189.4908746818
 10
103.6292873548
 20
189.3265935359
 10
103.3367070539
 20
189.1026797915
 10
103.2053889085
 20
188.8433979772
 10
103.1998387097
 20
188.776302259
  0
LWPOLYLINE
  5
98
330
1F
100
AcDbEntity
  8
0
  6
Continuous
 62
     7
370
    15
100
AcDbPolyline
 90
       68
 70
   128
 43
0.0
 10
157.3414420012
 20
76.7751783156
 10
158.0242087001
 20
77.9171874177
 10
158.7683325788
 20
79.4338051618
 10
159.339659184
 20
80.9690432365
 10
159.7363583843
 20
82.5179838114
 10
159.9571594327
 20
84.0756651629
 10
160.0013550367
 20
85.6370975679
 10
159.8688036246
 20
87.1972792878
 10
159.5599297985
 20
88.7512125902
 10
159.0757229744
 20
90.2939197583
 10
158.4177342126
 20
91.8204590358
 10
157.5880712497
 20
93.3259404573
 10
156.5893917461
 20
94.8055415118
 10
155.4248947734
 20
96.2545225913
 10
154.0983105664
 20
97.6682421723
 10
152.6138885744
 20
99.042171685
 10
150.9763838484
 20
100.3719100189
 10
149.1910418098
 20
101.6531976211
 10
147.2635814474
 20
102.8819301414
 10
145.2001769977
 20
104.0541715788
 10
143.0074381674
 20
105.1661668908
 10
140.6923889598
 20
106.2143540211
 10
138.2624451757
 20
107.1953753103
 10
135.7253906574
 20
108.1060882515
 10
133.0893523555
 20
108.9435755566
 10
130.3627742953
 20
109.7051545012
 10
127.5543905284
 20
110.3883855184
 10
124.6731971546
 20
110.9910800133
 10
121.728423505
 20
111.5113073736
 10
118.7295025772
 20
111.9474011544
 10
115.6860408191
 20
112.2979644158
 10
112.6077873563
 20
112.561874198
 10
109.5046027626
 20
112.7382851183
 10
106.3864274739
 20
112.8266320794
 10
103.2632499455
 20
112.8266320794
 10
100.1450746567
 20
112.7382851183
 10
97.041890063
 20
112.561874198
 10
93.9636366002
 20
112.2979644158
 10
90.9201748422
 20
111.9474011544
 10
87.9212539144
 20
111.5113073736
 10
84.9764802647
 20
110.9910800133
 10
82.0952868909
 20
110.3883855184
 10
79.286903124
 20
109.7051545012
 10
76.5603250639
 20
108.9435755566
 10
73.9242867619
 20
108.1060882515
 10
71.3872322437
 20
107.1953753103
 10
68.9572884595
 20
106.2143540211
 10
66.642239252
 20
105.1661668908
 10
64.4495004216
 20
104.0541715788
 10
62.386095972
 20
102.8819301414
 10
60.4586356095
 20
101.6531976211
 10
58.6732935709
 20
100.3719100189
 10
57.035788845
 20
99.042171685
 10
55.5513668529
 20
97.6682421723
 10
54.224782646
 20
96.2545225913
 10
53.0602856733
 20
94.8055415118
 10
52.0616061697
 20
93.3259404573
 10
51.2319432067
 20
91.8204590358
 10
50.573954445
 20
90.2939197583
 10
50.0897476208
 20
88.7512125902
 10
49.7808737947
 20
87.1972792878
 10
49.6483223826
 20
85.6370975679
 10
49.6925179867
 20
84.0756651629
 10
49.913319035
 20
82.5179838114
 10
50.3100182354
 20
80.9690432365
 10
50.8813448405
 20
79.4338051618
 10
51.6254687192
 20
77.9171874177
 10
52.3082354181
 20
76.7751783156
  0
LWPOLYLINE
  5
99
330
1F
100
AcDbEntity
  8
0
  6
Continuous
 62
     7
370
    15
100
AcDbPolyline
 90
       69
 70
   128
 43
0.0
 10
151.6959691805
 20
69.349634242
 10
151.7734267384
 20
69.4445767877
 10
152.8189398188
 20
70.8519287611
 10
153.6958718687
 20
72.2877774726
 10
154.4011426321
 20
73.7470794513
 10
154.93227482
 20
75.2247088457
 10
155.287402811
 20
76.7154754286
 10
155.4652792052
 20
78.2141428282
 10
155.4652792052
 20
79.7154469204
 10
155.287402811
 20
81.2141143199
 10
154.93227482
 20
82.7048809029
 10
154.4011426321
 20
84.1825102972
 10
153.6958718687
 20
85.6418122759
 10
152.8189398188
 20
87.0776609874
 10
151.7734267384
 20
88.4850129608
 10
150.5630050303
 20
89.8589248209
 10
149.1919263448
 20
91.1945706523
 10
147.6650066459
 20
92.4872589503
 10
145.9876092947
 20
93.7324490999
 10
144.1656262106
 20
94.9257673256
 10
142.2054571755
 20
96.0630220533
 10
140.1139873547
 20
97.1402186345
 10
137.8985631123
 20
98.1535733769
 10
135.5669662067
 20
99.0995268349
 10
133.127386457
 20
99.9747563126
 10
130.5883929762
 20
100.7761875345
 10
127.9589040713
 20
101.5010054441
 10
125.2481559182
 20
102.1466640922
 10
122.4656701184
 20
102.7108955792
 10
119.621220255
 20
103.1917180215
 10
116.7247975617
 20
103.5874425125
 10
113.786575829
 20
103.8966790558
 10
110.8168756678
 20
104.1183414465
 10
107.8261282582
 20
104.2516510875
 10
104.8248387097
 20
104.2961397238
 10
101.8235491611
 20
104.2516510875
 10
98.8328017516
 20
104.1183414465
 10
95.8631015903
 20
103.8966790558
 10
92.9248798576
 20
103.5874425125
 10
90.0284571644
 20
103.1917180215
 10
87.1840073009
 20
102.7108955792
 10
84.4015215012
 20
102.1466640922
 10
81.690773348
 20
101.5010054441
 10
79.0612844432
 20
100.7761875345
 10
76.5222909623
 20
99.9747563126
 10
74.0827112127
 20
99.0995268349
 10
71.751114307
 20
98.1535733769
 10
69.5356900646
 20
97.1402186345
 10
67.4442202439
 20
96.0630220533
 10
65.4840512088
 20
94.9257673256
 10
63.6620681246
 20
93.7324490999
 10
61.9846707734
 20
92.4872589503
 10
60.4577510745
 20
91.1945706523
 10
59.086672389
 20
89.8589248209
 10
57.8762506809
 20
88.4850129608
 10
56.8307376005
 20
87.0776609874
 10
55.9538055507
 20
85.6418122759
 10
55.2485347872
 20
84.1825102972
 10
54.7174025994
 20
82.7048809029
 10
54.3622746084
 20
81.2141143199
 10
54.1843982142
 20
79.7154469204
 10
54.1843982142
 20
78.2141428282
 10
54.3622746084
 20
76.7154754286
 10
54.7174025994
 20
75.2247088457
 10
55.2485347872
 20
73.7470794513
 10
55.9538055507
 20
72.2877774726
 10
56.8307376005
 20
70.8519287611
 10
57.8762506809
 20
69.4445767877
 10
58.4858710385
 20
68.7250658408
  0
LWPOLYLINE
  5
9A
330
1F
100
AcDbEntity
  8
0
  6
Continuous
 62
     7
370
    15
100
AcDbPolyline
 90
       69
 70
   128
 43
0.0
 10
150.548974195
 20
68.0517985965
 10
151.5706570993
 20
69.2250259631
 10
152.611654638
 20
70.6262996227
 10
153.4847992428
 20
72.0559469437
 10
154.1870239616
 20
73.5089462379
 10
154.7158622043
 20
74.9801937923
 10
155.0694564075
 20
76.464521796
 10
155.2465645585
 20
77.956716493
 10
155.2465645585
 20
79.4515364948
 10
155.0694564075
 20
80.9437311917
 10
154.7158622043
 20
82.4280591955
 10
154.1870239616
 20
83.8993067498
 10
153.4847992428
 20
85.352306044
 10
152.611654638
 20
86.7819533651
 10
151.5706570993
 20
88.1832270246
 10
150.3654631687
 20
89.5512049979
 10
149.0003061338
 20
90.8810822123
 10
147.4799811584
 20
92.1681874256
 10
145.8098284394
 20
93.4079996338
 10
143.9957144492
 20
94.5961639514
 10
142.0440113294
 20
95.7285069078
 10
139.9615745084
 20
96.8010511071
 10
137.7557186213
 20
97.8100291986
 10
135.4341918175
 20
98.7518971101
 10
133.0051485446
 20
99.6233464962
 10
130.4771209056
 20
100.421316359
 10
127.8589886898
 20
101.1430038004
 10
125.1599481821
 20
101.7858738668
 10
122.3894798608
 20
102.3476684538
 10
119.5573150968
 20
102.8264142373
 10
116.6734019722
 20
103.2204296054
 10
113.7478703369
 20
103.5283305646
 10
110.7909962277
 20
103.7490356017
 10
107.8131657726
 20
103.8817694821
 10
104.8248387097
 20
103.9260659733
 10
101.8365116468
 20
103.8817694821
 10
98.8586811916
 20
103.7490356017
 10
95.9018070824
 20
103.5283305646
 10
92.9762754472
 20
103.2204296054
 10
90.0923623226
 20
102.8264142373
 10
87.2601975586
 20
102.3476684538
 10
84.4897292372
 20
101.7858738668
 10
81.7906887295
 20
101.1430038004
 10
79.1725565138
 20
100.421316359
 10
76.6445288748
 20
99.6233464962
 10
74.2154856018
 20
98.7518971101
 10
71.8939587981
 20
97.8100291986
 10
69.688102911
 20
96.8010511071
 10
67.6056660899
 20
95.7285069078
 10
65.6539629701
 20
94.5961639514
 10
63.8398489799
 20
93.4079996338
 10
62.169696261
 20
92.1681874256
 10
60.6493712856
 20
90.8810822123
 10
59.2842142506
 20
89.5512049979
 10
58.07902032
 20
88.1832270246
 10
57.0380227814
 20
86.7819533651
 10
56.1648781765
 20
85.352306044
 10
55.4626534578
 20
83.8993067498
 10
54.933815215
 20
82.4280591955
 10
54.5802210119
 20
80.9437311917
 10
54.4031128609
 20
79.4515364948
 10
54.4031128609
 20
77.956716493
 10
54.5802210119
 20
76.464521796
 10
54.933815215
 20
74.9801937923
 10
55.4626534578
 20
73.5089462379
 10
56.1648781765
 20
72.0559469437
 10
57.0380227814
 20
70.6262996227
 10
58.07902032
 20
69.2250259631
 10
59.1007032244
 20
68.0517985965
  0
LWPOLYLINE
  5
9B
330
1F
100
AcDbEntity
  8
0
  6
Continuous
 62
     7
370
    15
100
AcDbPolyline
 90
       68
 70
   128
 43
0.0
 10
143.8151416717
 20
61.9585151026
 10
143.9042012356
 20
62.0412048496
 10
145.1535049622
 20
63.301565716
 10
146.2404193836
 20
64.5990069379
 10
147.1605678789
 20
65.9283041772
 10
147.910245335
 20
67.2841048233
 10
148.4864330654
 20
68.6609495454
 10
148.8868109654
 20
70.0532942758
 10
149.1097668545
 20
71.4555325337
 10
149.154402968
 20
72.8620180005
 10
149.0205395722
 20
74.2670872556
 10
148.7087156875
 20
75.6650825811
 10
148.2201869188
 20
77.0503747433
 10
147.556920399
 20
78.4173856594
 10
146.7215868682
 20
79.7606108591
 10
145.7175499198
 20
81.0746416485
 10
144.5488524562
 20
82.3541868894
 10
143.2202004096
 20
83.5940943048
 10
141.7369437928
 20
84.7893712251
 10
140.1050551568
 20
85.9352046919
 10
138.331105541
 20
87.0269808385
 10
136.4222380145
 20
88.0603034674
 10
134.3861389132
 20
89.0310117533
 10
132.2310068894
 20
89.9351969965
 10
129.9655198991
 20
90.7692183621
 10
127.598800259
 20
91.5297175404
 10
125.1403779137
 20
92.2136322696
 10
122.6001520622
 20
92.8182086666
 10
119.9883512975
 20
93.3410123156
 10
117.3154924195
 20
93.7799380707
 10
114.5923380875
 20
94.1332185329
 10
111.8298534829
 20
94.3994311665
 10
109.0391621562
 20
94.5775040271
 10
106.2315012363
 20
94.6667200782
 10
103.418176183
 20
94.6667200782
 10
100.6105152632
 20
94.5775040271
 10
97.8198239365
 20
94.3994311665
 10
95.0573393319
 20
94.1332185329
 10
92.3341849999
 20
93.7799380707
 10
89.6613261219
 20
93.3410123156
 10
87.0495253572
 20
92.8182086666
 10
84.5092995057
 20
92.2136322696
 10
82.0508771603
 20
91.5297175404
 10
79.6841575202
 20
90.7692183621
 10
77.41867053
 20
89.9351969965
 10
75.2635385062
 20
89.0310117533
 10
73.2274394048
 20
88.0603034674
 10
71.3185718784
 20
87.0269808385
 10
69.5446222626
 20
85.9352046919
 10
67.9127336265
 20
84.7893712251
 10
66.4294770098
 20
83.5940943048
 10
65.1008249631
 20
82.3541868894
 10
63.9321274995
 20
81.0746416485
 10
62.9280905511
 20
79.7606108591
 10
62.0927570204
 20
78.4173856594
 10
61.4294905005
 20
77.0503747433
 10
60.9409617318
 20
75.6650825811
 10
60.6291378472
 20
74.2670872556
 10
60.4952744513
 20
72.8620180005
 10
60.5399105649
 20
71.4555325337
 10
60.762866454
 20
70.0532942758
 10
61.1632443539
 20
68.6609495454
 10
61.7394320843
 20
67.2841048233
 10
62.4891095404
 20
65.9283041772
 10
63.4092580358
 20
64.5990069379
 10
64.4961724571
 20
63.301565716
 10
65.7454761837
 20
62.0412048496
 10
65.8354951993
 20
61.9576288249
  0
LWPOLYLINE
  5
9C
330
1F
100
AcDbEntity
  8
0
  6
Continuous
 62
     7
370
    15
100
AcDbPolyline
 90
       67
 70
   128
 43
0.0
 10
162.0350137315
 20
85.496733103
 10
162.3157472761
 20
86.1728690763
 10
162.8470792304
 20
87.7649179951
 10
163.2021995473
 20
89.3691843574
 10
163.3800297379
 20
90.9807960591
 10
163.3800297379
 20
92.5948586884
 10
163.2021995473
 20
94.2064703901
 10
162.8470792304
 20
95.8107367524
 10
162.3157472761
 20
97.4027856712
 10
161.609817322
 20
98.9777821462
 10
160.7314332542
 20
100.5309429648
 10
159.6832626963
 20
102.0575512287
 10
158.4684889077
 20
103.5529706789
 10
157.0908011165
 20
105.0126597755
 10
155.5543833153
 20
106.4321854907
 10
153.8639015544
 20
107.8072367717
 10
152.0244897715
 20
109.1336376328
 10
150.0417341995
 20
110.4073598382
 10
147.9216564021
 20
111.6245351356
 10
145.6706949858
 20
112.7814670034
 10
143.2956860464
 20
113.8746418776
 10
140.8038424081
 20
114.9007398221
 10
138.2027317181
 20
115.8566446112
 10
135.500253464
 20
116.7394531934
 10
132.7046149835
 20
117.546484508
 10
129.8243065388
 20
118.2752876275
 10
126.868075532
 20
118.9236492008
 10
123.8448999394
 20
119.4896001751
 10
120.7639610459
 20
119.9714217758
 10
117.6346155618
 20
120.3676507266
 10
114.4663672064
 20
120.6770836932
 10
111.2688378459
 20
120.8987809379
 10
108.0517382717
 20
121.0320691734
 10
104.8248387097
 20
121.0765436077
 10
101.5979391476
 20
121.0320691734
 10
98.3808395735
 20
120.8987809379
 10
95.1833102129
 20
120.6770836932
 10
92.0150618575
 20
120.3676507266
 10
88.8857163734
 20
119.9714217758
 10
85.80477748
 20
119.4896001751
 10
82.7816018874
 20
118.9236492008
 10
79.8253708805
 20
118.2752876275
 10
76.9450624358
 20
117.546484508
 10
74.1494239553
 20
116.7394531934
 10
71.4469457012
 20
115.8566446112
 10
68.8458350112
 20
114.9007398221
 10
66.3539913729
 20
113.8746418776
 10
63.9789824336
 20
112.7814670034
 10
61.7280210173
 20
111.6245351356
 10
59.6079432198
 20
110.4073598382
 10
57.6251876479
 20
109.1336376328
 10
55.7857758649
 20
107.8072367717
 10
54.0952941041
 20
106.4321854907
 10
52.5588763029
 20
105.0126597755
 10
51.1811885117
 20
103.5529706789
 10
49.9664147231
 20
102.0575512287
 10
48.9182441651
 20
100.5309429648
 10
48.0398600973
 20
98.9777821462
 10
47.3339301432
 20
97.4027856712
 10
46.8025981889
 20
95.8107367524
 10
46.4474778721
 20
94.2064703901
 10
46.2696476815
 20
92.5948586884
 10
46.2696476815
 20
90.9807960591
 10
46.4474778721
 20
89.3691843574
 10
46.8025981889
 20
87.7649179951
 10
47.3339301432
 20
86.1728690763
 10
47.6146636878
 20
85.496733103
  0
LWPOLYLINE
  5
9D
330
1F
100
AcDbEntity
  8
0
  6
Continuous
 62
     7
370
    15
100
AcDbPolyline
 90
       68
 70
   128
 43
0.0
 10
157.5640790098
 20
77.1227361561
 10
158.1775151732
 20
78.1567341986
 10
158.9237834195
 20
79.6777224327
 10
159.4967564364
 20
81.2173846563
 10
159.8945988186
 20
82.7707888671
 10
160.116036157
 20
84.332959043
 10
160.1603591211
 20
85.8988910821
 10
160.027425731
 20
87.4635688319
 10
159.7176618124
 20
89.0219801579
 10
159.2320596326
 20
90.5691329988
 10
158.5721747218
 20
92.1000713576
 10
157.7401208903
 20
93.6098911772
 10
156.7385634572
 20
95.0937560495
 10
155.5707107131
 20
96.5469127081
 10
154.2403036424
 20
97.964706254
 10
152.7516039399
 20
99.3425950671
 10
151.1093803597
 20
100.6761653541
 10
149.3188934389
 20
101.9611452874
 10
147.385878647
 20
103.1934186888
 10
145.316528013
 20
104.3690382152
 10
143.117470291
 20
105.4842380027
 10
140.7957497257
 20
106.5354457302
 10
138.3588034881
 20
107.5192940626
 10
135.8144378517
 20
108.4326314369
 10
133.1708031866
 20
109.2725321582
 10
130.4363678517
 20
110.0363057714
 10
127.6198910677
 20
110.7215056791
 10
124.7303948588
 20
111.3259369797
 10
121.7771351526
 20
111.8476634973
 10
118.7695721302
 20
112.2850139847
 10
115.7173399226
 20
112.6365874764
 10
112.6302157499
 20
112.9012577766
 10
109.5180886013
 20
113.0781770664
 10
106.3909275585
 20
113.16677862
 10
103.2587498609
 20
113.16677862
 10
100.131588818
 20
113.0781770664
 10
97.0194616695
 20
112.9012577766
 10
93.9323374967
 20
112.6365874764
 10
90.8801052892
 20
112.2850139847
 10
87.8725422667
 20
111.8476634973
 10
84.9192825605
 20
111.3259369797
 10
82.0297863517
 20
110.7215056791
 10
79.2133095677
 20
110.0363057714
 10
76.4788742328
 20
109.2725321582
 10
73.8352395677
 20
108.4326314369
 10
71.2908739312
 20
107.5192940626
 10
68.8539276937
 20
106.5354457302
 10
66.5322071284
 20
105.4842380027
 10
64.3331494063
 20
104.3690382152
 10
62.2637987724
 20
103.1934186888
 10
60.3307839805
 20
101.9611452874
 10
58.5402970597
 20
100.6761653541
 10
56.8980734794
 20
99.3425950671
 10
55.409373777
 20
97.964706254
 10
54.0789667062
 20
96.5469127081
 10
52.9111139621
 20
95.0937560495
 10
51.9095565291
 20
93.6098911772
 10
51.0775026975
 20
92.1000713576
 10
50.4176177867
 20
90.5691329988
 10
49.9320156069
 20
89.0219801579
 10
49.6222516884
 20
87.4635688319
 10
49.4893182983
 20
85.8988910821
 10
49.5336412623
 20
84.332959043
 10
49.7550786007
 20
82.7707888671
 10
50.1529209829
 20
81.2173846563
 10
50.7258939999
 20
79.6777224327
 10
51.4721622462
 20
78.1567341986
 10
52.0855984095
 20
77.1227361561
  0
LWPOLYLINE
  5
9E
330
1F
100
AcDbEntity
  8
0
  6
Continuous
 62
     7
370
    15
100
AcDbPolyline
 90
       72
 70
   128
 43
0.0
 10
140.6472292616
 20
59.4458162285
 10
140.6938955379
 20
59.4785198483
 10
142.241668483
 20
60.6417103336
 10
143.6387770605
 20
61.8516418536
 10
144.8795956075
 20
63.1034424411
 10
145.9591277855
 20
64.392071537
 10
146.8730266995
 20
65.7123402866
 10
147.6176124011
 20
67.0589324337
 10
148.1898867065
 20
68.4264257271
 10
148.587545269
 20
69.8093137538
 10
148.808986858
 20
71.2020281118
 10
148.8533198063
 20
72.5989608321
 10
148.7203656009
 20
73.9944869595
 10
148.4106596013
 20
75.3829872029
 10
147.9254488843
 20
76.7588705619
 10
147.2666872222
 20
78.1165968398
 10
146.4370272157
 20
79.450698952
 10
145.4398096129
 20
80.7558049403
 10
144.2790498571
 20
82.0266596035
 10
142.9594219181
 20
83.2581456583
 10
141.4862394719
 20
84.445304345
 10
139.8654345042
 20
85.5833553947
 10
138.1035334247
 20
86.6677162774
 10
136.207630787
 20
87.6940206546
 10
134.1853607219
 20
88.6581359607
 10
132.0448661974
 20
89.5561800438
 10
129.7947662293
 20
90.3845367972
 10
127.444121176
 20
91.1398707206
 10
125.0023962556
 20
91.819140351
 10
122.4794234325
 20
92.4196105093
 10
119.8853618278
 20
92.938863314
 10
117.2306568121
 20
93.3748079175
 10
114.5259979453
 20
93.7256889246
 10
111.7822759343
 20
93.9900934614
 10
109.0105387792
 20
94.1669568642
 10
106.2219472872
 20
94.2555669663
 10
103.4277301321
 20
94.2555669663
 10
100.6391386401
 20
94.1669568642
 10
97.867401485
 20
93.9900934614
 10
95.123679474
 20
93.7256889246
 10
92.4190206073
 20
93.3748079175
 10
89.7643155915
 20
92.938863314
 10
87.1702539868
 20
92.4196105093
 10
84.6472811637
 20
91.819140351
 10
82.2055562433
 20
91.1398707206
 10
79.8549111901
 20
90.3845367972
 10
77.604811222
 20
89.5561800438
 10
75.4643166974
 20
88.6581359607
 10
73.4420466324
 20
87.6940206546
 10
71.5461439947
 20
86.6677162774
 10
69.7842429151
 20
85.5833553947
 10
68.1634379475
 20
84.445304345
 10
66.6902555012
 20
83.2581456583
 10
65.3706275622
 20
82.0266596035
 10
64.2098678064
 20
80.7558049403
 10
63.2126502036
 20
79.450698952
 10
62.3829901972
 20
78.1165968398
 10
61.7242285351
 20
76.7588705619
 10
61.2390178181
 20
75.3829872029
 10
60.9293118185
 20
73.9944869595
 10
60.796357613
 20
72.5989608321
 10
60.8406905614
 20
71.2020281118
 10
61.0621321503
 20
69.8093137538
 10
61.4597907129
 20
68.4264257271
 10
62.0320650183
 20
67.0589324337
 10
62.7766507199
 20
65.7123402866
 10
63.6905496339
 20
64.392071537
 10
64.7700818119
 20
63.1034424411
 10
66.0109003588
 20
61.8516418536
 10
67.4080089364
 20
60.6417103336
 10
68.9557818814
 20
59.4785198483
 10
69.0024481577
 20
59.4458162285
  0
LWPOLYLINE
  5
9F
330
1F
100
AcDbEntity
  8
0
  6
Continuous
 62
     7
370
    15
100
AcDbPolyline
 90
       64
 70
   128
 43
0.0
 10
132.3874220347
 20
55.018062559
 10
132.8942435578
 20
55.3483324584
 10
134.3217400382
 20
56.3763253781
 10
135.5989270707
 20
57.4526173061
 10
136.719296403
 20
58.5717237054
 10
137.6771388897
 20
59.7279418665
 10
138.4675735851
 20
60.9153799665
 10
139.0865726153
 20
62.1279870931
 10
139.5309817029
 20
63.3595840783
 10
139.7985362412
 20
64.6038949862
 10
139.8878728336
 20
65.8545790937
 10
139.7985362412
 20
67.1052632011
 10
139.5309817029
 20
68.349574109
 10
139.0865726153
 20
69.5811710942
 10
138.4675735851
 20
70.7937782208
 10
137.6771388897
 20
71.9812163208
 10
136.719296403
 20
73.1374344819
 10
135.5989270707
 20
74.2565408813
 10
134.3217400382
 20
75.3328328093
 10
132.8942435578
 20
76.3608257289
 10
131.3237118244
 20
77.335281224
 10
129.6181479076
 20
78.2512336926
 10
127.7862429704
 20
79.104015651
 10
125.8373319802
 20
79.8892815177
 10
123.7813461409
 20
80.6030297579
 10
121.6287622849
 20
81.2416232742
 10
119.3905494861
 20
81.8018079403
 10
117.078113164
 20
82.2807291837
 10
114.703236964
 20
82.6759465314
 10
112.2780227108
 20
82.9854460464
 10
109.8148287404
 20
83.2076505903
 10
107.3262069246
 20
83.3414278594
 10
104.8248387097
 20
83.3860961556
 10
102.3234704948
 20
83.3414278594
 10
99.834848679
 20
83.2076505903
 10
97.3716547085
 20
82.9854460464
 10
94.9464404553
 20
82.6759465314
 10
92.5715642553
 20
82.2807291837
 10
90.2591279332
 20
81.8018079403
 10
88.0209151345
 20
81.2416232742
 10
85.8683312785
 20
80.6030297579
 10
83.8123454391
 20
79.8892815177
 10
81.863434449
 20
79.104015651
 10
80.0315295117
 20
78.2512336926
 10
78.325965595
 20
77.335281224
 10
76.7554338616
 20
76.3608257289
 10
75.3279373812
 20
75.3328328093
 10
74.0507503487
 20
74.2565408813
 10
72.9303810164
 20
73.1374344819
 10
71.9725385297
 20
71.9812163208
 10
71.1821038342
 20
70.7937782208
 10
70.5631048041
 20
69.5811710942
 10
70.1186957165
 20
68.349574109
 10
69.8511411782
 20
67.1052632011
 10
69.7618045858
 20
65.8545790937
 10
69.8511411782
 20
64.6038949862
 10
70.1186957165
 20
63.3595840783
 10
70.5631048041
 20
62.1279870931
 10
71.1821038342
 20
60.9153799665
 10
71.9725385297
 20
59.7279418665
 10
72.9303810164
 20
58.5717237054
 10
74.0507503487
 20
57.4526173061
 10
75.3279373812
 20
56.3763253781
 10
76.5865159687
 20
55.462111981
  0
LWPOLYLINE
  5
A0
330
1F
100
AcDbEntity
  8
0
  6
Continuous
 62
     7
370
    15
100
AcDbPolyline
 90
       66
 70
   128
 43
0.0
 10
165.0994310072
 20
94.1316358031
 10
165.2198332189
 20
94.5973643938
 10
165.5263917726
 20
96.2235502081
 10
165.657932035
 20
97.85561918
 10
165.6140747413
 20
99.4888656322
 10
165.3949463435
 20
101.1185804924
 10
165.0011786456
 20
102.7400648707
 10
164.4339069816
 20
104.348643608
 10
163.6947669427
 20
105.9396787553
 10
162.785889661
 20
107.5085829464
 10
161.7098956649
 20
109.0508326244
 10
160.4698873236
 20
110.5619810843
 10
159.0694399023
 20
112.0376712937
 10
157.5125912534
 20
113.4736484559
 10
155.8038301744
 20
114.8657722769
 10
153.9480834661
 20
116.2100289034
 10
151.9507017266
 20
117.5025424955
 10
149.8174439244
 20
118.739586402
 10
147.554460794
 20
119.917593905
 10
145.1682771017
 20
121.0331685039
 10
142.6657728327
 20
122.0830937085
 10
140.0541633547
 20
123.0643423125
 10
137.3409786139
 20
123.9740851222
 10
134.5340414242
 20
124.8096991135
 10
131.6414449123
 20
125.568774995
 10
128.6715291826
 20
126.2491241545
 10
125.632857271
 20
126.8487849692
 10
122.5341904553
 20
127.3660284617
 10
119.384462994
 20
127.7993632851
 10
116.1927563669
 20
128.147540023
 10
112.9682730904
 20
128.4095547917
 10
109.7203101844
 20
128.5846521348
 10
106.4582323668
 20
128.6723272013
 10
103.1914450525
 20
128.6723272013
 10
99.929367235
 20
128.5846521348
 10
96.681404329
 20
128.4095547917
 10
93.4569210524
 20
128.147540023
 10
90.2652144253
 20
127.7993632851
 10
87.1154869641
 20
127.3660284617
 10
84.0168201484
 20
126.8487849692
 10
80.9781482368
 20
126.2491241545
 10
78.0082325071
 20
125.568774995
 10
75.1156359951
 20
124.8096991135
 10
72.3086988054
 20
123.9740851222
 10
69.5955140646
 20
123.0643423125
 10
66.9839045866
 20
122.0830937085
 10
64.4814003177
 20
121.0331685039
 10
62.0952166254
 20
119.917593905
 10
59.832233495
 20
118.739586402
 10
57.6989756928
 20
117.5025424955
 10
55.7015939532
 20
116.2100289034
 10
53.8458472449
 20
114.8657722769
 10
52.137086166
 20
113.4736484559
 10
50.580237517
 20
112.0376712937
 10
49.1797900957
 20
110.5619810843
 10
47.9397817545
 20
109.0508326244
 10
46.8637877584
 20
107.5085829464
 10
45.9549104766
 20
105.9396787553
 10
45.2157704377
 20
104.348643608
 10
44.6484987738
 20
102.7400648707
 10
44.2547310758
 20
101.1185804924
 10
44.0356026781
 20
99.4888656322
 10
43.9917453844
 20
97.85561918
 10
44.1232856467
 20
96.2235502081
 10
44.4298442005
 20
94.5973643938
 10
44.5502464122
 20
94.1316358031
  0
LWPOLYLINE
  5
A1
330
1F
100
AcDbEntity
  8
0
  6
Continuous
 62
     7
370
    15
100
AcDbPolyline
 90
       62
 70
   128
 43
0.0
 10
162.1866333355
 20
85.8442909436
 10
162.2858492204
 20
86.0782281073
 10
162.8521693621
 20
87.6560872639
 10
163.2453131423
 20
89.2470550939
 10
163.4641072655
 20
90.8463835239
 10
163.5078987641
 20
92.4492995292
 10
163.3765569471
 20
94.0510193785
 10
163.07047379
 20
95.6467629103
 10
162.5905627653
 20
97.2317677986
 10
161.9382561161
 20
98.801303766
 10
161.1155005818
 20
100.3506867001
 10
160.1247515884
 20
101.8752926334
 10
158.9689659201
 20
103.3705715426
 10
157.6515928958
 20
104.8320609277
 10
156.1765640742
 20
106.2553991299
 10
154.5482815211
 20
107.6363383486
 10
152.7716046717
 20
108.9707573184
 10
150.8518358279
 20
110.2546736088
 10
148.7947043346
 20
111.4842555087
 10
146.6063494805
 20
112.6558334626
 10
144.2933021767
 20
113.7659110214
 10
141.8624654655
 20
114.8111752774
 10
139.321093919
 20
115.7885067512
 10
136.6767719887
 20
116.6949887015
 10
133.9373913706
 20
117.5279158299
 10
131.1111274532
 20
118.2848023545
 10
128.2064149187
 20
118.9633894285
 10
125.231922571
 20
119.5616518812
 10
122.1965274644
 20
120.0778042625
 10
119.1092884109
 20
120.5103061707
 10
115.9794189453
 20
120.8578668501
 10
112.816259828
 20
121.1194490432
 10
109.6292511693
 20
121.2942720857
 10
106.4279042554
 20
121.381814237
 10
103.2217731639
 20
121.381814237
 10
100.0204262501
 20
121.2942720857
 10
96.8334175913
 20
121.1194490432
 10
93.6702584741
 20
120.8578668501
 10
90.5403890084
 20
120.5103061707
 10
87.4531499549
 20
120.0778042625
 10
84.4177548483
 20
119.5616518812
 10
81.4432625007
 20
118.9633894285
 10
78.5385499662
 20
118.2848023545
 10
75.7122860487
 20
117.5279158299
 10
72.9729054307
 20
116.6949887015
 10
70.3285835004
 20
115.7885067512
 10
67.7872119539
 20
114.8111752774
 10
65.3563752426
 20
113.7659110214
 10
63.0433279389
 20
112.6558334626
 10
60.8549730848
 20
111.4842555087
 10
58.7978415914
 20
110.2546736088
 10
56.8780727476
 20
108.9707573184
 10
55.1013958982
 20
107.6363383486
 10
53.4731133452
 20
106.2553991299
 10
51.9980845236
 20
104.8320609277
 10
50.6807114992
 20
103.3705715426
 10
49.524925831
 20
101.8752926334
 10
48.5341768375
 20
100.3506867001
 10
47.7114213032
 20
98.8013037659
 10
47.059114654
 20
97.2317677986
 10
46.5792036293
 20
95.6467629103
 10
46.275985046
 20
94.0718498194
  0
LWPOLYLINE
  5
A2
330
1F
100
AcDbEntity
  8
0
  6
Continuous
 62
     7
370
    15
100
AcDbPolyline
 90
       63
 70
   128
 43
0.0
 10
166.8320175052
 20
102.8278619565
 10
166.9335708347
 20
103.9591975251
 10
166.9335708347
 20
105.6131505026
 10
166.7575168856
 20
107.2647593255
 10
166.4059080315
 20
108.9093423289
 10
165.8797409457
 20
110.5422377639
 10
165.1805071062
 20
112.1588170107
 10
164.3101885672
 20
113.7544977
 10
163.2712523412
 20
115.3247567014
 10
162.0666434057
 20
116.8651429452
 10
160.6997763557
 20
118.3712900392
 10
159.1745257243
 20
119.8389286459
 10
157.4952150001
 20
121.2638985841
 10
155.666604372
 20
122.6421606218
 10
153.6938772352
 20
123.9698079255
 10
151.5826254993
 20
125.2430771346
 10
149.3388337367
 20
126.4583590292
 10
146.9688622189
 20
127.6122087608
 10
144.4794288877
 20
128.701355617
 10
141.8775903123
 20
129.7227122926
 10
139.1707216868
 20
130.6733836412
 10
136.3664959244
 20
131.5506748815
 10
133.4728619078
 20
132.3520992363
 10
130.4980219569
 20
133.075384981
 10
127.4504085788
 20
133.7184818838
 10
124.3386605648
 20
134.2795670165
 10
121.1715985025
 20
134.7570499224
 10
117.9581997737
 20
135.1495771243
 10
114.7075731059
 20
135.4560359612
 10
111.4289327539
 20
135.6755577423
 10
108.1315723797
 20
135.8075202091
 10
104.8248387097
 20
135.8515492998
 10
101.5181050397
 20
135.8075202091
 10
98.2207446655
 20
135.6755577423
 10
94.9421043134
 20
135.4560359612
 10
91.6914776457
 20
135.1495771243
 10
88.4780789168
 20
134.7570499224
 10
85.3110168546
 20
134.2795670165
 10
82.1992688405
 20
133.7184818838
 10
79.1516554624
 20
133.075384981
 10
76.1768155115
 20
132.3520992363
 10
73.2831814949
 20
131.5506748815
 10
70.4789557326
 20
130.6733836412
 10
67.7720871071
 20
129.7227122926
 10
65.1702485317
 20
128.701355617
 10
62.6808152004
 20
127.6122087608
 10
60.3108436826
 20
126.4583590292
 10
58.06705192
 20
125.2430771346
 10
55.9558001841
 20
123.9698079255
 10
53.9830730474
 20
122.6421606218
 10
52.1544624192
 20
121.2638985841
 10
50.4751516951
 20
119.8389286459
 10
48.9499010637
 20
118.3712900392
 10
47.5830340137
 20
116.8651429452
 10
46.3784250782
 20
115.3247567014
 10
45.3394888521
 20
113.7544977
 10
44.4691703131
 20
112.1588170107
 10
43.7699364736
 20
110.5422377639
 10
43.2437693879
 20
108.9093423289
 10
42.8921605337
 20
107.2647593255
 10
42.7161065846
 20
105.6131505026
 10
42.7161065846
 20
103.9591975251
 10
42.8176599142
 20
102.8278619565
  0
LWPOLYLINE
  5
A3
330
1F
100
AcDbEntity
  8
0
  6
Continuous
 62
     7
370
    15
100
AcDbPolyline
 90
       60
 70
   128
 43
0.0
 10
165.1936682248
 20
94.4791936437
 10
165.289359712
 20
94.8538117519
 10
165.5962711748
 20
96.4818696252
 10
165.7279628658
 20
98.1158174288
 10
165.6840550838
 20
99.7509440683
 10
165.4646744262
 20
101.3825350502
 10
165.0704534243
 20
103.0058860753
 10
164.5025287193
 20
104.6163166025
 10
163.7625377852
 20
106.2091833435
 10
162.8526142073
 20
107.7798936513
 10
161.7753815309
 20
109.3239187614
 10
160.5339456967
 20
110.8368068497
 10
159.1318860855
 20
112.3141958682
 10
157.5732451982
 20
113.7518261219
 10
155.8625169998
 20
115.1455525507
 10
154.0046339628
 20
116.4913566804
 10
152.0049528448
 20
117.7853582094
 10
149.8692392442
 20
119.0238261962
 10
147.603650976
 20
120.2031898171
 10
145.2147203179
 20
121.3200486614
 10
142.7093351754
 20
122.3711825359
 10
140.0947192223
 20
123.3535607497
 10
137.3784110733
 20
124.2643508519
 10
134.5682425479
 20
125.1009267989
 10
131.6723160896
 20
125.8608765258
 10
128.6989814039
 20
126.5420089007
 10
125.6568113846
 20
127.1423600427
 10
122.5545773951
 20
127.660198984
 10
119.4012239794
 20
128.0940326608
 10
116.2058430714
 20
128.4426102185
 10
112.9776477817
 20
128.7049266176
 10
109.7259458329
 20
128.8802255321
 10
106.4601127235
 20
128.9680015298
 10
103.1895646958
 20
128.9680015298
 10
99.9237315864
 20
128.8802255321
 10
96.6720296376
 20
128.7049266176
 10
93.4438343479
 20
128.4426102185
 10
90.24845344
 20
128.0940326608
 10
87.0951000242
 20
127.660198984
 10
83.9928660348
 20
127.1423600427
 10
80.9506960154
 20
126.5420089007
 10
77.9773613298
 20
125.8608765258
 10
75.0814348714
 20
125.1009267989
 10
72.2712663461
 20
124.2643508519
 10
69.5549581971
 20
123.3535607497
 10
66.940342244
 20
122.3711825359
 10
64.4349571014
 20
121.3200486614
 10
62.0460264433
 20
120.2031898171
 10
59.7804381752
 20
119.0238261962
 10
57.6447245745
 20
117.7853582094
 10
55.6450434565
 20
116.4913566804
 10
53.7871604195
 20
115.1455525507
 10
52.0764322212
 20
113.7518261219
 10
50.5177913339
 20
112.3141958682
 10
49.1157317227
 20
110.8368068497
 10
47.8742958884
 20
109.3239187614
 10
46.7970632121
 20
107.7798936513
 10
45.8871396342
 20
106.2091833435
 10
45.1471487
 20
104.6163166025
 10
44.6728664454
 20
103.3100519564
  0
LWPOLYLINE
  5
A4
330
1F
100
AcDbEntity
  8
0
  6
Continuous
 62
     7
370
    15
100
AcDbPolyline
 90
       75
 70
   128
 43
0.0
 10
122.0146629189
 20
50.571510889
 10
123.5389786101
 20
51.0340256687
 10
125.5686777396
 20
51.7386483145
 10
127.4926710203
 20
52.5138742015
 10
129.3011542234
 20
53.3557529564
 10
130.9849117332
 20
54.259994558
 10
132.5353635073
 20
55.2219911983
 10
133.9446087988
 20
56.2368407631
 10
135.2054664168
 20
57.2993718114
 10
136.3115113199
 20
58.4041699288
 10
137.2571073568
 20
59.5456053171
 10
138.0374359867
 20
60.7178614833
 10
138.648520834
 20
61.9149648788
 10
139.0872479502
 20
63.1308153389
 10
139.3513816826
 20
64.3592171684
 10
139.4395760661
 20
65.5939107133
 10
139.3513816826
 20
66.8286042581
 10
139.0872479502
 20
68.0570060876
 10
138.648520834
 20
69.2728565477
 10
138.0374359867
 20
70.4699599432
 10
137.2571073568
 20
71.6422161094
 10
136.3115113199
 20
72.7836514978
 10
135.2054664168
 20
73.8884496151
 10
133.9446087988
 20
74.9509806635
 10
132.5353635073
 20
75.9658302282
 10
130.9849117332
 20
76.9278268685
 10
129.3011542234
 20
77.8320684701
 10
127.4926710203
 20
78.673947225
 10
125.5686777396
 20
79.4491731121
 10
123.5389786101
 20
80.1537957578
 10
121.4139165133
 20
80.7842245668
 10
119.2043202787
 20
81.3372470184
 10
116.921449502
 20
81.8100450368
 10
114.5769371695
 20
82.2002093518
 10
112.1827303787
 20
82.5057517754
 10
109.7510294584
 20
82.7251153335
 10
107.2942257993
 20
82.8571821997
 10
104.8248387097
 20
82.9012793915
 10
102.35545162
 20
82.8571821997
 10
99.8986479609
 20
82.7251153335
 10
97.4669470407
 20
82.5057517754
 10
95.0727402498
 20
82.2002093518
 10
92.7282279174
 20
81.8100450368
 10
90.4453571407
 20
81.3372470184
 10
88.235760906
 20
80.7842245668
 10
86.1106988093
 20
80.1537957578
 10
84.0809996798
 20
79.4491731121
 10
82.1570063991
 20
78.673947225
 10
80.3485231959
 20
77.8320684701
 10
78.6647656861
 20
76.9278268685
 10
77.1143139121
 20
75.9658302282
 10
75.7050686205
 20
74.9509806635
 10
74.4442110025
 20
73.8884496151
 10
73.3381660994
 20
72.7836514978
 10
72.3925700626
 20
71.6422161094
 10
71.6122414326
 20
70.4699599432
 10
71.0011565854
 20
69.2728565477
 10
70.5624294692
 20
68.0570060876
 10
70.2982957368
 20
66.8286042581
 10
70.2101013532
 20
65.5939107133
 10
70.2982957368
 20
64.3592171684
 10
70.5624294692
 20
63.1308153389
 10
71.0011565854
 20
61.9149648788
 10
71.6122414326
 20
60.7178614833
 10
72.3925700626
 20
59.5456053171
 10
73.3381660994
 20
58.4041699288
 10
74.4442110025
 20
57.2993718114
 10
75.7050686205
 20
56.2368407631
 10
77.1143139121
 20
55.2219911983
 10
78.6647656861
 20
54.259994558
 10
80.3485231959
 20
53.3557529564
 10
82.1570063991
 20
52.5138742015
 10
84.0809996798
 20
51.7386483145
 10
86.1106988093
 20
51.0340256687
 10
87.6350145005
 20
50.571510889
  0
LWPOLYLINE
  5
A5
330
1F
100
AcDbEntity
  8
0
  6
Continuous
 62
     7
370
    15
100
AcDbPolyline
 90
       67
 70
   128
 43
0.0
 10
106.6616698762
 20
49.3022026422
 10
106.7245991708
 20
49.3050695804
 10
108.6081515456
 20
49.4364417481
 10
110.4594260292
 20
49.6541496491
 10
112.2626282005
 20
49.9563358763
 10
114.0023737743
 20
50.3404222834
 10
115.6638198549
 20
50.8031319806
 10
117.23279157
 20
51.3405172919
 10
118.6959030063
 20
51.9479934353
 10
120.0406714128
 20
52.6203776386
 10
121.2556236996
 20
53.3519333567
 10
122.3303943223
 20
54.1364192143
 10
123.2558137167
 20
54.9671422546
 10
124.0239865309
 20
55.8370150415
 10
124.6283589854
 20
56.7386161272
 10
125.0637747874
 20
57.664253369
 10
125.3265191228
 20
58.6060295563
 10
125.4143503496
 20
59.5559097869
 10
125.3265191228
 20
60.5057900175
 10
125.0637747874
 20
61.4475662049
 10
124.6283589854
 20
62.3732034467
 10
124.0239865309
 20
63.2748045323
 10
123.2558137167
 20
64.1446773192
 10
122.3303943223
 20
64.9754003595
 10
121.2556236996
 20
65.7598862171
 10
120.0406714128
 20
66.4914419352
 10
118.6959030063
 20
67.1638261385
 10
117.23279157
 20
67.7713022819
 10
115.6638198549
 20
68.3086875932
 10
114.0023737743
 20
68.7713972904
 10
112.2626282005
 20
69.1554836975
 10
110.4594260292
 20
69.4576699248
 10
108.6081515456
 20
69.6753778257
 10
106.7245991708
 20
69.8067499935
 10
104.8248387097
 20
69.8506656069
 10
102.9250782485
 20
69.8067499935
 10
101.0415258738
 20
69.6753778257
 10
99.1902513902
 20
69.4576699248
 10
97.3870492189
 20
69.1554836975
 10
95.6473036451
 20
68.7713972904
 10
93.9858575645
 20
68.3086875932
 10
92.4168858493
 20
67.7713022819
 10
90.953774413
 20
67.1638261385
 10
89.6090060065
 20
66.4914419352
 10
88.3940537197
 20
65.7598862171
 10
87.3192830971
 20
64.9754003595
 10
86.3938637027
 20
64.1446773192
 10
85.6256908884
 20
63.2748045323
 10
85.021318434
 20
62.3732034467
 10
84.585902632
 20
61.4475662049
 10
84.3231582966
 20
60.5057900175
 10
84.2353270697
 20
59.5559097869
 10
84.3231582966
 20
58.6060295563
 10
84.585902632
 20
57.664253369
 10
85.021318434
 20
56.7386161272
 10
85.6256908884
 20
55.8370150415
 10
86.3938637027
 20
54.9671422546
 10
87.3192830971
 20
54.1364192143
 10
88.3940537197
 20
53.3519333567
 10
89.6090060065
 20
52.6203776386
 10
90.953774413
 20
51.9479934353
 10
92.4168858493
 20
51.3405172919
 10
93.9858575645
 20
50.8031319806
 10
95.6473036451
 20
50.3404222834
 10
97.3870492189
 20
49.9563358763
 10
99.1902513902
 20
49.6541496491
 10
99.3164217122
 20
49.6364172123
  0
LWPOLYLINE
  5
A6
330
1F
100
AcDbEntity
  8
0
  6
Continuous
 62
     7
370
    15
100
AcDbPolyline
 90
       61
 70
   128
 43
0.0
 10
167.3193822907
 20
111.486956778
 10
167.2985985856
 20
112.1123319557
 10
167.1215099257
 20
113.7736476754
 10
166.7678345829
 20
115.4278962833
 10
166.2385750884
 20
117.070388632
 10
165.5352316858
 20
118.6964688985
 10
164.6597980783
 20
120.3015277817
 10
163.6147557776
 20
121.8810155677
 10
162.4030670696
 20
123.4304550269
 10
161.0281666177
 20
124.9454541046
 10
159.4939517266
 20
126.4217183715
 10
157.804771295
 20
127.8550631961
 10
155.9654134884
 20
129.2414256067
 10
153.9810921664
 20
130.5768758085
 10
151.8574321033
 20
131.8576283227
 10
149.6004530442
 20
133.0800527173
 10
147.2165526417
 20
134.2406838975
 10
144.7124883202
 20
135.3362319281
 10
142.0953581224
 20
136.3635913591
 10
139.3725805879
 20
137.3198500287
 10
136.5518737256
 20
138.2022973178
 10
133.6412331355
 20
139.0084318336
 10
130.6489093446
 20
139.7359685002
 10
127.5833844198
 20
140.382845036
 10
124.4533479245
 20
140.9472277992
 10
121.2676722873
 20
141.4275169854
 10
118.0353876519
 20
141.8223511627
 10
114.7656562802
 20
142.1306111309
 10
111.467746581
 20
142.3514230935
 10
108.1510068378
 20
142.4841611351
 10
104.8248387097
 20
142.5284489952
 10
101.4986705815
 20
142.4841611351
 10
98.1819308383
 20
142.3514230935
 10
94.8840211392
 20
142.1306111309
 10
91.6142897675
 20
141.8223511627
 10
88.3820051321
 20
141.4275169854
 10
85.1963294949
 20
140.9472277992
 10
82.0662929996
 20
140.382845036
 10
79.0007680748
 20
139.7359685002
 10
76.0084442839
 20
139.0084318336
 10
73.0978036938
 20
138.2022973178
 10
70.2770968315
 20
137.3198500287
 10
67.554319297
 20
136.3635913591
 10
64.9371890991
 20
135.3362319281
 10
62.4331247777
 20
134.2406838975
 10
60.0492243751
 20
133.0800527173
 10
57.7922453161
 20
131.8576283227
 10
55.668585253
 20
130.5768758085
 10
53.6842639309
 20
129.2414256067
 10
51.8449061243
 20
127.8550631961
 10
50.1557256928
 20
126.4217183715
 10
48.6215108016
 20
124.9454541046
 10
47.2466103497
 20
123.4304550269
 10
46.0349216418
 20
121.8810155677
 10
44.9898793411
 20
120.3015277817
 10
44.1144457336
 20
118.6964688985
 10
43.411102331
 20
117.070388632
 10
42.8818428365
 20
115.4278962833
 10
42.5281674937
 20
113.7736476754
 10
42.3510788337
 20
112.1123319557
 10
42.3302951286
 20
111.486956778
  0
LWPOLYLINE
  5
A7
330
1F
100
AcDbEntity
  8
0
  6
Continuous
 62
     7
370
    15
100
AcDbPolyline
 90
       57
 70
   128
 43
0.0
 10
166.8749349175
 20
103.175419797
 10
166.9656863007
 20
104.2194382887
 10
166.9656863007
 20
105.8742464998
 10
166.7895413169
 20
107.526709344
 10
166.4377506512
 20
109.172142736
 10
165.9113114926
 20
110.8058825159
 10
165.2117160901
 20
112.4232976709
 10
164.3409475228
 20
114.019803462
 10
163.3014740789
 20
115.5908744201
 10
162.0962422587
 20
117.1320571738
 10
160.7286684228
 20
118.6389830733
 10
159.2026291079
 20
120.1073805732
 10
157.5224500381
 20
121.5330873414
 10
155.6928938636
 20
122.9120620571
 10
153.7191466602
 20
124.2403958666
 10
151.6068032286
 20
125.5143234636
 10
149.361851236
 20
126.7302337617
 10
146.9906542425
 20
127.8846801312
 10
144.4999336638
 20
128.9743901684
 10
141.8967497178
 20
129.9962749717
 10
139.1884814123
 20
130.9474378978
 10
136.3828056282
 20
131.8251827719
 10
133.4876753581
 20
132.6270215308
 10
130.5112971634
 20
133.3506812755
 10
127.4621079115
 20
133.9941107137
 10
124.3487508606
 20
134.5554859749
 10
121.1800511595
 20
135.0332157798
 10
117.9649908318
 20
135.4259459515
 10
114.7126833152
 20
135.7325632535
 10
111.4323476289
 20
135.9521985459
 10
108.1332822406
 20
136.0842292485
 10
104.8248387097
 20
136.1282811059
 10
101.5163951788
 20
136.0842292485
 10
98.2173297905
 20
135.9521985459
 10
94.9369941041
 20
135.7325632535
 10
91.6846865876
 20
135.4259459515
 10
88.4696262598
 20
135.0332157798
 10
85.3009265587
 20
134.5554859749
 10
82.1875695078
 20
133.9941107137
 10
79.1383802559
 20
133.3506812755
 10
76.1620020613
 20
132.6270215308
 10
73.2668717912
 20
131.8251827719
 10
70.461196007
 20
130.9474378978
 10
67.7529277016
 20
129.9962749717
 10
65.1497437556
 20
128.9743901684
 10
62.6590231768
 20
127.8846801312
 10
60.2878261834
 20
126.7302337617
 10
58.0428741907
 20
125.5143234636
 10
55.9305307592
 20
124.2403958666
 10
53.9567835557
 20
122.9120620571
 10
52.1272273812
 20
121.5330873414
 10
50.4470483114
 20
120.1073805732
 10
48.9210089965
 20
118.6389830733
 10
47.5534351606
 20
117.1320571738
 10
46.3482033405
 20
115.5908744201
 10
45.3087298966
 20
114.019803462
 10
44.7936862328
 20
113.116601713
  0
LWPOLYLINE
  5
A8
330
1F
100
AcDbEntity
  8
0
  6
Continuous
 62
     7
370
    15
100
AcDbPolyline
 90
       61
 70
   128
 43
0.0
 10
167.3138227152
 20
111.8345146185
 10
167.294430519
 20
112.3729448384
 10
167.1173536739
 20
114.0341497199
 10
166.7637019273
 20
115.6882879612
 10
166.2344777434
 20
117.3306707276
 10
165.5311812658
 20
118.9566425068
 10
164.6558060647
 20
120.5615943052
 10
163.6108334861
 20
122.1409767124
 10
162.3992256185
 20
123.6903127974
 10
161.024416896
 20
125.2052107989
 10
159.4903043632
 20
126.6813765737
 10
157.8012366288
 20
128.1146257697
 10
155.9620015387
 20
129.5008956863
 10
153.9778126048
 20
130.8362567907
 10
151.8542942261
 20
132.1169238569
 10
149.5974657461
 20
133.339266695
 10
147.2137243904
 20
134.4998204412
 10
144.7098271329
 20
135.59529538
 10
142.0928715422
 20
136.6225862687
 10
139.3702756635
 20
137.5787811395
 10
136.5497569905
 20
138.4611695542
 10
133.6393105899
 20
139.2672502871
 10
130.647186438
 20
139.9947384146
 10
127.5818660361
 20
140.6415717927
 10
124.4520383677
 20
141.2059169019
 10
121.2665752695
 20
141.6861740446
 10
118.0345062826
 20
142.0809818798
 10
114.7649930579
 20
142.3892212817
 10
111.4673033856
 20
142.6100185124
 10
108.1507849256
 20
142.7427476981
 10
104.8248387097
 20
142.7870326035
 10
101.4988924937
 20
142.7427476981
 10
98.1823740337
 20
142.6100185124
 10
94.8846843615
 20
142.3892212817
 10
91.6151711367
 20
142.0809818798
 10
88.3831021499
 20
141.6861740446
 10
85.1976390516
 20
141.2059169019
 10
82.0678113833
 20
140.6415717927
 10
79.0024909813
 20
139.9947384146
 10
76.0103668295
 20
139.2672502871
 10
73.0999204288
 20
138.4611695542
 10
70.2794017558
 20
137.5787811395
 10
67.5568058771
 20
136.6225862687
 10
64.9398502865
 20
135.59529538
 10
62.4359530289
 20
134.4998204412
 10
60.0522116732
 20
133.339266695
 10
57.7953831933
 20
132.1169238569
 10
55.6718648145
 20
130.8362567907
 10
53.6876758806
 20
129.5008956863
 10
51.8484407906
 20
128.1146257697
 10
50.1593730562
 20
126.6813765737
 10
48.6252605234
 20
125.2052107989
 10
47.2504518008
 20
123.6903127974
 10
46.0388439332
 20
122.1409767124
 10
44.9938713547
 20
120.5615943052
 10
44.1184961536
 20
118.9566425068
 10
43.4151996759
 20
117.3306707276
 10
42.8859754921
 20
115.6882879612
 10
42.5323237455
 20
114.0341497199
 10
42.3552469004
 20
112.3729448384
 10
42.3358547042
 20
111.8345146185
  0
LWPOLYLINE
  5
A9
330
1F
100
AcDbEntity
  8
0
  6
Continuous
 62
     7
370
    15
100
AcDbPolyline
 90
       59
 70
   128
 43
0.0
 10
166.6090064554
 20
120.0933218017
 10
166.5911993165
 20
120.2071980741
 10
166.240534693
 20
121.84736462
 10
165.7157806065
 20
123.4758749838
 10
165.0184245297
 20
125.0881129759
 10
164.1504431941
 20
126.6795085327
 10
163.114296987
 20
128.2455506704
 10
161.9129229775
 20
129.7818002726
 10
160.5497265907
 20
131.2839026727
 10
159.0285719549
 20
132.7475999984
 10
157.3537709482
 20
134.1687432406
 10
155.530070976
 20
135.5433040143
 10
153.5626415139
 20
136.8673859777
 10
151.4570594547
 20
138.1372358766
 10
149.2192932993
 20
139.3492541834
 10
146.855686239
 20
140.5000053008
 10
144.3729381749
 20
141.5862272994
 10
141.7780867262
 20
142.6048411652
 10
139.0784872811
 20
143.5529595263
 10
136.2817921476
 20
144.4278948384
 10
133.3959288618
 20
145.2271670022
 10
130.4290777169
 20
145.9485103939
 10
127.3896485747
 20
146.5898802874
 10
124.2862570274
 20
147.1494586499
 10
121.1276999754
 20
147.6256592957
 10
117.922930692
 20
148.0171323826
 10
114.6810334437
 20
148.3227682373
 10
111.4111977406
 20
148.541700502
 10
108.1226922873
 20
148.6733085892
 10
104.8248387097
 20
148.7172194417
 10
101.5269851321
 20
148.6733085892
 10
98.2384796787
 20
148.541700502
 10
94.9686439757
 20
148.3227682373
 10
91.7267467274
 20
148.0171323826
 10
88.5219774439
 20
147.6256592957
 10
85.3634203919
 20
147.1494586499
 10
82.2600288446
 20
146.5898802874
 10
79.2205997024
 20
145.9485103939
 10
76.2537485575
 20
145.2271670022
 10
73.3678852718
 20
144.4278948384
 10
70.5711901383
 20
143.5529595263
 10
67.8715906932
 20
142.6048411652
 10
65.2767392444
 20
141.5862272994
 10
62.7939911803
 20
140.5000053008
 10
60.4303841201
 20
139.3492541834
 10
58.1926179647
 20
138.1372358766
 10
56.0870359054
 20
136.8673859777
 10
54.1196064434
 20
135.5433040143
 10
52.2959064711
 20
134.1687432406
 10
50.6211054644
 20
132.7475999984
 10
49.0999508286
 20
131.2839026727
 10
47.7367544419
 20
129.7818002726
 10
46.5353804323
 20
128.2455506704
 10
45.4992342253
 20
126.6795085327
 10
44.6312528896
 20
125.0881129759
 10
43.9338968128
 20
123.4758749838
 10
43.4091427264
 20
121.84736462
 10
43.0584781028
 20
120.2071980741
 10
43.0406709639
 20
120.0933218017
  0
LWPOLYLINE
  5
AA
330
1F
100
AcDbEntity
  8
0
  6
Continuous
 62
     7
370
    15
100
AcDbPolyline
 90
       59
 70
   128
 43
0.0
 10
166.5549457028
 20
120.4408796422
 10
166.5509047303
 20
120.4662538394
 10
166.2004688702
 20
122.1053503881
 10
165.6760571182
 20
123.7327983589
 10
164.9791559763
 20
125.3439845736
 10
164.1117408865
 20
126.93434195
 10
163.0762706313
 20
128.4993624471
 10
161.8756803634
 20
130.0346098445
 10
160.5133732865
 20
131.5357323165
 10
158.993211008
 20
132.9984747684
 10
157.3195025929
 20
134.4186908979
 10
155.4969923498
 20
135.7923549479
 10
153.5308463818
 20
137.1155731186
 10
151.4266379433
 20
138.3845946041
 10
149.1903316418
 20
139.5958222253
 10
146.8282665304
 20
140.7458226259
 10
144.3471381393
 20
141.8313360048
 10
141.7539794966
 20
142.8492853563
 10
139.056141192
 20
143.7967851925
 10
136.2612705415
 20
144.6711497221
 10
133.3772899094
 20
145.4699004639
 10
130.4123742524
 20
146.190773272
 10
127.3749279458
 20
146.8317247543
 10
124.2735609613
 20
147.3909380641
 10
121.1170644605
 20
147.8668280504
 10
117.9143858758
 20
148.2580457515
 10
114.6746035475
 20
148.5634822183
 10
111.4069009906
 20
148.7822716579
 10
108.120540863
 20
148.9137938879
 10
104.8248387097
 20
148.9576760941
 10
101.5291365563
 20
148.9137938879
 10
98.2427764288
 20
148.7822716579
 10
94.9750738719
 20
148.5634822183
 10
91.7352915436
 20
148.2580457515
 10
88.5326129588
 20
147.8668280504
 10
85.3761164581
 20
147.3909380641
 10
82.2747494736
 20
146.8317247543
 10
79.237303167
 20
146.190773272
 10
76.2723875099
 20
145.4699004639
 10
73.3884068779
 20
144.6711497221
 10
70.5935362273
 20
143.7967851925
 10
67.8956979228
 20
142.8492853563
 10
65.30253928
 20
141.8313360048
 10
62.8214108889
 20
140.7458226259
 10
60.4593457775
 20
139.5958222253
 10
58.223039476
 20
138.3845946041
 10
56.1188310375
 20
137.1155731186
 10
54.1526850696
 20
135.7923549479
 10
52.3301748264
 20
134.4186908979
 10
50.6564664114
 20
132.9984747684
 10
49.1363041329
 20
131.5357323165
 10
47.773997056
 20
130.0346098445
 10
46.5734067881
 20
128.4993624471
 10
45.5379365328
 20
126.93434195
 10
44.6705214431
 20
125.3439845736
 10
43.9736203012
 20
123.7327983589
 10
43.4492085491
 20
122.1053503881
 10
43.098772689
 20
120.4662538394
 10
43.0947317166
 20
120.4408796422
  0
LWPOLYLINE
  5
AB
330
1F
100
AcDbEntity
  8
0
  6
Continuous
 62
     7
370
    15
100
AcDbPolyline
 90
       55
 70
   128
 43
0.0
 10
164.6541668634
 20
128.7359958751
 10
164.5357853663
 20
129.1118308645
 10
163.9182422347
 20
130.7209953171
 10
163.1273679689
 20
132.3110832359
 10
162.1654823394
 20
133.877430619
 10
161.0354067225
 20
135.4154430996
 10
159.7404558247
 20
136.9206094222
 10
158.28442796
 20
138.3885146745
 10
156.671593909
 20
139.8148532376
 10
154.906684392
 20
141.1954414147
 10
152.9948761927
 20
142.5262297028
 10
150.9417769737
 20
143.8033146705
 10
148.7534088291
 20
145.0229504077
 10
146.4361906194
 20
146.1815595125
 10
143.9969191451
 20
147.2757435849
 10
141.4427492096
 20
148.3022931943
 10
138.7811726334
 20
149.258197294
 10
136.0199962792
 20
150.1406520525
 10
133.167319153
 20
150.947069078
 10
130.2315086484
 20
151.6750830103
 10
127.2211760032
 20
152.3225584592
 10
124.145151042
 20
152.8875962677
 10
121.0124562758
 20
153.3685390824
 10
117.8322804383
 20
153.7639762153
 10
114.6139515329
 20
154.0727477811
 10
111.3669094731
 20
154.2939480996
 10
108.1006783925
 20
154.4269283521
 10
104.8248387097
 20
154.4712984847
 10
101.5489990269
 20
154.4269283521
 10
98.2827679463
 20
154.2939480996
 10
95.0357258864
 20
154.0727477811
 10
91.8173969811
 20
153.7639762153
 10
88.6372211435
 20
153.3685390824
 10
85.5045263774
 20
152.8875962677
 10
82.4285014161
 20
152.3225584592
 10
79.418168771
 20
151.6750830103
 10
76.4823582663
 20
150.947069078
 10
73.6296811401
 20
150.1406520525
 10
70.8685047859
 20
149.258197294
 10
68.2069282098
 20
148.3022931943
 10
65.6527582743
 20
147.2757435849
 10
63.2134867999
 20
146.1815595125
 10
60.8962685903
 20
145.0229504077
 10
58.7079004456
 20
143.8033146705
 10
56.6548012267
 20
142.5262297028
 10
54.7429930273
 20
141.1954414147
 10
52.9780835103
 20
139.8148532376
 10
51.3652494594
 20
138.3885146745
 10
49.9092215947
 20
136.9206094222
 10
48.6142706968
 20
135.4154430996
 10
47.4841950799
 20
133.877430619
 10
46.5223094504
 20
132.3110832359
 10
45.7314351847
 20
130.7209953171
 10
45.1138920531
 20
129.1118308645
 10
44.995510556
 20
128.7359958751
  0
LWPOLYLINE
  5
AC
330
1F
100
AcDbEntity
  8
0
  6
Continuous
 62
     7
370
    15
100
AcDbPolyline
 90
       67
 70
   128
 43
0.0
 10
104.8248387097
 20
49.4313275652
 10
106.7029529435
 20
49.476060369
 10
108.5640586839
 20
49.6098536732
 10
110.3913014693
 20
49.8314958248
 10
112.1681335058
 20
50.1389795983
 10
113.8784635276
 20
50.5295203729
 10
115.5068025211
 20
50.999581351
 10
117.0384039961
 20
51.5449055876
 10
118.4593975326
 20
52.1605545418
 10
119.756914393
 20
52.8409528015
 10
120.9192040637
 20
53.5799385746
 10
121.9357406695
 20
54.3708194915
 10
122.7973182975
 20
55.2064332122
 10
123.4961343672
 20
56.0792122895
 10
124.0258602921
 20
56.9812527008
 10
124.3816987923
 20
57.9043854285
 10
124.560427339
 20
58.8402504397
 10
124.560427339
 20
59.7803723959
 10
124.3816987923
 20
60.7162374071
 10
124.0258602921
 20
61.6393701348
 10
123.4961343672
 20
62.5414105461
 10
122.7973182975
 20
63.4141896234
 10
121.9357406695
 20
64.2498033441
 10
120.9192040637
 20
65.0406842611
 10
119.756914393
 20
65.7796700342
 10
118.4593975326
 20
66.4600682938
 10
117.0384039961
 20
67.0757172481
 10
115.5068025211
 20
67.6210414846
 10
113.8784635276
 20
68.0911024627
 10
112.1681335058
 20
68.4816432374
 10
110.3913014693
 20
68.7891270108
 10
108.5640586839
 20
69.0107691625
 10
106.7029529435
 20
69.1445624666
 10
104.8248387097
 20
69.1892952704
 10
102.9467244759
 20
69.1445624666
 10
101.0856187354
 20
69.0107691625
 10
99.2583759501
 20
68.7891270108
 10
97.4815439135
 20
68.4816432374
 10
95.7712138917
 20
68.0911024627
 10
94.1428748983
 20
67.6210414846
 10
92.6112734233
 20
67.0757172481
 10
91.1902798868
 20
66.4600682938
 10
89.8927630264
 20
65.7796700342
 10
88.7304733556
 20
65.0406842611
 10
87.7139367498
 20
64.2498033441
 10
86.8523591219
 20
63.4141896234
 10
86.1535430521
 20
62.5414105461
 10
85.6238171272
 20
61.6393701348
 10
85.2679786271
 20
60.7162374071
 10
85.0892500803
 20
59.7803723959
 10
85.0892500803
 20
58.8402504397
 10
85.2679786271
 20
57.9043854285
 10
85.6238171272
 20
56.9812527008
 10
86.1535430521
 20
56.0792122895
 10
86.8523591219
 20
55.2064332122
 10
87.7139367498
 20
54.3708194915
 10
88.7304733556
 20
53.5799385746
 10
89.8927630264
 20
52.8409528015
 10
91.1902798868
 20
52.1605545418
 10
92.6112734233
 20
51.5449055876
 10
94.1428748983
 20
50.999581351
 10
95.7712138917
 20
50.5295203729
 10
97.4815439135
 20
50.1389795983
 10
99.2583759501
 20
49.8314958248
 10
101.0856187354
 20
49.6098536732
 10
102.9467244759
 20
49.476060369
 10
104.8248387097
 20
49.4313275652
  0
LWPOLYLINE
  5
AD
330
1F
100
AcDbEntity
  8
0
  6
Continuous
 62
     7
370
    15
100
AcDbPolyline
 90
       55
 70
   128
 43
0.0
 10
164.5480634585
 20
129.0835537157
 10
164.4581553786
 20
129.3661358496
 10
163.8414151126
 20
130.9732082333
 10
163.0515690596
 20
132.5612288845
 10
162.0909339742
 20
134.125539865
 10
160.9623275646
 20
135.6615527811
 10
159.6690602277
 20
137.1647622423
 10
158.2149253396
 20
138.6307590763
 10
156.6041881285
 20
140.0552432617
 10
154.841573164
 20
141.4340365411
 10
152.9322504996
 20
142.7630946761
 10
150.8818205076
 20
144.0385193103
 10
148.6962974525
 20
145.2565694034
 10
146.38209185
 20
146.4136722046
 10
143.9459916638
 20
147.5064337322
 10
141.3951423954
 20
148.5316487282
 10
138.7370261254
 20
149.4863100604
 10
135.9794395667
 20
150.3676175426
 10
133.1304711958
 20
151.1729861482
 10
130.1984775279
 20
151.9000535922
 10
127.1920586054
 20
152.5466872607
 10
124.1200327732
 20
153.1109904655
 10
120.9914108123
 20
153.5913080082
 10
117.8153695099
 20
153.9862310347
 10
114.6012247425
 20
154.2946011677
 10
111.3584041503
 20
154.5155139044
 10
108.0964194851
 20
154.6483212698
 10
104.8248387097
 20
154.6926337169
 10
101.5532579343
 20
154.6483212698
 10
98.291273269
 20
154.5155139044
 10
95.0484526769
 20
154.2946011677
 10
91.8343079095
 20
153.9862310347
 10
88.6582666071
 20
153.5913080082
 10
85.5296446462
 20
153.1109904655
 10
82.4576188139
 20
152.5466872607
 10
79.4511998915
 20
151.9000535922
 10
76.5192062235
 20
151.1729861482
 10
73.6702378527
 20
150.3676175426
 10
70.9126512939
 20
149.4863100604
 10
68.2545350239
 20
148.5316487282
 10
65.7036857556
 20
147.5064337322
 10
63.2675855694
 20
146.4136722046
 10
60.9533799668
 20
145.2565694034
 10
58.7678569117
 20
144.0385193103
 10
56.7174269197
 20
142.7630946761
 10
54.8081042553
 20
141.4340365411
 10
53.0454892909
 20
140.0552432617
 10
51.4347520797
 20
138.6307590763
 10
49.9806171916
 20
137.1647622423
 10
48.6873498548
 20
135.6615527811
 10
47.5587434451
 20
134.125539865
 10
46.5981083597
 20
132.5612288845
 10
45.8082623067
 20
130.9732082333
 10
45.1915220408
 20
129.3661358496
 10
45.1016139609
 20
129.0835537157
  0
LWPOLYLINE
  5
AE
330
1F
100
AcDbEntity
  8
0
  6
Continuous
 62
     7
370
    15
100
AcDbPolyline
 90
       51
 70
   128
 43
0.0
 10
161.3414637367
 20
137.3467073416
 10
161.1181982673
 20
137.8030153989
 10
160.2474188575
 20
139.3427296428
 10
159.2083228934
 20
140.8561212123
 10
158.0040660753
 20
142.3385939869
 10
156.6383056914
 20
143.7856457454
 10
155.1151895113
 20
145.1928818392
 10
153.4393431886
 20
146.5560285385
 10
151.6158562137
 20
147.8709460117
 10
149.6502664564
 20
149.1336408976
 10
147.5485433484
 20
150.3402784333
 10
145.3170697535
 20
151.4871941003
 10
142.9626225838
 20
152.5709047533
 10
140.4923522179
 20
153.5881191988
 10
137.9137607858
 20
154.5357481899
 10
135.2346793849
 20
155.4109138086
 10
132.4632442973
 20
156.2109582055
 10
129.6078722803
 20
156.9334516722
 10
126.6772350049
 20
157.5762000197
 10
123.6802327201
 20
158.1372512425
 10
120.6259672235
 20
158.6149014464
 10
117.5237142189
 20
159.0077000234
 10
114.3828951467
 20
159.3144540572
 10
111.2130485713
 20
159.5342319459
 10
108.0238012125
 20
159.6663662312
 10
104.8248387097
 20
159.7104556256
 10
101.6258762069
 20
159.6663662312
 10
98.4366288481
 20
159.5342319459
 10
95.2667822727
 20
159.3144540572
 10
92.1259632005
 20
159.0077000234
 10
89.0237101959
 20
158.6149014464
 10
85.9694446992
 20
158.1372512425
 10
82.9724424145
 20
157.5762000197
 10
80.0418051391
 20
156.9334516722
 10
77.1864331221
 20
156.2109582055
 10
74.4149980345
 20
155.4109138086
 10
71.7359166335
 20
154.5357481899
 10
69.1573252014
 20
153.5881191988
 10
66.6870548356
 20
152.5709047533
 10
64.3326076659
 20
151.4871941003
 10
62.101134071
 20
150.3402784333
 10
59.9994109629
 20
149.1336408976
 10
58.0338212057
 20
147.8709460117
 10
56.2103342307
 20
146.5560285385
 10
54.5344879081
 20
145.1928818392
 10
53.0113717279
 20
143.7856457454
 10
51.6456113441
 20
142.3385939869
 10
50.4413545259
 20
140.8561212123
 10
49.4022585618
 20
139.3427296428
 10
48.5314791521
 20
137.8030153988
 10
48.3082136827
 20
137.3467073416
  0
LWPOLYLINE
  5
AF
330
1F
100
AcDbEntity
  8
0
  6
Continuous
 62
     7
370
    15
100
AcDbPolyline
 90
       50
 70
   128
 43
0.0
 10
160.4322584069
 20
139.0902892924
 10
160.1322289316
 20
139.5853837112
 10
159.0952926177
 20
141.0956298576
 10
157.893538719
 20
142.5750214705
 10
156.5306169225
 20
144.0190656862
 10
155.010666377
 20
145.4233769897
 10
153.3383031224
 20
146.783690534
 10
151.5186060707
 20
148.0958750913
 10
149.5571015823
 20
149.3559456005
 10
147.4597466817
 20
150.5600752686
 10
145.2329109669
 20
151.7046071936
 10
142.8833572647
 20
152.7860654696
 10
140.4182210925
 20
153.8011657433
 10
137.8449889879
 20
154.7468251885
 10
135.1714757721
 20
155.6201718687
 10
132.4058008169
 20
156.4185534586
 10
129.5563633863
 20
157.1395452997
 10
126.6318171282
 20
157.7809577633
 10
123.6410437932
 20
158.3408429009
 10
120.5931262619
 20
158.8175003597
 10
117.4973209595
 20
159.2094825468
 10
114.3630297451
 20
159.515599025
 10
111.1997713579
 20
159.7349201287
 10
108.0171525098
 20
159.866779787
 10
104.8248387097
 20
159.9107775464
 10
101.6325249095
 20
159.866779787
 10
98.4499060614
 20
159.7349201287
 10
95.2866476743
 20
159.515599025
 10
92.1523564598
 20
159.2094825468
 10
89.0565511574
 20
158.8175003597
 10
86.0086336261
 20
158.3408429009
 10
83.0178602912
 20
157.7809577633
 10
80.093314033
 20
157.1395452997
 10
77.2438766024
 20
156.4185534586
 10
74.4782016473
 20
155.6201718687
 10
71.8046884315
 20
154.7468251885
 10
69.2314563268
 20
153.8011657433
 10
66.7663201547
 20
152.7860654696
 10
64.4167664525
 20
151.7046071936
 10
62.1899307376
 20
150.5600752686
 10
60.0925758371
 20
149.3559456005
 10
58.1310713486
 20
148.0958750913
 10
56.311374297
 20
146.783690534
 10
54.6390110423
 20
145.4233769897
 10
53.1190604968
 20
144.0190656862
 10
51.7561387004
 20
142.5750214705
 10
50.5543848016
 20
141.0956298576
 10
49.5174484878
 20
139.5853837112
 10
48.6484789002
 20
138.0488695992
 10
48.4736317044
 20
137.6942651822
  0
LWPOLYLINE
  5
B0
330
1F
100
AcDbEntity
  8
0
  6
Continuous
 62
     7
370
    15
100
AcDbPolyline
 90
       45
 70
   128
 43
0.0
 10
156.3116735019
 20
146.0921113441
 10
155.5642413881
 20
147.1116852562
 10
154.3537213091
 20
148.5439024483
 10
152.9816483098
 20
149.9392302671
 10
151.4524978071
 20
151.2931174433
 10
149.771257572
 20
152.6011478783
 10
147.9434114609
 20
153.8590550487
 10
145.9749215277
 20
155.0627359228
 10
143.8722085775
 20
156.2082643437
 10
141.6421312229
 20
157.2919038358
 10
139.2919635127
 20
158.3101197925
 10
136.8293712054
 20
159.2595910047
 10
134.2623867654
 20
160.1372204949
 10
131.5993831622
 20
160.9401456179
 10
128.8490465602
 20
161.665747399
 10
126.0203479857
 20
162.311659076
 10
123.1225140654
 20
162.8757738192
 10
120.1649969314
 20
163.3562516036
 10
117.1574433897
 20
163.7515252106
 10
114.1096634549
 20
164.0603053397
 10
111.0315983517
 20
164.2815848143
 10
107.9332880886
 20
164.4146418669
 10
104.8248387097
 20
164.459042493
 10
101.7163893308
 20
164.4146418669
 10
98.6180790677
 20
164.2815848143
 10
95.5400139645
 20
164.0603053397
 10
92.4922340297
 20
163.7515252106
 10
89.484680488
 20
163.3562516036
 10
86.5271633539
 20
162.8757738192
 10
83.6293294337
 20
162.311659076
 10
80.8006308592
 20
161.665747399
 10
78.0502942572
 20
160.9401456179
 10
75.387290654
 20
160.1372204949
 10
72.8203062139
 20
159.2595910047
 10
70.3577139067
 20
158.3101197925
 10
68.0075461964
 20
157.2919038358
 10
65.7774688418
 20
156.2082643437
 10
63.6747558916
 20
155.0627359228
 10
61.7062659585
 20
153.8590550487
 10
59.8784198473
 20
152.6011478783
 10
58.1971796123
 20
151.2931174433
 10
56.6680291095
 20
149.9392302671
 10
55.2959561102
 20
148.5439024483
 10
54.0854360313
 20
147.1116852562
 10
53.3380039174
 20
146.0921113441
  0
LWPOLYLINE
  5
B1
330
1F
100
AcDbEntity
  8
0
  6
Continuous
 62
     7
370
    15
100
AcDbPolyline
 90
       42
 70
   128
 43
0.0
 10
153.2349281062
 20
149.7693347269
 10
152.83065763
 20
150.1600638483
 10
151.30630162
 20
151.5097060518
 10
149.6303327393
 20
152.8136352931
 10
147.80821765
 20
154.067598426
 10
145.8458997127
 20
155.2675052836
 10
143.7497796008
 20
156.409442019
 10
141.5266944224
 20
157.489683872
 10
139.1838954191
 20
158.5047073181
 10
136.7290243145
 20
159.4512015619
 10
134.1700883878
 20
160.3260793359
 10
131.5154343562
 20
161.1264869705
 10
128.7737211492
 20
161.8498137025
 10
125.9538916656
 20
162.4937001905
 10
123.0651436029
 20
163.0560462104
 10
120.1168994569
 20
163.5350175066
 10
117.1187757873
 20
163.9290517741
 10
114.0805518503
 20
164.2368637552
 10
111.0121377008
 20
164.457449431
 10
107.9235418681
 20
164.590089297
 10
104.8248387097
 20
164.6343507096
 10
101.7261355513
 20
164.590089297
 10
98.6375397186
 20
164.457449431
 10
95.5691255691
 20
164.2368637552
 10
92.530901632
 20
163.9290517741
 10
89.5327779624
 20
163.5350175066
 10
86.5845338165
 20
163.0560462104
 10
83.6957857538
 20
162.4937001905
 10
80.8759562701
 20
161.8498137025
 10
78.1342430632
 20
161.1264869705
 10
75.4795890315
 20
160.3260793359
 10
72.9206531048
 20
159.4512015619
 10
70.4657820002
 20
158.5047073181
 10
68.122982997
 20
157.489683872
 10
65.8998978185
 20
156.409442019
 10
63.8037777066
 20
155.2675052836
 10
61.8414597694
 20
154.067598426
 10
60.0193446801
 20
152.8136352931
 10
58.3433757993
 20
151.5097060518
 10
56.8190197893
 20
150.1600638483
 10
55.4512487825
 20
148.7691109351
 10
54.7540634361
 20
147.9722487761
  0
LWPOLYLINE
  5
B2
330
1F
100
AcDbEntity
  8
0
  6
Continuous
 62
     7
370
    15
100
AcDbPolyline
 90
       40
 70
   128
 43
0.0
 10
149.121710985
 20
154.7523463517
 10
149.0781969476
 20
154.7959555959
 10
147.6753536135
 20
156.0994154676
 10
146.1191165572
 20
157.3585943858
 10
144.4150567036
 20
158.568984817
 10
142.5692741446
 20
159.7262538775
 10
140.5883763028
 20
160.8262588443
 10
138.4794542783
 20
161.8650619853
 10
136.2500574646
 20
162.8389446547
 10
133.9081665238
 20
163.7444206055
 10
131.4621648175
 20
164.5782484686
 10
128.9208083971
 20
165.3374433567
 10
126.293194659
 20
166.0192875492
 10
123.5887297784
 20
166.6213402208
 10
120.8170950376
 20
167.1414461793
 10
117.9882121697
 20
167.5777435802
 10
115.1122078413
 20
167.9286705921
 10
112.1993774012
 20
168.1929709874
 10
109.2601480266
 20
168.3696986393
 10
106.3050413958
 20
168.4582209086
 10
103.3446360235
 20
168.4582209086
 10
100.3895293927
 20
168.3696986393
 10
97.4503000181
 20
168.1929709874
 10
94.5374695781
 20
167.9286705921
 10
91.6614652496
 20
167.5777435802
 10
88.8325823818
 20
167.1414461793
 10
86.060947641
 20
166.6213402208
 10
83.3564827604
 20
166.0192875492
 10
80.7288690222
 20
165.3374433567
 10
78.1875126018
 20
164.5782484686
 10
75.7415108956
 20
163.7444206055
 10
73.3996199547
 20
162.8389446547
 10
71.1702231411
 20
161.8650619853
 10
69.0613011166
 20
160.8262588443
 10
67.0804032747
 20
159.7262538775
 10
65.2346207157
 20
158.568984817
 10
63.5305608621
 20
157.3585943858
 10
61.9743238059
 20
156.0994154676
 10
60.5714804717
 20
154.7959555959
 10
60.5279664344
 20
154.7523463517
  0
LWPOLYLINE
  5
B3
330
1F
100
AcDbEntity
  8
0
  6
Continuous
 62
     7
370
    15
100
AcDbPolyline
 90
       17
 70
   128
 43
0.0
 10
142.7182912864
 20
159.7162306355
 10
142.3909631466
 20
159.9113511051
 10
140.4194233961
 20
161.0061594653
 10
138.3204642704
 20
162.0400551273
 10
136.1015994985
 20
163.0093370129
 10
133.7707720404
 20
163.9105353444
 10
131.3363256535
 20
164.7404240659
 10
128.806975024
 20
165.4960323909
 10
126.1917745707
 20
166.1746554379
 10
123.5000860325
 20
166.7738639125
 10
120.7415449558
 20
167.2915128038
 10
117.9260262016
 20
167.7257490631
 10
115.0636085965
 20
168.0750182374
 10
112.1645388525
 20
168.3380700336
 10
109.2391948869
 20
168.5139627947
 10
106.2980486719
 20
168.60206687
 10
105.4363723534
 20
168.6111886983
  0
LWPOLYLINE
  5
B4
330
1F
100
AcDbEntity
  8
0
  6
Continuous
 62
     7
370
    15
100
AcDbPolyline
 90
       16
 70
   128
 43
0.0
 10
102.7474476333
 20
168.5911692732
 10
100.4104825325
 20
168.5139627947
 10
97.4851385669
 20
168.3380700336
 10
94.5860688229
 20
168.0750182374
 10
91.7236512177
 20
167.7257490631
 10
88.9081324636
 20
167.2915128038
 10
86.1495913869
 20
166.7738639125
 10
83.4579028487
 20
166.1746554379
 10
80.8427023954
 20
165.4960323909
 10
78.3133517659
 20
164.7404240659
 10
75.8789053789
 20
163.9105353444
 10
73.5480779209
 20
163.0093370129
 10
71.329213149
 20
162.0400551273
 10
69.2302540233
 20
161.0061594653
 10
67.2587142727
 20
159.9113511051
 10
65.8019790346
 20
159.0098729075
  0
LWPOLYLINE
  5
B5
330
1F
100
AcDbEntity
  8
0
  6
Continuous
 62
     7
370
    15
100
AcDbPolyline
 90
       16
 70
   128
 43
0.0
 10
138.3687024043
 20
163.3968590517
 10
138.1830841117
 20
163.5140783392
 10
136.4101299725
 20
164.5553847472
 10
134.5073850964
 20
165.5377548986
 10
132.4826682703
 20
166.4571520238
 10
130.34429949
 20
167.3097981227
 10
128.1010657714
 20
168.0921894897
 10
125.7621850431
 20
168.8011111109
 10
123.3372682677
 20
169.4336498751
 10
120.8362799483
 20
169.987206545
 10
118.2694971824
 20
170.4595064375
 10
115.647467431
 20
170.848608771
 10
112.9809651767
 20
171.1529146404
 10
110.2809476493
 20
171.3711735879
 10
107.5585097999
 20
171.5024887404
 10
105.4827710809
 20
171.543783976
  0
LWPOLYLINE
  5
B6
330
1F
100
AcDbEntity
  8
0
  6
Continuous
 62
     7
370
    15
100
AcDbPolyline
 90
       16
 70
   128
 43
0.0
 10
104.4923179963
 20
171.5456726169
 10
102.0911676194
 20
171.5024887404
 10
99.36872977
 20
171.3711735879
 10
96.6687122426
 20
171.1529146404
 10
94.0022099883
 20
170.848608771
 10
91.3801802369
 20
170.4595064375
 10
88.813397471
 20
169.987206545
 10
86.3124091517
 20
169.4336498751
 10
83.8874923762
 20
168.8011111109
 10
81.5486116479
 20
168.0921894897
 10
79.3053779294
 20
167.3097981227
 10
77.167009149
 20
166.4571520238
 10
75.142292323
 20
165.5377548986
 10
73.2395474469
 20
164.5553847472
 10
71.4665933077
 20
163.5140783392
 10
71.280975015
 20
163.3968590517
  0
LWPOLYLINE
  5
B7
330
1F
100
AcDbEntity
  8
0
  6
Continuous
 62
     7
370
    15
100
AcDbPolyline
 90
       23
 70
   128
 43
0.0
 10
129.5993074027
 20
168.0412086607
 10
128.7470946409
 20
168.3983853689
 10
126.6846989402
 20
169.1803673832
 10
124.5203824802
 20
169.8901549869
 10
122.2642363032
 20
170.5244388226
 10
119.9267796044
 20
171.0802615663
 10
117.5189106857
 20
171.5550317157
 10
115.0518561437
 20
171.9465356733
 10
112.5371185254
 20
172.252948067
 10
109.9864226985
 20
172.4728402605
 10
107.4116611843
 20
172.6051870151
 10
104.8248387097
 20
172.6493712691
 10
102.238016235
 20
172.6051870151
 10
99.6632547209
 20
172.4728402605
 10
97.1125588939
 20
172.252948067
 10
94.5978212756
 20
171.9465356733
 10
92.1307667336
 20
171.5550317157
 10
89.722897815
 20
171.0802615663
 10
87.3854411161
 20
170.5244388226
 10
85.1292949392
 20
169.8901549869
 10
82.9649784792
 20
169.1803673832
 10
80.9025827785
 20
168.3983853689
 10
80.0503700166
 20
168.0412086607
  0
ENDSEC
  0
SECTION
  2
OBJECTS
  0
DICTIONARY
  5
C
330
0
100
AcDbDictionary
281
     1
  3
ACAD_GROUP
350
D
  3
ACAD_LAYOUT
350
1A
  3
ACAD_MLINESTYLE
350
17
  3
ACAD_PLOTSETTINGS
350
19
  3
ACAD_PLOTSTYLENAME
350
E
  0
DICTIONARY
  5
D
102
{ACAD_REACTORS
330
C
102
}
330
C
100
AcDbDictionary
281
     1
  0
DICTIONARY
  5
1A
102
{ACAD_REACTORS
330
C
102
}
330
C
100
AcDbDictionary
281
     1
  3
Layout1
350
1E
  3
Layout2
350
26
  3
Model
350
22
  0
DICTIONARY
  5
17
102
{ACAD_REACTORS
330
C
102
}
330
C
100
AcDbDictionary
281
     1
  3
Standard
350
18
  0
DICTIONARY
  5
19
102
{ACAD_REACTORS
330
C
102
}
330
C
100
AcDbDictionary
281
     1
  0
ACDBDICTIONARYWDFLT
  5
E
102
{ACAD_REACTORS
330
C
102
}
330
C
100
AcDbDictionary
281
     1
  3
Normal
350
F
100
AcDbDictionaryWithDefault
340
F
  0
LAYOUT
  5
1E
102
{ACAD_REACTORS
330
1A
102
}
330
1A
100
AcDbPlotSettings
  1

  2
none_device
  4

  6

 40
0.0
 41
0.0
 42
0.0
 43
0.0
 44
0.0
 45
0.0
 46
0.0
 47
0.0
 48
0.0
 49
0.0
140
0.0
141
0.0
142
1.0
143
1.0
 70
   688
 72
     0
 73
     0
 74
     5
  7

 75
    16
147
1.0
148
0.0
149
0.0
100
AcDbLayout
  1
Layout1
 70
     1
 71
     1
 10
0.0
 20
0.0
 11
420.0
 21
297.0
 12
0.0
 22
0.0
 32
0.0
 14
1.0000000000E+20
 24
1.0000000000E+20
 34
1.0000000000E+20
 15
-1.0000000000E+20
 25
-1.0000000000E+20
 35
-1.0000000000E+20
146
0.0
 13
0.0
 23
0.0
 33
0.0
 16
1.0
 26
0.0
 36
0.0
 17
0.0
 27
1.0
 37
0.0
 76
     0
330
1B
  0
LAYOUT
  5
26
102
{ACAD_REACTORS
330
1A
102
}
330
1A
100
AcDbPlotSettings
  1

  2
none_device
  4

  6

 40
0.0
 41
0.0
 42
0.0
 43
0.0
 44
0.0
 45
0.0
 46
0.0
 47
0.0
 48
0.0
 49
0.0
140
0.0
141
0.0
142
1.0
143
1.0
 70
   688
 72
     0
 73
     0
 74
     5
  7

 75
    16
147
1.0
148
0.0
149
0.0
100
AcDbLayout
  1
Layout2
 70
     1
 71
     2
 10
0.0
 20
0.0
 11
0.0
 21
0.0
 12
0.0
 22
0.0
 32
0.0
 14
0.0
 24
0.0
 34
0.0
 15
0.0
 25
0.0
 35
0.0
146
0.0
 13
0.0
 23
0.0
 33
0.0
 16
1.0
 26
0.0
 36
0.0
 17
0.0
 27
1.0
 37
0.0
 76
     0
330
23
  0
LAYOUT
  5
22
102
{ACAD_REACTORS
330
1A
102
}
330
1A
100
AcDbPlotSettings
  1

  2
none_device
  4

  6

 40
0.0
 41
0.0
 42
0.0
 43
0.0
 44
0.0
 45
0.0
 46
0.0
 47
0.0
 48
0.0
 49
0.0
140
0.0
141
0.0
142
1.0
143
1.0
 70
  1712
 72
     0
 73
     0
 74
     0
  7

 75
     0
147
1.0
148
0.0
149
0.0
100
AcDbLayout
  1
Model
 70
     1
 71
     0
 10
0.0
 20
0.0
 11
210.0
 21
297.0
 12
0.0
 22
0.0
 32
0.0
 14
0.0
 24
0.0
 34
0.0
 15
210.0
 25
297.0
 35
0.0
146
0.0
 13
0.0
 23
0.0
 33
0.0
 16
1.0
 26
0.0
 36
0.0
 17
0.0
 27
1.0
 37
0.0
 76
     0
330
1F
331
29
  0
MLINESTYLE
  5
18
102
{ACAD_REACTORS
330
17
102
}
330
17
100
AcDbMlineStyle
  2
Standard
 70
     0
  3

 62
   256
 51
90.0
 52
90.0
 71
     2
 49
0.5
 62
   256
  6
BYLAYER
 49
-0.5
 62
   256
  6
BYLAYER
  0
ACDBPLACEHOLDER
  5
F
102
{ACAD_REACTORS
330
E
102
}
330
E
  0
ENDSEC
  0
EOF
