  0
SECTION
  2
HEADER
  9
$ACADVER
  1
AC1009
  9
$INSBASE
 10
0.0
 20
0.0
 30
0.0
  9
$EXTMIN
 10
-5.997226177059706
 20
12.719300922394551
 30
0.0
  9
$EXTMAX
 10
191.64837670697821
 20
228.8294220048918
 30
0.0
  9
$LIMMIN
 10
0.0
 20
0.0
  9
$LIMMAX
 10
12.0
 20
9.0
  9
$ORTHOMODE
 70
     0
  9
$REGENMODE
 70
     1
  9
$FILLMODE
 70
     1
  9
$QTEXTMODE
 70
     0
  9
$MIRRTEXT
 70
     1
  9
$DRAGMODE
 70
     2
  9
$LTSCALE
 40
1.0
  9
$OSMODE
 70
    37
  9
$ATTMODE
 70
     1
  9
$TEXTSIZE
 40
0.2
  9
$TRACEWID
 40
0.05
  9
$TEXTSTYLE
  7
STANDARD
  9
$CLAYER
  8
0
  9
$CELTYPE
  6
BYLAYER
  9
$CECOLOR
 62
   256
  9
$DIMSCALE
 40
1.0
  9
$DIMASZ
 40
0.18
  9
$DIMEXO
 40
0.0625
  9
$DIMDLI
 40
0.38
  9
$DIMRND
 40
0.0
  9
$DIMDLE
 40
0.0
  9
$DIMEXE
 40
0.18
  9
$DIMTP
 40
0.0
  9
$DIMTM
 40
0.0
  9
$DIMTXT
 40
0.18
  9
$DIMCEN
 40
0.09
  9
$DIMTSZ
 40
0.0
  9
$DIMTOL
 70
     0
  9
$DIMLIM
 70
     0
  9
$DIMTIH
 70
     1
  9
$DIMTOH
 70
     1
  9
$DIMSE1
 70
     0
  9
$DIMSE2
 70
     0
  9
$DIMTAD
 70
     0
  9
$DIMZIN
 70
     0
  9
$DIMBLK
  1

  9
$DIMASO
 70
     1
  9
$DIMSHO
 70
     1
  9
$DIMPOST
  1

  9
$DIMAPOST
  1

  9
$DIMALT
 70
     0
  9
$DIMALTD
 70
     2
  9
$DIMALTF
 40
25.399999999999999
  9
$DIMLFAC
 40
1.0
  9
$DIMTOFL
 70
     0
  9
$DIMTVP
 40
0.0
  9
$DIMTIX
 70
     0
  9
$DIMSOXD
 70
     0
  9
$DIMSAH
 70
     0
  9
$DIMBLK1
  1

  9
$DIMBLK2
  1

  9
$DIMSTYLE
  2
STANDARD
  9
$DIMCLRD
 70
     0
  9
$DIMCLRE
 70
     0
  9
$DIMCLRT
 70
     0
  9
$DIMTFAC
 40
1.0
  9
$DIMGAP
 40
0.09
  9
$LUNITS
 70
     2
  9
$LUPREC
 70
     4
  9
$SKETCHINC
 40
0.1
  9
$FILLETRAD
 40
0.5
  9
$AUNITS
 70
     0
  9
$AUPREC
 70
     0
  9
$MENU
  1
.
  9
$ELEVATION
 40
0.0
  9
$PELEVATION
 40
0.0
  9
$THICKNESS
 40
0.0
  9
$LIMCHECK
 70
     0
  9
$BLIPMODE
 70
     0
  9
$CHAMFERA
 40
0.5
  9
$CHAMFERB
 40
0.5
  9
$SKPOLY
 70
     0
  9
$TDCREATE
 40
2455541.6791078472
  9
$TDUPDATE
 40
2456856.3596639931
  9
$TDINDWG
 40
0.0003960764
  9
$TDUSRTIMER
 40
0.0003960764
  9
$USRTIMER
 70
     1
  9
$ANGBASE
 50
0.0
  9
$ANGDIR
 70
     0
  9
$PDMODE
 70
     0
  9
$PDSIZE
 40
0.0
  9
$PLINEWID
 40
0.0
  9
$COORDS
 70
     1
  9
$SPLFRAME
 70
     0
  9
$SPLINETYPE
 70
     6
  9
$SPLINESEGS
 70
     8
  9
$ATTDIA
 70
     0
  9
$ATTREQ
 70
     1
  9
$HANDLING
 70
     1
  9
$HANDSEED
  5
C62
  9
$SURFTAB1
 70
     6
  9
$SURFTAB2
 70
     6
  9
$SURFTYPE
 70
     6
  9
$SURFU
 70
     6
  9
$SURFV
 70
     6
  9
$UCSNAME
  2

  9
$UCSORG
 10
0.0
 20
0.0
 30
0.0
  9
$UCSXDIR
 10
1.0
 20
0.0
 30
0.0
  9
$UCSYDIR
 10
0.0
 20
1.0
 30
0.0
  9
$PUCSNAME
  2

  9
$PUCSORG
 10
0.0
 20
0.0
 30
0.0
  9
$PUCSXDIR
 10
1.0
 20
0.0
 30
0.0
  9
$PUCSYDIR
 10
0.0
 20
1.0
 30
0.0
  9
$USERI1
 70
     0
  9
$USERI2
 70
     0
  9
$USERI3
 70
     0
  9
$USERI4
 70
     0
  9
$USERI5
 70
     0
  9
$USERR1
 40
0.0
  9
$USERR2
 40
0.0
  9
$USERR3
 40
0.0
  9
$USERR4
 40
0.0
  9
$USERR5
 40
0.0
  9
$WORLDVIEW
 70
     1
  9
$SHADEDGE
 70
     3
  9
$SHADEDIF
 70
    70
  9
$TILEMODE
 70
     1
  9
$MAXACTVP
 70
    64
  9
$PLIMCHECK
 70
     0
  9
$PEXTMIN
 10
1.0000000000000000E+020
 20
1.0000000000000000E+020
 30
1.0000000000000000E+020
  9
$PEXTMAX
 10
-1.0000000000000000E+020
 20
-1.0000000000000000E+020
 30
-1.0000000000000000E+020
  9
$PLIMMIN
 10
0.0
 20
0.0
  9
$PLIMMAX
 10
12.0
 20
9.0
  9
$UNITMODE
 70
     0
  9
$VISRETAIN
 70
     1
  9
$PLINEGEN
 70
     0
  9
$PSLTSCALE
 70
     1
  0
ENDSEC
  0
SECTION
  2
TABLES
  0
TABLE
  2
VPORT
 70
     1
  0
VPORT
  2
*ACTIVE
 70
     0
 10
0.0
 20
0.0
 11
1.0
 21
1.0
 12
10.916597154412869
 22
0.0
 13
0.0
 23
0.0
 14
0.5
 24
0.5
 15
0.5
 25
0.5
 16
0.0
 26
0.0
 36
1.0
 17
70.299372937306956
 27
206.7338568969848
 37
0.0
 40
110.5655823879578
 41
1.740314136125654
 42
50.0
 43
0.0
 44
0.0
 50
0.0
 51
0.0
 71
     0
 72
   100
 73
     1
 74
     3
 75
     0
 76
     0
 77
     0
 78
     0
  0
ENDTAB
  0
TABLE
  2
LTYPE
 70
     2
  0
LTYPE
  2
CONTINUOUS
 70
     0
  3
Solid line
 72
    65
 73
     0
 40
0.0
  0
LTYPE
  2
PHANTOM2
 70
     0
  3
___ _ _ ___ _ _ ___ _ _ ___ _ _
 72
    65
 73
     6
 40
1.25
 49
0.625
 49
-0.125
 49
0.125
 49
-0.125
 49
0.125
 49
-0.125
  0
ENDTAB
  0
TABLE
  2
LAYER
 70
     5
  0
LAYER
  2
0
 70
     0
 62
     7
  6
CONTINUOUS
  0
LAYER
  2
レイヤー_1
 70
     0
 62
     7
  6
CONTINUOUS
  0
LAYER
  2
レイヤー_5
 70
     0
 62
     7
  6
CONTINUOUS
  0
LAYER
  2
1
 70
     0
 62
     7
  6
CONTINUOUS
  0
LAYER
  2
実線
 70
     0
 62
     7
  6
CONTINUOUS
  0
ENDTAB
  0
TABLE
  2
STYLE
 70
     1
  0
STYLE
  2
STANDARD
 70
     0
 40
0.0
 41
1.0
 50
0.0
 71
     0
 42
0.2
  3
txt
  4

  0
ENDTAB
  0
TABLE
  2
VIEW
 70
     0
  0
ENDTAB
  0
TABLE
  2
UCS
 70
     0
  0
ENDTAB
  0
TABLE
  2
APPID
 70
     3
  0
APPID
  2
ACAD
 70
     0
  0
APPID
  2
ACAD_NAV_VCDISPLAY
 70
     0
  0
APPID
  2
ACAD_MLEADERVER
 70
     0
  0
ENDTAB
  0
TABLE
  2
DIMSTYLE
 70
     1
  0
DIMSTYLE
  2
STANDARD
 70
     0
  3

  4

  5

  6

  7

 40
1.0
 41
0.18
 42
0.0625
 43
0.38
 44
0.18
 45
0.0
 46
0.0
 47
0.0
 48
0.0
140
0.18
141
0.09
142
0.0
143
25.399999999999999
144
1.0
145
0.0
146
1.0
147
0.09
 71
     0
 72
     0
 73
     1
 74
     1
 75
     0
 76
     0
 77
     0
 78
     0
170
     0
171
     2
172
     0
173
     0
174
     0
175
     0
176
     0
177
     0
178
     0
  0
ENDTAB
  0
ENDSEC
  0
SECTION
  2
BLOCKS
  0
BLOCK
  8
0
  2
$MODEL_SPACE
 70
     0
 10
0.0
 20
0.0
 30
0.0
  3
$MODEL_SPACE
  1

  0
ENDBLK
  5
21
  8
0
  0
BLOCK
 67
     1
  8
0
  2
$PAPER_SPACE
 70
     0
 10
0.0
 20
0.0
 30
0.0
  3
$PAPER_SPACE
  1

  0
ENDBLK
  5
1D
 67
     1
  8
0
  0
BLOCK
  8
0
  2
BLOCK_2
 70
     0
 10
0.0
 20
0.0
 30
0.0
  3
BLOCK_2
  1

  0
POLYLINE
  5
40
  8
0
 62
     7
 66
     1
 10
0.0
 20
0.0
 30
0.0
  0
VERTEX
  5
41
  8
0
 62
     7
 10
24.251765667171298
 20
12.719300922394551
 30
0.0
  0
VERTEX
  5
42
  8
0
 62
     7
 10
191.64837670697821
 20
12.719300922394551
 30
0.0
  0
SEQEND
  5
43
  8
0
  0
ENDBLK
  5
3F
  8
0
  0
BLOCK
  8
0
  2
BLOCK_3
 70
     0
 10
0.0
 20
0.0
 30
0.0
  3
BLOCK_3
  1

  0
POLYLINE
  5
4A
  8
1
 62
     7
 66
     1
 10
0.0
 20
0.0
 30
0.0
  0
VERTEX
  5
4B
  8
1
 62
     7
 10
132.57528545120911
 20
226.23147378561291
 30
0.0
  0
VERTEX
  5
4C
  8
1
 62
     7
 10
136.69183276219749
 20
220.1551826150079
 30
0.0
  0
SEQEND
  5
4D
  8
1
  0
ENDBLK
  5
49
  8
0
  0
BLOCK
  8
0
  2
BLOCK_4
 70
     0
 10
0.0
 20
0.0
 30
0.0
  3
BLOCK_4
  1

  0
POLYLINE
  5
52
  8
1
 62
     7
 66
     1
 10
0.0
 20
0.0
 30
0.0
  0
VERTEX
  5
53
  8
1
 62
     7
 10
148.8571619651118
 20
221.95610746798241
 30
0.0
  0
VERTEX
  5
54
  8
1
 62
     7
 10
144.5335642788699
 20
218.0200832795112
 30
0.0
  0
SEQEND
  5
55
  8
1
  0
ENDBLK
  5
51
  8
0
  0
BLOCK
  8
0
  2
BLOCK_5
 70
     0
 10
0.0
 20
0.0
 30
0.0
  3
BLOCK_5
  1

  0
POLYLINE
  5
5A
  8
1
 62
     7
 66
     1
 10
0.0
 20
0.0
 30
0.0
  0
VERTEX
  5
5B
  8
1
 62
     7
 10
148.8571619651118
 20
223.49124302893011
 30
0.0
  0
VERTEX
  5
5C
  8
1
 62
     7
 10
148.8571619651118
 20
221.95610746798241
 30
0.0
  0
SEQEND
  5
5D
  8
1
  0
ENDBLK
  5
59
  8
0
  0
BLOCK
  8
0
  2
BLOCK_6
 70
     0
 10
0.0
 20
0.0
 30
0.0
  3
BLOCK_6
  1

  0
POLYLINE
  5
62
  8
1
 62
     7
 66
     1
 10
0.0
 20
0.0
 30
0.0
  0
VERTEX
  5
63
  8
1
 62
     7
 10
132.57528545120911
 20
228.23497038675549
 30
0.0
  0
VERTEX
  5
64
  8
1
 62
     7
 10
132.57528545120911
 20
226.23147378561291
 30
0.0
  0
SEQEND
  5
65
  8
1
  0
ENDBLK
  5
61
  8
0
  0
BLOCK
  8
0
  2
BLOCK_7
 70
     0
 10
0.0
 20
0.0
 30
0.0
  3
BLOCK_7
  1

  0
POLYLINE
  5
6A
  8
1
 62
     7
 66
     1
 10
0.0
 20
0.0
 30
0.0
  0
VERTEX
  5
6B
  8
1
 62
     7
 10
132.57528545120911
 20
228.23497038675549
 30
0.0
  0
VERTEX
  5
6C
  8
1
 62
     7
 10
148.8571619651118
 20
223.49124302893011
 30
0.0
  0
SEQEND
  5
6D
  8
1
  0
ENDBLK
  5
69
  8
0
  0
BLOCK
  8
0
  2
BLOCK_8
 70
     0
 10
0.0
 20
0.0
 30
0.0
  3
BLOCK_8
  1

  0
POLYLINE
  8
1
  5
1F2
  62
7
  66
     1
 10
0.000000
 20
0.000000
 30
0.000000
  70
     8
  0
VERTEX
  8
1
  5
1F3
 10
142.123
 20
224.380
 30
0.000000
  70
    32
  0
VERTEX
  8
1
  5
1F4
 10
142.122
 20
224.368
 30
0.000000
  70
    32
  0
VERTEX
  8
1
  5
1F5
 10
142.121
 20
224.356
 30
0.000000
  70
    32
  0
VERTEX
  8
1
  5
1F6
 10
142.121
 20
224.344
 30
0.000000
  70
    32
  0
VERTEX
  8
1
  5
1F7
 10
142.121
 20
224.331
 30
0.000000
  70
    32
  0
VERTEX
  8
1
  5
1F8
 10
142.121
 20
224.319
 30
0.000000
  70
    32
  0
VERTEX
  8
1
  5
1F9
 10
142.122
 20
224.307
 30
0.000000
  70
    32
  0
VERTEX
  8
1
  5
1FA
 10
142.123
 20
224.294
 30
0.000000
  70
    32
  0
VERTEX
  8
1
  5
1FB
 10
142.125
 20
224.282
 30
0.000000
  70
    32
  0
VERTEX
  8
1
  5
1FC
 10
142.127
 20
224.269
 30
0.000000
  70
    32
  0
VERTEX
  8
1
  5
1FD
 10
142.129
 20
224.257
 30
0.000000
  70
    32
  0
VERTEX
  8
1
  5
1FE
 10
142.132
 20
224.244
 30
0.000000
  70
    32
  0
VERTEX
  8
1
  5
1FF
 10
142.136
 20
224.232
 30
0.000000
  70
    32
  0
VERTEX
  8
1
  5
200
 10
142.139
 20
224.219
 30
0.000000
  70
    32
  0
VERTEX
  8
1
  5
201
 10
142.143
 20
224.207
 30
0.000000
  70
    32
  0
VERTEX
  8
1
  5
202
 10
142.148
 20
224.194
 30
0.000000
  70
    32
  0
VERTEX
  8
1
  5
203
 10
142.153
 20
224.181
 30
0.000000
  70
    32
  0
VERTEX
  8
1
  5
204
 10
142.158
 20
224.169
 30
0.000000
  70
    32
  0
VERTEX
  8
1
  5
205
 10
142.163
 20
224.156
 30
0.000000
  70
    32
  0
VERTEX
  8
1
  5
206
 10
142.169
 20
224.144
 30
0.000000
  70
    32
  0
VERTEX
  8
1
  5
207
 10
142.176
 20
224.131
 30
0.000000
  70
    32
  0
VERTEX
  8
1
  5
208
 10
142.182
 20
224.118
 30
0.000000
  70
    32
  0
VERTEX
  8
1
  5
209
 10
142.189
 20
224.106
 30
0.000000
  70
    32
  0
VERTEX
  8
1
  5
20A
 10
142.197
 20
224.093
 30
0.000000
  70
    32
  0
VERTEX
  8
1
  5
20B
 10
142.205
 20
224.080
 30
0.000000
  70
    32
  0
VERTEX
  8
1
  5
20C
 10
142.213
 20
224.068
 30
0.000000
  70
    32
  0
VERTEX
  8
1
  5
20D
 10
142.221
 20
224.055
 30
0.000000
  70
    32
  0
VERTEX
  8
1
  5
20E
 10
142.230
 20
224.042
 30
0.000000
  70
    32
  0
VERTEX
  8
1
  5
20F
 10
142.239
 20
224.030
 30
0.000000
  70
    32
  0
VERTEX
  8
1
  5
210
 10
142.249
 20
224.017
 30
0.000000
  70
    32
  0
VERTEX
  8
1
  5
211
 10
142.259
 20
224.005
 30
0.000000
  70
    32
  0
VERTEX
  8
1
  5
212
 10
142.269
 20
223.992
 30
0.000000
  70
    32
  0
VERTEX
  8
1
  5
213
 10
142.280
 20
223.980
 30
0.000000
  70
    32
  0
VERTEX
  8
1
  5
214
 10
142.291
 20
223.967
 30
0.000000
  70
    32
  0
VERTEX
  8
1
  5
215
 10
142.302
 20
223.955
 30
0.000000
  70
    32
  0
VERTEX
  8
1
  5
216
 10
142.313
 20
223.942
 30
0.000000
  70
    32
  0
VERTEX
  8
1
  5
217
 10
142.325
 20
223.930
 30
0.000000
  70
    32
  0
VERTEX
  8
1
  5
218
 10
142.338
 20
223.917
 30
0.000000
  70
    32
  0
VERTEX
  8
1
  5
219
 10
142.350
 20
223.905
 30
0.000000
  70
    32
  0
VERTEX
  8
1
  5
21A
 10
142.363
 20
223.893
 30
0.000000
  70
    32
  0
VERTEX
  8
1
  5
21B
 10
142.376
 20
223.881
 30
0.000000
  70
    32
  0
VERTEX
  8
1
  5
21C
 10
142.390
 20
223.868
 30
0.000000
  70
    32
  0
VERTEX
  8
1
  5
21D
 10
142.403
 20
223.856
 30
0.000000
  70
    32
  0
VERTEX
  8
1
  5
21E
 10
142.418
 20
223.844
 30
0.000000
  70
    32
  0
VERTEX
  8
1
  5
21F
 10
142.432
 20
223.832
 30
0.000000
  70
    32
  0
VERTEX
  8
1
  5
220
 10
142.447
 20
223.820
 30
0.000000
  70
    32
  0
VERTEX
  8
1
  5
221
 10
142.462
 20
223.808
 30
0.000000
  70
    32
  0
VERTEX
  8
1
  5
222
 10
142.477
 20
223.796
 30
0.000000
  70
    32
  0
VERTEX
  8
1
  5
223
 10
142.493
 20
223.784
 30
0.000000
  70
    32
  0
VERTEX
  8
1
  5
224
 10
142.508
 20
223.772
 30
0.000000
  70
    32
  0
VERTEX
  8
1
  5
225
 10
142.525
 20
223.760
 30
0.000000
  70
    32
  0
VERTEX
  8
1
  5
226
 10
142.541
 20
223.749
 30
0.000000
  70
    32
  0
VERTEX
  8
1
  5
227
 10
142.558
 20
223.737
 30
0.000000
  70
    32
  0
VERTEX
  8
1
  5
228
 10
142.575
 20
223.725
 30
0.000000
  70
    32
  0
VERTEX
  8
1
  5
229
 10
142.592
 20
223.714
 30
0.000000
  70
    32
  0
VERTEX
  8
1
  5
22A
 10
142.610
 20
223.703
 30
0.000000
  70
    32
  0
VERTEX
  8
1
  5
22B
 10
142.627
 20
223.691
 30
0.000000
  70
    32
  0
VERTEX
  8
1
  5
22C
 10
142.645
 20
223.680
 30
0.000000
  70
    32
  0
VERTEX
  8
1
  5
22D
 10
142.664
 20
223.669
 30
0.000000
  70
    32
  0
VERTEX
  8
1
  5
22E
 10
142.682
 20
223.658
 30
0.000000
  70
    32
  0
VERTEX
  8
1
  5
22F
 10
142.701
 20
223.646
 30
0.000000
  70
    32
  0
VERTEX
  8
1
  5
230
 10
142.720
 20
223.635
 30
0.000000
  70
    32
  0
VERTEX
  8
1
  5
231
 10
142.739
 20
223.625
 30
0.000000
  70
    32
  0
VERTEX
  8
1
  5
232
 10
142.759
 20
223.614
 30
0.000000
  70
    32
  0
VERTEX
  8
1
  5
233
 10
142.779
 20
223.603
 30
0.000000
  70
    32
  0
VERTEX
  8
1
  5
234
 10
142.799
 20
223.592
 30
0.000000
  70
    32
  0
VERTEX
  8
1
  5
235
 10
142.819
 20
223.582
 30
0.000000
  70
    32
  0
VERTEX
  8
1
  5
236
 10
142.840
 20
223.571
 30
0.000000
  70
    32
  0
VERTEX
  8
1
  5
237
 10
142.860
 20
223.561
 30
0.000000
  70
    32
  0
VERTEX
  8
1
  5
238
 10
142.881
 20
223.551
 30
0.000000
  70
    32
  0
VERTEX
  8
1
  5
239
 10
142.903
 20
223.541
 30
0.000000
  70
    32
  0
VERTEX
  8
1
  5
23A
 10
142.924
 20
223.531
 30
0.000000
  70
    32
  0
VERTEX
  8
1
  5
23B
 10
142.946
 20
223.521
 30
0.000000
  70
    32
  0
VERTEX
  8
1
  5
23C
 10
142.968
 20
223.511
 30
0.000000
  70
    32
  0
VERTEX
  8
1
  5
23D
 10
142.990
 20
223.501
 30
0.000000
  70
    32
  0
VERTEX
  8
1
  5
23E
 10
143.012
 20
223.492
 30
0.000000
  70
    32
  0
VERTEX
  8
1
  5
23F
 10
143.034
 20
223.482
 30
0.000000
  70
    32
  0
VERTEX
  8
1
  5
240
 10
143.057
 20
223.473
 30
0.000000
  70
    32
  0
VERTEX
  8
1
  5
241
 10
143.080
 20
223.464
 30
0.000000
  70
    32
  0
VERTEX
  8
1
  5
242
 10
143.103
 20
223.455
 30
0.000000
  70
    32
  0
VERTEX
  8
1
  5
243
 10
143.126
 20
223.446
 30
0.000000
  70
    32
  0
VERTEX
  8
1
  5
244
 10
143.150
 20
223.437
 30
0.000000
  70
    32
  0
VERTEX
  8
1
  5
245
 10
143.173
 20
223.428
 30
0.000000
  70
    32
  0
VERTEX
  8
1
  5
246
 10
143.197
 20
223.419
 30
0.000000
  70
    32
  0
VERTEX
  8
1
  5
247
 10
143.221
 20
223.411
 30
0.000000
  70
    32
  0
VERTEX
  8
1
  5
248
 10
143.246
 20
223.402
 30
0.000000
  70
    32
  0
VERTEX
  8
1
  5
249
 10
143.270
 20
223.394
 30
0.000000
  70
    32
  0
VERTEX
  8
1
  5
24A
 10
143.294
 20
223.386
 30
0.000000
  70
    32
  0
VERTEX
  8
1
  5
24B
 10
143.319
 20
223.378
 30
0.000000
  70
    32
  0
VERTEX
  8
1
  5
24C
 10
143.344
 20
223.370
 30
0.000000
  70
    32
  0
VERTEX
  8
1
  5
24D
 10
143.369
 20
223.363
 30
0.000000
  70
    32
  0
VERTEX
  8
1
  5
24E
 10
143.394
 20
223.355
 30
0.000000
  70
    32
  0
VERTEX
  8
1
  5
24F
 10
143.420
 20
223.348
 30
0.000000
  70
    32
  0
VERTEX
  8
1
  5
250
 10
143.445
 20
223.341
 30
0.000000
  70
    32
  0
VERTEX
  8
1
  5
251
 10
143.471
 20
223.334
 30
0.000000
  70
    32
  0
VERTEX
  8
1
  5
252
 10
143.497
 20
223.327
 30
0.000000
  70
    32
  0
VERTEX
  8
1
  5
253
 10
143.523
 20
223.320
 30
0.000000
  70
    32
  0
VERTEX
  8
1
  5
254
 10
143.549
 20
223.313
 30
0.000000
  70
    32
  0
VERTEX
  8
1
  5
255
 10
143.575
 20
223.307
 30
0.000000
  70
    32
  0
VERTEX
  8
1
  5
256
 10
143.601
 20
223.301
 30
0.000000
  70
    32
  0
VERTEX
  8
1
  5
257
 10
143.628
 20
223.295
 30
0.000000
  70
    32
  0
VERTEX
  8
1
  5
258
 10
143.655
 20
223.289
 30
0.000000
  70
    32
  0
VERTEX
  8
1
  5
259
 10
143.681
 20
223.283
 30
0.000000
  70
    32
  0
VERTEX
  8
1
  5
25A
 10
143.687
 20
223.282
 30
0.000000
  70
    32
  0
VERTEX
  8
1
  5
25B
 10
143.687
 20
223.282
 30
0.000000
  70
    32
  0
VERTEX
  8
1
  5
25C
 10
143.687
 20
223.282
 30
0.000000
  70
    32
  0
VERTEX
  8
1
  5
25D
 10
143.687
 20
223.282
 30
0.000000
  70
    32
  0
VERTEX
  8
1
  5
25E
 10
143.687
 20
223.282
 30
0.000000
  70
    32
  0
VERTEX
  8
1
  5
25F
 10
143.687
 20
223.282
 30
0.000000
  70
    32
  0
VERTEX
  8
1
  5
260
 10
143.687
 20
223.282
 30
0.000000
  70
    32
  0
VERTEX
  8
1
  5
261
 10
143.687
 20
223.282
 30
0.000000
  70
    32
  0
VERTEX
  8
1
  5
262
 10
143.687
 20
223.282
 30
0.000000
  70
    32
  0
VERTEX
  8
1
  5
263
 10
143.687
 20
223.282
 30
0.000000
  70
    32
  0
VERTEX
  8
1
  5
264
 10
143.687
 20
223.282
 30
0.000000
  70
    32
  0
VERTEX
  8
1
  5
265
 10
143.687
 20
223.282
 30
0.000000
  70
    32
  0
VERTEX
  8
1
  5
266
 10
143.687
 20
223.282
 30
0.000000
  70
    32
  0
VERTEX
  8
1
  5
267
 10
143.687
 20
223.282
 30
0.000000
  70
    32
  0
VERTEX
  8
1
  5
268
 10
143.687
 20
223.282
 30
0.000000
  70
    32
  0
VERTEX
  8
1
  5
269
 10
143.687
 20
223.282
 30
0.000000
  70
    32
  0
VERTEX
  8
1
  5
26A
 10
143.687
 20
223.282
 30
0.000000
  70
    32
  0
VERTEX
  8
1
  5
26B
 10
143.687
 20
223.282
 30
0.000000
  70
    32
  0
VERTEX
  8
1
  5
26C
 10
143.687
 20
223.282
 30
0.000000
  70
    32
  0
VERTEX
  8
1
  5
26D
 10
143.687
 20
223.282
 30
0.000000
  70
    32
  0
VERTEX
  8
1
  5
26E
 10
143.687
 20
223.282
 30
0.000000
  70
    32
  0
VERTEX
  8
1
  5
26F
 10
143.687
 20
223.282
 30
0.000000
  70
    32
  0
VERTEX
  8
1
  5
270
 10
143.687
 20
223.282
 30
0.000000
  70
    32
  0
VERTEX
  8
1
  5
271
 10
143.687
 20
223.282
 30
0.000000
  70
    32
  0
VERTEX
  8
1
  5
272
 10
143.687
 20
223.282
 30
0.000000
  70
    32
  0
VERTEX
  8
1
  5
273
 10
143.687
 20
223.282
 30
0.000000
  70
    32
  0
VERTEX
  8
1
  5
274
 10
143.687
 20
223.282
 30
0.000000
  70
    32
  0
VERTEX
  8
1
  5
275
 10
143.687
 20
223.282
 30
0.000000
  70
    32
  0
VERTEX
  8
1
  5
276
 10
143.687
 20
223.282
 30
0.000000
  70
    32
  0
VERTEX
  8
1
  5
277
 10
143.687
 20
223.282
 30
0.000000
  70
    32
  0
VERTEX
  8
1
  5
278
 10
143.687
 20
223.282
 30
0.000000
  70
    32
  0
VERTEX
  8
1
  5
279
 10
143.687
 20
223.282
 30
0.000000
  70
    32
  0
VERTEX
  8
1
  5
27A
 10
143.687
 20
223.282
 30
0.000000
  70
    32
  0
VERTEX
  8
1
  5
27B
 10
143.687
 20
223.282
 30
0.000000
  70
    32
  0
VERTEX
  8
1
  5
27C
 10
143.687
 20
223.282
 30
0.000000
  70
    32
  0
VERTEX
  8
1
  5
27D
 10
143.687
 20
223.282
 30
0.000000
  70
    32
  0
VERTEX
  8
1
  5
27E
 10
143.687
 20
223.282
 30
0.000000
  70
    32
  0
VERTEX
  8
1
  5
27F
 10
143.687
 20
223.282
 30
0.000000
  70
    32
  0
VERTEX
  8
1
  5
280
 10
143.687
 20
223.282
 30
0.000000
  70
    32
  0
VERTEX
  8
1
  5
281
 10
143.687
 20
223.282
 30
0.000000
  70
    32
  0
VERTEX
  8
1
  5
282
 10
143.687
 20
223.282
 30
0.000000
  70
    32
  0
VERTEX
  8
1
  5
283
 10
143.687
 20
223.282
 30
0.000000
  70
    32
  0
VERTEX
  8
1
  5
284
 10
143.687
 20
223.282
 30
0.000000
  70
    32
  0
VERTEX
  8
1
  5
285
 10
143.687
 20
223.282
 30
0.000000
  70
    32
  0
VERTEX
  8
1
  5
286
 10
143.687
 20
223.282
 30
0.000000
  70
    32
  0
VERTEX
  8
1
  5
287
 10
143.687
 20
223.282
 30
0.000000
  70
    32
  0
VERTEX
  8
1
  5
288
 10
143.687
 20
223.282
 30
0.000000
  70
    32
  0
VERTEX
  8
1
  5
289
 10
143.687
 20
223.282
 30
0.000000
  70
    32
  0
VERTEX
  8
1
  5
28A
 10
143.687
 20
223.282
 30
0.000000
  70
    32
  0
VERTEX
  8
1
  5
28B
 10
143.687
 20
223.282
 30
0.000000
  70
    32
  0
VERTEX
  8
1
  5
28C
 10
143.687
 20
223.282
 30
0.000000
  70
    32
  0
VERTEX
  8
1
  5
28D
 10
143.687
 20
223.282
 30
0.000000
  70
    32
  0
VERTEX
  8
1
  5
28E
 10
143.687
 20
223.282
 30
0.000000
  70
    32
  0
VERTEX
  8
1
  5
28F
 10
143.687
 20
223.282
 30
0.000000
  70
    32
  0
VERTEX
  8
1
  5
290
 10
143.687
 20
223.282
 30
0.000000
  70
    32
  0
VERTEX
  8
1
  5
291
 10
143.687
 20
223.282
 30
0.000000
  70
    32
  0
VERTEX
  8
1
  5
292
 10
143.687
 20
223.282
 30
0.000000
  70
    32
  0
VERTEX
  8
1
  5
293
 10
143.687
 20
223.282
 30
0.000000
  70
    32
  0
VERTEX
  8
1
  5
294
 10
143.687
 20
223.282
 30
0.000000
  70
    32
  0
VERTEX
  8
1
  5
295
 10
143.687
 20
223.282
 30
0.000000
  70
    32
  0
VERTEX
  8
1
  5
296
 10
143.687
 20
223.282
 30
0.000000
  70
    32
  0
VERTEX
  8
1
  5
297
 10
143.687
 20
223.282
 30
0.000000
  70
    32
  0
VERTEX
  8
1
  5
298
 10
143.687
 20
223.282
 30
0.000000
  70
    32
  0
VERTEX
  8
1
  5
299
 10
143.687
 20
223.282
 30
0.000000
  70
    32
  0
VERTEX
  8
1
  5
29A
 10
143.687
 20
223.282
 30
0.000000
  70
    32
  0
VERTEX
  8
1
  5
29B
 10
143.687
 20
223.282
 30
0.000000
  70
    32
  0
VERTEX
  8
1
  5
29C
 10
143.687
 20
223.282
 30
0.000000
  70
    32
  0
VERTEX
  8
1
  5
29D
 10
143.687
 20
223.282
 30
0.000000
  70
    32
  0
VERTEX
  8
1
  5
29E
 10
143.687
 20
223.282
 30
0.000000
  70
    32
  0
VERTEX
  8
1
  5
29F
 10
143.687
 20
223.282
 30
0.000000
  70
    32
  0
VERTEX
  8
1
  5
2A0
 10
143.687
 20
223.282
 30
0.000000
  70
    32
  0
VERTEX
  8
1
  5
2A1
 10
143.687
 20
223.282
 30
0.000000
  70
    32
  0
VERTEX
  8
1
  5
2A2
 10
143.687
 20
223.282
 30
0.000000
  70
    32
  0
VERTEX
  8
1
  5
2A3
 10
143.687
 20
223.282
 30
0.000000
  70
    32
  0
VERTEX
  8
1
  5
2A4
 10
143.687
 20
223.282
 30
0.000000
  70
    32
  0
VERTEX
  8
1
  5
2A5
 10
143.687
 20
223.282
 30
0.000000
  70
    32
  0
VERTEX
  8
1
  5
2A6
 10
143.687
 20
223.282
 30
0.000000
  70
    32
  0
VERTEX
  8
1
  5
2A7
 10
143.687
 20
223.282
 30
0.000000
  70
    32
  0
VERTEX
  8
1
  5
2A8
 10
143.687
 20
223.282
 30
0.000000
  70
    32
  0
VERTEX
  8
1
  5
2A9
 10
143.687
 20
223.282
 30
0.000000
  70
    32
  0
VERTEX
  8
1
  5
2AA
 10
143.687
 20
223.282
 30
0.000000
  70
    32
  0
VERTEX
  8
1
  5
2AB
 10
143.687
 20
223.282
 30
0.000000
  70
    32
  0
VERTEX
  8
1
  5
2AC
 10
143.687
 20
223.282
 30
0.000000
  70
    32
  0
VERTEX
  8
1
  5
2AD
 10
143.687
 20
223.282
 30
0.000000
  70
    32
  0
VERTEX
  8
1
  5
2AE
 10
143.687
 20
223.282
 30
0.000000
  70
    32
  0
VERTEX
  8
1
  5
2AF
 10
143.687
 20
223.282
 30
0.000000
  70
    32
  0
VERTEX
  8
1
  5
2B0
 10
143.687
 20
223.282
 30
0.000000
  70
    32
  0
VERTEX
  8
1
  5
2B1
 10
143.687
 20
223.282
 30
0.000000
  70
    32
  0
VERTEX
  8
1
  5
2B2
 10
143.687
 20
223.282
 30
0.000000
  70
    32
  0
VERTEX
  8
1
  5
2B3
 10
143.687
 20
223.282
 30
0.000000
  70
    32
  0
VERTEX
  8
1
  5
2B4
 10
143.687
 20
223.282
 30
0.000000
  70
    32
  0
VERTEX
  8
1
  5
2B5
 10
143.687
 20
223.282
 30
0.000000
  70
    32
  0
VERTEX
  8
1
  5
2B6
 10
143.687
 20
223.282
 30
0.000000
  70
    32
  0
VERTEX
  8
1
  5
2B7
 10
143.687
 20
223.282
 30
0.000000
  70
    32
  0
VERTEX
  8
1
  5
2B8
 10
143.687
 20
223.282
 30
0.000000
  70
    32
  0
VERTEX
  8
1
  5
2B9
 10
143.687
 20
223.282
 30
0.000000
  70
    32
  0
VERTEX
  8
1
  5
2BA
 10
143.687
 20
223.282
 30
0.000000
  70
    32
  0
VERTEX
  8
1
  5
2BB
 10
143.687
 20
223.282
 30
0.000000
  70
    32
  0
VERTEX
  8
1
  5
2BC
 10
143.687
 20
223.282
 30
0.000000
  70
    32
  0
VERTEX
  8
1
  5
2BD
 10
143.687
 20
223.282
 30
0.000000
  70
    32
  0
VERTEX
  8
1
  5
2BE
 10
143.687
 20
223.282
 30
0.000000
  70
    32
  0
VERTEX
  8
1
  5
2BF
 10
143.687
 20
223.282
 30
0.000000
  70
    32
  0
VERTEX
  8
1
  5
2C0
 10
143.703
 20
223.279
 30
0.000000
  70
    32
  0
VERTEX
  8
1
  5
2C1
 10
143.730
 20
223.273
 30
0.000000
  70
    32
  0
VERTEX
  8
1
  5
2C2
 10
143.756
 20
223.268
 30
0.000000
  70
    32
  0
VERTEX
  8
1
  5
2C3
 10
143.783
 20
223.263
 30
0.000000
  70
    32
  0
VERTEX
  8
1
  5
2C4
 10
143.809
 20
223.258
 30
0.000000
  70
    32
  0
VERTEX
  8
1
  5
2C5
 10
143.836
 20
223.254
 30
0.000000
  70
    32
  0
VERTEX
  8
1
  5
2C6
 10
143.862
 20
223.249
 30
0.000000
  70
    32
  0
VERTEX
  8
1
  5
2C7
 10
143.888
 20
223.245
 30
0.000000
  70
    32
  0
VERTEX
  8
1
  5
2C8
 10
143.914
 20
223.241
 30
0.000000
  70
    32
  0
VERTEX
  8
1
  5
2C9
 10
143.940
 20
223.238
 30
0.000000
  70
    32
  0
VERTEX
  8
1
  5
2CA
 10
143.966
 20
223.234
 30
0.000000
  70
    32
  0
VERTEX
  8
1
  5
2CB
 10
143.992
 20
223.231
 30
0.000000
  70
    32
  0
VERTEX
  8
1
  5
2CC
 10
144.018
 20
223.228
 30
0.000000
  70
    32
  0
VERTEX
  8
1
  5
2CD
 10
144.043
 20
223.225
 30
0.000000
  70
    32
  0
VERTEX
  8
1
  5
2CE
 10
144.069
 20
223.222
 30
0.000000
  70
    32
  0
VERTEX
  8
1
  5
2CF
 10
144.094
 20
223.219
 30
0.000000
  70
    32
  0
VERTEX
  8
1
  5
2D0
 10
144.119
 20
223.217
 30
0.000000
  70
    32
  0
VERTEX
  8
1
  5
2D1
 10
144.144
 20
223.215
 30
0.000000
  70
    32
  0
VERTEX
  8
1
  5
2D2
 10
144.169
 20
223.213
 30
0.000000
  70
    32
  0
VERTEX
  8
1
  5
2D3
 10
144.194
 20
223.212
 30
0.000000
  70
    32
  0
VERTEX
  8
1
  5
2D4
 10
144.218
 20
223.210
 30
0.000000
  70
    32
  0
VERTEX
  8
1
  5
2D5
 10
144.243
 20
223.209
 30
0.000000
  70
    32
  0
VERTEX
  8
1
  5
2D6
 10
144.267
 20
223.208
 30
0.000000
  70
    32
  0
VERTEX
  8
1
  5
2D7
 10
144.292
 20
223.207
 30
0.000000
  70
    32
  0
VERTEX
  8
1
  5
2D8
 10
144.316
 20
223.206
 30
0.000000
  70
    32
  0
VERTEX
  8
1
  5
2D9
 10
144.339
 20
223.206
 30
0.000000
  70
    32
  0
VERTEX
  8
1
  5
2DA
 10
144.363
 20
223.205
 30
0.000000
  70
    32
  0
VERTEX
  8
1
  5
2DB
 10
144.387
 20
223.205
 30
0.000000
  70
    32
  0
VERTEX
  8
1
  5
2DC
 10
144.410
 20
223.205
 30
0.000000
  70
    32
  0
VERTEX
  8
1
  5
2DD
 10
144.433
 20
223.205
 30
0.000000
  70
    32
  0
VERTEX
  8
1
  5
2DE
 10
144.456
 20
223.206
 30
0.000000
  70
    32
  0
VERTEX
  8
1
  5
2DF
 10
144.479
 20
223.206
 30
0.000000
  70
    32
  0
VERTEX
  8
1
  5
2E0
 10
144.502
 20
223.207
 30
0.000000
  70
    32
  0
VERTEX
  8
1
  5
2E1
 10
144.524
 20
223.208
 30
0.000000
  70
    32
  0
VERTEX
  8
1
  5
2E2
 10
144.547
 20
223.210
 30
0.000000
  70
    32
  0
VERTEX
  8
1
  5
2E3
 10
144.569
 20
223.211
 30
0.000000
  70
    32
  0
VERTEX
  8
1
  5
2E4
 10
144.591
 20
223.213
 30
0.000000
  70
    32
  0
VERTEX
  8
1
  5
2E5
 10
144.612
 20
223.214
 30
0.000000
  70
    32
  0
VERTEX
  8
1
  5
2E6
 10
144.634
 20
223.216
 30
0.000000
  70
    32
  0
VERTEX
  8
1
  5
2E7
 10
144.655
 20
223.218
 30
0.000000
  70
    32
  0
VERTEX
  8
1
  5
2E8
 10
144.676
 20
223.221
 30
0.000000
  70
    32
  0
VERTEX
  8
1
  5
2E9
 10
144.697
 20
223.223
 30
0.000000
  70
    32
  0
VERTEX
  8
1
  5
2EA
 10
144.718
 20
223.226
 30
0.000000
  70
    32
  0
VERTEX
  8
1
  5
2EB
 10
144.738
 20
223.229
 30
0.000000
  70
    32
  0
VERTEX
  8
1
  5
2EC
 10
144.758
 20
223.232
 30
0.000000
  70
    32
  0
VERTEX
  8
1
  5
2ED
 10
144.778
 20
223.235
 30
0.000000
  70
    32
  0
VERTEX
  8
1
  5
2EE
 10
144.798
 20
223.238
 30
0.000000
  70
    32
  0
VERTEX
  8
1
  5
2EF
 10
144.818
 20
223.242
 30
0.000000
  70
    32
  0
VERTEX
  8
1
  5
2F0
 10
144.837
 20
223.246
 30
0.000000
  70
    32
  0
VERTEX
  8
1
  5
2F1
 10
144.856
 20
223.250
 30
0.000000
  70
    32
  0
VERTEX
  8
1
  5
2F2
 10
144.875
 20
223.254
 30
0.000000
  70
    32
  0
VERTEX
  8
1
  5
2F3
 10
144.893
 20
223.258
 30
0.000000
  70
    32
  0
VERTEX
  8
1
  5
2F4
 10
144.912
 20
223.263
 30
0.000000
  70
    32
  0
VERTEX
  8
1
  5
2F5
 10
144.930
 20
223.267
 30
0.000000
  70
    32
  0
VERTEX
  8
1
  5
2F6
 10
144.948
 20
223.272
 30
0.000000
  70
    32
  0
VERTEX
  8
1
  5
2F7
 10
144.965
 20
223.277
 30
0.000000
  70
    32
  0
VERTEX
  8
1
  5
2F8
 10
144.982
 20
223.282
 30
0.000000
  70
    32
  0
VERTEX
  8
1
  5
2F9
 10
144.999
 20
223.287
 30
0.000000
  70
    32
  0
VERTEX
  8
1
  5
2FA
 10
145.016
 20
223.293
 30
0.000000
  70
    32
  0
VERTEX
  8
1
  5
2FB
 10
145.033
 20
223.299
 30
0.000000
  70
    32
  0
VERTEX
  8
1
  5
2FC
 10
145.049
 20
223.304
 30
0.000000
  70
    32
  0
VERTEX
  8
1
  5
2FD
 10
145.065
 20
223.310
 30
0.000000
  70
    32
  0
VERTEX
  8
1
  5
2FE
 10
145.080
 20
223.317
 30
0.000000
  70
    32
  0
VERTEX
  8
1
  5
2FF
 10
145.096
 20
223.323
 30
0.000000
  70
    32
  0
VERTEX
  8
1
  5
300
 10
145.111
 20
223.329
 30
0.000000
  70
    32
  0
VERTEX
  8
1
  5
301
 10
145.126
 20
223.336
 30
0.000000
  70
    32
  0
VERTEX
  8
1
  5
302
 10
145.140
 20
223.343
 30
0.000000
  70
    32
  0
VERTEX
  8
1
  5
303
 10
145.154
 20
223.350
 30
0.000000
  70
    32
  0
VERTEX
  8
1
  5
304
 10
145.168
 20
223.357
 30
0.000000
  70
    32
  0
VERTEX
  8
1
  5
305
 10
145.182
 20
223.364
 30
0.000000
  70
    32
  0
VERTEX
  8
1
  5
306
 10
145.195
 20
223.372
 30
0.000000
  70
    32
  0
VERTEX
  8
1
  5
307
 10
145.208
 20
223.379
 30
0.000000
  70
    32
  0
VERTEX
  8
1
  5
308
 10
145.221
 20
223.387
 30
0.000000
  70
    32
  0
VERTEX
  8
1
  5
309
 10
145.233
 20
223.395
 30
0.000000
  70
    32
  0
VERTEX
  8
1
  5
30A
 10
145.245
 20
223.403
 30
0.000000
  70
    32
  0
VERTEX
  8
1
  5
30B
 10
145.257
 20
223.411
 30
0.000000
  70
    32
  0
VERTEX
  8
1
  5
30C
 10
145.268
 20
223.420
 30
0.000000
  70
    32
  0
VERTEX
  8
1
  5
30D
 10
145.279
 20
223.428
 30
0.000000
  70
    32
  0
VERTEX
  8
1
  5
30E
 10
145.289
 20
223.437
 30
0.000000
  70
    32
  0
VERTEX
  8
1
  5
30F
 10
145.300
 20
223.446
 30
0.000000
  70
    32
  0
VERTEX
  8
1
  5
310
 10
145.310
 20
223.455
 30
0.000000
  70
    32
  0
VERTEX
  8
1
  5
311
 10
145.319
 20
223.464
 30
0.000000
  70
    32
  0
VERTEX
  8
1
  5
312
 10
145.329
 20
223.473
 30
0.000000
  70
    32
  0
VERTEX
  8
1
  5
313
 10
145.338
 20
223.483
 30
0.000000
  70
    32
  0
VERTEX
  8
1
  5
314
 10
145.346
 20
223.492
 30
0.000000
  70
    32
  0
VERTEX
  8
1
  5
315
 10
145.354
 20
223.502
 30
0.000000
  70
    32
  0
VERTEX
  8
1
  5
316
 10
145.362
 20
223.512
 30
0.000000
  70
    32
  0
VERTEX
  8
1
  5
317
 10
145.370
 20
223.522
 30
0.000000
  70
    32
  0
VERTEX
  8
1
  5
318
 10
145.377
 20
223.532
 30
0.000000
  70
    32
  0
VERTEX
  8
1
  5
319
 10
145.383
 20
223.543
 30
0.000000
  70
    32
  0
VERTEX
  8
1
  5
31A
 10
145.390
 20
223.553
 30
0.000000
  70
    32
  0
VERTEX
  8
1
  5
31B
 10
145.396
 20
223.564
 30
0.000000
  70
    32
  0
VERTEX
  8
1
  5
31C
 10
145.401
 20
223.574
 30
0.000000
  70
    32
  0
VERTEX
  8
1
  5
31D
 10
145.407
 20
223.585
 30
0.000000
  70
    32
  0
VERTEX
  8
1
  5
31E
 10
145.411
 20
223.596
 30
0.000000
  70
    32
  0
VERTEX
  8
1
  5
31F
 10
145.416
 20
223.608
 30
0.000000
  70
    32
  0
VERTEX
  8
1
  5
320
 10
145.420
 20
223.619
 30
0.000000
  70
    32
  0
VERTEX
  8
1
  5
321
 10
145.423
 20
223.630
 30
0.000000
  70
    32
  0
VERTEX
  8
1
  5
322
 10
145.427
 20
223.642
 30
0.000000
  70
    32
  0
VERTEX
  8
1
  5
323
 10
145.429
 20
223.654
 30
0.000000
  70
    32
  0
VERTEX
  8
1
  5
324
 10
145.432
 20
223.666
 30
0.000000
  70
    32
  0
VERTEX
  8
1
  5
325
 10
145.434
 20
223.678
 30
0.000000
  70
    32
  0
VERTEX
  8
1
  5
326
 10
145.435
 20
223.685
 30
0.000000
  70
    32
  0
VERTEX
  8
1
  5
327
 10
145.435
 20
223.685
 30
0.000000
  70
    32
  0
VERTEX
  8
1
  5
328
 10
145.435
 20
223.685
 30
0.000000
  70
    32
  0
VERTEX
  8
1
  5
329
 10
145.435
 20
223.685
 30
0.000000
  70
    32
  0
VERTEX
  8
1
  5
32A
 10
145.435
 20
223.685
 30
0.000000
  70
    32
  0
VERTEX
  8
1
  5
32B
 10
145.435
 20
223.685
 30
0.000000
  70
    32
  0
VERTEX
  8
1
  5
32C
 10
145.435
 20
223.685
 30
0.000000
  70
    32
  0
VERTEX
  8
1
  5
32D
 10
145.435
 20
223.685
 30
0.000000
  70
    32
  0
VERTEX
  8
1
  5
32E
 10
145.435
 20
223.685
 30
0.000000
  70
    32
  0
VERTEX
  8
1
  5
32F
 10
145.435
 20
223.685
 30
0.000000
  70
    32
  0
VERTEX
  8
1
  5
330
 10
145.435
 20
223.685
 30
0.000000
  70
    32
  0
VERTEX
  8
1
  5
331
 10
145.435
 20
223.685
 30
0.000000
  70
    32
  0
VERTEX
  8
1
  5
332
 10
145.435
 20
223.685
 30
0.000000
  70
    32
  0
VERTEX
  8
1
  5
333
 10
145.435
 20
223.685
 30
0.000000
  70
    32
  0
VERTEX
  8
1
  5
334
 10
145.435
 20
223.685
 30
0.000000
  70
    32
  0
VERTEX
  8
1
  5
335
 10
145.435
 20
223.685
 30
0.000000
  70
    32
  0
VERTEX
  8
1
  5
336
 10
145.435
 20
223.685
 30
0.000000
  70
    32
  0
VERTEX
  8
1
  5
337
 10
145.435
 20
223.685
 30
0.000000
  70
    32
  0
VERTEX
  8
1
  5
338
 10
145.435
 20
223.685
 30
0.000000
  70
    32
  0
VERTEX
  8
1
  5
339
 10
145.435
 20
223.685
 30
0.000000
  70
    32
  0
VERTEX
  8
1
  5
33A
 10
145.435
 20
223.685
 30
0.000000
  70
    32
  0
VERTEX
  8
1
  5
33B
 10
145.435
 20
223.685
 30
0.000000
  70
    32
  0
VERTEX
  8
1
  5
33C
 10
145.435
 20
223.685
 30
0.000000
  70
    32
  0
VERTEX
  8
1
  5
33D
 10
145.435
 20
223.685
 30
0.000000
  70
    32
  0
VERTEX
  8
1
  5
33E
 10
145.435
 20
223.685
 30
0.000000
  70
    32
  0
VERTEX
  8
1
  5
33F
 10
145.435
 20
223.685
 30
0.000000
  70
    32
  0
VERTEX
  8
1
  5
340
 10
145.435
 20
223.685
 30
0.000000
  70
    32
  0
VERTEX
  8
1
  5
341
 10
145.435
 20
223.685
 30
0.000000
  70
    32
  0
VERTEX
  8
1
  5
342
 10
145.435
 20
223.685
 30
0.000000
  70
    32
  0
VERTEX
  8
1
  5
343
 10
145.435
 20
223.685
 30
0.000000
  70
    32
  0
VERTEX
  8
1
  5
344
 10
145.435
 20
223.685
 30
0.000000
  70
    32
  0
VERTEX
  8
1
  5
345
 10
145.435
 20
223.685
 30
0.000000
  70
    32
  0
VERTEX
  8
1
  5
346
 10
145.435
 20
223.685
 30
0.000000
  70
    32
  0
VERTEX
  8
1
  5
347
 10
145.435
 20
223.685
 30
0.000000
  70
    32
  0
VERTEX
  8
1
  5
348
 10
145.435
 20
223.685
 30
0.000000
  70
    32
  0
VERTEX
  8
1
  5
349
 10
145.435
 20
223.685
 30
0.000000
  70
    32
  0
VERTEX
  8
1
  5
34A
 10
145.435
 20
223.685
 30
0.000000
  70
    32
  0
VERTEX
  8
1
  5
34B
 10
145.435
 20
223.685
 30
0.000000
  70
    32
  0
VERTEX
  8
1
  5
34C
 10
145.435
 20
223.685
 30
0.000000
  70
    32
  0
VERTEX
  8
1
  5
34D
 10
145.435
 20
223.685
 30
0.000000
  70
    32
  0
VERTEX
  8
1
  5
34E
 10
145.435
 20
223.685
 30
0.000000
  70
    32
  0
VERTEX
  8
1
  5
34F
 10
145.435
 20
223.685
 30
0.000000
  70
    32
  0
VERTEX
  8
1
  5
350
 10
145.435
 20
223.685
 30
0.000000
  70
    32
  0
VERTEX
  8
1
  5
351
 10
145.435
 20
223.685
 30
0.000000
  70
    32
  0
VERTEX
  8
1
  5
352
 10
145.435
 20
223.685
 30
0.000000
  70
    32
  0
VERTEX
  8
1
  5
353
 10
145.435
 20
223.685
 30
0.000000
  70
    32
  0
VERTEX
  8
1
  5
354
 10
145.435
 20
223.685
 30
0.000000
  70
    32
  0
VERTEX
  8
1
  5
355
 10
145.435
 20
223.685
 30
0.000000
  70
    32
  0
VERTEX
  8
1
  5
356
 10
145.435
 20
223.685
 30
0.000000
  70
    32
  0
VERTEX
  8
1
  5
357
 10
145.435
 20
223.685
 30
0.000000
  70
    32
  0
VERTEX
  8
1
  5
358
 10
145.435
 20
223.685
 30
0.000000
  70
    32
  0
VERTEX
  8
1
  5
359
 10
145.435
 20
223.685
 30
0.000000
  70
    32
  0
VERTEX
  8
1
  5
35A
 10
145.435
 20
223.685
 30
0.000000
  70
    32
  0
VERTEX
  8
1
  5
35B
 10
145.435
 20
223.685
 30
0.000000
  70
    32
  0
VERTEX
  8
1
  5
35C
 10
145.435
 20
223.685
 30
0.000000
  70
    32
  0
VERTEX
  8
1
  5
35D
 10
145.435
 20
223.685
 30
0.000000
  70
    32
  0
VERTEX
  8
1
  5
35E
 10
145.435
 20
223.685
 30
0.000000
  70
    32
  0
VERTEX
  8
1
  5
35F
 10
145.435
 20
223.685
 30
0.000000
  70
    32
  0
VERTEX
  8
1
  5
360
 10
145.435
 20
223.685
 30
0.000000
  70
    32
  0
VERTEX
  8
1
  5
361
 10
145.435
 20
223.685
 30
0.000000
  70
    32
  0
VERTEX
  8
1
  5
362
 10
145.435
 20
223.685
 30
0.000000
  70
    32
  0
VERTEX
  8
1
  5
363
 10
145.435
 20
223.685
 30
0.000000
  70
    32
  0
VERTEX
  8
1
  5
364
 10
145.435
 20
223.685
 30
0.000000
  70
    32
  0
VERTEX
  8
1
  5
365
 10
145.435
 20
223.685
 30
0.000000
  70
    32
  0
VERTEX
  8
1
  5
366
 10
145.435
 20
223.685
 30
0.000000
  70
    32
  0
VERTEX
  8
1
  5
367
 10
145.435
 20
223.685
 30
0.000000
  70
    32
  0
VERTEX
  8
1
  5
368
 10
145.435
 20
223.685
 30
0.000000
  70
    32
  0
VERTEX
  8
1
  5
369
 10
145.435
 20
223.685
 30
0.000000
  70
    32
  0
VERTEX
  8
1
  5
36A
 10
145.435
 20
223.685
 30
0.000000
  70
    32
  0
VERTEX
  8
1
  5
36B
 10
145.435
 20
223.685
 30
0.000000
  70
    32
  0
VERTEX
  8
1
  5
36C
 10
145.435
 20
223.685
 30
0.000000
  70
    32
  0
VERTEX
  8
1
  5
36D
 10
145.435
 20
223.685
 30
0.000000
  70
    32
  0
VERTEX
  8
1
  5
36E
 10
145.435
 20
223.685
 30
0.000000
  70
    32
  0
VERTEX
  8
1
  5
36F
 10
145.435
 20
223.685
 30
0.000000
  70
    32
  0
VERTEX
  8
1
  5
370
 10
145.435
 20
223.685
 30
0.000000
  70
    32
  0
VERTEX
  8
1
  5
371
 10
145.435
 20
223.685
 30
0.000000
  70
    32
  0
VERTEX
  8
1
  5
372
 10
145.435
 20
223.685
 30
0.000000
  70
    32
  0
VERTEX
  8
1
  5
373
 10
145.435
 20
223.685
 30
0.000000
  70
    32
  0
VERTEX
  8
1
  5
374
 10
145.435
 20
223.685
 30
0.000000
  70
    32
  0
VERTEX
  8
1
  5
375
 10
145.435
 20
223.685
 30
0.000000
  70
    32
  0
VERTEX
  8
1
  5
376
 10
145.435
 20
223.685
 30
0.000000
  70
    32
  0
VERTEX
  8
1
  5
377
 10
145.435
 20
223.685
 30
0.000000
  70
    32
  0
VERTEX
  8
1
  5
378
 10
145.435
 20
223.685
 30
0.000000
  70
    32
  0
VERTEX
  8
1
  5
379
 10
145.435
 20
223.685
 30
0.000000
  70
    32
  0
VERTEX
  8
1
  5
37A
 10
145.435
 20
223.685
 30
0.000000
  70
    32
  0
VERTEX
  8
1
  5
37B
 10
145.435
 20
223.685
 30
0.000000
  70
    32
  0
VERTEX
  8
1
  5
37C
 10
145.435
 20
223.685
 30
0.000000
  70
    32
  0
VERTEX
  8
1
  5
37D
 10
145.435
 20
223.685
 30
0.000000
  70
    32
  0
VERTEX
  8
1
  5
37E
 10
145.435
 20
223.685
 30
0.000000
  70
    32
  0
VERTEX
  8
1
  5
37F
 10
145.435
 20
223.685
 30
0.000000
  70
    32
  0
VERTEX
  8
1
  5
380
 10
145.435
 20
223.685
 30
0.000000
  70
    32
  0
VERTEX
  8
1
  5
381
 10
145.435
 20
223.685
 30
0.000000
  70
    32
  0
VERTEX
  8
1
  5
382
 10
145.435
 20
223.685
 30
0.000000
  70
    32
  0
VERTEX
  8
1
  5
383
 10
145.435
 20
223.685
 30
0.000000
  70
    32
  0
VERTEX
  8
1
  5
384
 10
145.435
 20
223.685
 30
0.000000
  70
    32
  0
VERTEX
  8
1
  5
385
 10
145.435
 20
223.685
 30
0.000000
  70
    32
  0
VERTEX
  8
1
  5
386
 10
145.435
 20
223.685
 30
0.000000
  70
    32
  0
VERTEX
  8
1
  5
387
 10
145.435
 20
223.685
 30
0.000000
  70
    32
  0
VERTEX
  8
1
  5
388
 10
145.435
 20
223.685
 30
0.000000
  70
    32
  0
VERTEX
  8
1
  5
389
 10
145.435
 20
223.685
 30
0.000000
  70
    32
  0
VERTEX
  8
1
  5
38A
 10
145.435
 20
223.685
 30
0.000000
  70
    32
  0
VERTEX
  8
1
  5
38B
 10
145.435
 20
223.685
 30
0.000000
  70
    32
  0
VERTEX
  8
1
  5
38C
 10
145.435
 20
223.685
 30
0.000000
  70
    32
  0
VERTEX
  8
1
  5
38D
 10
145.435
 20
223.686
 30
0.000000
  70
    32
  0
VERTEX
  8
1
  5
38E
 10
145.435
 20
223.686
 30
0.000000
  70
    32
  0
VERTEX
  8
1
  5
38F
 10
145.435
 20
223.687
 30
0.000000
  70
    32
  0
VERTEX
  8
1
  5
390
 10
145.435
 20
223.687
 30
0.000000
  70
    32
  0
VERTEX
  8
1
  5
391
 10
145.435
 20
223.688
 30
0.000000
  70
    32
  0
VERTEX
  8
1
  5
392
 10
145.435
 20
223.688
 30
0.000000
  70
    32
  0
VERTEX
  8
1
  5
393
 10
145.435
 20
223.689
 30
0.000000
  70
    32
  0
VERTEX
  8
1
  5
394
 10
145.435
 20
223.689
 30
0.000000
  70
    32
  0
VERTEX
  8
1
  5
395
 10
145.435
 20
223.690
 30
0.000000
  70
    32
  0
VERTEX
  8
1
  5
396
 10
145.435
 20
223.690
 30
0.000000
  70
    32
  0
VERTEX
  8
1
  5
397
 10
145.435
 20
223.691
 30
0.000000
  70
    32
  0
VERTEX
  8
1
  5
398
 10
145.435
 20
223.691
 30
0.000000
  70
    32
  0
VERTEX
  8
1
  5
399
 10
145.436
 20
223.692
 30
0.000000
  70
    32
  0
VERTEX
  8
1
  5
39A
 10
145.436
 20
223.692
 30
0.000000
  70
    32
  0
VERTEX
  8
1
  5
39B
 10
145.436
 20
223.693
 30
0.000000
  70
    32
  0
VERTEX
  8
1
  5
39C
 10
145.436
 20
223.693
 30
0.000000
  70
    32
  0
VERTEX
  8
1
  5
39D
 10
145.436
 20
223.694
 30
0.000000
  70
    32
  0
VERTEX
  8
1
  5
39E
 10
145.436
 20
223.694
 30
0.000000
  70
    32
  0
VERTEX
  8
1
  5
39F
 10
145.436
 20
223.695
 30
0.000000
  70
    32
  0
VERTEX
  8
1
  5
3A0
 10
145.436
 20
223.695
 30
0.000000
  70
    32
  0
VERTEX
  8
1
  5
3A1
 10
145.436
 20
223.696
 30
0.000000
  70
    32
  0
VERTEX
  8
1
  5
3A2
 10
145.436
 20
223.696
 30
0.000000
  70
    32
  0
VERTEX
  8
1
  5
3A3
 10
145.436
 20
223.697
 30
0.000000
  70
    32
  0
VERTEX
  8
1
  5
3A4
 10
145.436
 20
223.697
 30
0.000000
  70
    32
  0
VERTEX
  8
1
  5
3A5
 10
145.436
 20
223.698
 30
0.000000
  70
    32
  0
VERTEX
  8
1
  5
3A6
 10
145.436
 20
223.698
 30
0.000000
  70
    32
  0
VERTEX
  8
1
  5
3A7
 10
145.436
 20
223.699
 30
0.000000
  70
    32
  0
VERTEX
  8
1
  5
3A8
 10
145.436
 20
223.699
 30
0.000000
  70
    32
  0
VERTEX
  8
1
  5
3A9
 10
145.436
 20
223.700
 30
0.000000
  70
    32
  0
VERTEX
  8
1
  5
3AA
 10
145.436
 20
223.700
 30
0.000000
  70
    32
  0
VERTEX
  8
1
  5
3AB
 10
145.436
 20
223.701
 30
0.000000
  70
    32
  0
VERTEX
  8
1
  5
3AC
 10
145.436
 20
223.701
 30
0.000000
  70
    32
  0
VERTEX
  8
1
  5
3AD
 10
145.436
 20
223.702
 30
0.000000
  70
    32
  0
VERTEX
  8
1
  5
3AE
 10
145.436
 20
223.702
 30
0.000000
  70
    32
  0
VERTEX
  8
1
  5
3AF
 10
145.436
 20
223.702
 30
0.000000
  70
    32
  0
VERTEX
  8
1
  5
3B0
 10
145.436
 20
223.703
 30
0.000000
  70
    32
  0
VERTEX
  8
1
  5
3B1
 10
145.436
 20
223.703
 30
0.000000
  70
    32
  0
VERTEX
  8
1
  5
3B2
 10
145.436
 20
223.704
 30
0.000000
  70
    32
  0
VERTEX
  8
1
  5
3B3
 10
145.436
 20
223.704
 30
0.000000
  70
    32
  0
VERTEX
  8
1
  5
3B4
 10
145.436
 20
223.705
 30
0.000000
  70
    32
  0
VERTEX
  8
1
  5
3B5
 10
145.436
 20
223.705
 30
0.000000
  70
    32
  0
VERTEX
  8
1
  5
3B6
 10
145.436
 20
223.706
 30
0.000000
  70
    32
  0
VERTEX
  8
1
  5
3B7
 10
145.436
 20
223.706
 30
0.000000
  70
    32
  0
VERTEX
  8
1
  5
3B8
 10
145.436
 20
223.707
 30
0.000000
  70
    32
  0
VERTEX
  8
1
  5
3B9
 10
145.437
 20
223.707
 30
0.000000
  70
    32
  0
VERTEX
  8
1
  5
3BA
 10
145.437
 20
223.708
 30
0.000000
  70
    32
  0
VERTEX
  8
1
  5
3BB
 10
145.437
 20
223.708
 30
0.000000
  70
    32
  0
VERTEX
  8
1
  5
3BC
 10
145.437
 20
223.709
 30
0.000000
  70
    32
  0
VERTEX
  8
1
  5
3BD
 10
145.437
 20
223.709
 30
0.000000
  70
    32
  0
VERTEX
  8
1
  5
3BE
 10
145.437
 20
223.710
 30
0.000000
  70
    32
  0
VERTEX
  8
1
  5
3BF
 10
145.437
 20
223.710
 30
0.000000
  70
    32
  0
VERTEX
  8
1
  5
3C0
 10
145.437
 20
223.711
 30
0.000000
  70
    32
  0
VERTEX
  8
1
  5
3C1
 10
145.437
 20
223.711
 30
0.000000
  70
    32
  0
VERTEX
  8
1
  5
3C2
 10
145.437
 20
223.712
 30
0.000000
  70
    32
  0
VERTEX
  8
1
  5
3C3
 10
145.437
 20
223.712
 30
0.000000
  70
    32
  0
VERTEX
  8
1
  5
3C4
 10
145.437
 20
223.713
 30
0.000000
  70
    32
  0
VERTEX
  8
1
  5
3C5
 10
145.437
 20
223.713
 30
0.000000
  70
    32
  0
VERTEX
  8
1
  5
3C6
 10
145.437
 20
223.714
 30
0.000000
  70
    32
  0
VERTEX
  8
1
  5
3C7
 10
145.437
 20
223.714
 30
0.000000
  70
    32
  0
VERTEX
  8
1
  5
3C8
 10
145.437
 20
223.715
 30
0.000000
  70
    32
  0
VERTEX
  8
1
  5
3C9
 10
145.437
 20
223.715
 30
0.000000
  70
    32
  0
VERTEX
  8
1
  5
3CA
 10
145.437
 20
223.716
 30
0.000000
  70
    32
  0
VERTEX
  8
1
  5
3CB
 10
145.437
 20
223.716
 30
0.000000
  70
    32
  0
VERTEX
  8
1
  5
3CC
 10
145.437
 20
223.717
 30
0.000000
  70
    32
  0
VERTEX
  8
1
  5
3CD
 10
145.437
 20
223.717
 30
0.000000
  70
    32
  0
VERTEX
  8
1
  5
3CE
 10
145.437
 20
223.718
 30
0.000000
  70
    32
  0
VERTEX
  8
1
  5
3CF
 10
145.437
 20
223.718
 30
0.000000
  70
    32
  0
VERTEX
  8
1
  5
3D0
 10
145.437
 20
223.719
 30
0.000000
  70
    32
  0
VERTEX
  8
1
  5
3D1
 10
145.437
 20
223.719
 30
0.000000
  70
    32
  0
VERTEX
  8
1
  5
3D2
 10
145.437
 20
223.720
 30
0.000000
  70
    32
  0
VERTEX
  8
1
  5
3D3
 10
145.437
 20
223.720
 30
0.000000
  70
    32
  0
VERTEX
  8
1
  5
3D4
 10
145.437
 20
223.721
 30
0.000000
  70
    32
  0
VERTEX
  8
1
  5
3D5
 10
145.437
 20
223.721
 30
0.000000
  70
    32
  0
VERTEX
  8
1
  5
3D6
 10
145.437
 20
223.722
 30
0.000000
  70
    32
  0
VERTEX
  8
1
  5
3D7
 10
145.437
 20
223.722
 30
0.000000
  70
    32
  0
VERTEX
  8
1
  5
3D8
 10
145.437
 20
223.723
 30
0.000000
  70
    32
  0
VERTEX
  8
1
  5
3D9
 10
145.437
 20
223.723
 30
0.000000
  70
    32
  0
VERTEX
  8
1
  5
3DA
 10
145.437
 20
223.723
 30
0.000000
  70
    32
  0
VERTEX
  8
1
  5
3DB
 10
145.437
 20
223.724
 30
0.000000
  70
    32
  0
VERTEX
  8
1
  5
3DC
 10
145.437
 20
223.724
 30
0.000000
  70
    32
  0
VERTEX
  8
1
  5
3DD
 10
145.437
 20
223.725
 30
0.000000
  70
    32
  0
VERTEX
  8
1
  5
3DE
 10
145.437
 20
223.725
 30
0.000000
  70
    32
  0
VERTEX
  8
1
  5
3DF
 10
145.437
 20
223.726
 30
0.000000
  70
    32
  0
VERTEX
  8
1
  5
3E0
 10
145.437
 20
223.726
 30
0.000000
  70
    32
  0
VERTEX
  8
1
  5
3E1
 10
145.437
 20
223.727
 30
0.000000
  70
    32
  0
VERTEX
  8
1
  5
3E2
 10
145.437
 20
223.727
 30
0.000000
  70
    32
  0
VERTEX
  8
1
  5
3E3
 10
145.437
 20
223.728
 30
0.000000
  70
    32
  0
VERTEX
  8
1
  5
3E4
 10
145.437
 20
223.728
 30
0.000000
  70
    32
  0
VERTEX
  8
1
  5
3E5
 10
145.437
 20
223.729
 30
0.000000
  70
    32
  0
VERTEX
  8
1
  5
3E6
 10
145.437
 20
223.729
 30
0.000000
  70
    32
  0
VERTEX
  8
1
  5
3E7
 10
145.437
 20
223.730
 30
0.000000
  70
    32
  0
VERTEX
  8
1
  5
3E8
 10
145.437
 20
223.730
 30
0.000000
  70
    32
  0
VERTEX
  8
1
  5
3E9
 10
145.437
 20
223.731
 30
0.000000
  70
    32
  0
VERTEX
  8
1
  5
3EA
 10
145.437
 20
223.731
 30
0.000000
  70
    32
  0
VERTEX
  8
1
  5
3EB
 10
145.437
 20
223.732
 30
0.000000
  70
    32
  0
VERTEX
  8
1
  5
3EC
 10
145.437
 20
223.732
 30
0.000000
  70
    32
  0
VERTEX
  8
1
  5
3ED
 10
145.437
 20
223.733
 30
0.000000
  70
    32
  0
VERTEX
  8
1
  5
3EE
 10
145.437
 20
223.733
 30
0.000000
  70
    32
  0
VERTEX
  8
1
  5
3EF
 10
145.437
 20
223.734
 30
0.000000
  70
    32
  0
VERTEX
  8
1
  5
3F0
 10
145.437
 20
223.734
 30
0.000000
  70
    32
  0
VERTEX
  8
1
  5
3F1
 10
145.437
 20
223.735
 30
0.000000
  70
    32
  0
VERTEX
  8
1
  5
3F2
 10
145.437
 20
223.735
 30
0.000000
  70
    32
  0
SEQEND
  8
1
  5
3F3
  0
ENDBLK
  5
71
  8
0
  0
BLOCK
  8
0
  2
BLOCK_9
 70
     0
 10
0.0
 20
0.0
 30
0.0
  3
BLOCK_9
  1

  0
POLYLINE
  5
77
  8
1
 62
     7
 66
     1
 10
0.0
 20
0.0
 30
0.0
  0
VERTEX
  5
78
  8
1
 62
     7
 10
142.12337388739991
 20
225.79101803725749
 30
0.0
  0
VERTEX
  5
79
  8
1
 62
     7
 10
142.12337388739991
 20
224.3661256045645
 30
0.0
  0
SEQEND
  5
7A
  8
1
  0
ENDBLK
  5
76
  8
0
  0
BLOCK
  8
0
  2
BLOCK_10
 70
     0
 10
0.0
 20
0.0
 30
0.0
  3
BLOCK_10
  1

  0
POLYLINE
  8
1
  5
3F4
  62
7
  66
     1
 10
0.000000
 20
0.000000
 30
0.000000
  70
     8
  0
VERTEX
  8
1
  5
3F5
 10
140.266
 20
224.380
 30
0.000000
  70
    32
  0
VERTEX
  8
1
  5
3F6
 10
140.265
 20
224.368
 30
0.000000
  70
    32
  0
VERTEX
  8
1
  5
3F7
 10
140.264
 20
224.356
 30
0.000000
  70
    32
  0
VERTEX
  8
1
  5
3F8
 10
140.263
 20
224.344
 30
0.000000
  70
    32
  0
VERTEX
  8
1
  5
3F9
 10
140.263
 20
224.331
 30
0.000000
  70
    32
  0
VERTEX
  8
1
  5
3FA
 10
140.264
 20
224.319
 30
0.000000
  70
    32
  0
VERTEX
  8
1
  5
3FB
 10
140.265
 20
224.307
 30
0.000000
  70
    32
  0
VERTEX
  8
1
  5
3FC
 10
140.266
 20
224.294
 30
0.000000
  70
    32
  0
VERTEX
  8
1
  5
3FD
 10
140.267
 20
224.282
 30
0.000000
  70
    32
  0
VERTEX
  8
1
  5
3FE
 10
140.269
 20
224.269
 30
0.000000
  70
    32
  0
VERTEX
  8
1
  5
3FF
 10
140.272
 20
224.257
 30
0.000000
  70
    32
  0
VERTEX
  8
1
  5
400
 10
140.275
 20
224.244
 30
0.000000
  70
    32
  0
VERTEX
  8
1
  5
401
 10
140.278
 20
224.232
 30
0.000000
  70
    32
  0
VERTEX
  8
1
  5
402
 10
140.282
 20
224.219
 30
0.000000
  70
    32
  0
VERTEX
  8
1
  5
403
 10
140.286
 20
224.207
 30
0.000000
  70
    32
  0
VERTEX
  8
1
  5
404
 10
140.290
 20
224.194
 30
0.000000
  70
    32
  0
VERTEX
  8
1
  5
405
 10
140.295
 20
224.181
 30
0.000000
  70
    32
  0
VERTEX
  8
1
  5
406
 10
140.300
 20
224.169
 30
0.000000
  70
    32
  0
VERTEX
  8
1
  5
407
 10
140.306
 20
224.156
 30
0.000000
  70
    32
  0
VERTEX
  8
1
  5
408
 10
140.312
 20
224.144
 30
0.000000
  70
    32
  0
VERTEX
  8
1
  5
409
 10
140.318
 20
224.131
 30
0.000000
  70
    32
  0
VERTEX
  8
1
  5
40A
 10
140.325
 20
224.118
 30
0.000000
  70
    32
  0
VERTEX
  8
1
  5
40B
 10
140.332
 20
224.106
 30
0.000000
  70
    32
  0
VERTEX
  8
1
  5
40C
 10
140.339
 20
224.093
 30
0.000000
  70
    32
  0
VERTEX
  8
1
  5
40D
 10
140.347
 20
224.080
 30
0.000000
  70
    32
  0
VERTEX
  8
1
  5
40E
 10
140.355
 20
224.068
 30
0.000000
  70
    32
  0
VERTEX
  8
1
  5
40F
 10
140.364
 20
224.055
 30
0.000000
  70
    32
  0
VERTEX
  8
1
  5
410
 10
140.373
 20
224.042
 30
0.000000
  70
    32
  0
VERTEX
  8
1
  5
411
 10
140.382
 20
224.030
 30
0.000000
  70
    32
  0
VERTEX
  8
1
  5
412
 10
140.392
 20
224.017
 30
0.000000
  70
    32
  0
VERTEX
  8
1
  5
413
 10
140.402
 20
224.005
 30
0.000000
  70
    32
  0
VERTEX
  8
1
  5
414
 10
140.412
 20
223.992
 30
0.000000
  70
    32
  0
VERTEX
  8
1
  5
415
 10
140.422
 20
223.980
 30
0.000000
  70
    32
  0
VERTEX
  8
1
  5
416
 10
140.433
 20
223.967
 30
0.000000
  70
    32
  0
VERTEX
  8
1
  5
417
 10
140.445
 20
223.955
 30
0.000000
  70
    32
  0
VERTEX
  8
1
  5
418
 10
140.456
 20
223.942
 30
0.000000
  70
    32
  0
VERTEX
  8
1
  5
419
 10
140.468
 20
223.930
 30
0.000000
  70
    32
  0
VERTEX
  8
1
  5
41A
 10
140.480
 20
223.917
 30
0.000000
  70
    32
  0
VERTEX
  8
1
  5
41B
 10
140.493
 20
223.905
 30
0.000000
  70
    32
  0
VERTEX
  8
1
  5
41C
 10
140.506
 20
223.893
 30
0.000000
  70
    32
  0
VERTEX
  8
1
  5
41D
 10
140.519
 20
223.881
 30
0.000000
  70
    32
  0
VERTEX
  8
1
  5
41E
 10
140.533
 20
223.868
 30
0.000000
  70
    32
  0
VERTEX
  8
1
  5
41F
 10
140.546
 20
223.856
 30
0.000000
  70
    32
  0
VERTEX
  8
1
  5
420
 10
140.560
 20
223.844
 30
0.000000
  70
    32
  0
VERTEX
  8
1
  5
421
 10
140.575
 20
223.832
 30
0.000000
  70
    32
  0
VERTEX
  8
1
  5
422
 10
140.590
 20
223.820
 30
0.000000
  70
    32
  0
VERTEX
  8
1
  5
423
 10
140.605
 20
223.808
 30
0.000000
  70
    32
  0
VERTEX
  8
1
  5
424
 10
140.620
 20
223.796
 30
0.000000
  70
    32
  0
VERTEX
  8
1
  5
425
 10
140.636
 20
223.784
 30
0.000000
  70
    32
  0
VERTEX
  8
1
  5
426
 10
140.651
 20
223.772
 30
0.000000
  70
    32
  0
VERTEX
  8
1
  5
427
 10
140.668
 20
223.760
 30
0.000000
  70
    32
  0
VERTEX
  8
1
  5
428
 10
140.684
 20
223.749
 30
0.000000
  70
    32
  0
VERTEX
  8
1
  5
429
 10
140.701
 20
223.737
 30
0.000000
  70
    32
  0
VERTEX
  8
1
  5
42A
 10
140.718
 20
223.725
 30
0.000000
  70
    32
  0
VERTEX
  8
1
  5
42B
 10
140.735
 20
223.714
 30
0.000000
  70
    32
  0
VERTEX
  8
1
  5
42C
 10
140.753
 20
223.703
 30
0.000000
  70
    32
  0
VERTEX
  8
1
  5
42D
 10
140.770
 20
223.691
 30
0.000000
  70
    32
  0
VERTEX
  8
1
  5
42E
 10
140.788
 20
223.680
 30
0.000000
  70
    32
  0
VERTEX
  8
1
  5
42F
 10
140.807
 20
223.669
 30
0.000000
  70
    32
  0
VERTEX
  8
1
  5
430
 10
140.825
 20
223.658
 30
0.000000
  70
    32
  0
VERTEX
  8
1
  5
431
 10
140.844
 20
223.646
 30
0.000000
  70
    32
  0
VERTEX
  8
1
  5
432
 10
140.863
 20
223.635
 30
0.000000
  70
    32
  0
VERTEX
  8
1
  5
433
 10
140.883
 20
223.625
 30
0.000000
  70
    32
  0
VERTEX
  8
1
  5
434
 10
140.902
 20
223.614
 30
0.000000
  70
    32
  0
VERTEX
  8
1
  5
435
 10
140.922
 20
223.603
 30
0.000000
  70
    32
  0
VERTEX
  8
1
  5
436
 10
140.942
 20
223.592
 30
0.000000
  70
    32
  0
VERTEX
  8
1
  5
437
 10
140.962
 20
223.582
 30
0.000000
  70
    32
  0
VERTEX
  8
1
  5
438
 10
140.983
 20
223.571
 30
0.000000
  70
    32
  0
VERTEX
  8
1
  5
439
 10
141.004
 20
223.561
 30
0.000000
  70
    32
  0
VERTEX
  8
1
  5
43A
 10
141.025
 20
223.551
 30
0.000000
  70
    32
  0
VERTEX
  8
1
  5
43B
 10
141.046
 20
223.541
 30
0.000000
  70
    32
  0
VERTEX
  8
1
  5
43C
 10
141.067
 20
223.531
 30
0.000000
  70
    32
  0
VERTEX
  8
1
  5
43D
 10
141.089
 20
223.521
 30
0.000000
  70
    32
  0
VERTEX
  8
1
  5
43E
 10
141.111
 20
223.511
 30
0.000000
  70
    32
  0
VERTEX
  8
1
  5
43F
 10
141.133
 20
223.501
 30
0.000000
  70
    32
  0
VERTEX
  8
1
  5
440
 10
141.155
 20
223.492
 30
0.000000
  70
    32
  0
VERTEX
  8
1
  5
441
 10
141.177
 20
223.482
 30
0.000000
  70
    32
  0
VERTEX
  8
1
  5
442
 10
141.200
 20
223.473
 30
0.000000
  70
    32
  0
VERTEX
  8
1
  5
443
 10
141.223
 20
223.464
 30
0.000000
  70
    32
  0
VERTEX
  8
1
  5
444
 10
141.246
 20
223.455
 30
0.000000
  70
    32
  0
VERTEX
  8
1
  5
445
 10
141.269
 20
223.446
 30
0.000000
  70
    32
  0
VERTEX
  8
1
  5
446
 10
141.293
 20
223.437
 30
0.000000
  70
    32
  0
VERTEX
  8
1
  5
447
 10
141.316
 20
223.428
 30
0.000000
  70
    32
  0
VERTEX
  8
1
  5
448
 10
141.340
 20
223.419
 30
0.000000
  70
    32
  0
VERTEX
  8
1
  5
449
 10
141.364
 20
223.411
 30
0.000000
  70
    32
  0
VERTEX
  8
1
  5
44A
 10
141.389
 20
223.402
 30
0.000000
  70
    32
  0
VERTEX
  8
1
  5
44B
 10
141.413
 20
223.394
 30
0.000000
  70
    32
  0
VERTEX
  8
1
  5
44C
 10
141.437
 20
223.386
 30
0.000000
  70
    32
  0
VERTEX
  8
1
  5
44D
 10
141.462
 20
223.378
 30
0.000000
  70
    32
  0
VERTEX
  8
1
  5
44E
 10
141.487
 20
223.370
 30
0.000000
  70
    32
  0
VERTEX
  8
1
  5
44F
 10
141.512
 20
223.363
 30
0.000000
  70
    32
  0
VERTEX
  8
1
  5
450
 10
141.537
 20
223.355
 30
0.000000
  70
    32
  0
VERTEX
  8
1
  5
451
 10
141.563
 20
223.348
 30
0.000000
  70
    32
  0
VERTEX
  8
1
  5
452
 10
141.588
 20
223.341
 30
0.000000
  70
    32
  0
VERTEX
  8
1
  5
453
 10
141.614
 20
223.334
 30
0.000000
  70
    32
  0
VERTEX
  8
1
  5
454
 10
141.640
 20
223.327
 30
0.000000
  70
    32
  0
VERTEX
  8
1
  5
455
 10
141.666
 20
223.320
 30
0.000000
  70
    32
  0
VERTEX
  8
1
  5
456
 10
141.692
 20
223.313
 30
0.000000
  70
    32
  0
VERTEX
  8
1
  5
457
 10
141.718
 20
223.307
 30
0.000000
  70
    32
  0
VERTEX
  8
1
  5
458
 10
141.744
 20
223.301
 30
0.000000
  70
    32
  0
VERTEX
  8
1
  5
459
 10
141.771
 20
223.295
 30
0.000000
  70
    32
  0
VERTEX
  8
1
  5
45A
 10
141.797
 20
223.289
 30
0.000000
  70
    32
  0
VERTEX
  8
1
  5
45B
 10
141.824
 20
223.283
 30
0.000000
  70
    32
  0
VERTEX
  8
1
  5
45C
 10
141.830
 20
223.282
 30
0.000000
  70
    32
  0
VERTEX
  8
1
  5
45D
 10
141.830
 20
223.282
 30
0.000000
  70
    32
  0
VERTEX
  8
1
  5
45E
 10
141.830
 20
223.282
 30
0.000000
  70
    32
  0
VERTEX
  8
1
  5
45F
 10
141.830
 20
223.282
 30
0.000000
  70
    32
  0
VERTEX
  8
1
  5
460
 10
141.830
 20
223.282
 30
0.000000
  70
    32
  0
VERTEX
  8
1
  5
461
 10
141.830
 20
223.282
 30
0.000000
  70
    32
  0
VERTEX
  8
1
  5
462
 10
141.830
 20
223.282
 30
0.000000
  70
    32
  0
VERTEX
  8
1
  5
463
 10
141.830
 20
223.282
 30
0.000000
  70
    32
  0
VERTEX
  8
1
  5
464
 10
141.830
 20
223.282
 30
0.000000
  70
    32
  0
VERTEX
  8
1
  5
465
 10
141.830
 20
223.282
 30
0.000000
  70
    32
  0
VERTEX
  8
1
  5
466
 10
141.830
 20
223.282
 30
0.000000
  70
    32
  0
VERTEX
  8
1
  5
467
 10
141.830
 20
223.282
 30
0.000000
  70
    32
  0
VERTEX
  8
1
  5
468
 10
141.830
 20
223.282
 30
0.000000
  70
    32
  0
VERTEX
  8
1
  5
469
 10
141.830
 20
223.282
 30
0.000000
  70
    32
  0
VERTEX
  8
1
  5
46A
 10
141.830
 20
223.282
 30
0.000000
  70
    32
  0
VERTEX
  8
1
  5
46B
 10
141.830
 20
223.282
 30
0.000000
  70
    32
  0
VERTEX
  8
1
  5
46C
 10
141.830
 20
223.282
 30
0.000000
  70
    32
  0
VERTEX
  8
1
  5
46D
 10
141.830
 20
223.282
 30
0.000000
  70
    32
  0
VERTEX
  8
1
  5
46E
 10
141.830
 20
223.282
 30
0.000000
  70
    32
  0
VERTEX
  8
1
  5
46F
 10
141.830
 20
223.282
 30
0.000000
  70
    32
  0
VERTEX
  8
1
  5
470
 10
141.830
 20
223.282
 30
0.000000
  70
    32
  0
VERTEX
  8
1
  5
471
 10
141.830
 20
223.282
 30
0.000000
  70
    32
  0
VERTEX
  8
1
  5
472
 10
141.830
 20
223.282
 30
0.000000
  70
    32
  0
VERTEX
  8
1
  5
473
 10
141.830
 20
223.282
 30
0.000000
  70
    32
  0
VERTEX
  8
1
  5
474
 10
141.830
 20
223.282
 30
0.000000
  70
    32
  0
VERTEX
  8
1
  5
475
 10
141.830
 20
223.282
 30
0.000000
  70
    32
  0
VERTEX
  8
1
  5
476
 10
141.830
 20
223.282
 30
0.000000
  70
    32
  0
VERTEX
  8
1
  5
477
 10
141.830
 20
223.282
 30
0.000000
  70
    32
  0
VERTEX
  8
1
  5
478
 10
141.830
 20
223.282
 30
0.000000
  70
    32
  0
VERTEX
  8
1
  5
479
 10
141.830
 20
223.282
 30
0.000000
  70
    32
  0
VERTEX
  8
1
  5
47A
 10
141.830
 20
223.282
 30
0.000000
  70
    32
  0
VERTEX
  8
1
  5
47B
 10
141.830
 20
223.282
 30
0.000000
  70
    32
  0
VERTEX
  8
1
  5
47C
 10
141.830
 20
223.282
 30
0.000000
  70
    32
  0
VERTEX
  8
1
  5
47D
 10
141.830
 20
223.282
 30
0.000000
  70
    32
  0
VERTEX
  8
1
  5
47E
 10
141.830
 20
223.282
 30
0.000000
  70
    32
  0
VERTEX
  8
1
  5
47F
 10
141.830
 20
223.282
 30
0.000000
  70
    32
  0
VERTEX
  8
1
  5
480
 10
141.830
 20
223.282
 30
0.000000
  70
    32
  0
VERTEX
  8
1
  5
481
 10
141.830
 20
223.282
 30
0.000000
  70
    32
  0
VERTEX
  8
1
  5
482
 10
141.830
 20
223.282
 30
0.000000
  70
    32
  0
VERTEX
  8
1
  5
483
 10
141.830
 20
223.282
 30
0.000000
  70
    32
  0
VERTEX
  8
1
  5
484
 10
141.830
 20
223.282
 30
0.000000
  70
    32
  0
VERTEX
  8
1
  5
485
 10
141.830
 20
223.282
 30
0.000000
  70
    32
  0
VERTEX
  8
1
  5
486
 10
141.830
 20
223.282
 30
0.000000
  70
    32
  0
VERTEX
  8
1
  5
487
 10
141.830
 20
223.282
 30
0.000000
  70
    32
  0
VERTEX
  8
1
  5
488
 10
141.830
 20
223.282
 30
0.000000
  70
    32
  0
VERTEX
  8
1
  5
489
 10
141.830
 20
223.282
 30
0.000000
  70
    32
  0
VERTEX
  8
1
  5
48A
 10
141.830
 20
223.282
 30
0.000000
  70
    32
  0
VERTEX
  8
1
  5
48B
 10
141.830
 20
223.282
 30
0.000000
  70
    32
  0
VERTEX
  8
1
  5
48C
 10
141.830
 20
223.282
 30
0.000000
  70
    32
  0
VERTEX
  8
1
  5
48D
 10
141.830
 20
223.282
 30
0.000000
  70
    32
  0
VERTEX
  8
1
  5
48E
 10
141.830
 20
223.282
 30
0.000000
  70
    32
  0
VERTEX
  8
1
  5
48F
 10
141.830
 20
223.282
 30
0.000000
  70
    32
  0
VERTEX
  8
1
  5
490
 10
141.830
 20
223.282
 30
0.000000
  70
    32
  0
VERTEX
  8
1
  5
491
 10
141.830
 20
223.282
 30
0.000000
  70
    32
  0
VERTEX
  8
1
  5
492
 10
141.830
 20
223.282
 30
0.000000
  70
    32
  0
VERTEX
  8
1
  5
493
 10
141.830
 20
223.282
 30
0.000000
  70
    32
  0
VERTEX
  8
1
  5
494
 10
141.830
 20
223.282
 30
0.000000
  70
    32
  0
VERTEX
  8
1
  5
495
 10
141.830
 20
223.282
 30
0.000000
  70
    32
  0
VERTEX
  8
1
  5
496
 10
141.830
 20
223.282
 30
0.000000
  70
    32
  0
VERTEX
  8
1
  5
497
 10
141.830
 20
223.282
 30
0.000000
  70
    32
  0
VERTEX
  8
1
  5
498
 10
141.830
 20
223.282
 30
0.000000
  70
    32
  0
VERTEX
  8
1
  5
499
 10
141.830
 20
223.282
 30
0.000000
  70
    32
  0
VERTEX
  8
1
  5
49A
 10
141.830
 20
223.282
 30
0.000000
  70
    32
  0
VERTEX
  8
1
  5
49B
 10
141.830
 20
223.282
 30
0.000000
  70
    32
  0
VERTEX
  8
1
  5
49C
 10
141.830
 20
223.282
 30
0.000000
  70
    32
  0
VERTEX
  8
1
  5
49D
 10
141.830
 20
223.282
 30
0.000000
  70
    32
  0
VERTEX
  8
1
  5
49E
 10
141.830
 20
223.282
 30
0.000000
  70
    32
  0
VERTEX
  8
1
  5
49F
 10
141.830
 20
223.282
 30
0.000000
  70
    32
  0
VERTEX
  8
1
  5
4A0
 10
141.830
 20
223.282
 30
0.000000
  70
    32
  0
VERTEX
  8
1
  5
4A1
 10
141.830
 20
223.282
 30
0.000000
  70
    32
  0
VERTEX
  8
1
  5
4A2
 10
141.830
 20
223.282
 30
0.000000
  70
    32
  0
VERTEX
  8
1
  5
4A3
 10
141.830
 20
223.282
 30
0.000000
  70
    32
  0
VERTEX
  8
1
  5
4A4
 10
141.830
 20
223.282
 30
0.000000
  70
    32
  0
VERTEX
  8
1
  5
4A5
 10
141.830
 20
223.282
 30
0.000000
  70
    32
  0
VERTEX
  8
1
  5
4A6
 10
141.830
 20
223.282
 30
0.000000
  70
    32
  0
VERTEX
  8
1
  5
4A7
 10
141.830
 20
223.282
 30
0.000000
  70
    32
  0
VERTEX
  8
1
  5
4A8
 10
141.830
 20
223.282
 30
0.000000
  70
    32
  0
VERTEX
  8
1
  5
4A9
 10
141.830
 20
223.282
 30
0.000000
  70
    32
  0
VERTEX
  8
1
  5
4AA
 10
141.830
 20
223.282
 30
0.000000
  70
    32
  0
VERTEX
  8
1
  5
4AB
 10
141.830
 20
223.282
 30
0.000000
  70
    32
  0
VERTEX
  8
1
  5
4AC
 10
141.830
 20
223.282
 30
0.000000
  70
    32
  0
VERTEX
  8
1
  5
4AD
 10
141.830
 20
223.282
 30
0.000000
  70
    32
  0
VERTEX
  8
1
  5
4AE
 10
141.830
 20
223.282
 30
0.000000
  70
    32
  0
VERTEX
  8
1
  5
4AF
 10
141.830
 20
223.282
 30
0.000000
  70
    32
  0
VERTEX
  8
1
  5
4B0
 10
141.830
 20
223.282
 30
0.000000
  70
    32
  0
VERTEX
  8
1
  5
4B1
 10
141.830
 20
223.282
 30
0.000000
  70
    32
  0
VERTEX
  8
1
  5
4B2
 10
141.830
 20
223.282
 30
0.000000
  70
    32
  0
VERTEX
  8
1
  5
4B3
 10
141.830
 20
223.282
 30
0.000000
  70
    32
  0
VERTEX
  8
1
  5
4B4
 10
141.830
 20
223.282
 30
0.000000
  70
    32
  0
VERTEX
  8
1
  5
4B5
 10
141.830
 20
223.282
 30
0.000000
  70
    32
  0
VERTEX
  8
1
  5
4B6
 10
141.830
 20
223.282
 30
0.000000
  70
    32
  0
VERTEX
  8
1
  5
4B7
 10
141.830
 20
223.282
 30
0.000000
  70
    32
  0
VERTEX
  8
1
  5
4B8
 10
141.830
 20
223.282
 30
0.000000
  70
    32
  0
VERTEX
  8
1
  5
4B9
 10
141.830
 20
223.282
 30
0.000000
  70
    32
  0
VERTEX
  8
1
  5
4BA
 10
141.830
 20
223.282
 30
0.000000
  70
    32
  0
VERTEX
  8
1
  5
4BB
 10
141.830
 20
223.282
 30
0.000000
  70
    32
  0
VERTEX
  8
1
  5
4BC
 10
141.830
 20
223.282
 30
0.000000
  70
    32
  0
VERTEX
  8
1
  5
4BD
 10
141.830
 20
223.282
 30
0.000000
  70
    32
  0
VERTEX
  8
1
  5
4BE
 10
141.830
 20
223.282
 30
0.000000
  70
    32
  0
VERTEX
  8
1
  5
4BF
 10
141.830
 20
223.282
 30
0.000000
  70
    32
  0
VERTEX
  8
1
  5
4C0
 10
141.830
 20
223.282
 30
0.000000
  70
    32
  0
VERTEX
  8
1
  5
4C1
 10
141.830
 20
223.282
 30
0.000000
  70
    32
  0
VERTEX
  8
1
  5
4C2
 10
141.846
 20
223.279
 30
0.000000
  70
    32
  0
VERTEX
  8
1
  5
4C3
 10
141.872
 20
223.273
 30
0.000000
  70
    32
  0
VERTEX
  8
1
  5
4C4
 10
141.899
 20
223.268
 30
0.000000
  70
    32
  0
VERTEX
  8
1
  5
4C5
 10
141.926
 20
223.263
 30
0.000000
  70
    32
  0
VERTEX
  8
1
  5
4C6
 10
141.952
 20
223.258
 30
0.000000
  70
    32
  0
VERTEX
  8
1
  5
4C7
 10
141.978
 20
223.254
 30
0.000000
  70
    32
  0
VERTEX
  8
1
  5
4C8
 10
142.005
 20
223.249
 30
0.000000
  70
    32
  0
VERTEX
  8
1
  5
4C9
 10
142.031
 20
223.245
 30
0.000000
  70
    32
  0
VERTEX
  8
1
  5
4CA
 10
142.057
 20
223.241
 30
0.000000
  70
    32
  0
VERTEX
  8
1
  5
4CB
 10
142.083
 20
223.238
 30
0.000000
  70
    32
  0
VERTEX
  8
1
  5
4CC
 10
142.109
 20
223.234
 30
0.000000
  70
    32
  0
VERTEX
  8
1
  5
4CD
 10
142.135
 20
223.231
 30
0.000000
  70
    32
  0
VERTEX
  8
1
  5
4CE
 10
142.160
 20
223.228
 30
0.000000
  70
    32
  0
VERTEX
  8
1
  5
4CF
 10
142.186
 20
223.225
 30
0.000000
  70
    32
  0
VERTEX
  8
1
  5
4D0
 10
142.211
 20
223.222
 30
0.000000
  70
    32
  0
VERTEX
  8
1
  5
4D1
 10
142.236
 20
223.219
 30
0.000000
  70
    32
  0
VERTEX
  8
1
  5
4D2
 10
142.262
 20
223.217
 30
0.000000
  70
    32
  0
VERTEX
  8
1
  5
4D3
 10
142.287
 20
223.215
 30
0.000000
  70
    32
  0
VERTEX
  8
1
  5
4D4
 10
142.312
 20
223.213
 30
0.000000
  70
    32
  0
VERTEX
  8
1
  5
4D5
 10
142.336
 20
223.212
 30
0.000000
  70
    32
  0
VERTEX
  8
1
  5
4D6
 10
142.361
 20
223.210
 30
0.000000
  70
    32
  0
VERTEX
  8
1
  5
4D7
 10
142.385
 20
223.209
 30
0.000000
  70
    32
  0
VERTEX
  8
1
  5
4D8
 10
142.410
 20
223.208
 30
0.000000
  70
    32
  0
VERTEX
  8
1
  5
4D9
 10
142.434
 20
223.207
 30
0.000000
  70
    32
  0
VERTEX
  8
1
  5
4DA
 10
142.458
 20
223.206
 30
0.000000
  70
    32
  0
VERTEX
  8
1
  5
4DB
 10
142.482
 20
223.206
 30
0.000000
  70
    32
  0
VERTEX
  8
1
  5
4DC
 10
142.506
 20
223.205
 30
0.000000
  70
    32
  0
VERTEX
  8
1
  5
4DD
 10
142.529
 20
223.205
 30
0.000000
  70
    32
  0
VERTEX
  8
1
  5
4DE
 10
142.552
 20
223.205
 30
0.000000
  70
    32
  0
VERTEX
  8
1
  5
4DF
 10
142.576
 20
223.205
 30
0.000000
  70
    32
  0
VERTEX
  8
1
  5
4E0
 10
142.599
 20
223.206
 30
0.000000
  70
    32
  0
VERTEX
  8
1
  5
4E1
 10
142.622
 20
223.206
 30
0.000000
  70
    32
  0
VERTEX
  8
1
  5
4E2
 10
142.644
 20
223.207
 30
0.000000
  70
    32
  0
VERTEX
  8
1
  5
4E3
 10
142.667
 20
223.208
 30
0.000000
  70
    32
  0
VERTEX
  8
1
  5
4E4
 10
142.689
 20
223.210
 30
0.000000
  70
    32
  0
VERTEX
  8
1
  5
4E5
 10
142.711
 20
223.211
 30
0.000000
  70
    32
  0
VERTEX
  8
1
  5
4E6
 10
142.733
 20
223.213
 30
0.000000
  70
    32
  0
VERTEX
  8
1
  5
4E7
 10
142.755
 20
223.214
 30
0.000000
  70
    32
  0
VERTEX
  8
1
  5
4E8
 10
142.776
 20
223.216
 30
0.000000
  70
    32
  0
VERTEX
  8
1
  5
4E9
 10
142.798
 20
223.218
 30
0.000000
  70
    32
  0
VERTEX
  8
1
  5
4EA
 10
142.819
 20
223.221
 30
0.000000
  70
    32
  0
VERTEX
  8
1
  5
4EB
 10
142.839
 20
223.223
 30
0.000000
  70
    32
  0
VERTEX
  8
1
  5
4EC
 10
142.860
 20
223.226
 30
0.000000
  70
    32
  0
VERTEX
  8
1
  5
4ED
 10
142.881
 20
223.229
 30
0.000000
  70
    32
  0
VERTEX
  8
1
  5
4EE
 10
142.901
 20
223.232
 30
0.000000
  70
    32
  0
VERTEX
  8
1
  5
4EF
 10
142.921
 20
223.235
 30
0.000000
  70
    32
  0
VERTEX
  8
1
  5
4F0
 10
142.941
 20
223.238
 30
0.000000
  70
    32
  0
VERTEX
  8
1
  5
4F1
 10
142.960
 20
223.242
 30
0.000000
  70
    32
  0
VERTEX
  8
1
  5
4F2
 10
142.979
 20
223.246
 30
0.000000
  70
    32
  0
VERTEX
  8
1
  5
4F3
 10
142.998
 20
223.250
 30
0.000000
  70
    32
  0
VERTEX
  8
1
  5
4F4
 10
143.017
 20
223.254
 30
0.000000
  70
    32
  0
VERTEX
  8
1
  5
4F5
 10
143.036
 20
223.258
 30
0.000000
  70
    32
  0
VERTEX
  8
1
  5
4F6
 10
143.054
 20
223.263
 30
0.000000
  70
    32
  0
VERTEX
  8
1
  5
4F7
 10
143.072
 20
223.267
 30
0.000000
  70
    32
  0
VERTEX
  8
1
  5
4F8
 10
143.090
 20
223.272
 30
0.000000
  70
    32
  0
VERTEX
  8
1
  5
4F9
 10
143.108
 20
223.277
 30
0.000000
  70
    32
  0
VERTEX
  8
1
  5
4FA
 10
143.125
 20
223.282
 30
0.000000
  70
    32
  0
VERTEX
  8
1
  5
4FB
 10
143.142
 20
223.287
 30
0.000000
  70
    32
  0
VERTEX
  8
1
  5
4FC
 10
143.159
 20
223.293
 30
0.000000
  70
    32
  0
VERTEX
  8
1
  5
4FD
 10
143.175
 20
223.299
 30
0.000000
  70
    32
  0
VERTEX
  8
1
  5
4FE
 10
143.191
 20
223.304
 30
0.000000
  70
    32
  0
VERTEX
  8
1
  5
4FF
 10
143.207
 20
223.310
 30
0.000000
  70
    32
  0
VERTEX
  8
1
  5
500
 10
143.223
 20
223.317
 30
0.000000
  70
    32
  0
VERTEX
  8
1
  5
501
 10
143.238
 20
223.323
 30
0.000000
  70
    32
  0
VERTEX
  8
1
  5
502
 10
143.253
 20
223.329
 30
0.000000
  70
    32
  0
VERTEX
  8
1
  5
503
 10
143.268
 20
223.336
 30
0.000000
  70
    32
  0
VERTEX
  8
1
  5
504
 10
143.283
 20
223.343
 30
0.000000
  70
    32
  0
VERTEX
  8
1
  5
505
 10
143.297
 20
223.350
 30
0.000000
  70
    32
  0
VERTEX
  8
1
  5
506
 10
143.311
 20
223.357
 30
0.000000
  70
    32
  0
VERTEX
  8
1
  5
507
 10
143.324
 20
223.364
 30
0.000000
  70
    32
  0
VERTEX
  8
1
  5
508
 10
143.338
 20
223.372
 30
0.000000
  70
    32
  0
VERTEX
  8
1
  5
509
 10
143.351
 20
223.379
 30
0.000000
  70
    32
  0
VERTEX
  8
1
  5
50A
 10
143.363
 20
223.387
 30
0.000000
  70
    32
  0
VERTEX
  8
1
  5
50B
 10
143.376
 20
223.395
 30
0.000000
  70
    32
  0
VERTEX
  8
1
  5
50C
 10
143.387
 20
223.403
 30
0.000000
  70
    32
  0
VERTEX
  8
1
  5
50D
 10
143.399
 20
223.411
 30
0.000000
  70
    32
  0
VERTEX
  8
1
  5
50E
 10
143.410
 20
223.420
 30
0.000000
  70
    32
  0
VERTEX
  8
1
  5
50F
 10
143.421
 20
223.428
 30
0.000000
  70
    32
  0
VERTEX
  8
1
  5
510
 10
143.432
 20
223.437
 30
0.000000
  70
    32
  0
VERTEX
  8
1
  5
511
 10
143.442
 20
223.446
 30
0.000000
  70
    32
  0
VERTEX
  8
1
  5
512
 10
143.452
 20
223.455
 30
0.000000
  70
    32
  0
VERTEX
  8
1
  5
513
 10
143.462
 20
223.464
 30
0.000000
  70
    32
  0
VERTEX
  8
1
  5
514
 10
143.471
 20
223.473
 30
0.000000
  70
    32
  0
VERTEX
  8
1
  5
515
 10
143.480
 20
223.483
 30
0.000000
  70
    32
  0
VERTEX
  8
1
  5
516
 10
143.489
 20
223.492
 30
0.000000
  70
    32
  0
VERTEX
  8
1
  5
517
 10
143.497
 20
223.502
 30
0.000000
  70
    32
  0
VERTEX
  8
1
  5
518
 10
143.505
 20
223.512
 30
0.000000
  70
    32
  0
VERTEX
  8
1
  5
519
 10
143.512
 20
223.522
 30
0.000000
  70
    32
  0
VERTEX
  8
1
  5
51A
 10
143.519
 20
223.532
 30
0.000000
  70
    32
  0
VERTEX
  8
1
  5
51B
 10
143.526
 20
223.543
 30
0.000000
  70
    32
  0
VERTEX
  8
1
  5
51C
 10
143.533
 20
223.553
 30
0.000000
  70
    32
  0
VERTEX
  8
1
  5
51D
 10
143.539
 20
223.564
 30
0.000000
  70
    32
  0
VERTEX
  8
1
  5
51E
 10
143.544
 20
223.574
 30
0.000000
  70
    32
  0
VERTEX
  8
1
  5
51F
 10
143.549
 20
223.585
 30
0.000000
  70
    32
  0
VERTEX
  8
1
  5
520
 10
143.554
 20
223.596
 30
0.000000
  70
    32
  0
VERTEX
  8
1
  5
521
 10
143.559
 20
223.608
 30
0.000000
  70
    32
  0
VERTEX
  8
1
  5
522
 10
143.563
 20
223.619
 30
0.000000
  70
    32
  0
VERTEX
  8
1
  5
523
 10
143.566
 20
223.630
 30
0.000000
  70
    32
  0
VERTEX
  8
1
  5
524
 10
143.569
 20
223.642
 30
0.000000
  70
    32
  0
VERTEX
  8
1
  5
525
 10
143.572
 20
223.654
 30
0.000000
  70
    32
  0
VERTEX
  8
1
  5
526
 10
143.575
 20
223.666
 30
0.000000
  70
    32
  0
VERTEX
  8
1
  5
527
 10
143.577
 20
223.678
 30
0.000000
  70
    32
  0
VERTEX
  8
1
  5
528
 10
143.578
 20
223.685
 30
0.000000
  70
    32
  0
VERTEX
  8
1
  5
529
 10
143.578
 20
223.685
 30
0.000000
  70
    32
  0
VERTEX
  8
1
  5
52A
 10
143.578
 20
223.685
 30
0.000000
  70
    32
  0
VERTEX
  8
1
  5
52B
 10
143.578
 20
223.685
 30
0.000000
  70
    32
  0
VERTEX
  8
1
  5
52C
 10
143.578
 20
223.685
 30
0.000000
  70
    32
  0
VERTEX
  8
1
  5
52D
 10
143.578
 20
223.685
 30
0.000000
  70
    32
  0
VERTEX
  8
1
  5
52E
 10
143.578
 20
223.685
 30
0.000000
  70
    32
  0
VERTEX
  8
1
  5
52F
 10
143.578
 20
223.685
 30
0.000000
  70
    32
  0
VERTEX
  8
1
  5
530
 10
143.578
 20
223.685
 30
0.000000
  70
    32
  0
VERTEX
  8
1
  5
531
 10
143.578
 20
223.685
 30
0.000000
  70
    32
  0
VERTEX
  8
1
  5
532
 10
143.578
 20
223.685
 30
0.000000
  70
    32
  0
VERTEX
  8
1
  5
533
 10
143.578
 20
223.685
 30
0.000000
  70
    32
  0
VERTEX
  8
1
  5
534
 10
143.578
 20
223.685
 30
0.000000
  70
    32
  0
VERTEX
  8
1
  5
535
 10
143.578
 20
223.685
 30
0.000000
  70
    32
  0
VERTEX
  8
1
  5
536
 10
143.578
 20
223.685
 30
0.000000
  70
    32
  0
VERTEX
  8
1
  5
537
 10
143.578
 20
223.685
 30
0.000000
  70
    32
  0
VERTEX
  8
1
  5
538
 10
143.578
 20
223.685
 30
0.000000
  70
    32
  0
VERTEX
  8
1
  5
539
 10
143.578
 20
223.685
 30
0.000000
  70
    32
  0
VERTEX
  8
1
  5
53A
 10
143.578
 20
223.685
 30
0.000000
  70
    32
  0
VERTEX
  8
1
  5
53B
 10
143.578
 20
223.685
 30
0.000000
  70
    32
  0
VERTEX
  8
1
  5
53C
 10
143.578
 20
223.685
 30
0.000000
  70
    32
  0
VERTEX
  8
1
  5
53D
 10
143.578
 20
223.685
 30
0.000000
  70
    32
  0
VERTEX
  8
1
  5
53E
 10
143.578
 20
223.685
 30
0.000000
  70
    32
  0
VERTEX
  8
1
  5
53F
 10
143.578
 20
223.685
 30
0.000000
  70
    32
  0
VERTEX
  8
1
  5
540
 10
143.578
 20
223.685
 30
0.000000
  70
    32
  0
VERTEX
  8
1
  5
541
 10
143.578
 20
223.685
 30
0.000000
  70
    32
  0
VERTEX
  8
1
  5
542
 10
143.578
 20
223.685
 30
0.000000
  70
    32
  0
VERTEX
  8
1
  5
543
 10
143.578
 20
223.685
 30
0.000000
  70
    32
  0
VERTEX
  8
1
  5
544
 10
143.578
 20
223.685
 30
0.000000
  70
    32
  0
VERTEX
  8
1
  5
545
 10
143.578
 20
223.685
 30
0.000000
  70
    32
  0
VERTEX
  8
1
  5
546
 10
143.578
 20
223.685
 30
0.000000
  70
    32
  0
VERTEX
  8
1
  5
547
 10
143.578
 20
223.685
 30
0.000000
  70
    32
  0
VERTEX
  8
1
  5
548
 10
143.578
 20
223.685
 30
0.000000
  70
    32
  0
VERTEX
  8
1
  5
549
 10
143.578
 20
223.685
 30
0.000000
  70
    32
  0
VERTEX
  8
1
  5
54A
 10
143.578
 20
223.685
 30
0.000000
  70
    32
  0
VERTEX
  8
1
  5
54B
 10
143.578
 20
223.685
 30
0.000000
  70
    32
  0
VERTEX
  8
1
  5
54C
 10
143.578
 20
223.685
 30
0.000000
  70
    32
  0
VERTEX
  8
1
  5
54D
 10
143.578
 20
223.685
 30
0.000000
  70
    32
  0
VERTEX
  8
1
  5
54E
 10
143.578
 20
223.685
 30
0.000000
  70
    32
  0
VERTEX
  8
1
  5
54F
 10
143.578
 20
223.685
 30
0.000000
  70
    32
  0
VERTEX
  8
1
  5
550
 10
143.578
 20
223.685
 30
0.000000
  70
    32
  0
VERTEX
  8
1
  5
551
 10
143.578
 20
223.685
 30
0.000000
  70
    32
  0
VERTEX
  8
1
  5
552
 10
143.578
 20
223.685
 30
0.000000
  70
    32
  0
VERTEX
  8
1
  5
553
 10
143.578
 20
223.685
 30
0.000000
  70
    32
  0
VERTEX
  8
1
  5
554
 10
143.578
 20
223.685
 30
0.000000
  70
    32
  0
VERTEX
  8
1
  5
555
 10
143.578
 20
223.685
 30
0.000000
  70
    32
  0
VERTEX
  8
1
  5
556
 10
143.578
 20
223.685
 30
0.000000
  70
    32
  0
VERTEX
  8
1
  5
557
 10
143.578
 20
223.685
 30
0.000000
  70
    32
  0
VERTEX
  8
1
  5
558
 10
143.578
 20
223.685
 30
0.000000
  70
    32
  0
VERTEX
  8
1
  5
559
 10
143.578
 20
223.685
 30
0.000000
  70
    32
  0
VERTEX
  8
1
  5
55A
 10
143.578
 20
223.685
 30
0.000000
  70
    32
  0
VERTEX
  8
1
  5
55B
 10
143.578
 20
223.685
 30
0.000000
  70
    32
  0
VERTEX
  8
1
  5
55C
 10
143.578
 20
223.685
 30
0.000000
  70
    32
  0
VERTEX
  8
1
  5
55D
 10
143.578
 20
223.685
 30
0.000000
  70
    32
  0
VERTEX
  8
1
  5
55E
 10
143.578
 20
223.685
 30
0.000000
  70
    32
  0
VERTEX
  8
1
  5
55F
 10
143.578
 20
223.685
 30
0.000000
  70
    32
  0
VERTEX
  8
1
  5
560
 10
143.578
 20
223.685
 30
0.000000
  70
    32
  0
VERTEX
  8
1
  5
561
 10
143.578
 20
223.685
 30
0.000000
  70
    32
  0
VERTEX
  8
1
  5
562
 10
143.578
 20
223.685
 30
0.000000
  70
    32
  0
VERTEX
  8
1
  5
563
 10
143.578
 20
223.685
 30
0.000000
  70
    32
  0
VERTEX
  8
1
  5
564
 10
143.578
 20
223.685
 30
0.000000
  70
    32
  0
VERTEX
  8
1
  5
565
 10
143.578
 20
223.685
 30
0.000000
  70
    32
  0
VERTEX
  8
1
  5
566
 10
143.578
 20
223.685
 30
0.000000
  70
    32
  0
VERTEX
  8
1
  5
567
 10
143.578
 20
223.685
 30
0.000000
  70
    32
  0
VERTEX
  8
1
  5
568
 10
143.578
 20
223.685
 30
0.000000
  70
    32
  0
VERTEX
  8
1
  5
569
 10
143.578
 20
223.685
 30
0.000000
  70
    32
  0
VERTEX
  8
1
  5
56A
 10
143.578
 20
223.685
 30
0.000000
  70
    32
  0
VERTEX
  8
1
  5
56B
 10
143.578
 20
223.685
 30
0.000000
  70
    32
  0
VERTEX
  8
1
  5
56C
 10
143.578
 20
223.685
 30
0.000000
  70
    32
  0
VERTEX
  8
1
  5
56D
 10
143.578
 20
223.685
 30
0.000000
  70
    32
  0
VERTEX
  8
1
  5
56E
 10
143.578
 20
223.685
 30
0.000000
  70
    32
  0
VERTEX
  8
1
  5
56F
 10
143.578
 20
223.685
 30
0.000000
  70
    32
  0
VERTEX
  8
1
  5
570
 10
143.578
 20
223.685
 30
0.000000
  70
    32
  0
VERTEX
  8
1
  5
571
 10
143.578
 20
223.685
 30
0.000000
  70
    32
  0
VERTEX
  8
1
  5
572
 10
143.578
 20
223.685
 30
0.000000
  70
    32
  0
VERTEX
  8
1
  5
573
 10
143.578
 20
223.685
 30
0.000000
  70
    32
  0
VERTEX
  8
1
  5
574
 10
143.578
 20
223.685
 30
0.000000
  70
    32
  0
VERTEX
  8
1
  5
575
 10
143.578
 20
223.685
 30
0.000000
  70
    32
  0
VERTEX
  8
1
  5
576
 10
143.578
 20
223.685
 30
0.000000
  70
    32
  0
VERTEX
  8
1
  5
577
 10
143.578
 20
223.685
 30
0.000000
  70
    32
  0
VERTEX
  8
1
  5
578
 10
143.578
 20
223.685
 30
0.000000
  70
    32
  0
VERTEX
  8
1
  5
579
 10
143.578
 20
223.685
 30
0.000000
  70
    32
  0
VERTEX
  8
1
  5
57A
 10
143.578
 20
223.685
 30
0.000000
  70
    32
  0
VERTEX
  8
1
  5
57B
 10
143.578
 20
223.685
 30
0.000000
  70
    32
  0
VERTEX
  8
1
  5
57C
 10
143.578
 20
223.685
 30
0.000000
  70
    32
  0
VERTEX
  8
1
  5
57D
 10
143.578
 20
223.685
 30
0.000000
  70
    32
  0
VERTEX
  8
1
  5
57E
 10
143.578
 20
223.685
 30
0.000000
  70
    32
  0
VERTEX
  8
1
  5
57F
 10
143.578
 20
223.685
 30
0.000000
  70
    32
  0
VERTEX
  8
1
  5
580
 10
143.578
 20
223.685
 30
0.000000
  70
    32
  0
VERTEX
  8
1
  5
581
 10
143.578
 20
223.685
 30
0.000000
  70
    32
  0
VERTEX
  8
1
  5
582
 10
143.578
 20
223.685
 30
0.000000
  70
    32
  0
VERTEX
  8
1
  5
583
 10
143.578
 20
223.685
 30
0.000000
  70
    32
  0
VERTEX
  8
1
  5
584
 10
143.578
 20
223.685
 30
0.000000
  70
    32
  0
VERTEX
  8
1
  5
585
 10
143.578
 20
223.685
 30
0.000000
  70
    32
  0
VERTEX
  8
1
  5
586
 10
143.578
 20
223.685
 30
0.000000
  70
    32
  0
VERTEX
  8
1
  5
587
 10
143.578
 20
223.685
 30
0.000000
  70
    32
  0
VERTEX
  8
1
  5
588
 10
143.578
 20
223.685
 30
0.000000
  70
    32
  0
VERTEX
  8
1
  5
589
 10
143.578
 20
223.685
 30
0.000000
  70
    32
  0
VERTEX
  8
1
  5
58A
 10
143.578
 20
223.685
 30
0.000000
  70
    32
  0
VERTEX
  8
1
  5
58B
 10
143.578
 20
223.685
 30
0.000000
  70
    32
  0
VERTEX
  8
1
  5
58C
 10
143.578
 20
223.685
 30
0.000000
  70
    32
  0
VERTEX
  8
1
  5
58D
 10
143.578
 20
223.685
 30
0.000000
  70
    32
  0
VERTEX
  8
1
  5
58E
 10
143.578
 20
223.685
 30
0.000000
  70
    32
  0
VERTEX
  8
1
  5
58F
 10
143.578
 20
223.686
 30
0.000000
  70
    32
  0
VERTEX
  8
1
  5
590
 10
143.578
 20
223.686
 30
0.000000
  70
    32
  0
VERTEX
  8
1
  5
591
 10
143.578
 20
223.687
 30
0.000000
  70
    32
  0
VERTEX
  8
1
  5
592
 10
143.578
 20
223.687
 30
0.000000
  70
    32
  0
VERTEX
  8
1
  5
593
 10
143.578
 20
223.688
 30
0.000000
  70
    32
  0
VERTEX
  8
1
  5
594
 10
143.578
 20
223.688
 30
0.000000
  70
    32
  0
VERTEX
  8
1
  5
595
 10
143.578
 20
223.689
 30
0.000000
  70
    32
  0
VERTEX
  8
1
  5
596
 10
143.578
 20
223.689
 30
0.000000
  70
    32
  0
VERTEX
  8
1
  5
597
 10
143.578
 20
223.690
 30
0.000000
  70
    32
  0
VERTEX
  8
1
  5
598
 10
143.578
 20
223.690
 30
0.000000
  70
    32
  0
VERTEX
  8
1
  5
599
 10
143.578
 20
223.691
 30
0.000000
  70
    32
  0
VERTEX
  8
1
  5
59A
 10
143.578
 20
223.691
 30
0.000000
  70
    32
  0
VERTEX
  8
1
  5
59B
 10
143.578
 20
223.692
 30
0.000000
  70
    32
  0
VERTEX
  8
1
  5
59C
 10
143.578
 20
223.692
 30
0.000000
  70
    32
  0
VERTEX
  8
1
  5
59D
 10
143.578
 20
223.693
 30
0.000000
  70
    32
  0
VERTEX
  8
1
  5
59E
 10
143.578
 20
223.693
 30
0.000000
  70
    32
  0
VERTEX
  8
1
  5
59F
 10
143.578
 20
223.694
 30
0.000000
  70
    32
  0
VERTEX
  8
1
  5
5A0
 10
143.578
 20
223.694
 30
0.000000
  70
    32
  0
VERTEX
  8
1
  5
5A1
 10
143.579
 20
223.695
 30
0.000000
  70
    32
  0
VERTEX
  8
1
  5
5A2
 10
143.579
 20
223.695
 30
0.000000
  70
    32
  0
VERTEX
  8
1
  5
5A3
 10
143.579
 20
223.696
 30
0.000000
  70
    32
  0
VERTEX
  8
1
  5
5A4
 10
143.579
 20
223.696
 30
0.000000
  70
    32
  0
VERTEX
  8
1
  5
5A5
 10
143.579
 20
223.697
 30
0.000000
  70
    32
  0
VERTEX
  8
1
  5
5A6
 10
143.579
 20
223.697
 30
0.000000
  70
    32
  0
VERTEX
  8
1
  5
5A7
 10
143.579
 20
223.698
 30
0.000000
  70
    32
  0
VERTEX
  8
1
  5
5A8
 10
143.579
 20
223.698
 30
0.000000
  70
    32
  0
VERTEX
  8
1
  5
5A9
 10
143.579
 20
223.699
 30
0.000000
  70
    32
  0
VERTEX
  8
1
  5
5AA
 10
143.579
 20
223.699
 30
0.000000
  70
    32
  0
VERTEX
  8
1
  5
5AB
 10
143.579
 20
223.700
 30
0.000000
  70
    32
  0
VERTEX
  8
1
  5
5AC
 10
143.579
 20
223.700
 30
0.000000
  70
    32
  0
VERTEX
  8
1
  5
5AD
 10
143.579
 20
223.701
 30
0.000000
  70
    32
  0
VERTEX
  8
1
  5
5AE
 10
143.579
 20
223.701
 30
0.000000
  70
    32
  0
VERTEX
  8
1
  5
5AF
 10
143.579
 20
223.702
 30
0.000000
  70
    32
  0
VERTEX
  8
1
  5
5B0
 10
143.579
 20
223.702
 30
0.000000
  70
    32
  0
VERTEX
  8
1
  5
5B1
 10
143.579
 20
223.702
 30
0.000000
  70
    32
  0
VERTEX
  8
1
  5
5B2
 10
143.579
 20
223.703
 30
0.000000
  70
    32
  0
VERTEX
  8
1
  5
5B3
 10
143.579
 20
223.703
 30
0.000000
  70
    32
  0
VERTEX
  8
1
  5
5B4
 10
143.579
 20
223.704
 30
0.000000
  70
    32
  0
VERTEX
  8
1
  5
5B5
 10
143.579
 20
223.704
 30
0.000000
  70
    32
  0
VERTEX
  8
1
  5
5B6
 10
143.579
 20
223.705
 30
0.000000
  70
    32
  0
VERTEX
  8
1
  5
5B7
 10
143.579
 20
223.705
 30
0.000000
  70
    32
  0
VERTEX
  8
1
  5
5B8
 10
143.579
 20
223.706
 30
0.000000
  70
    32
  0
VERTEX
  8
1
  5
5B9
 10
143.579
 20
223.706
 30
0.000000
  70
    32
  0
VERTEX
  8
1
  5
5BA
 10
143.579
 20
223.707
 30
0.000000
  70
    32
  0
VERTEX
  8
1
  5
5BB
 10
143.579
 20
223.707
 30
0.000000
  70
    32
  0
VERTEX
  8
1
  5
5BC
 10
143.579
 20
223.708
 30
0.000000
  70
    32
  0
VERTEX
  8
1
  5
5BD
 10
143.579
 20
223.708
 30
0.000000
  70
    32
  0
VERTEX
  8
1
  5
5BE
 10
143.579
 20
223.709
 30
0.000000
  70
    32
  0
VERTEX
  8
1
  5
5BF
 10
143.579
 20
223.709
 30
0.000000
  70
    32
  0
VERTEX
  8
1
  5
5C0
 10
143.579
 20
223.710
 30
0.000000
  70
    32
  0
VERTEX
  8
1
  5
5C1
 10
143.579
 20
223.710
 30
0.000000
  70
    32
  0
VERTEX
  8
1
  5
5C2
 10
143.579
 20
223.711
 30
0.000000
  70
    32
  0
VERTEX
  8
1
  5
5C3
 10
143.579
 20
223.711
 30
0.000000
  70
    32
  0
VERTEX
  8
1
  5
5C4
 10
143.579
 20
223.712
 30
0.000000
  70
    32
  0
VERTEX
  8
1
  5
5C5
 10
143.579
 20
223.712
 30
0.000000
  70
    32
  0
VERTEX
  8
1
  5
5C6
 10
143.579
 20
223.713
 30
0.000000
  70
    32
  0
VERTEX
  8
1
  5
5C7
 10
143.579
 20
223.713
 30
0.000000
  70
    32
  0
VERTEX
  8
1
  5
5C8
 10
143.579
 20
223.714
 30
0.000000
  70
    32
  0
VERTEX
  8
1
  5
5C9
 10
143.579
 20
223.714
 30
0.000000
  70
    32
  0
VERTEX
  8
1
  5
5CA
 10
143.579
 20
223.715
 30
0.000000
  70
    32
  0
VERTEX
  8
1
  5
5CB
 10
143.579
 20
223.715
 30
0.000000
  70
    32
  0
VERTEX
  8
1
  5
5CC
 10
143.579
 20
223.716
 30
0.000000
  70
    32
  0
VERTEX
  8
1
  5
5CD
 10
143.580
 20
223.716
 30
0.000000
  70
    32
  0
VERTEX
  8
1
  5
5CE
 10
143.580
 20
223.717
 30
0.000000
  70
    32
  0
VERTEX
  8
1
  5
5CF
 10
143.580
 20
223.717
 30
0.000000
  70
    32
  0
VERTEX
  8
1
  5
5D0
 10
143.580
 20
223.718
 30
0.000000
  70
    32
  0
VERTEX
  8
1
  5
5D1
 10
143.580
 20
223.718
 30
0.000000
  70
    32
  0
VERTEX
  8
1
  5
5D2
 10
143.580
 20
223.719
 30
0.000000
  70
    32
  0
VERTEX
  8
1
  5
5D3
 10
143.580
 20
223.719
 30
0.000000
  70
    32
  0
VERTEX
  8
1
  5
5D4
 10
143.580
 20
223.720
 30
0.000000
  70
    32
  0
VERTEX
  8
1
  5
5D5
 10
143.580
 20
223.720
 30
0.000000
  70
    32
  0
VERTEX
  8
1
  5
5D6
 10
143.580
 20
223.721
 30
0.000000
  70
    32
  0
VERTEX
  8
1
  5
5D7
 10
143.580
 20
223.721
 30
0.000000
  70
    32
  0
VERTEX
  8
1
  5
5D8
 10
143.580
 20
223.722
 30
0.000000
  70
    32
  0
VERTEX
  8
1
  5
5D9
 10
143.580
 20
223.722
 30
0.000000
  70
    32
  0
VERTEX
  8
1
  5
5DA
 10
143.580
 20
223.723
 30
0.000000
  70
    32
  0
VERTEX
  8
1
  5
5DB
 10
143.580
 20
223.723
 30
0.000000
  70
    32
  0
VERTEX
  8
1
  5
5DC
 10
143.580
 20
223.723
 30
0.000000
  70
    32
  0
VERTEX
  8
1
  5
5DD
 10
143.580
 20
223.724
 30
0.000000
  70
    32
  0
VERTEX
  8
1
  5
5DE
 10
143.580
 20
223.724
 30
0.000000
  70
    32
  0
VERTEX
  8
1
  5
5DF
 10
143.580
 20
223.725
 30
0.000000
  70
    32
  0
VERTEX
  8
1
  5
5E0
 10
143.580
 20
223.725
 30
0.000000
  70
    32
  0
VERTEX
  8
1
  5
5E1
 10
143.580
 20
223.726
 30
0.000000
  70
    32
  0
VERTEX
  8
1
  5
5E2
 10
143.580
 20
223.726
 30
0.000000
  70
    32
  0
VERTEX
  8
1
  5
5E3
 10
143.580
 20
223.727
 30
0.000000
  70
    32
  0
VERTEX
  8
1
  5
5E4
 10
143.580
 20
223.727
 30
0.000000
  70
    32
  0
VERTEX
  8
1
  5
5E5
 10
143.580
 20
223.728
 30
0.000000
  70
    32
  0
VERTEX
  8
1
  5
5E6
 10
143.580
 20
223.728
 30
0.000000
  70
    32
  0
VERTEX
  8
1
  5
5E7
 10
143.580
 20
223.729
 30
0.000000
  70
    32
  0
VERTEX
  8
1
  5
5E8
 10
143.580
 20
223.729
 30
0.000000
  70
    32
  0
VERTEX
  8
1
  5
5E9
 10
143.580
 20
223.730
 30
0.000000
  70
    32
  0
VERTEX
  8
1
  5
5EA
 10
143.580
 20
223.730
 30
0.000000
  70
    32
  0
VERTEX
  8
1
  5
5EB
 10
143.580
 20
223.731
 30
0.000000
  70
    32
  0
VERTEX
  8
1
  5
5EC
 10
143.580
 20
223.731
 30
0.000000
  70
    32
  0
VERTEX
  8
1
  5
5ED
 10
143.580
 20
223.732
 30
0.000000
  70
    32
  0
VERTEX
  8
1
  5
5EE
 10
143.580
 20
223.732
 30
0.000000
  70
    32
  0
VERTEX
  8
1
  5
5EF
 10
143.580
 20
223.733
 30
0.000000
  70
    32
  0
VERTEX
  8
1
  5
5F0
 10
143.580
 20
223.733
 30
0.000000
  70
    32
  0
VERTEX
  8
1
  5
5F1
 10
143.580
 20
223.734
 30
0.000000
  70
    32
  0
VERTEX
  8
1
  5
5F2
 10
143.580
 20
223.734
 30
0.000000
  70
    32
  0
VERTEX
  8
1
  5
5F3
 10
143.580
 20
223.735
 30
0.000000
  70
    32
  0
VERTEX
  8
1
  5
5F4
 10
143.580
 20
223.735
 30
0.000000
  70
    32
  0
SEQEND
  8
1
  5
5F5
  0
ENDBLK
  5
7E
  8
0
  0
BLOCK
  8
0
  2
BLOCK_11
 70
     0
 10
0.0
 20
0.0
 30
0.0
  3
BLOCK_11
  1

  0
POLYLINE
  5
84
  8
1
 62
     7
 66
     1
 10
0.0
 20
0.0
 30
0.0
  0
VERTEX
  5
85
  8
1
 62
     7
 10
140.26577717630701
 20
225.79101803725749
 30
0.0
  0
VERTEX
  5
86
  8
1
 62
     7
 10
140.26577717630701
 20
224.3661256045645
 30
0.0
  0
SEQEND
  5
87
  8
1
  0
ENDBLK
  5
83
  8
0
  0
BLOCK
  8
0
  2
BLOCK_12
 70
     0
 10
0.0
 20
0.0
 30
0.0
  3
BLOCK_12
  1

  0
POLYLINE
  5
8C
  8
1
 62
     7
 66
     1
 10
0.0
 20
0.0
 30
0.0
  0
VERTEX
  5
8D
  8
1
 62
     7
 10
143.5796167096903
 20
225.04704917642559
 30
0.0
  0
VERTEX
  5
8E
  8
1
 62
     7
 10
143.5796167096903
 20
223.73515595019381
 30
0.0
  0
SEQEND
  5
8F
  8
1
  0
ENDBLK
  5
8B
  8
0
  0
BLOCK
  8
0
  2
BLOCK_13
 70
     0
 10
0.0
 20
0.0
 30
0.0
  3
BLOCK_13
  1

  0
POLYLINE
  5
94
  8
1
 62
     7
 66
     1
 10
0.0
 20
0.0
 30
0.0
  0
VERTEX
  5
95
  8
1
 62
     7
 10
31.869738084464089
 20
193.01142963491569
 30
0.0
  0
VERTEX
  5
96
  8
1
 62
     7
 10
131.29302006569571
 20
226.82592540374921
 30
0.0
  0
SEQEND
  5
97
  8
1
  0
ENDBLK
  5
93
  8
0
  0
BLOCK
  8
0
  2
BLOCK_14
 70
     0
 10
0.0
 20
0.0
 30
0.0
  3
BLOCK_14
  1

  0
POLYLINE
  5
9C
  8
1
 62
     7
 66
     1
 10
0.0
 20
0.0
 30
0.0
  0
VERTEX
  5
9D
  8
1
 62
     7
 10
31.869738084464089
 20
194.62804175783921
 30
0.0
  0
VERTEX
  5
9E
  8
1
 62
     7
 10
131.29302006569571
 20
228.8294220048918
 30
0.0
  0
SEQEND
  5
9F
  8
1
  0
ENDBLK
  5
9B
  8
0
  0
BLOCK
  8
0
  2
BLOCK_15
 70
     0
 10
0.0
 20
0.0
 30
0.0
  3
BLOCK_15
  1

  0
POLYLINE
  5
A4
  8
1
 62
     7
 66
     1
 10
0.0
 20
0.0
 30
0.0
  0
VERTEX
  5
A5
  8
1
 62
     7
 10
-5.997226177059706
 20
186.6195675096815
 30
0.0
  0
VERTEX
  5
A6
  8
1
 62
     7
 10
132.57528545120911
 20
226.20580780731609
 30
0.0
  0
SEQEND
  5
A7
  8
1
  0
ENDBLK
  5
A3
  8
0
  0
BLOCK
  8
0
  2
BLOCK_16
 70
     0
 10
0.0
 20
0.0
 30
0.0
  3
BLOCK_16
  1

  0
POLYLINE
  5
AC
  8
1
 62
     7
 66
     1
 10
0.0
 20
0.0
 30
0.0
  0
VERTEX
  5
AD
  8
1
 62
     7
 10
-5.8232487402826418
 20
188.700923320154
 30
0.0
  0
VERTEX
  5
AE
  8
1
 62
     7
 10
132.57528545120911
 20
228.12507176827651
 30
0.0
  0
SEQEND
  5
AF
  8
1
  0
ENDBLK
  5
AB
  8
0
  0
BLOCK
  8
0
  2
BLOCK_17
 70
     0
 10
0.0
 20
0.0
 30
0.0
  3
BLOCK_17
  1

  0
POLYLINE
  5
B4
  8
1
 62
     7
 66
     1
 10
0.0
 20
0.0
 30
0.0
  0
VERTEX
  5
B5
  8
1
 62
     7
 10
-5.997226177059706
 20
186.6195675096815
 30
0.0
  0
VERTEX
  5
B6
  8
1
 62
     7
 10
-1.1415331421006041
 20
181.6252092899644
 30
0.0
  0
SEQEND
  5
B7
  8
1
  0
ENDBLK
  5
B3
  8
0
  0
BLOCK
  8
0
  2
BLOCK_18
 70
     0
 10
0.0
 20
0.0
 30
0.0
  3
BLOCK_18
  1

  0
POLYLINE
  5
BC
  8
1
 62
     7
 66
     1
 10
0.0
 20
0.0
 30
0.0
  0
VERTEX
  5
BD
  8
1
 62
     7
 10
-5.8232487402826418
 20
188.700923320154
 30
0.0
  0
VERTEX
  5
BE
  8
1
 62
     7
 10
-5.8232487402826418
 20
186.69742671901139
 30
0.0
  0
SEQEND
  5
BF
  8
1
  0
ENDBLK
  5
BB
  8
0
  0
ENDSEC
  0
SECTION
  2
ENTITIES
  0
INSERT
  5
3D
  8
0
  2
BLOCK_2
 10
0.0
 20
0.0
 30
0.0
  0
INSERT
  5
47
  8
1
  2
BLOCK_3
 10
0.0
 20
0.0
 30
0.0
  0
INSERT
  5
4F
  8
1
  2
BLOCK_4
 10
0.0
 20
0.0
 30
0.0
  0
INSERT
  5
57
  8
1
  2
BLOCK_5
 10
0.0
 20
0.0
 30
0.0
  0
INSERT
  5
5F
  8
1
  2
BLOCK_6
 10
0.0
 20
0.0
 30
0.0
  0
INSERT
  5
67
  8
1
  2
BLOCK_7
 10
0.0
 20
0.0
 30
0.0
  0
INSERT
  5
7C
  8
1
  2
BLOCK_10
 10
0.0
 20
0.0
 30
0.0
  0
INSERT
  5
81
  8
1
  2
BLOCK_11
 10
0.0
 20
0.0
 30
0.0
  0
INSERT
  5
89
  8
1
  2
BLOCK_12
 10
0.0
 20
0.0
 30
0.0
  0
INSERT
  5
A1
  8
1
  2
BLOCK_15
 10
0.0
 20
0.0
 30
0.0
  0
INSERT
  5
A9
  8
1
  2
BLOCK_16
 10
0.0
 20
0.0
 30
0.0
  0
INSERT
  5
B1
  8
1
  2
BLOCK_17
 10
0.0
 20
0.0
 30
0.0
  0
INSERT
  5
B9
  8
1
  2
BLOCK_18
 10
0.0
 20
0.0
 30
0.0
  0
POLYLINE
  5
C1
  8
実線
 62
     7
 66
     1
 10
0.0
 20
0.0
 30
0.0
  0
VERTEX
  5
C2
  8
実線
 62
     7
 10
5.0419005687769314
 20
174.8337158248066
 30
0.0
  0
VERTEX
  5
C3
  8
実線
 62
     7
 10
136.57332139932359
 20
211.30162588682219
 30
0.0
  0
SEQEND
  5
C4
  8
実線
  0
POLYLINE
  5
C5
  8
実線
 62
     7
 66
     1
 10
0.0
 20
0.0
 30
0.0
  0
VERTEX
  5
C6
  8
実線
 62
     7
 10
3.327275414639399
 20
178.60299728179251
 30
0.0
  0
VERTEX
  5
C7
  8
実線
 62
     7
 10
134.2613162939555
 20
215.86775845522459
 30
0.0
  0
SEQEND
  5
C8
  8
実線
  0
POLYLINE
  8
実線
  5
5F6
  62
7
  66
     1
 10
0.000000
 20
0.000000
 30
0.000000
  70
     8
  0
VERTEX
  8
実線
  5
5F7
 10
5.09392
 20
179.202
 30
0.000000
  70
    32
  0
VERTEX
  8
実線
  5
5F8
 10
5.06696
 20
179.194
 30
0.000000
  70
    32
  0
VERTEX
  8
実線
  5
5F9
 10
5.04028
 20
179.185
 30
0.000000
  70
    32
  0
VERTEX
  8
実線
  5
5FA
 10
5.01388
 20
179.176
 30
0.000000
  70
    32
  0
VERTEX
  8
実線
  5
5FB
 10
4.98776
 20
179.166
 30
0.000000
  70
    32
  0
VERTEX
  8
実線
  5
5FC
 10
4.96193
 20
179.156
 30
0.000000
  70
    32
  0
VERTEX
  8
実線
  5
5FD
 10
4.93638
 20
179.145
 30
0.000000
  70
    32
  0
VERTEX
  8
実線
  5
5FE
 10
4.91112
 20
179.135
 30
0.000000
  70
    32
  0
VERTEX
  8
実線
  5
5FF
 10
4.88615
 20
179.123
 30
0.000000
  70
    32
  0
VERTEX
  8
実線
  5
600
 10
4.86147
 20
179.111
 30
0.000000
  70
    32
  0
VERTEX
  8
実線
  5
601
 10
4.83708
 20
179.099
 30
0.000000
  70
    32
  0
VERTEX
  8
実線
  5
602
 10
4.81299
 20
179.087
 30
0.000000
  70
    32
  0
VERTEX
  8
実線
  5
603
 10
4.78919
 20
179.074
 30
0.000000
  70
    32
  0
VERTEX
  8
実線
  5
604
 10
4.76569
 20
179.061
 30
0.000000
  70
    32
  0
VERTEX
  8
実線
  5
605
 10
4.74249
 20
179.047
 30
0.000000
  70
    32
  0
VERTEX
  8
実線
  5
606
 10
4.71959
 20
179.033
 30
0.000000
  70
    32
  0
VERTEX
  8
実線
  5
607
 10
4.69699
 20
179.018
 30
0.000000
  70
    32
  0
VERTEX
  8
実線
  5
608
 10
4.67470
 20
179.003
 30
0.000000
  70
    32
  0
VERTEX
  8
実線
  5
609
 10
4.65271
 20
178.988
 30
0.000000
  70
    32
  0
VERTEX
  8
実線
  5
60A
 10
4.63103
 20
178.973
 30
0.000000
  70
    32
  0
VERTEX
  8
実線
  5
60B
 10
4.60966
 20
178.957
 30
0.000000
  70
    32
  0
VERTEX
  8
実線
  5
60C
 10
4.58860
 20
178.941
 30
0.000000
  70
    32
  0
VERTEX
  8
実線
  5
60D
 10
4.56785
 20
178.924
 30
0.000000
  70
    32
  0
VERTEX
  8
実線
  5
60E
 10
4.54742
 20
178.907
 30
0.000000
  70
    32
  0
VERTEX
  8
実線
  5
60F
 10
4.52730
 20
178.890
 30
0.000000
  70
    32
  0
VERTEX
  8
実線
  5
610
 10
4.50750
 20
178.872
 30
0.000000
  70
    32
  0
VERTEX
  8
実線
  5
611
 10
4.48802
 20
178.854
 30
0.000000
  70
    32
  0
VERTEX
  8
実線
  5
612
 10
4.46886
 20
178.836
 30
0.000000
  70
    32
  0
VERTEX
  8
実線
  5
613
 10
4.45002
 20
178.817
 30
0.000000
  70
    32
  0
VERTEX
  8
実線
  5
614
 10
4.43151
 20
178.798
 30
0.000000
  70
    32
  0
VERTEX
  8
実線
  5
615
 10
4.41332
 20
178.779
 30
0.000000
  70
    32
  0
VERTEX
  8
実線
  5
616
 10
4.39546
 20
178.760
 30
0.000000
  70
    32
  0
VERTEX
  8
実線
  5
617
 10
4.37794
 20
178.740
 30
0.000000
  70
    32
  0
VERTEX
  8
実線
  5
618
 10
4.36074
 20
178.720
 30
0.000000
  70
    32
  0
VERTEX
  8
実線
  5
619
 10
4.34387
 20
178.699
 30
0.000000
  70
    32
  0
VERTEX
  8
実線
  5
61A
 10
4.32734
 20
178.678
 30
0.000000
  70
    32
  0
VERTEX
  8
実線
  5
61B
 10
4.31115
 20
178.657
 30
0.000000
  70
    32
  0
VERTEX
  8
実線
  5
61C
 10
4.29529
 20
178.636
 30
0.000000
  70
    32
  0
VERTEX
  8
実線
  5
61D
 10
4.27977
 20
178.614
 30
0.000000
  70
    32
  0
VERTEX
  8
実線
  5
61E
 10
4.26460
 20
178.593
 30
0.000000
  70
    32
  0
VERTEX
  8
実線
  5
61F
 10
4.24976
 20
178.570
 30
0.000000
  70
    32
  0
VERTEX
  8
実線
  5
620
 10
4.23527
 20
178.548
 30
0.000000
  70
    32
  0
VERTEX
  8
実線
  5
621
 10
4.22113
 20
178.525
 30
0.000000
  70
    32
  0
VERTEX
  8
実線
  5
622
 10
4.20734
 20
178.502
 30
0.000000
  70
    32
  0
VERTEX
  8
実線
  5
623
 10
4.19389
 20
178.479
 30
0.000000
  70
    32
  0
VERTEX
  8
実線
  5
624
 10
4.18080
 20
178.456
 30
0.000000
  70
    32
  0
VERTEX
  8
実線
  5
625
 10
4.16805
 20
178.432
 30
0.000000
  70
    32
  0
VERTEX
  8
実線
  5
626
 10
4.15567
 20
178.408
 30
0.000000
  70
    32
  0
VERTEX
  8
実線
  5
627
 10
4.14364
 20
178.384
 30
0.000000
  70
    32
  0
VERTEX
  8
実線
  5
628
 10
4.13197
 20
178.360
 30
0.000000
  70
    32
  0
VERTEX
  8
実線
  5
629
 10
4.12065
 20
178.335
 30
0.000000
  70
    32
  0
VERTEX
  8
実線
  5
62A
 10
4.10970
 20
178.310
 30
0.000000
  70
    32
  0
VERTEX
  8
実線
  5
62B
 10
4.09911
 20
178.285
 30
0.000000
  70
    32
  0
VERTEX
  8
実線
  5
62C
 10
4.08889
 20
178.260
 30
0.000000
  70
    32
  0
VERTEX
  8
実線
  5
62D
 10
4.07903
 20
178.234
 30
0.000000
  70
    32
  0
VERTEX
  8
実線
  5
62E
 10
4.06954
 20
178.208
 30
0.000000
  70
    32
  0
VERTEX
  8
実線
  5
62F
 10
4.06042
 20
178.183
 30
0.000000
  70
    32
  0
VERTEX
  8
実線
  5
630
 10
4.05167
 20
178.156
 30
0.000000
  70
    32
  0
VERTEX
  8
実線
  5
631
 10
4.04330
 20
178.130
 30
0.000000
  70
    32
  0
VERTEX
  8
実線
  5
632
 10
4.03530
 20
178.104
 30
0.000000
  70
    32
  0
VERTEX
  8
実線
  5
633
 10
4.02768
 20
178.077
 30
0.000000
  70
    32
  0
VERTEX
  8
実線
  5
634
 10
4.02043
 20
178.050
 30
0.000000
  70
    32
  0
VERTEX
  8
実線
  5
635
 10
4.01356
 20
178.023
 30
0.000000
  70
    32
  0
VERTEX
  8
実線
  5
636
 10
4.00708
 20
177.996
 30
0.000000
  70
    32
  0
VERTEX
  8
実線
  5
637
 10
4.00098
 20
177.968
 30
0.000000
  70
    32
  0
VERTEX
  8
実線
  5
638
 10
3.99526
 20
177.941
 30
0.000000
  70
    32
  0
VERTEX
  8
実線
  5
639
 10
3.98993
 20
177.913
 30
0.000000
  70
    32
  0
VERTEX
  8
実線
  5
63A
 10
3.98499
 20
177.885
 30
0.000000
  70
    32
  0
VERTEX
  8
実線
  5
63B
 10
3.98044
 20
177.857
 30
0.000000
  70
    32
  0
VERTEX
  8
実線
  5
63C
 10
3.97628
 20
177.829
 30
0.000000
  70
    32
  0
VERTEX
  8
実線
  5
63D
 10
3.97251
 20
177.801
 30
0.000000
  70
    32
  0
VERTEX
  8
実線
  5
63E
 10
3.96914
 20
177.772
 30
0.000000
  70
    32
  0
VERTEX
  8
実線
  5
63F
 10
3.96616
 20
177.744
 30
0.000000
  70
    32
  0
VERTEX
  8
実線
  5
640
 10
3.96358
 20
177.715
 30
0.000000
  70
    32
  0
VERTEX
  8
実線
  5
641
 10
3.96141
 20
177.686
 30
0.000000
  70
    32
  0
VERTEX
  8
実線
  5
642
 10
3.95963
 20
177.657
 30
0.000000
  70
    32
  0
VERTEX
  8
実線
  5
643
 10
3.95826
 20
177.628
 30
0.000000
  70
    32
  0
VERTEX
  8
実線
  5
644
 10
3.95729
 20
177.599
 30
0.000000
  70
    32
  0
VERTEX
  8
実線
  5
645
 10
3.95673
 20
177.570
 30
0.000000
  70
    32
  0
VERTEX
  8
実線
  5
646
 10
3.95658
 20
177.540
 30
0.000000
  70
    32
  0
VERTEX
  8
実線
  5
647
 10
3.95684
 20
177.511
 30
0.000000
  70
    32
  0
VERTEX
  8
実線
  5
648
 10
3.95750
 20
177.481
 30
0.000000
  70
    32
  0
VERTEX
  8
実線
  5
649
 10
3.95859
 20
177.451
 30
0.000000
  70
    32
  0
VERTEX
  8
実線
  5
64A
 10
3.96008
 20
177.422
 30
0.000000
  70
    32
  0
VERTEX
  8
実線
  5
64B
 10
3.96200
 20
177.392
 30
0.000000
  70
    32
  0
VERTEX
  8
実線
  5
64C
 10
3.96433
 20
177.362
 30
0.000000
  70
    32
  0
VERTEX
  8
実線
  5
64D
 10
3.96709
 20
177.332
 30
0.000000
  70
    32
  0
VERTEX
  8
実線
  5
64E
 10
3.97026
 20
177.302
 30
0.000000
  70
    32
  0
VERTEX
  8
実線
  5
64F
 10
3.97386
 20
177.272
 30
0.000000
  70
    32
  0
VERTEX
  8
実線
  5
650
 10
3.97788
 20
177.241
 30
0.000000
  70
    32
  0
VERTEX
  8
実線
  5
651
 10
3.98233
 20
177.211
 30
0.000000
  70
    32
  0
VERTEX
  8
実線
  5
652
 10
3.98721
 20
177.181
 30
0.000000
  70
    32
  0
VERTEX
  8
実線
  5
653
 10
3.99252
 20
177.150
 30
0.000000
  70
    32
  0
VERTEX
  8
実線
  5
654
 10
3.99826
 20
177.120
 30
0.000000
  70
    32
  0
VERTEX
  8
実線
  5
655
 10
4.00443
 20
177.089
 30
0.000000
  70
    32
  0
VERTEX
  8
実線
  5
656
 10
4.01104
 20
177.059
 30
0.000000
  70
    32
  0
VERTEX
  8
実線
  5
657
 10
4.01809
 20
177.028
 30
0.000000
  70
    32
  0
VERTEX
  8
実線
  5
658
 10
4.02558
 20
176.998
 30
0.000000
  70
    32
  0
VERTEX
  8
実線
  5
659
 10
4.03350
 20
176.967
 30
0.000000
  70
    32
  0
VERTEX
  8
実線
  5
65A
 10
4.04187
 20
176.936
 30
0.000000
  70
    32
  0
VERTEX
  8
実線
  5
65B
 10
4.05068
 20
176.906
 30
0.000000
  70
    32
  0
VERTEX
  8
実線
  5
65C
 10
4.05994
 20
176.875
 30
0.000000
  70
    32
  0
VERTEX
  8
実線
  5
65D
 10
4.06964
 20
176.844
 30
0.000000
  70
    32
  0
VERTEX
  8
実線
  5
65E
 10
4.07979
 20
176.814
 30
0.000000
  70
    32
  0
VERTEX
  8
実線
  5
65F
 10
4.09039
 20
176.783
 30
0.000000
  70
    32
  0
VERTEX
  8
実線
  5
660
 10
4.10145
 20
176.752
 30
0.000000
  70
    32
  0
VERTEX
  8
実線
  5
661
 10
4.11295
 20
176.722
 30
0.000000
  70
    32
  0
VERTEX
  8
実線
  5
662
 10
4.12489
 20
176.691
 30
0.000000
  70
    32
  0
VERTEX
  8
実線
  5
663
 10
4.13719
 20
176.661
 30
0.000000
  70
    32
  0
VERTEX
  8
実線
  5
664
 10
4.14986
 20
176.631
 30
0.000000
  70
    32
  0
VERTEX
  8
実線
  5
665
 10
4.16288
 20
176.601
 30
0.000000
  70
    32
  0
VERTEX
  8
実線
  5
666
 10
4.17626
 20
176.571
 30
0.000000
  70
    32
  0
VERTEX
  8
実線
  5
667
 10
4.18999
 20
176.542
 30
0.000000
  70
    32
  0
VERTEX
  8
実線
  5
668
 10
4.20407
 20
176.513
 30
0.000000
  70
    32
  0
VERTEX
  8
実線
  5
669
 10
4.21849
 20
176.484
 30
0.000000
  70
    32
  0
VERTEX
  8
実線
  5
66A
 10
4.23325
 20
176.455
 30
0.000000
  70
    32
  0
VERTEX
  8
実線
  5
66B
 10
4.24834
 20
176.427
 30
0.000000
  70
    32
  0
VERTEX
  8
実線
  5
66C
 10
4.26376
 20
176.399
 30
0.000000
  70
    32
  0
VERTEX
  8
実線
  5
66D
 10
4.27950
 20
176.371
 30
0.000000
  70
    32
  0
VERTEX
  8
実線
  5
66E
 10
4.29557
 20
176.343
 30
0.000000
  70
    32
  0
VERTEX
  8
実線
  5
66F
 10
4.31195
 20
176.316
 30
0.000000
  70
    32
  0
VERTEX
  8
実線
  5
670
 10
4.32865
 20
176.289
 30
0.000000
  70
    32
  0
VERTEX
  8
実線
  5
671
 10
4.34565
 20
176.262
 30
0.000000
  70
    32
  0
VERTEX
  8
実線
  5
672
 10
4.36296
 20
176.236
 30
0.000000
  70
    32
  0
VERTEX
  8
実線
  5
673
 10
4.38056
 20
176.209
 30
0.000000
  70
    32
  0
VERTEX
  8
実線
  5
674
 10
4.39846
 20
176.183
 30
0.000000
  70
    32
  0
VERTEX
  8
実線
  5
675
 10
4.41665
 20
176.158
 30
0.000000
  70
    32
  0
VERTEX
  8
実線
  5
676
 10
4.43513
 20
176.132
 30
0.000000
  70
    32
  0
VERTEX
  8
実線
  5
677
 10
4.45389
 20
176.107
 30
0.000000
  70
    32
  0
VERTEX
  8
実線
  5
678
 10
4.47293
 20
176.082
 30
0.000000
  70
    32
  0
VERTEX
  8
実線
  5
679
 10
4.49224
 20
176.058
 30
0.000000
  70
    32
  0
VERTEX
  8
実線
  5
67A
 10
4.51182
 20
176.034
 30
0.000000
  70
    32
  0
VERTEX
  8
実線
  5
67B
 10
4.53167
 20
176.010
 30
0.000000
  70
    32
  0
VERTEX
  8
実線
  5
67C
 10
4.55178
 20
175.986
 30
0.000000
  70
    32
  0
VERTEX
  8
実線
  5
67D
 10
4.57214
 20
175.963
 30
0.000000
  70
    32
  0
VERTEX
  8
実線
  5
67E
 10
4.59276
 20
175.939
 30
0.000000
  70
    32
  0
VERTEX
  8
実線
  5
67F
 10
4.61362
 20
175.917
 30
0.000000
  70
    32
  0
VERTEX
  8
実線
  5
680
 10
4.63473
 20
175.894
 30
0.000000
  70
    32
  0
VERTEX
  8
実線
  5
681
 10
4.65607
 20
175.872
 30
0.000000
  70
    32
  0
VERTEX
  8
実線
  5
682
 10
4.67766
 20
175.850
 30
0.000000
  70
    32
  0
VERTEX
  8
実線
  5
683
 10
4.69947
 20
175.829
 30
0.000000
  70
    32
  0
VERTEX
  8
実線
  5
684
 10
4.72151
 20
175.808
 30
0.000000
  70
    32
  0
VERTEX
  8
実線
  5
685
 10
4.74377
 20
175.787
 30
0.000000
  70
    32
  0
VERTEX
  8
実線
  5
686
 10
4.76625
 20
175.766
 30
0.000000
  70
    32
  0
VERTEX
  8
実線
  5
687
 10
4.78894
 20
175.746
 30
0.000000
  70
    32
  0
VERTEX
  8
実線
  5
688
 10
4.81184
 20
175.726
 30
0.000000
  70
    32
  0
VERTEX
  8
実線
  5
689
 10
4.83495
 20
175.706
 30
0.000000
  70
    32
  0
VERTEX
  8
実線
  5
68A
 10
4.85826
 20
175.687
 30
0.000000
  70
    32
  0
VERTEX
  8
実線
  5
68B
 10
4.88176
 20
175.668
 30
0.000000
  70
    32
  0
VERTEX
  8
実線
  5
68C
 10
4.90546
 20
175.650
 30
0.000000
  70
    32
  0
VERTEX
  8
実線
  5
68D
 10
4.92934
 20
175.632
 30
0.000000
  70
    32
  0
VERTEX
  8
実線
  5
68E
 10
4.95341
 20
175.614
 30
0.000000
  70
    32
  0
VERTEX
  8
実線
  5
68F
 10
4.97766
 20
175.596
 30
0.000000
  70
    32
  0
VERTEX
  8
実線
  5
690
 10
5.00208
 20
175.579
 30
0.000000
  70
    32
  0
VERTEX
  8
実線
  5
691
 10
5.02668
 20
175.562
 30
0.000000
  70
    32
  0
VERTEX
  8
実線
  5
692
 10
5.05144
 20
175.546
 30
0.000000
  70
    32
  0
VERTEX
  8
実線
  5
693
 10
5.07636
 20
175.529
 30
0.000000
  70
    32
  0
VERTEX
  8
実線
  5
694
 10
5.10144
 20
175.514
 30
0.000000
  70
    32
  0
VERTEX
  8
実線
  5
695
 10
5.12667
 20
175.498
 30
0.000000
  70
    32
  0
VERTEX
  8
実線
  5
696
 10
5.15206
 20
175.483
 30
0.000000
  70
    32
  0
VERTEX
  8
実線
  5
697
 10
5.17759
 20
175.468
 30
0.000000
  70
    32
  0
VERTEX
  8
実線
  5
698
 10
5.20326
 20
175.454
 30
0.000000
  70
    32
  0
VERTEX
  8
実線
  5
699
 10
5.22906
 20
175.440
 30
0.000000
  70
    32
  0
VERTEX
  8
実線
  5
69A
 10
5.25500
 20
175.426
 30
0.000000
  70
    32
  0
VERTEX
  8
実線
  5
69B
 10
5.28107
 20
175.413
 30
0.000000
  70
    32
  0
VERTEX
  8
実線
  5
69C
 10
5.30726
 20
175.400
 30
0.000000
  70
    32
  0
VERTEX
  8
実線
  5
69D
 10
5.33357
 20
175.388
 30
0.000000
  70
    32
  0
VERTEX
  8
実線
  5
69E
 10
5.35999
 20
175.376
 30
0.000000
  70
    32
  0
VERTEX
  8
実線
  5
69F
 10
5.38653
 20
175.364
 30
0.000000
  70
    32
  0
VERTEX
  8
実線
  5
6A0
 10
5.41317
 20
175.353
 30
0.000000
  70
    32
  0
VERTEX
  8
実線
  5
6A1
 10
5.43991
 20
175.342
 30
0.000000
  70
    32
  0
VERTEX
  8
実線
  5
6A2
 10
5.46675
 20
175.331
 30
0.000000
  70
    32
  0
VERTEX
  8
実線
  5
6A3
 10
5.49369
 20
175.321
 30
0.000000
  70
    32
  0
VERTEX
  8
実線
  5
6A4
 10
5.52071
 20
175.311
 30
0.000000
  70
    32
  0
VERTEX
  8
実線
  5
6A5
 10
5.54782
 20
175.302
 30
0.000000
  70
    32
  0
VERTEX
  8
実線
  5
6A6
 10
5.57502
 20
175.293
 30
0.000000
  70
    32
  0
VERTEX
  8
実線
  5
6A7
 10
5.60228
 20
175.285
 30
0.000000
  70
    32
  0
VERTEX
  8
実線
  5
6A8
 10
5.62962
 20
175.276
 30
0.000000
  70
    32
  0
VERTEX
  8
実線
  5
6A9
 10
5.65703
 20
175.269
 30
0.000000
  70
    32
  0
VERTEX
  8
実線
  5
6AA
 10
5.68450
 20
175.261
 30
0.000000
  70
    32
  0
VERTEX
  8
実線
  5
6AB
 10
5.71203
 20
175.254
 30
0.000000
  70
    32
  0
VERTEX
  8
実線
  5
6AC
 10
5.73962
 20
175.248
 30
0.000000
  70
    32
  0
VERTEX
  8
実線
  5
6AD
 10
5.76726
 20
175.242
 30
0.000000
  70
    32
  0
VERTEX
  8
実線
  5
6AE
 10
5.79494
 20
175.236
 30
0.000000
  70
    32
  0
VERTEX
  8
実線
  5
6AF
 10
5.82267
 20
175.231
 30
0.000000
  70
    32
  0
VERTEX
  8
実線
  5
6B0
 10
5.85043
 20
175.226
 30
0.000000
  70
    32
  0
VERTEX
  8
実線
  5
6B1
 10
5.87823
 20
175.222
 30
0.000000
  70
    32
  0
VERTEX
  8
実線
  5
6B2
 10
5.90605
 20
175.218
 30
0.000000
  70
    32
  0
VERTEX
  8
実線
  5
6B3
 10
5.93391
 20
175.214
 30
0.000000
  70
    32
  0
VERTEX
  8
実線
  5
6B4
 10
5.96178
 20
175.211
 30
0.000000
  70
    32
  0
VERTEX
  8
実線
  5
6B5
 10
5.98967
 20
175.209
 30
0.000000
  70
    32
  0
VERTEX
  8
実線
  5
6B6
 10
6.01757
 20
175.206
 30
0.000000
  70
    32
  0
VERTEX
  8
実線
  5
6B7
 10
6.04548
 20
175.205
 30
0.000000
  70
    32
  0
VERTEX
  8
実線
  5
6B8
 10
6.07339
 20
175.203
 30
0.000000
  70
    32
  0
VERTEX
  8
実線
  5
6B9
 10
6.10131
 20
175.202
 30
0.000000
  70
    32
  0
VERTEX
  8
実線
  5
6BA
 10
6.12921
 20
175.202
 30
0.000000
  70
    32
  0
VERTEX
  8
実線
  5
6BB
 10
6.15711
 20
175.202
 30
0.000000
  70
    32
  0
VERTEX
  8
実線
  5
6BC
 10
6.18500
 20
175.203
 30
0.000000
  70
    32
  0
VERTEX
  8
実線
  5
6BD
 10
6.21287
 20
175.204
 30
0.000000
  70
    32
  0
VERTEX
  8
実線
  5
6BE
 10
6.24071
 20
175.205
 30
0.000000
  70
    32
  0
VERTEX
  8
実線
  5
6BF
 10
6.26853
 20
175.207
 30
0.000000
  70
    32
  0
VERTEX
  8
実線
  5
6C0
 10
6.29632
 20
175.209
 30
0.000000
  70
    32
  0
VERTEX
  8
実線
  5
6C1
 10
6.32408
 20
175.212
 30
0.000000
  70
    32
  0
VERTEX
  8
実線
  5
6C2
 10
6.35179
 20
175.215
 30
0.000000
  70
    32
  0
VERTEX
  8
実線
  5
6C3
 10
6.37946
 20
175.219
 30
0.000000
  70
    32
  0
VERTEX
  8
実線
  5
6C4
 10
6.40709
 20
175.223
 30
0.000000
  70
    32
  0
VERTEX
  8
実線
  5
6C5
 10
6.43466
 20
175.228
 30
0.000000
  70
    32
  0
VERTEX
  8
実線
  5
6C6
 10
6.46217
 20
175.233
 30
0.000000
  70
    32
  0
VERTEX
  8
実線
  5
6C7
 10
6.48963
 20
175.239
 30
0.000000
  70
    32
  0
VERTEX
  8
実線
  5
6C8
 10
6.51702
 20
175.245
 30
0.000000
  70
    32
  0
VERTEX
  8
実線
  5
6C9
 10
6.54434
 20
175.252
 30
0.000000
  70
    32
  0
VERTEX
  8
実線
  5
6CA
 10
6.57159
 20
175.259
 30
0.000000
  70
    32
  0
VERTEX
  8
実線
  5
6CB
 10
6.59876
 20
175.266
 30
0.000000
  70
    32
  0
VERTEX
  8
実線
  5
6CC
 10
6.61763
 20
175.272
 30
0.000000
  70
    32
  0
VERTEX
  8
実線
  5
6CD
 10
6.62002
 20
175.273
 30
0.000000
  70
    32
  0
VERTEX
  8
実線
  5
6CE
 10
6.62241
 20
175.273
 30
0.000000
  70
    32
  0
VERTEX
  8
実線
  5
6CF
 10
6.62480
 20
175.274
 30
0.000000
  70
    32
  0
VERTEX
  8
実線
  5
6D0
 10
6.62719
 20
175.275
 30
0.000000
  70
    32
  0
VERTEX
  8
実線
  5
6D1
 10
6.62958
 20
175.276
 30
0.000000
  70
    32
  0
VERTEX
  8
実線
  5
6D2
 10
6.63197
 20
175.276
 30
0.000000
  70
    32
  0
VERTEX
  8
実線
  5
6D3
 10
6.63435
 20
175.277
 30
0.000000
  70
    32
  0
VERTEX
  8
実線
  5
6D4
 10
6.63673
 20
175.278
 30
0.000000
  70
    32
  0
VERTEX
  8
実線
  5
6D5
 10
6.63911
 20
175.279
 30
0.000000
  70
    32
  0
VERTEX
  8
実線
  5
6D6
 10
6.64149
 20
175.279
 30
0.000000
  70
    32
  0
VERTEX
  8
実線
  5
6D7
 10
6.64387
 20
175.280
 30
0.000000
  70
    32
  0
VERTEX
  8
実線
  5
6D8
 10
6.64624
 20
175.281
 30
0.000000
  70
    32
  0
VERTEX
  8
実線
  5
6D9
 10
6.64862
 20
175.282
 30
0.000000
  70
    32
  0
VERTEX
  8
実線
  5
6DA
 10
6.65099
 20
175.283
 30
0.000000
  70
    32
  0
VERTEX
  8
実線
  5
6DB
 10
6.65336
 20
175.283
 30
0.000000
  70
    32
  0
VERTEX
  8
実線
  5
6DC
 10
6.65573
 20
175.284
 30
0.000000
  70
    32
  0
VERTEX
  8
実線
  5
6DD
 10
6.65809
 20
175.285
 30
0.000000
  70
    32
  0
VERTEX
  8
実線
  5
6DE
 10
6.66046
 20
175.286
 30
0.000000
  70
    32
  0
VERTEX
  8
実線
  5
6DF
 10
6.66282
 20
175.287
 30
0.000000
  70
    32
  0
VERTEX
  8
実線
  5
6E0
 10
6.66518
 20
175.287
 30
0.000000
  70
    32
  0
VERTEX
  8
実線
  5
6E1
 10
6.66754
 20
175.288
 30
0.000000
  70
    32
  0
VERTEX
  8
実線
  5
6E2
 10
6.66990
 20
175.289
 30
0.000000
  70
    32
  0
VERTEX
  8
実線
  5
6E3
 10
6.67226
 20
175.290
 30
0.000000
  70
    32
  0
VERTEX
  8
実線
  5
6E4
 10
6.67461
 20
175.291
 30
0.000000
  70
    32
  0
VERTEX
  8
実線
  5
6E5
 10
6.67696
 20
175.291
 30
0.000000
  70
    32
  0
VERTEX
  8
実線
  5
6E6
 10
6.67931
 20
175.292
 30
0.000000
  70
    32
  0
VERTEX
  8
実線
  5
6E7
 10
6.68166
 20
175.293
 30
0.000000
  70
    32
  0
VERTEX
  8
実線
  5
6E8
 10
6.68401
 20
175.294
 30
0.000000
  70
    32
  0
VERTEX
  8
実線
  5
6E9
 10
6.68636
 20
175.295
 30
0.000000
  70
    32
  0
VERTEX
  8
実線
  5
6EA
 10
6.68870
 20
175.296
 30
0.000000
  70
    32
  0
VERTEX
  8
実線
  5
6EB
 10
6.69104
 20
175.296
 30
0.000000
  70
    32
  0
VERTEX
  8
実線
  5
6EC
 10
6.69338
 20
175.297
 30
0.000000
  70
    32
  0
VERTEX
  8
実線
  5
6ED
 10
6.69572
 20
175.298
 30
0.000000
  70
    32
  0
VERTEX
  8
実線
  5
6EE
 10
6.69806
 20
175.299
 30
0.000000
  70
    32
  0
VERTEX
  8
実線
  5
6EF
 10
6.70039
 20
175.300
 30
0.000000
  70
    32
  0
VERTEX
  8
実線
  5
6F0
 10
6.70273
 20
175.301
 30
0.000000
  70
    32
  0
VERTEX
  8
実線
  5
6F1
 10
6.70506
 20
175.302
 30
0.000000
  70
    32
  0
VERTEX
  8
実線
  5
6F2
 10
6.70739
 20
175.303
 30
0.000000
  70
    32
  0
VERTEX
  8
実線
  5
6F3
 10
6.70971
 20
175.303
 30
0.000000
  70
    32
  0
VERTEX
  8
実線
  5
6F4
 10
6.71204
 20
175.304
 30
0.000000
  70
    32
  0
VERTEX
  8
実線
  5
6F5
 10
6.71436
 20
175.305
 30
0.000000
  70
    32
  0
VERTEX
  8
実線
  5
6F6
 10
6.71669
 20
175.306
 30
0.000000
  70
    32
  0
VERTEX
  8
実線
  5
6F7
 10
6.71901
 20
175.307
 30
0.000000
  70
    32
  0
VERTEX
  8
実線
  5
6F8
 10
6.72133
 20
175.308
 30
0.000000
  70
    32
  0
VERTEX
  8
実線
  5
6F9
 10
6.72364
 20
175.309
 30
0.000000
  70
    32
  0
VERTEX
  8
実線
  5
6FA
 10
6.72596
 20
175.310
 30
0.000000
  70
    32
  0
VERTEX
  8
実線
  5
6FB
 10
6.72827
 20
175.310
 30
0.000000
  70
    32
  0
VERTEX
  8
実線
  5
6FC
 10
6.73058
 20
175.311
 30
0.000000
  70
    32
  0
VERTEX
  8
実線
  5
6FD
 10
6.73289
 20
175.312
 30
0.000000
  70
    32
  0
VERTEX
  8
実線
  5
6FE
 10
6.73520
 20
175.313
 30
0.000000
  70
    32
  0
VERTEX
  8
実線
  5
6FF
 10
6.73751
 20
175.314
 30
0.000000
  70
    32
  0
VERTEX
  8
実線
  5
700
 10
6.73981
 20
175.315
 30
0.000000
  70
    32
  0
VERTEX
  8
実線
  5
701
 10
6.74212
 20
175.316
 30
0.000000
  70
    32
  0
VERTEX
  8
実線
  5
702
 10
6.74442
 20
175.317
 30
0.000000
  70
    32
  0
VERTEX
  8
実線
  5
703
 10
6.74672
 20
175.318
 30
0.000000
  70
    32
  0
VERTEX
  8
実線
  5
704
 10
6.74902
 20
175.319
 30
0.000000
  70
    32
  0
VERTEX
  8
実線
  5
705
 10
6.75131
 20
175.320
 30
0.000000
  70
    32
  0
VERTEX
  8
実線
  5
706
 10
6.75361
 20
175.321
 30
0.000000
  70
    32
  0
VERTEX
  8
実線
  5
707
 10
6.75590
 20
175.322
 30
0.000000
  70
    32
  0
VERTEX
  8
実線
  5
708
 10
6.75819
 20
175.322
 30
0.000000
  70
    32
  0
VERTEX
  8
実線
  5
709
 10
6.76048
 20
175.323
 30
0.000000
  70
    32
  0
VERTEX
  8
実線
  5
70A
 10
6.76276
 20
175.324
 30
0.000000
  70
    32
  0
VERTEX
  8
実線
  5
70B
 10
6.76505
 20
175.325
 30
0.000000
  70
    32
  0
VERTEX
  8
実線
  5
70C
 10
6.76733
 20
175.326
 30
0.000000
  70
    32
  0
VERTEX
  8
実線
  5
70D
 10
6.76961
 20
175.327
 30
0.000000
  70
    32
  0
VERTEX
  8
実線
  5
70E
 10
6.77189
 20
175.328
 30
0.000000
  70
    32
  0
VERTEX
  8
実線
  5
70F
 10
6.77417
 20
175.329
 30
0.000000
  70
    32
  0
VERTEX
  8
実線
  5
710
 10
6.77645
 20
175.330
 30
0.000000
  70
    32
  0
VERTEX
  8
実線
  5
711
 10
6.77872
 20
175.331
 30
0.000000
  70
    32
  0
VERTEX
  8
実線
  5
712
 10
6.78099
 20
175.332
 30
0.000000
  70
    32
  0
VERTEX
  8
実線
  5
713
 10
6.78326
 20
175.333
 30
0.000000
  70
    32
  0
VERTEX
  8
実線
  5
714
 10
6.78553
 20
175.334
 30
0.000000
  70
    32
  0
VERTEX
  8
実線
  5
715
 10
6.78780
 20
175.335
 30
0.000000
  70
    32
  0
VERTEX
  8
実線
  5
716
 10
6.79007
 20
175.336
 30
0.000000
  70
    32
  0
VERTEX
  8
実線
  5
717
 10
6.79233
 20
175.337
 30
0.000000
  70
    32
  0
VERTEX
  8
実線
  5
718
 10
6.79459
 20
175.338
 30
0.000000
  70
    32
  0
VERTEX
  8
実線
  5
719
 10
6.79685
 20
175.339
 30
0.000000
  70
    32
  0
VERTEX
  8
実線
  5
71A
 10
6.79911
 20
175.340
 30
0.000000
  70
    32
  0
VERTEX
  8
実線
  5
71B
 10
6.80137
 20
175.341
 30
0.000000
  70
    32
  0
VERTEX
  8
実線
  5
71C
 10
6.80362
 20
175.342
 30
0.000000
  70
    32
  0
VERTEX
  8
実線
  5
71D
 10
6.80587
 20
175.343
 30
0.000000
  70
    32
  0
VERTEX
  8
実線
  5
71E
 10
6.80812
 20
175.344
 30
0.000000
  70
    32
  0
VERTEX
  8
実線
  5
71F
 10
6.81037
 20
175.345
 30
0.000000
  70
    32
  0
VERTEX
  8
実線
  5
720
 10
6.81262
 20
175.346
 30
0.000000
  70
    32
  0
VERTEX
  8
実線
  5
721
 10
6.81487
 20
175.347
 30
0.000000
  70
    32
  0
VERTEX
  8
実線
  5
722
 10
6.81711
 20
175.348
 30
0.000000
  70
    32
  0
VERTEX
  8
実線
  5
723
 10
6.81935
 20
175.349
 30
0.000000
  70
    32
  0
VERTEX
  8
実線
  5
724
 10
6.82159
 20
175.350
 30
0.000000
  70
    32
  0
VERTEX
  8
実線
  5
725
 10
6.82383
 20
175.351
 30
0.000000
  70
    32
  0
VERTEX
  8
実線
  5
726
 10
6.82607
 20
175.352
 30
0.000000
  70
    32
  0
VERTEX
  8
実線
  5
727
 10
6.82830
 20
175.353
 30
0.000000
  70
    32
  0
VERTEX
  8
実線
  5
728
 10
6.83053
 20
175.354
 30
0.000000
  70
    32
  0
VERTEX
  8
実線
  5
729
 10
6.83276
 20
175.355
 30
0.000000
  70
    32
  0
VERTEX
  8
実線
  5
72A
 10
6.83499
 20
175.356
 30
0.000000
  70
    32
  0
VERTEX
  8
実線
  5
72B
 10
6.83722
 20
175.357
 30
0.000000
  70
    32
  0
VERTEX
  8
実線
  5
72C
 10
6.83945
 20
175.358
 30
0.000000
  70
    32
  0
VERTEX
  8
実線
  5
72D
 10
6.84167
 20
175.359
 30
0.000000
  70
    32
  0
VERTEX
  8
実線
  5
72E
 10
6.84389
 20
175.361
 30
0.000000
  70
    32
  0
VERTEX
  8
実線
  5
72F
 10
6.84611
 20
175.362
 30
0.000000
  70
    32
  0
VERTEX
  8
実線
  5
730
 10
6.84833
 20
175.363
 30
0.000000
  70
    32
  0
VERTEX
  8
実線
  5
731
 10
6.85055
 20
175.364
 30
0.000000
  70
    32
  0
VERTEX
  8
実線
  5
732
 10
6.85276
 20
175.365
 30
0.000000
  70
    32
  0
VERTEX
  8
実線
  5
733
 10
6.85497
 20
175.366
 30
0.000000
  70
    32
  0
VERTEX
  8
実線
  5
734
 10
6.85718
 20
175.367
 30
0.000000
  70
    32
  0
VERTEX
  8
実線
  5
735
 10
6.85939
 20
175.368
 30
0.000000
  70
    32
  0
VERTEX
  8
実線
  5
736
 10
6.86160
 20
175.369
 30
0.000000
  70
    32
  0
SEQEND
  8
実線
  5
737
  0
POLYLINE
  8
実線
  5
738
  62
7
  66
     1
 10
0.000000
 20
0.000000
 30
0.000000
  70
     8
  0
VERTEX
  8
実線
  5
739
 10
3.32728
 20
178.603
 30
0.000000
  70
    32
  0
VERTEX
  8
実線
  5
73A
 10
3.30322
 20
178.592
 30
0.000000
  70
    32
  0
VERTEX
  8
実線
  5
73B
 10
3.27950
 20
178.581
 30
0.000000
  70
    32
  0
VERTEX
  8
実線
  5
73C
 10
3.25610
 20
178.569
 30
0.000000
  70
    32
  0
VERTEX
  8
実線
  5
73D
 10
3.23303
 20
178.557
 30
0.000000
  70
    32
  0
VERTEX
  8
実線
  5
73E
 10
3.21028
 20
178.545
 30
0.000000
  70
    32
  0
VERTEX
  8
実線
  5
73F
 10
3.18787
 20
178.532
 30
0.000000
  70
    32
  0
VERTEX
  8
実線
  5
740
 10
3.16580
 20
178.519
 30
0.000000
  70
    32
  0
VERTEX
  8
実線
  5
741
 10
3.14405
 20
178.506
 30
0.000000
  70
    32
  0
VERTEX
  8
実線
  5
742
 10
3.12264
 20
178.492
 30
0.000000
  70
    32
  0
VERTEX
  8
実線
  5
743
 10
3.10156
 20
178.477
 30
0.000000
  70
    32
  0
VERTEX
  8
実線
  5
744
 10
3.08081
 20
178.463
 30
0.000000
  70
    32
  0
VERTEX
  8
実線
  5
745
 10
3.06041
 20
178.448
 30
0.000000
  70
    32
  0
VERTEX
  8
実線
  5
746
 10
3.04034
 20
178.432
 30
0.000000
  70
    32
  0
VERTEX
  8
実線
  5
747
 10
3.02061
 20
178.417
 30
0.000000
  70
    32
  0
VERTEX
  8
実線
  5
748
 10
3.00121
 20
178.401
 30
0.000000
  70
    32
  0
VERTEX
  8
実線
  5
749
 10
2.98216
 20
178.384
 30
0.000000
  70
    32
  0
VERTEX
  8
実線
  5
74A
 10
2.96345
 20
178.368
 30
0.000000
  70
    32
  0
VERTEX
  8
実線
  5
74B
 10
2.94508
 20
178.351
 30
0.000000
  70
    32
  0
VERTEX
  8
実線
  5
74C
 10
2.92705
 20
178.333
 30
0.000000
  70
    32
  0
VERTEX
  8
実線
  5
74D
 10
2.90936
 20
178.316
 30
0.000000
  70
    32
  0
VERTEX
  8
実線
  5
74E
 10
2.89202
 20
178.298
 30
0.000000
  70
    32
  0
VERTEX
  8
実線
  5
74F
 10
2.87503
 20
178.279
 30
0.000000
  70
    32
  0
VERTEX
  8
実線
  5
750
 10
2.85838
 20
178.261
 30
0.000000
  70
    32
  0
VERTEX
  8
実線
  5
751
 10
2.84208
 20
178.242
 30
0.000000
  70
    32
  0
VERTEX
  8
実線
  5
752
 10
2.82613
 20
178.223
 30
0.000000
  70
    32
  0
VERTEX
  8
実線
  5
753
 10
2.81053
 20
178.203
 30
0.000000
  70
    32
  0
VERTEX
  8
実線
  5
754
 10
2.79528
 20
178.183
 30
0.000000
  70
    32
  0
VERTEX
  8
実線
  5
755
 10
2.78037
 20
178.163
 30
0.000000
  70
    32
  0
VERTEX
  8
実線
  5
756
 10
2.76583
 20
178.143
 30
0.000000
  70
    32
  0
VERTEX
  8
実線
  5
757
 10
2.75163
 20
178.122
 30
0.000000
  70
    32
  0
VERTEX
  8
実線
  5
758
 10
2.73779
 20
178.101
 30
0.000000
  70
    32
  0
VERTEX
  8
実線
  5
759
 10
2.72430
 20
178.080
 30
0.000000
  70
    32
  0
VERTEX
  8
実線
  5
75A
 10
2.71117
 20
178.058
 30
0.000000
  70
    32
  0
VERTEX
  8
実線
  5
75B
 10
2.69839
 20
178.037
 30
0.000000
  70
    32
  0
VERTEX
  8
実線
  5
75C
 10
2.68598
 20
178.015
 30
0.000000
  70
    32
  0
VERTEX
  8
実線
  5
75D
 10
2.67392
 20
177.993
 30
0.000000
  70
    32
  0
VERTEX
  8
実線
  5
75E
 10
2.66222
 20
177.970
 30
0.000000
  70
    32
  0
VERTEX
  8
実線
  5
75F
 10
2.65088
 20
177.947
 30
0.000000
  70
    32
  0
VERTEX
  8
実線
  5
760
 10
2.63990
 20
177.924
 30
0.000000
  70
    32
  0
VERTEX
  8
実線
  5
761
 10
2.62929
 20
177.901
 30
0.000000
  70
    32
  0
VERTEX
  8
実線
  5
762
 10
2.61904
 20
177.878
 30
0.000000
  70
    32
  0
VERTEX
  8
実線
  5
763
 10
2.60915
 20
177.854
 30
0.000000
  70
    32
  0
VERTEX
  8
実線
  5
764
 10
2.59963
 20
177.830
 30
0.000000
  70
    32
  0
VERTEX
  8
実線
  5
765
 10
2.59047
 20
177.806
 30
0.000000
  70
    32
  0
VERTEX
  8
実線
  5
766
 10
2.58169
 20
177.782
 30
0.000000
  70
    32
  0
VERTEX
  8
実線
  5
767
 10
2.57327
 20
177.757
 30
0.000000
  70
    32
  0
VERTEX
  8
実線
  5
768
 10
2.56521
 20
177.732
 30
0.000000
  70
    32
  0
VERTEX
  8
実線
  5
769
 10
2.55753
 20
177.707
 30
0.000000
  70
    32
  0
VERTEX
  8
実線
  5
76A
 10
2.55022
 20
177.682
 30
0.000000
  70
    32
  0
VERTEX
  8
実線
  5
76B
 10
2.54328
 20
177.657
 30
0.000000
  70
    32
  0
VERTEX
  8
実線
  5
76C
 10
2.53672
 20
177.632
 30
0.000000
  70
    32
  0
VERTEX
  8
実線
  5
76D
 10
2.53052
 20
177.606
 30
0.000000
  70
    32
  0
VERTEX
  8
実線
  5
76E
 10
2.52470
 20
177.580
 30
0.000000
  70
    32
  0
VERTEX
  8
実線
  5
76F
 10
2.51926
 20
177.554
 30
0.000000
  70
    32
  0
VERTEX
  8
実線
  5
770
 10
2.51419
 20
177.528
 30
0.000000
  70
    32
  0
VERTEX
  8
実線
  5
771
 10
2.50951
 20
177.501
 30
0.000000
  70
    32
  0
VERTEX
  8
実線
  5
772
 10
2.50519
 20
177.475
 30
0.000000
  70
    32
  0
VERTEX
  8
実線
  5
773
 10
2.50126
 20
177.448
 30
0.000000
  70
    32
  0
VERTEX
  8
実線
  5
774
 10
2.49771
 20
177.421
 30
0.000000
  70
    32
  0
VERTEX
  8
実線
  5
775
 10
2.49454
 20
177.394
 30
0.000000
  70
    32
  0
VERTEX
  8
実線
  5
776
 10
2.49175
 20
177.367
 30
0.000000
  70
    32
  0
VERTEX
  8
実線
  5
777
 10
2.48935
 20
177.340
 30
0.000000
  70
    32
  0
VERTEX
  8
実線
  5
778
 10
2.48733
 20
177.312
 30
0.000000
  70
    32
  0
VERTEX
  8
実線
  5
779
 10
2.48569
 20
177.285
 30
0.000000
  70
    32
  0
VERTEX
  8
実線
  5
77A
 10
2.48444
 20
177.257
 30
0.000000
  70
    32
  0
VERTEX
  8
実線
  5
77B
 10
2.48358
 20
177.229
 30
0.000000
  70
    32
  0
VERTEX
  8
実線
  5
77C
 10
2.48310
 20
177.201
 30
0.000000
  70
    32
  0
VERTEX
  8
実線
  5
77D
 10
2.48301
 20
177.173
 30
0.000000
  70
    32
  0
VERTEX
  8
実線
  5
77E
 10
2.48331
 20
177.145
 30
0.000000
  70
    32
  0
VERTEX
  8
実線
  5
77F
 10
2.48401
 20
177.117
 30
0.000000
  70
    32
  0
VERTEX
  8
実線
  5
780
 10
2.48509
 20
177.089
 30
0.000000
  70
    32
  0
VERTEX
  8
実線
  5
781
 10
2.48656
 20
177.060
 30
0.000000
  70
    32
  0
VERTEX
  8
実線
  5
782
 10
2.48843
 20
177.032
 30
0.000000
  70
    32
  0
VERTEX
  8
実線
  5
783
 10
2.49070
 20
177.003
 30
0.000000
  70
    32
  0
VERTEX
  8
実線
  5
784
 10
2.49336
 20
176.974
 30
0.000000
  70
    32
  0
VERTEX
  8
実線
  5
785
 10
2.49641
 20
176.946
 30
0.000000
  70
    32
  0
VERTEX
  8
実線
  5
786
 10
2.49986
 20
176.917
 30
0.000000
  70
    32
  0
VERTEX
  8
実線
  5
787
 10
2.50371
 20
176.888
 30
0.000000
  70
    32
  0
VERTEX
  8
実線
  5
788
 10
2.50796
 20
176.859
 30
0.000000
  70
    32
  0
VERTEX
  8
実線
  5
789
 10
2.51261
 20
176.830
 30
0.000000
  70
    32
  0
VERTEX
  8
実線
  5
78A
 10
2.51766
 20
176.801
 30
0.000000
  70
    32
  0
VERTEX
  8
実線
  5
78B
 10
2.52311
 20
176.772
 30
0.000000
  70
    32
  0
VERTEX
  8
実線
  5
78C
 10
2.52896
 20
176.742
 30
0.000000
  70
    32
  0
VERTEX
  8
実線
  5
78D
 10
2.53522
 20
176.713
 30
0.000000
  70
    32
  0
VERTEX
  8
実線
  5
78E
 10
2.54188
 20
176.684
 30
0.000000
  70
    32
  0
VERTEX
  8
実線
  5
78F
 10
2.54895
 20
176.655
 30
0.000000
  70
    32
  0
VERTEX
  8
実線
  5
790
 10
2.55642
 20
176.625
 30
0.000000
  70
    32
  0
VERTEX
  8
実線
  5
791
 10
2.56430
 20
176.596
 30
0.000000
  70
    32
  0
VERTEX
  8
実線
  5
792
 10
2.57259
 20
176.567
 30
0.000000
  70
    32
  0
VERTEX
  8
実線
  5
793
 10
2.58129
 20
176.537
 30
0.000000
  70
    32
  0
VERTEX
  8
実線
  5
794
 10
2.59040
 20
176.508
 30
0.000000
  70
    32
  0
VERTEX
  8
実線
  5
795
 10
2.59992
 20
176.478
 30
0.000000
  70
    32
  0
VERTEX
  8
実線
  5
796
 10
2.60985
 20
176.449
 30
0.000000
  70
    32
  0
VERTEX
  8
実線
  5
797
 10
2.62019
 20
176.419
 30
0.000000
  70
    32
  0
VERTEX
  8
実線
  5
798
 10
2.63095
 20
176.390
 30
0.000000
  70
    32
  0
VERTEX
  8
実線
  5
799
 10
2.64212
 20
176.361
 30
0.000000
  70
    32
  0
VERTEX
  8
実線
  5
79A
 10
2.65371
 20
176.331
 30
0.000000
  70
    32
  0
VERTEX
  8
実線
  5
79B
 10
2.66572
 20
176.302
 30
0.000000
  70
    32
  0
VERTEX
  8
実線
  5
79C
 10
2.67814
 20
176.272
 30
0.000000
  70
    32
  0
VERTEX
  8
実線
  5
79D
 10
2.69098
 20
176.243
 30
0.000000
  70
    32
  0
VERTEX
  8
実線
  5
79E
 10
2.70424
 20
176.214
 30
0.000000
  70
    32
  0
VERTEX
  8
実線
  5
79F
 10
2.71792
 20
176.184
 30
0.000000
  70
    32
  0
VERTEX
  8
実線
  5
7A0
 10
2.73202
 20
176.155
 30
0.000000
  70
    32
  0
VERTEX
  8
実線
  5
7A1
 10
2.74655
 20
176.126
 30
0.000000
  70
    32
  0
VERTEX
  8
実線
  5
7A2
 10
2.76150
 20
176.097
 30
0.000000
  70
    32
  0
VERTEX
  8
実線
  5
7A3
 10
2.77687
 20
176.068
 30
0.000000
  70
    32
  0
VERTEX
  8
実線
  5
7A4
 10
2.79264
 20
176.039
 30
0.000000
  70
    32
  0
VERTEX
  8
実線
  5
7A5
 10
2.80873
 20
176.010
 30
0.000000
  70
    32
  0
VERTEX
  8
実線
  5
7A6
 10
2.82513
 20
175.982
 30
0.000000
  70
    32
  0
VERTEX
  8
実線
  5
7A7
 10
2.84182
 20
175.953
 30
0.000000
  70
    32
  0
VERTEX
  8
実線
  5
7A8
 10
2.85882
 20
175.926
 30
0.000000
  70
    32
  0
VERTEX
  8
実線
  5
7A9
 10
2.87610
 20
175.898
 30
0.000000
  70
    32
  0
VERTEX
  8
実線
  5
7AA
 10
2.89368
 20
175.871
 30
0.000000
  70
    32
  0
VERTEX
  8
実線
  5
7AB
 10
2.91153
 20
175.843
 30
0.000000
  70
    32
  0
VERTEX
  8
実線
  5
7AC
 10
2.92967
 20
175.817
 30
0.000000
  70
    32
  0
VERTEX
  8
実線
  5
7AD
 10
2.94809
 20
175.790
 30
0.000000
  70
    32
  0
VERTEX
  8
実線
  5
7AE
 10
2.96677
 20
175.764
 30
0.000000
  70
    32
  0
VERTEX
  8
実線
  5
7AF
 10
2.98572
 20
175.738
 30
0.000000
  70
    32
  0
VERTEX
  8
実線
  5
7B0
 10
3.00493
 20
175.712
 30
0.000000
  70
    32
  0
VERTEX
  8
実線
  5
7B1
 10
3.02440
 20
175.687
 30
0.000000
  70
    32
  0
VERTEX
  8
実線
  5
7B2
 10
3.04413
 20
175.662
 30
0.000000
  70
    32
  0
VERTEX
  8
実線
  5
7B3
 10
3.06410
 20
175.637
 30
0.000000
  70
    32
  0
VERTEX
  8
実線
  5
7B4
 10
3.08432
 20
175.613
 30
0.000000
  70
    32
  0
VERTEX
  8
実線
  5
7B5
 10
3.10477
 20
175.588
 30
0.000000
  70
    32
  0
VERTEX
  8
実線
  5
7B6
 10
3.12547
 20
175.565
 30
0.000000
  70
    32
  0
VERTEX
  8
実線
  5
7B7
 10
3.14639
 20
175.541
 30
0.000000
  70
    32
  0
VERTEX
  8
実線
  5
7B8
 10
3.16754
 20
175.518
 30
0.000000
  70
    32
  0
VERTEX
  8
実線
  5
7B9
 10
3.18892
 20
175.495
 30
0.000000
  70
    32
  0
VERTEX
  8
実線
  5
7BA
 10
3.21051
 20
175.472
 30
0.000000
  70
    32
  0
VERTEX
  8
実線
  5
7BB
 10
3.23231
 20
175.450
 30
0.000000
  70
    32
  0
VERTEX
  8
実線
  5
7BC
 10
3.25433
 20
175.428
 30
0.000000
  70
    32
  0
VERTEX
  8
実線
  5
7BD
 10
3.27655
 20
175.406
 30
0.000000
  70
    32
  0
VERTEX
  8
実線
  5
7BE
 10
3.29897
 20
175.385
 30
0.000000
  70
    32
  0
VERTEX
  8
実線
  5
7BF
 10
3.32158
 20
175.363
 30
0.000000
  70
    32
  0
VERTEX
  8
実線
  5
7C0
 10
3.34439
 20
175.343
 30
0.000000
  70
    32
  0
VERTEX
  8
実線
  5
7C1
 10
3.36739
 20
175.322
 30
0.000000
  70
    32
  0
VERTEX
  8
実線
  5
7C2
 10
3.39057
 20
175.302
 30
0.000000
  70
    32
  0
VERTEX
  8
実線
  5
7C3
 10
3.41392
 20
175.282
 30
0.000000
  70
    32
  0
VERTEX
  8
実線
  5
7C4
 10
3.43745
 20
175.263
 30
0.000000
  70
    32
  0
VERTEX
  8
実線
  5
7C5
 10
3.46115
 20
175.244
 30
0.000000
  70
    32
  0
VERTEX
  8
実線
  5
7C6
 10
3.48502
 20
175.225
 30
0.000000
  70
    32
  0
VERTEX
  8
実線
  5
7C7
 10
3.50905
 20
175.207
 30
0.000000
  70
    32
  0
VERTEX
  8
実線
  5
7C8
 10
3.53323
 20
175.188
 30
0.000000
  70
    32
  0
VERTEX
  8
実線
  5
7C9
 10
3.55757
 20
175.171
 30
0.000000
  70
    32
  0
VERTEX
  8
実線
  5
7CA
 10
3.58206
 20
175.153
 30
0.000000
  70
    32
  0
VERTEX
  8
実線
  5
7CB
 10
3.60668
 20
175.136
 30
0.000000
  70
    32
  0
VERTEX
  8
実線
  5
7CC
 10
3.63145
 20
175.119
 30
0.000000
  70
    32
  0
VERTEX
  8
実線
  5
7CD
 10
3.65635
 20
175.103
 30
0.000000
  70
    32
  0
VERTEX
  8
実線
  5
7CE
 10
3.68139
 20
175.087
 30
0.000000
  70
    32
  0
VERTEX
  8
実線
  5
7CF
 10
3.70654
 20
175.071
 30
0.000000
  70
    32
  0
VERTEX
  8
実線
  5
7D0
 10
3.73182
 20
175.056
 30
0.000000
  70
    32
  0
VERTEX
  8
実線
  5
7D1
 10
3.75722
 20
175.041
 30
0.000000
  70
    32
  0
VERTEX
  8
実線
  5
7D2
 10
3.78273
 20
175.026
 30
0.000000
  70
    32
  0
VERTEX
  8
実線
  5
7D3
 10
3.80835
 20
175.012
 30
0.000000
  70
    32
  0
VERTEX
  8
実線
  5
7D4
 10
3.83407
 20
174.998
 30
0.000000
  70
    32
  0
VERTEX
  8
実線
  5
7D5
 10
3.85989
 20
174.985
 30
0.000000
  70
    32
  0
VERTEX
  8
実線
  5
7D6
 10
3.88581
 20
174.971
 30
0.000000
  70
    32
  0
VERTEX
  8
実線
  5
7D7
 10
3.91182
 20
174.959
 30
0.000000
  70
    32
  0
VERTEX
  8
実線
  5
7D8
 10
3.93791
 20
174.946
 30
0.000000
  70
    32
  0
VERTEX
  8
実線
  5
7D9
 10
3.96409
 20
174.934
 30
0.000000
  70
    32
  0
VERTEX
  8
実線
  5
7DA
 10
3.99034
 20
174.922
 30
0.000000
  70
    32
  0
VERTEX
  8
実線
  5
7DB
 10
4.01667
 20
174.911
 30
0.000000
  70
    32
  0
VERTEX
  8
実線
  5
7DC
 10
4.04306
 20
174.900
 30
0.000000
  70
    32
  0
VERTEX
  8
実線
  5
7DD
 10
4.06952
 20
174.890
 30
0.000000
  70
    32
  0
VERTEX
  8
実線
  5
7DE
 10
4.09604
 20
174.879
 30
0.000000
  70
    32
  0
VERTEX
  8
実線
  5
7DF
 10
4.12262
 20
174.870
 30
0.000000
  70
    32
  0
VERTEX
  8
実線
  5
7E0
 10
4.14925
 20
174.860
 30
0.000000
  70
    32
  0
VERTEX
  8
実線
  5
7E1
 10
4.17592
 20
174.851
 30
0.000000
  70
    32
  0
VERTEX
  8
実線
  5
7E2
 10
4.20264
 20
174.843
 30
0.000000
  70
    32
  0
VERTEX
  8
実線
  5
7E3
 10
4.22940
 20
174.834
 30
0.000000
  70
    32
  0
VERTEX
  8
実線
  5
7E4
 10
4.25618
 20
174.826
 30
0.000000
  70
    32
  0
VERTEX
  8
実線
  5
7E5
 10
4.28300
 20
174.819
 30
0.000000
  70
    32
  0
VERTEX
  8
実線
  5
7E6
 10
4.30985
 20
174.812
 30
0.000000
  70
    32
  0
VERTEX
  8
実線
  5
7E7
 10
4.33671
 20
174.805
 30
0.000000
  70
    32
  0
VERTEX
  8
実線
  5
7E8
 10
4.36359
 20
174.799
 30
0.000000
  70
    32
  0
VERTEX
  8
実線
  5
7E9
 10
4.39048
 20
174.793
 30
0.000000
  70
    32
  0
VERTEX
  8
実線
  5
7EA
 10
4.41738
 20
174.788
 30
0.000000
  70
    32
  0
VERTEX
  8
実線
  5
7EB
 10
4.44428
 20
174.783
 30
0.000000
  70
    32
  0
VERTEX
  8
実線
  5
7EC
 10
4.47118
 20
174.778
 30
0.000000
  70
    32
  0
VERTEX
  8
実線
  5
7ED
 10
4.49808
 20
174.774
 30
0.000000
  70
    32
  0
VERTEX
  8
実線
  5
7EE
 10
4.52496
 20
174.770
 30
0.000000
  70
    32
  0
VERTEX
  8
実線
  5
7EF
 10
4.55183
 20
174.767
 30
0.000000
  70
    32
  0
VERTEX
  8
実線
  5
7F0
 10
4.57869
 20
174.764
 30
0.000000
  70
    32
  0
VERTEX
  8
実線
  5
7F1
 10
4.60551
 20
174.761
 30
0.000000
  70
    32
  0
VERTEX
  8
実線
  5
7F2
 10
4.63231
 20
174.759
 30
0.000000
  70
    32
  0
VERTEX
  8
実線
  5
7F3
 10
4.65908
 20
174.757
 30
0.000000
  70
    32
  0
VERTEX
  8
実線
  5
7F4
 10
4.68581
 20
174.756
 30
0.000000
  70
    32
  0
VERTEX
  8
実線
  5
7F5
 10
4.71251
 20
174.755
 30
0.000000
  70
    32
  0
VERTEX
  8
実線
  5
7F6
 10
4.73915
 20
174.755
 30
0.000000
  70
    32
  0
VERTEX
  8
実線
  5
7F7
 10
4.76575
 20
174.755
 30
0.000000
  70
    32
  0
VERTEX
  8
実線
  5
7F8
 10
4.79229
 20
174.755
 30
0.000000
  70
    32
  0
VERTEX
  8
実線
  5
7F9
 10
4.81877
 20
174.756
 30
0.000000
  70
    32
  0
VERTEX
  8
実線
  5
7FA
 10
4.84519
 20
174.758
 30
0.000000
  70
    32
  0
VERTEX
  8
実線
  5
7FB
 10
4.87155
 20
174.759
 30
0.000000
  70
    32
  0
VERTEX
  8
実線
  5
7FC
 10
4.89783
 20
174.762
 30
0.000000
  70
    32
  0
VERTEX
  8
実線
  5
7FD
 10
4.92403
 20
174.764
 30
0.000000
  70
    32
  0
VERTEX
  8
実線
  5
7FE
 10
4.95016
 20
174.767
 30
0.000000
  70
    32
  0
VERTEX
  8
実線
  5
7FF
 10
4.97620
 20
174.771
 30
0.000000
  70
    32
  0
VERTEX
  8
実線
  5
800
 10
5.00215
 20
174.775
 30
0.000000
  70
    32
  0
VERTEX
  8
実線
  5
801
 10
5.02801
 20
174.779
 30
0.000000
  70
    32
  0
VERTEX
  8
実線
  5
802
 10
5.05377
 20
174.784
 30
0.000000
  70
    32
  0
VERTEX
  8
実線
  5
803
 10
5.07943
 20
174.790
 30
0.000000
  70
    32
  0
VERTEX
  8
実線
  5
804
 10
5.10498
 20
174.795
 30
0.000000
  70
    32
  0
VERTEX
  8
実線
  5
805
 10
5.13042
 20
174.802
 30
0.000000
  70
    32
  0
VERTEX
  8
実線
  5
806
 10
5.15574
 20
174.808
 30
0.000000
  70
    32
  0
VERTEX
  8
実線
  5
807
 10
5.18095
 20
174.816
 30
0.000000
  70
    32
  0
VERTEX
  8
実線
  5
808
 10
5.20603
 20
174.823
 30
0.000000
  70
    32
  0
VERTEX
  8
実線
  5
809
 10
5.23098
 20
174.831
 30
0.000000
  70
    32
  0
VERTEX
  8
実線
  5
80A
 10
5.25580
 20
174.840
 30
0.000000
  70
    32
  0
VERTEX
  8
実線
  5
80B
 10
5.28048
 20
174.849
 30
0.000000
  70
    32
  0
VERTEX
  8
実線
  5
80C
 10
5.30501
 20
174.859
 30
0.000000
  70
    32
  0
VERTEX
  8
実線
  5
80D
 10
5.32941
 20
174.869
 30
0.000000
  70
    32
  0
VERTEX
  8
実線
  5
80E
 10
5.34629
 20
174.876
 30
0.000000
  70
    32
  0
VERTEX
  8
実線
  5
80F
 10
5.34840
 20
174.877
 30
0.000000
  70
    32
  0
VERTEX
  8
実線
  5
810
 10
5.35051
 20
174.878
 30
0.000000
  70
    32
  0
VERTEX
  8
実線
  5
811
 10
5.35262
 20
174.879
 30
0.000000
  70
    32
  0
VERTEX
  8
実線
  5
812
 10
5.35473
 20
174.880
 30
0.000000
  70
    32
  0
VERTEX
  8
実線
  5
813
 10
5.35684
 20
174.881
 30
0.000000
  70
    32
  0
VERTEX
  8
実線
  5
814
 10
5.35894
 20
174.882
 30
0.000000
  70
    32
  0
VERTEX
  8
実線
  5
815
 10
5.36105
 20
174.883
 30
0.000000
  70
    32
  0
VERTEX
  8
実線
  5
816
 10
5.36315
 20
174.884
 30
0.000000
  70
    32
  0
VERTEX
  8
実線
  5
817
 10
5.36525
 20
174.885
 30
0.000000
  70
    32
  0
VERTEX
  8
実線
  5
818
 10
5.36735
 20
174.886
 30
0.000000
  70
    32
  0
VERTEX
  8
実線
  5
819
 10
5.36944
 20
174.886
 30
0.000000
  70
    32
  0
VERTEX
  8
実線
  5
81A
 10
5.37154
 20
174.887
 30
0.000000
  70
    32
  0
VERTEX
  8
実線
  5
81B
 10
5.37363
 20
174.888
 30
0.000000
  70
    32
  0
VERTEX
  8
実線
  5
81C
 10
5.37572
 20
174.889
 30
0.000000
  70
    32
  0
VERTEX
  8
実線
  5
81D
 10
5.37782
 20
174.890
 30
0.000000
  70
    32
  0
VERTEX
  8
実線
  5
81E
 10
5.37990
 20
174.891
 30
0.000000
  70
    32
  0
VERTEX
  8
実線
  5
81F
 10
5.38199
 20
174.892
 30
0.000000
  70
    32
  0
VERTEX
  8
実線
  5
820
 10
5.38408
 20
174.893
 30
0.000000
  70
    32
  0
VERTEX
  8
実線
  5
821
 10
5.38616
 20
174.894
 30
0.000000
  70
    32
  0
VERTEX
  8
実線
  5
822
 10
5.38824
 20
174.895
 30
0.000000
  70
    32
  0
VERTEX
  8
実線
  5
823
 10
5.39032
 20
174.896
 30
0.000000
  70
    32
  0
VERTEX
  8
実線
  5
824
 10
5.39240
 20
174.897
 30
0.000000
  70
    32
  0
VERTEX
  8
実線
  5
825
 10
5.39448
 20
174.899
 30
0.000000
  70
    32
  0
VERTEX
  8
実線
  5
826
 10
5.39656
 20
174.900
 30
0.000000
  70
    32
  0
VERTEX
  8
実線
  5
827
 10
5.39863
 20
174.901
 30
0.000000
  70
    32
  0
VERTEX
  8
実線
  5
828
 10
5.40070
 20
174.902
 30
0.000000
  70
    32
  0
VERTEX
  8
実線
  5
829
 10
5.40277
 20
174.903
 30
0.000000
  70
    32
  0
VERTEX
  8
実線
  5
82A
 10
5.40484
 20
174.904
 30
0.000000
  70
    32
  0
VERTEX
  8
実線
  5
82B
 10
5.40691
 20
174.905
 30
0.000000
  70
    32
  0
VERTEX
  8
実線
  5
82C
 10
5.40897
 20
174.906
 30
0.000000
  70
    32
  0
VERTEX
  8
実線
  5
82D
 10
5.41104
 20
174.907
 30
0.000000
  70
    32
  0
VERTEX
  8
実線
  5
82E
 10
5.41310
 20
174.908
 30
0.000000
  70
    32
  0
VERTEX
  8
実線
  5
82F
 10
5.41516
 20
174.909
 30
0.000000
  70
    32
  0
VERTEX
  8
実線
  5
830
 10
5.41722
 20
174.910
 30
0.000000
  70
    32
  0
VERTEX
  8
実線
  5
831
 10
5.41927
 20
174.911
 30
0.000000
  70
    32
  0
VERTEX
  8
実線
  5
832
 10
5.42133
 20
174.912
 30
0.000000
  70
    32
  0
VERTEX
  8
実線
  5
833
 10
5.42338
 20
174.913
 30
0.000000
  70
    32
  0
VERTEX
  8
実線
  5
834
 10
5.42543
 20
174.914
 30
0.000000
  70
    32
  0
VERTEX
  8
実線
  5
835
 10
5.42748
 20
174.915
 30
0.000000
  70
    32
  0
VERTEX
  8
実線
  5
836
 10
5.42953
 20
174.916
 30
0.000000
  70
    32
  0
VERTEX
  8
実線
  5
837
 10
5.43158
 20
174.917
 30
0.000000
  70
    32
  0
VERTEX
  8
実線
  5
838
 10
5.43362
 20
174.919
 30
0.000000
  70
    32
  0
VERTEX
  8
実線
  5
839
 10
5.43567
 20
174.920
 30
0.000000
  70
    32
  0
VERTEX
  8
実線
  5
83A
 10
5.43771
 20
174.921
 30
0.000000
  70
    32
  0
VERTEX
  8
実線
  5
83B
 10
5.43975
 20
174.922
 30
0.000000
  70
    32
  0
VERTEX
  8
実線
  5
83C
 10
5.44178
 20
174.923
 30
0.000000
  70
    32
  0
VERTEX
  8
実線
  5
83D
 10
5.44382
 20
174.924
 30
0.000000
  70
    32
  0
VERTEX
  8
実線
  5
83E
 10
5.44585
 20
174.925
 30
0.000000
  70
    32
  0
VERTEX
  8
実線
  5
83F
 10
5.44788
 20
174.926
 30
0.000000
  70
    32
  0
VERTEX
  8
実線
  5
840
 10
5.44991
 20
174.927
 30
0.000000
  70
    32
  0
VERTEX
  8
実線
  5
841
 10
5.45194
 20
174.928
 30
0.000000
  70
    32
  0
VERTEX
  8
実線
  5
842
 10
5.45397
 20
174.930
 30
0.000000
  70
    32
  0
VERTEX
  8
実線
  5
843
 10
5.45599
 20
174.931
 30
0.000000
  70
    32
  0
VERTEX
  8
実線
  5
844
 10
5.45802
 20
174.932
 30
0.000000
  70
    32
  0
VERTEX
  8
実線
  5
845
 10
5.46004
 20
174.933
 30
0.000000
  70
    32
  0
VERTEX
  8
実線
  5
846
 10
5.46206
 20
174.934
 30
0.000000
  70
    32
  0
VERTEX
  8
実線
  5
847
 10
5.46407
 20
174.935
 30
0.000000
  70
    32
  0
VERTEX
  8
実線
  5
848
 10
5.46609
 20
174.936
 30
0.000000
  70
    32
  0
VERTEX
  8
実線
  5
849
 10
5.46810
 20
174.937
 30
0.000000
  70
    32
  0
VERTEX
  8
実線
  5
84A
 10
5.47012
 20
174.939
 30
0.000000
  70
    32
  0
VERTEX
  8
実線
  5
84B
 10
5.47213
 20
174.940
 30
0.000000
  70
    32
  0
VERTEX
  8
実線
  5
84C
 10
5.47413
 20
174.941
 30
0.000000
  70
    32
  0
VERTEX
  8
実線
  5
84D
 10
5.47614
 20
174.942
 30
0.000000
  70
    32
  0
VERTEX
  8
実線
  5
84E
 10
5.47814
 20
174.943
 30
0.000000
  70
    32
  0
VERTEX
  8
実線
  5
84F
 10
5.48015
 20
174.944
 30
0.000000
  70
    32
  0
VERTEX
  8
実線
  5
850
 10
5.48215
 20
174.945
 30
0.000000
  70
    32
  0
VERTEX
  8
実線
  5
851
 10
5.48415
 20
174.947
 30
0.000000
  70
    32
  0
VERTEX
  8
実線
  5
852
 10
5.48614
 20
174.948
 30
0.000000
  70
    32
  0
VERTEX
  8
実線
  5
853
 10
5.48814
 20
174.949
 30
0.000000
  70
    32
  0
VERTEX
  8
実線
  5
854
 10
5.49013
 20
174.950
 30
0.000000
  70
    32
  0
VERTEX
  8
実線
  5
855
 10
5.49212
 20
174.951
 30
0.000000
  70
    32
  0
VERTEX
  8
実線
  5
856
 10
5.49411
 20
174.952
 30
0.000000
  70
    32
  0
VERTEX
  8
実線
  5
857
 10
5.49610
 20
174.954
 30
0.000000
  70
    32
  0
VERTEX
  8
実線
  5
858
 10
5.49808
 20
174.955
 30
0.000000
  70
    32
  0
VERTEX
  8
実線
  5
859
 10
5.50007
 20
174.956
 30
0.000000
  70
    32
  0
VERTEX
  8
実線
  5
85A
 10
5.50205
 20
174.957
 30
0.000000
  70
    32
  0
VERTEX
  8
実線
  5
85B
 10
5.50403
 20
174.958
 30
0.000000
  70
    32
  0
VERTEX
  8
実線
  5
85C
 10
5.50600
 20
174.960
 30
0.000000
  70
    32
  0
VERTEX
  8
実線
  5
85D
 10
5.50798
 20
174.961
 30
0.000000
  70
    32
  0
VERTEX
  8
実線
  5
85E
 10
5.50995
 20
174.962
 30
0.000000
  70
    32
  0
VERTEX
  8
実線
  5
85F
 10
5.51193
 20
174.963
 30
0.000000
  70
    32
  0
VERTEX
  8
実線
  5
860
 10
5.51390
 20
174.964
 30
0.000000
  70
    32
  0
VERTEX
  8
実線
  5
861
 10
5.51586
 20
174.966
 30
0.000000
  70
    32
  0
VERTEX
  8
実線
  5
862
 10
5.51783
 20
174.967
 30
0.000000
  70
    32
  0
VERTEX
  8
実線
  5
863
 10
5.51979
 20
174.968
 30
0.000000
  70
    32
  0
VERTEX
  8
実線
  5
864
 10
5.52175
 20
174.969
 30
0.000000
  70
    32
  0
VERTEX
  8
実線
  5
865
 10
5.52371
 20
174.970
 30
0.000000
  70
    32
  0
VERTEX
  8
実線
  5
866
 10
5.52567
 20
174.972
 30
0.000000
  70
    32
  0
VERTEX
  8
実線
  5
867
 10
5.52763
 20
174.973
 30
0.000000
  70
    32
  0
VERTEX
  8
実線
  5
868
 10
5.52958
 20
174.974
 30
0.000000
  70
    32
  0
VERTEX
  8
実線
  5
869
 10
5.53153
 20
174.975
 30
0.000000
  70
    32
  0
VERTEX
  8
実線
  5
86A
 10
5.53348
 20
174.977
 30
0.000000
  70
    32
  0
VERTEX
  8
実線
  5
86B
 10
5.53543
 20
174.978
 30
0.000000
  70
    32
  0
VERTEX
  8
実線
  5
86C
 10
5.53737
 20
174.979
 30
0.000000
  70
    32
  0
VERTEX
  8
実線
  5
86D
 10
5.53932
 20
174.980
 30
0.000000
  70
    32
  0
VERTEX
  8
実線
  5
86E
 10
5.54126
 20
174.982
 30
0.000000
  70
    32
  0
VERTEX
  8
実線
  5
86F
 10
5.54320
 20
174.983
 30
0.000000
  70
    32
  0
VERTEX
  8
実線
  5
870
 10
5.54514
 20
174.984
 30
0.000000
  70
    32
  0
VERTEX
  8
実線
  5
871
 10
5.54707
 20
174.985
 30
0.000000
  70
    32
  0
VERTEX
  8
実線
  5
872
 10
5.54900
 20
174.987
 30
0.000000
  70
    32
  0
VERTEX
  8
実線
  5
873
 10
5.55094
 20
174.988
 30
0.000000
  70
    32
  0
VERTEX
  8
実線
  5
874
 10
5.55286
 20
174.989
 30
0.000000
  70
    32
  0
VERTEX
  8
実線
  5
875
 10
5.55479
 20
174.990
 30
0.000000
  70
    32
  0
VERTEX
  8
実線
  5
876
 10
5.55672
 20
174.992
 30
0.000000
  70
    32
  0
VERTEX
  8
実線
  5
877
 10
5.55864
 20
174.993
 30
0.000000
  70
    32
  0
VERTEX
  8
実線
  5
878
 10
5.56056
 20
174.994
 30
0.000000
  70
    32
  0
SEQEND
  8
実線
  5
879
  0
POLYLINE
  8
実線
  5
87A
  62
7
  66
     1
 10
0.000000
 20
0.000000
 30
0.000000
  70
     8
  0
VERTEX
  8
実線
  5
87B
 10
0.611160
 20
177.319
 30
0.000000
  70
    32
  0
VERTEX
  8
実線
  5
87C
 10
0.599031
 20
177.295
 30
0.000000
  70
    32
  0
VERTEX
  8
実線
  5
87D
 10
0.587568
 20
177.270
 30
0.000000
  70
    32
  0
VERTEX
  8
実線
  5
87E
 10
0.576766
 20
177.246
 30
0.000000
  70
    32
  0
VERTEX
  8
実線
  5
87F
 10
0.566624
 20
177.221
 30
0.000000
  70
    32
  0
VERTEX
  8
実線
  5
880
 10
0.557138
 20
177.197
 30
0.000000
  70
    32
  0
VERTEX
  8
実線
  5
881
 10
0.548305
 20
177.172
 30
0.000000
  70
    32
  0
VERTEX
  8
実線
  5
882
 10
0.540122
 20
177.148
 30
0.000000
  70
    32
  0
VERTEX
  8
実線
  5
883
 10
0.532586
 20
177.123
 30
0.000000
  70
    32
  0
VERTEX
  8
実線
  5
884
 10
0.525694
 20
177.098
 30
0.000000
  70
    32
  0
VERTEX
  8
実線
  5
885
 10
0.519442
 20
177.073
 30
0.000000
  70
    32
  0
VERTEX
  8
実線
  5
886
 10
0.513829
 20
177.048
 30
0.000000
  70
    32
  0
VERTEX
  8
実線
  5
887
 10
0.508849
 20
177.023
 30
0.000000
  70
    32
  0
VERTEX
  8
実線
  5
888
 10
0.504502
 20
176.998
 30
0.000000
  70
    32
  0
VERTEX
  8
実線
  5
889
 10
0.500783
 20
176.973
 30
0.000000
  70
    32
  0
VERTEX
  8
実線
  5
88A
 10
0.497689
 20
176.948
 30
0.000000
  70
    32
  0
VERTEX
  8
実線
  5
88B
 10
0.495218
 20
176.923
 30
0.000000
  70
    32
  0
VERTEX
  8
実線
  5
88C
 10
0.493366
 20
176.898
 30
0.000000
  70
    32
  0
VERTEX
  8
実線
  5
88D
 10
0.492130
 20
176.873
 30
0.000000
  70
    32
  0
VERTEX
  8
実線
  5
88E
 10
0.491508
 20
176.848
 30
0.000000
  70
    32
  0
VERTEX
  8
実線
  5
88F
 10
0.491495
 20
176.822
 30
0.000000
  70
    32
  0
VERTEX
  8
実線
  5
890
 10
0.492090
 20
176.797
 30
0.000000
  70
    32
  0
VERTEX
  8
実線
  5
891
 10
0.493288
 20
176.772
 30
0.000000
  70
    32
  0
VERTEX
  8
実線
  5
892
 10
0.495088
 20
176.746
 30
0.000000
  70
    32
  0
VERTEX
  8
実線
  5
893
 10
0.497485
 20
176.721
 30
0.000000
  70
    32
  0
VERTEX
  8
実線
  5
894
 10
0.500477
 20
176.696
 30
0.000000
  70
    32
  0
VERTEX
  8
実線
  5
895
 10
0.504061
 20
176.671
 30
0.000000
  70
    32
  0
VERTEX
  8
実線
  5
896
 10
0.508233
 20
176.645
 30
0.000000
  70
    32
  0
VERTEX
  8
実線
  5
897
 10
0.512991
 20
176.620
 30
0.000000
  70
    32
  0
VERTEX
  8
実線
  5
898
 10
0.518331
 20
176.595
 30
0.000000
  70
    32
  0
VERTEX
  8
実線
  5
899
 10
0.524251
 20
176.570
 30
0.000000
  70
    32
  0
VERTEX
  8
実線
  5
89A
 10
0.530747
 20
176.544
 30
0.000000
  70
    32
  0
VERTEX
  8
実線
  5
89B
 10
0.537816
 20
176.519
 30
0.000000
  70
    32
  0
VERTEX
  8
実線
  5
89C
 10
0.545456
 20
176.494
 30
0.000000
  70
    32
  0
VERTEX
  8
実線
  5
89D
 10
0.553663
 20
176.469
 30
0.000000
  70
    32
  0
VERTEX
  8
実線
  5
89E
 10
0.562433
 20
176.444
 30
0.000000
  70
    32
  0
VERTEX
  8
実線
  5
89F
 10
0.571765
 20
176.419
 30
0.000000
  70
    32
  0
VERTEX
  8
実線
  5
8A0
 10
0.581655
 20
176.394
 30
0.000000
  70
    32
  0
VERTEX
  8
実線
  5
8A1
 10
0.592099
 20
176.369
 30
0.000000
  70
    32
  0
VERTEX
  8
実線
  5
8A2
 10
0.603096
 20
176.344
 30
0.000000
  70
    32
  0
VERTEX
  8
実線
  5
8A3
 10
0.614641
 20
176.319
 30
0.000000
  70
    32
  0
VERTEX
  8
実線
  5
8A4
 10
0.626732
 20
176.294
 30
0.000000
  70
    32
  0
VERTEX
  8
実線
  5
8A5
 10
0.639365
 20
176.269
 30
0.000000
  70
    32
  0
VERTEX
  8
実線
  5
8A6
 10
0.652538
 20
176.244
 30
0.000000
  70
    32
  0
VERTEX
  8
実線
  5
8A7
 10
0.666247
 20
176.220
 30
0.000000
  70
    32
  0
VERTEX
  8
実線
  5
8A8
 10
0.680490
 20
176.195
 30
0.000000
  70
    32
  0
VERTEX
  8
実線
  5
8A9
 10
0.695263
 20
176.171
 30
0.000000
  70
    32
  0
VERTEX
  8
実線
  5
8AA
 10
0.710564
 20
176.146
 30
0.000000
  70
    32
  0
VERTEX
  8
実線
  5
8AB
 10
0.726388
 20
176.122
 30
0.000000
  70
    32
  0
VERTEX
  8
実線
  5
8AC
 10
0.742734
 20
176.098
 30
0.000000
  70
    32
  0
VERTEX
  8
実線
  5
8AD
 10
0.759598
 20
176.073
 30
0.000000
  70
    32
  0
VERTEX
  8
実線
  5
8AE
 10
0.776976
 20
176.049
 30
0.000000
  70
    32
  0
VERTEX
  8
実線
  5
8AF
 10
0.794867
 20
176.025
 30
0.000000
  70
    32
  0
VERTEX
  8
実線
  5
8B0
 10
0.813266
 20
176.001
 30
0.000000
  70
    32
  0
VERTEX
  8
実線
  5
8B1
 10
0.832172
 20
175.978
 30
0.000000
  70
    32
  0
VERTEX
  8
実線
  5
8B2
 10
0.851580
 20
175.954
 30
0.000000
  70
    32
  0
VERTEX
  8
実線
  5
8B3
 10
0.871487
 20
175.930
 30
0.000000
  70
    32
  0
VERTEX
  8
実線
  5
8B4
 10
0.891891
 20
175.907
 30
0.000000
  70
    32
  0
VERTEX
  8
実線
  5
8B5
 10
0.912789
 20
175.883
 30
0.000000
  70
    32
  0
VERTEX
  8
実線
  5
8B6
 10
0.934177
 20
175.860
 30
0.000000
  70
    32
  0
VERTEX
  8
実線
  5
8B7
 10
0.956053
 20
175.837
 30
0.000000
  70
    32
  0
VERTEX
  8
実線
  5
8B8
 10
0.978412
 20
175.814
 30
0.000000
  70
    32
  0
VERTEX
  8
実線
  5
8B9
 10
1.00125
 20
175.791
 30
0.000000
  70
    32
  0
VERTEX
  8
実線
  5
8BA
 10
1.02457
 20
175.768
 30
0.000000
  70
    32
  0
VERTEX
  8
実線
  5
8BB
 10
1.04837
 20
175.746
 30
0.000000
  70
    32
  0
VERTEX
  8
実線
  5
8BC
 10
1.07263
 20
175.723
 30
0.000000
  70
    32
  0
VERTEX
  8
実線
  5
8BD
 10
1.09737
 20
175.701
 30
0.000000
  70
    32
  0
VERTEX
  8
実線
  5
8BE
 10
1.12257
 20
175.679
 30
0.000000
  70
    32
  0
VERTEX
  8
実線
  5
8BF
 10
1.14823
 20
175.657
 30
0.000000
  70
    32
  0
VERTEX
  8
実線
  5
8C0
 10
1.17436
 20
175.635
 30
0.000000
  70
    32
  0
VERTEX
  8
実線
  5
8C1
 10
1.20094
 20
175.613
 30
0.000000
  70
    32
  0
VERTEX
  8
実線
  5
8C2
 10
1.22797
 20
175.592
 30
0.000000
  70
    32
  0
VERTEX
  8
実線
  5
8C3
 10
1.25546
 20
175.570
 30
0.000000
  70
    32
  0
VERTEX
  8
実線
  5
8C4
 10
1.28339
 20
175.549
 30
0.000000
  70
    32
  0
VERTEX
  8
実線
  5
8C5
 10
1.31177
 20
175.528
 30
0.000000
  70
    32
  0
VERTEX
  8
実線
  5
8C6
 10
1.34058
 20
175.507
 30
0.000000
  70
    32
  0
VERTEX
  8
実線
  5
8C7
 10
1.36984
 20
175.487
 30
0.000000
  70
    32
  0
VERTEX
  8
実線
  5
8C8
 10
1.39953
 20
175.466
 30
0.000000
  70
    32
  0
VERTEX
  8
実線
  5
8C9
 10
1.42965
 20
175.446
 30
0.000000
  70
    32
  0
VERTEX
  8
実線
  5
8CA
 10
1.46021
 20
175.426
 30
0.000000
  70
    32
  0
VERTEX
  8
実線
  5
8CB
 10
1.49119
 20
175.406
 30
0.000000
  70
    32
  0
VERTEX
  8
実線
  5
8CC
 10
1.52259
 20
175.386
 30
0.000000
  70
    32
  0
VERTEX
  8
実線
  5
8CD
 10
1.55441
 20
175.367
 30
0.000000
  70
    32
  0
VERTEX
  8
実線
  5
8CE
 10
1.58665
 20
175.347
 30
0.000000
  70
    32
  0
VERTEX
  8
実線
  5
8CF
 10
1.61930
 20
175.328
 30
0.000000
  70
    32
  0
VERTEX
  8
実線
  5
8D0
 10
1.65236
 20
175.309
 30
0.000000
  70
    32
  0
VERTEX
  8
実線
  5
8D1
 10
1.68583
 20
175.291
 30
0.000000
  70
    32
  0
VERTEX
  8
実線
  5
8D2
 10
1.71971
 20
175.272
 30
0.000000
  70
    32
  0
VERTEX
  8
実線
  5
8D3
 10
1.75398
 20
175.254
 30
0.000000
  70
    32
  0
VERTEX
  8
実線
  5
8D4
 10
1.78866
 20
175.236
 30
0.000000
  70
    32
  0
VERTEX
  8
実線
  5
8D5
 10
1.82373
 20
175.218
 30
0.000000
  70
    32
  0
VERTEX
  8
実線
  5
8D6
 10
1.85919
 20
175.201
 30
0.000000
  70
    32
  0
VERTEX
  8
実線
  5
8D7
 10
1.89504
 20
175.183
 30
0.000000
  70
    32
  0
VERTEX
  8
実線
  5
8D8
 10
1.93128
 20
175.166
 30
0.000000
  70
    32
  0
VERTEX
  8
実線
  5
8D9
 10
1.96790
 20
175.149
 30
0.000000
  70
    32
  0
VERTEX
  8
実線
  5
8DA
 10
2.00490
 20
175.133
 30
0.000000
  70
    32
  0
VERTEX
  8
実線
  5
8DB
 10
2.04228
 20
175.116
 30
0.000000
  70
    32
  0
VERTEX
  8
実線
  5
8DC
 10
2.08003
 20
175.100
 30
0.000000
  70
    32
  0
VERTEX
  8
実線
  5
8DD
 10
2.11815
 20
175.085
 30
0.000000
  70
    32
  0
VERTEX
  8
実線
  5
8DE
 10
2.15664
 20
175.069
 30
0.000000
  70
    32
  0
VERTEX
  8
実線
  5
8DF
 10
2.19550
 20
175.054
 30
0.000000
  70
    32
  0
VERTEX
  8
実線
  5
8E0
 10
2.23471
 20
175.039
 30
0.000000
  70
    32
  0
VERTEX
  8
実線
  5
8E1
 10
2.27429
 20
175.024
 30
0.000000
  70
    32
  0
VERTEX
  8
実線
  5
8E2
 10
2.31422
 20
175.010
 30
0.000000
  70
    32
  0
VERTEX
  8
実線
  5
8E3
 10
2.35450
 20
174.995
 30
0.000000
  70
    32
  0
VERTEX
  8
実線
  5
8E4
 10
2.39513
 20
174.982
 30
0.000000
  70
    32
  0
VERTEX
  8
実線
  5
8E5
 10
2.43611
 20
174.968
 30
0.000000
  70
    32
  0
VERTEX
  8
実線
  5
8E6
 10
2.47743
 20
174.955
 30
0.000000
  70
    32
  0
VERTEX
  8
実線
  5
8E7
 10
2.51909
 20
174.942
 30
0.000000
  70
    32
  0
VERTEX
  8
実線
  5
8E8
 10
2.56109
 20
174.929
 30
0.000000
  70
    32
  0
VERTEX
  8
実線
  5
8E9
 10
2.60342
 20
174.917
 30
0.000000
  70
    32
  0
VERTEX
  8
実線
  5
8EA
 10
2.64608
 20
174.904
 30
0.000000
  70
    32
  0
VERTEX
  8
実線
  5
8EB
 10
2.67829
 20
174.896
 30
0.000000
  70
    32
  0
VERTEX
  8
実線
  5
8EC
 10
2.69982
 20
174.890
 30
0.000000
  70
    32
  0
VERTEX
  8
実線
  5
8ED
 10
2.72138
 20
174.884
 30
0.000000
  70
    32
  0
VERTEX
  8
実線
  5
8EE
 10
2.74296
 20
174.878
 30
0.000000
  70
    32
  0
VERTEX
  8
実線
  5
8EF
 10
2.76457
 20
174.873
 30
0.000000
  70
    32
  0
VERTEX
  8
実線
  5
8F0
 10
2.78620
 20
174.868
 30
0.000000
  70
    32
  0
VERTEX
  8
実線
  5
8F1
 10
2.80786
 20
174.862
 30
0.000000
  70
    32
  0
VERTEX
  8
実線
  5
8F2
 10
2.82954
 20
174.857
 30
0.000000
  70
    32
  0
VERTEX
  8
実線
  5
8F3
 10
2.85124
 20
174.852
 30
0.000000
  70
    32
  0
VERTEX
  8
実線
  5
8F4
 10
2.87296
 20
174.847
 30
0.000000
  70
    32
  0
VERTEX
  8
実線
  5
8F5
 10
2.89471
 20
174.842
 30
0.000000
  70
    32
  0
VERTEX
  8
実線
  5
8F6
 10
2.91647
 20
174.837
 30
0.000000
  70
    32
  0
VERTEX
  8
実線
  5
8F7
 10
2.93825
 20
174.832
 30
0.000000
  70
    32
  0
VERTEX
  8
実線
  5
8F8
 10
2.96005
 20
174.828
 30
0.000000
  70
    32
  0
VERTEX
  8
実線
  5
8F9
 10
2.98187
 20
174.823
 30
0.000000
  70
    32
  0
VERTEX
  8
実線
  5
8FA
 10
3.00371
 20
174.819
 30
0.000000
  70
    32
  0
VERTEX
  8
実線
  5
8FB
 10
3.02555
 20
174.814
 30
0.000000
  70
    32
  0
VERTEX
  8
実線
  5
8FC
 10
3.04742
 20
174.810
 30
0.000000
  70
    32
  0
VERTEX
  8
実線
  5
8FD
 10
3.06929
 20
174.806
 30
0.000000
  70
    32
  0
VERTEX
  8
実線
  5
8FE
 10
3.09118
 20
174.802
 30
0.000000
  70
    32
  0
VERTEX
  8
実線
  5
8FF
 10
3.11308
 20
174.798
 30
0.000000
  70
    32
  0
VERTEX
  8
実線
  5
900
 10
3.13500
 20
174.794
 30
0.000000
  70
    32
  0
VERTEX
  8
実線
  5
901
 10
3.15692
 20
174.790
 30
0.000000
  70
    32
  0
VERTEX
  8
実線
  5
902
 10
3.17885
 20
174.786
 30
0.000000
  70
    32
  0
VERTEX
  8
実線
  5
903
 10
3.20079
 20
174.783
 30
0.000000
  70
    32
  0
VERTEX
  8
実線
  5
904
 10
3.22273
 20
174.779
 30
0.000000
  70
    32
  0
VERTEX
  8
実線
  5
905
 10
3.24469
 20
174.776
 30
0.000000
  70
    32
  0
VERTEX
  8
実線
  5
906
 10
3.26664
 20
174.772
 30
0.000000
  70
    32
  0
VERTEX
  8
実線
  5
907
 10
3.28861
 20
174.769
 30
0.000000
  70
    32
  0
VERTEX
  8
実線
  5
908
 10
3.31058
 20
174.766
 30
0.000000
  70
    32
  0
VERTEX
  8
実線
  5
909
 10
3.33255
 20
174.763
 30
0.000000
  70
    32
  0
VERTEX
  8
実線
  5
90A
 10
3.35452
 20
174.760
 30
0.000000
  70
    32
  0
VERTEX
  8
実線
  5
90B
 10
3.37649
 20
174.757
 30
0.000000
  70
    32
  0
VERTEX
  8
実線
  5
90C
 10
3.39847
 20
174.754
 30
0.000000
  70
    32
  0
VERTEX
  8
実線
  5
90D
 10
3.42044
 20
174.752
 30
0.000000
  70
    32
  0
VERTEX
  8
実線
  5
90E
 10
3.44241
 20
174.749
 30
0.000000
  70
    32
  0
VERTEX
  8
実線
  5
90F
 10
3.46438
 20
174.747
 30
0.000000
  70
    32
  0
VERTEX
  8
実線
  5
910
 10
3.48635
 20
174.744
 30
0.000000
  70
    32
  0
VERTEX
  8
実線
  5
911
 10
3.50831
 20
174.742
 30
0.000000
  70
    32
  0
VERTEX
  8
実線
  5
912
 10
3.53027
 20
174.740
 30
0.000000
  70
    32
  0
VERTEX
  8
実線
  5
913
 10
3.55222
 20
174.738
 30
0.000000
  70
    32
  0
VERTEX
  8
実線
  5
914
 10
3.57417
 20
174.736
 30
0.000000
  70
    32
  0
VERTEX
  8
実線
  5
915
 10
3.59610
 20
174.734
 30
0.000000
  70
    32
  0
VERTEX
  8
実線
  5
916
 10
3.61803
 20
174.732
 30
0.000000
  70
    32
  0
VERTEX
  8
実線
  5
917
 10
3.63995
 20
174.730
 30
0.000000
  70
    32
  0
VERTEX
  8
実線
  5
918
 10
3.66187
 20
174.729
 30
0.000000
  70
    32
  0
VERTEX
  8
実線
  5
919
 10
3.68376
 20
174.727
 30
0.000000
  70
    32
  0
VERTEX
  8
実線
  5
91A
 10
3.70565
 20
174.726
 30
0.000000
  70
    32
  0
VERTEX
  8
実線
  5
91B
 10
3.72753
 20
174.724
 30
0.000000
  70
    32
  0
VERTEX
  8
実線
  5
91C
 10
3.74939
 20
174.723
 30
0.000000
  70
    32
  0
VERTEX
  8
実線
  5
91D
 10
3.77124
 20
174.722
 30
0.000000
  70
    32
  0
VERTEX
  8
実線
  5
91E
 10
3.79307
 20
174.721
 30
0.000000
  70
    32
  0
VERTEX
  8
実線
  5
91F
 10
3.81488
 20
174.720
 30
0.000000
  70
    32
  0
VERTEX
  8
実線
  5
920
 10
3.83668
 20
174.719
 30
0.000000
  70
    32
  0
VERTEX
  8
実線
  5
921
 10
3.85846
 20
174.718
 30
0.000000
  70
    32
  0
VERTEX
  8
実線
  5
922
 10
3.88022
 20
174.718
 30
0.000000
  70
    32
  0
VERTEX
  8
実線
  5
923
 10
3.90197
 20
174.717
 30
0.000000
  70
    32
  0
VERTEX
  8
実線
  5
924
 10
3.92369
 20
174.717
 30
0.000000
  70
    32
  0
VERTEX
  8
実線
  5
925
 10
3.94539
 20
174.716
 30
0.000000
  70
    32
  0
VERTEX
  8
実線
  5
926
 10
3.96706
 20
174.716
 30
0.000000
  70
    32
  0
VERTEX
  8
実線
  5
927
 10
3.98872
 20
174.716
 30
0.000000
  70
    32
  0
VERTEX
  8
実線
  5
928
 10
4.01035
 20
174.716
 30
0.000000
  70
    32
  0
VERTEX
  8
実線
  5
929
 10
4.03195
 20
174.716
 30
0.000000
  70
    32
  0
VERTEX
  8
実線
  5
92A
 10
4.05353
 20
174.716
 30
0.000000
  70
    32
  0
VERTEX
  8
実線
  5
92B
 10
4.07509
 20
174.716
 30
0.000000
  70
    32
  0
VERTEX
  8
実線
  5
92C
 10
4.09661
 20
174.716
 30
0.000000
  70
    32
  0
VERTEX
  8
実線
  5
92D
 10
4.11811
 20
174.717
 30
0.000000
  70
    32
  0
VERTEX
  8
実線
  5
92E
 10
4.13958
 20
174.717
 30
0.000000
  70
    32
  0
VERTEX
  8
実線
  5
92F
 10
4.16102
 20
174.718
 30
0.000000
  70
    32
  0
VERTEX
  8
実線
  5
930
 10
4.18242
 20
174.718
 30
0.000000
  70
    32
  0
VERTEX
  8
実線
  5
931
 10
4.20380
 20
174.719
 30
0.000000
  70
    32
  0
VERTEX
  8
実線
  5
932
 10
4.22514
 20
174.720
 30
0.000000
  70
    32
  0
VERTEX
  8
実線
  5
933
 10
4.24645
 20
174.721
 30
0.000000
  70
    32
  0
VERTEX
  8
実線
  5
934
 10
4.26772
 20
174.722
 30
0.000000
  70
    32
  0
VERTEX
  8
実線
  5
935
 10
4.28896
 20
174.723
 30
0.000000
  70
    32
  0
VERTEX
  8
実線
  5
936
 10
4.31016
 20
174.724
 30
0.000000
  70
    32
  0
VERTEX
  8
実線
  5
937
 10
4.33132
 20
174.726
 30
0.000000
  70
    32
  0
VERTEX
  8
実線
  5
938
 10
4.35245
 20
174.727
 30
0.000000
  70
    32
  0
VERTEX
  8
実線
  5
939
 10
4.37354
 20
174.729
 30
0.000000
  70
    32
  0
VERTEX
  8
実線
  5
93A
 10
4.39459
 20
174.730
 30
0.000000
  70
    32
  0
VERTEX
  8
実線
  5
93B
 10
4.41559
 20
174.732
 30
0.000000
  70
    32
  0
VERTEX
  8
実線
  5
93C
 10
4.43656
 20
174.734
 30
0.000000
  70
    32
  0
VERTEX
  8
実線
  5
93D
 10
4.45748
 20
174.736
 30
0.000000
  70
    32
  0
VERTEX
  8
実線
  5
93E
 10
4.47836
 20
174.738
 30
0.000000
  70
    32
  0
VERTEX
  8
実線
  5
93F
 10
4.49920
 20
174.740
 30
0.000000
  70
    32
  0
VERTEX
  8
実線
  5
940
 10
4.51999
 20
174.742
 30
0.000000
  70
    32
  0
VERTEX
  8
実線
  5
941
 10
4.54074
 20
174.745
 30
0.000000
  70
    32
  0
VERTEX
  8
実線
  5
942
 10
4.56144
 20
174.747
 30
0.000000
  70
    32
  0
VERTEX
  8
実線
  5
943
 10
4.58209
 20
174.750
 30
0.000000
  70
    32
  0
VERTEX
  8
実線
  5
944
 10
4.60269
 20
174.752
 30
0.000000
  70
    32
  0
VERTEX
  8
実線
  5
945
 10
4.62324
 20
174.755
 30
0.000000
  70
    32
  0
VERTEX
  8
実線
  5
946
 10
4.64374
 20
174.758
 30
0.000000
  70
    32
  0
VERTEX
  8
実線
  5
947
 10
4.66420
 20
174.760
 30
0.000000
  70
    32
  0
VERTEX
  8
実線
  5
948
 10
4.68460
 20
174.763
 30
0.000000
  70
    32
  0
VERTEX
  8
実線
  5
949
 10
4.70494
 20
174.767
 30
0.000000
  70
    32
  0
VERTEX
  8
実線
  5
94A
 10
4.72523
 20
174.770
 30
0.000000
  70
    32
  0
VERTEX
  8
実線
  5
94B
 10
4.74547
 20
174.773
 30
0.000000
  70
    32
  0
VERTEX
  8
実線
  5
94C
 10
4.76566
 20
174.776
 30
0.000000
  70
    32
  0
VERTEX
  8
実線
  5
94D
 10
4.78578
 20
174.780
 30
0.000000
  70
    32
  0
VERTEX
  8
実線
  5
94E
 10
4.80585
 20
174.783
 30
0.000000
  70
    32
  0
VERTEX
  8
実線
  5
94F
 10
4.82586
 20
174.787
 30
0.000000
  70
    32
  0
VERTEX
  8
実線
  5
950
 10
4.84581
 20
174.791
 30
0.000000
  70
    32
  0
VERTEX
  8
実線
  5
951
 10
4.86571
 20
174.795
 30
0.000000
  70
    32
  0
VERTEX
  8
実線
  5
952
 10
4.88554
 20
174.799
 30
0.000000
  70
    32
  0
VERTEX
  8
実線
  5
953
 10
4.90531
 20
174.803
 30
0.000000
  70
    32
  0
VERTEX
  8
実線
  5
954
 10
4.92502
 20
174.807
 30
0.000000
  70
    32
  0
VERTEX
  8
実線
  5
955
 10
4.94466
 20
174.811
 30
0.000000
  70
    32
  0
VERTEX
  8
実線
  5
956
 10
4.96424
 20
174.815
 30
0.000000
  70
    32
  0
VERTEX
  8
実線
  5
957
 10
4.98376
 20
174.820
 30
0.000000
  70
    32
  0
VERTEX
  8
実線
  5
958
 10
5.00320
 20
174.824
 30
0.000000
  70
    32
  0
VERTEX
  8
実線
  5
959
 10
5.02259
 20
174.829
 30
0.000000
  70
    32
  0
VERTEX
  8
実線
  5
95A
 10
5.04190
 20
174.834
 30
0.000000
  70
    32
  0
SEQEND
  8
実線
  5
95B
  0
POLYLINE
  8
実線
  5
95C
  62
7
  66
     1
 10
0.000000
 20
0.000000
 30
0.000000
  70
     8
  0
VERTEX
  8
実線
  5
95D
 10
133.507
 20
215.436
 30
0.000000
  70
    32
  0
VERTEX
  8
実線
  5
95E
 10
133.482
 20
215.428
 30
0.000000
  70
    32
  0
VERTEX
  8
実線
  5
95F
 10
133.457
 20
215.419
 30
0.000000
  70
    32
  0
VERTEX
  8
実線
  5
960
 10
133.432
 20
215.410
 30
0.000000
  70
    32
  0
VERTEX
  8
実線
  5
961
 10
133.407
 20
215.400
 30
0.000000
  70
    32
  0
VERTEX
  8
実線
  5
962
 10
133.383
 20
215.390
 30
0.000000
  70
    32
  0
VERTEX
  8
実線
  5
963
 10
133.359
 20
215.379
 30
0.000000
  70
    32
  0
VERTEX
  8
実線
  5
964
 10
133.336
 20
215.368
 30
0.000000
  70
    32
  0
VERTEX
  8
実線
  5
965
 10
133.312
 20
215.357
 30
0.000000
  70
    32
  0
VERTEX
  8
実線
  5
966
 10
133.289
 20
215.345
 30
0.000000
  70
    32
  0
VERTEX
  8
実線
  5
967
 10
133.267
 20
215.333
 30
0.000000
  70
    32
  0
VERTEX
  8
実線
  5
968
 10
133.244
 20
215.320
 30
0.000000
  70
    32
  0
VERTEX
  8
実線
  5
969
 10
133.222
 20
215.307
 30
0.000000
  70
    32
  0
VERTEX
  8
実線
  5
96A
 10
133.200
 20
215.294
 30
0.000000
  70
    32
  0
VERTEX
  8
実線
  5
96B
 10
133.179
 20
215.280
 30
0.000000
  70
    32
  0
VERTEX
  8
実線
  5
96C
 10
133.158
 20
215.266
 30
0.000000
  70
    32
  0
VERTEX
  8
実線
  5
96D
 10
133.137
 20
215.251
 30
0.000000
  70
    32
  0
VERTEX
  8
実線
  5
96E
 10
133.117
 20
215.236
 30
0.000000
  70
    32
  0
VERTEX
  8
実線
  5
96F
 10
133.096
 20
215.221
 30
0.000000
  70
    32
  0
VERTEX
  8
実線
  5
970
 10
133.076
 20
215.206
 30
0.000000
  70
    32
  0
VERTEX
  8
実線
  5
971
 10
133.057
 20
215.190
 30
0.000000
  70
    32
  0
VERTEX
  8
実線
  5
972
 10
133.038
 20
215.173
 30
0.000000
  70
    32
  0
VERTEX
  8
実線
  5
973
 10
133.019
 20
215.156
 30
0.000000
  70
    32
  0
VERTEX
  8
実線
  5
974
 10
133.000
 20
215.139
 30
0.000000
  70
    32
  0
VERTEX
  8
実線
  5
975
 10
132.982
 20
215.122
 30
0.000000
  70
    32
  0
VERTEX
  8
実線
  5
976
 10
132.964
 20
215.104
 30
0.000000
  70
    32
  0
VERTEX
  8
実線
  5
977
 10
132.946
 20
215.086
 30
0.000000
  70
    32
  0
VERTEX
  8
実線
  5
978
 10
132.929
 20
215.068
 30
0.000000
  70
    32
  0
VERTEX
  8
実線
  5
979
 10
132.912
 20
215.049
 30
0.000000
  70
    32
  0
VERTEX
  8
実線
  5
97A
 10
132.895
 20
215.030
 30
0.000000
  70
    32
  0
VERTEX
  8
実線
  5
97B
 10
132.879
 20
215.010
 30
0.000000
  70
    32
  0
VERTEX
  8
実線
  5
97C
 10
132.863
 20
214.991
 30
0.000000
  70
    32
  0
VERTEX
  8
実線
  5
97D
 10
132.847
 20
214.971
 30
0.000000
  70
    32
  0
VERTEX
  8
実線
  5
97E
 10
132.832
 20
214.950
 30
0.000000
  70
    32
  0
VERTEX
  8
実線
  5
97F
 10
132.817
 20
214.930
 30
0.000000
  70
    32
  0
VERTEX
  8
実線
  5
980
 10
132.802
 20
214.909
 30
0.000000
  70
    32
  0
VERTEX
  8
実線
  5
981
 10
132.788
 20
214.888
 30
0.000000
  70
    32
  0
VERTEX
  8
実線
  5
982
 10
132.774
 20
214.866
 30
0.000000
  70
    32
  0
VERTEX
  8
実線
  5
983
 10
132.760
 20
214.844
 30
0.000000
  70
    32
  0
VERTEX
  8
実線
  5
984
 10
132.747
 20
214.822
 30
0.000000
  70
    32
  0
VERTEX
  8
実線
  5
985
 10
132.734
 20
214.800
 30
0.000000
  70
    32
  0
VERTEX
  8
実線
  5
986
 10
132.721
 20
214.777
 30
0.000000
  70
    32
  0
VERTEX
  8
実線
  5
987
 10
132.709
 20
214.754
 30
0.000000
  70
    32
  0
VERTEX
  8
実線
  5
988
 10
132.697
 20
214.731
 30
0.000000
  70
    32
  0
VERTEX
  8
実線
  5
989
 10
132.686
 20
214.707
 30
0.000000
  70
    32
  0
VERTEX
  8
実線
  5
98A
 10
132.674
 20
214.684
 30
0.000000
  70
    32
  0
VERTEX
  8
実線
  5
98B
 10
132.663
 20
214.660
 30
0.000000
  70
    32
  0
VERTEX
  8
実線
  5
98C
 10
132.653
 20
214.635
 30
0.000000
  70
    32
  0
VERTEX
  8
実線
  5
98D
 10
132.643
 20
214.611
 30
0.000000
  70
    32
  0
VERTEX
  8
実線
  5
98E
 10
132.633
 20
214.586
 30
0.000000
  70
    32
  0
VERTEX
  8
実線
  5
98F
 10
132.623
 20
214.561
 30
0.000000
  70
    32
  0
VERTEX
  8
実線
  5
990
 10
132.614
 20
214.536
 30
0.000000
  70
    32
  0
VERTEX
  8
実線
  5
991
 10
132.605
 20
214.510
 30
0.000000
  70
    32
  0
VERTEX
  8
実線
  5
992
 10
132.597
 20
214.485
 30
0.000000
  70
    32
  0
VERTEX
  8
実線
  5
993
 10
132.589
 20
214.459
 30
0.000000
  70
    32
  0
VERTEX
  8
実線
  5
994
 10
132.581
 20
214.433
 30
0.000000
  70
    32
  0
VERTEX
  8
実線
  5
995
 10
132.574
 20
214.406
 30
0.000000
  70
    32
  0
VERTEX
  8
実線
  5
996
 10
132.567
 20
214.380
 30
0.000000
  70
    32
  0
VERTEX
  8
実線
  5
997
 10
132.560
 20
214.353
 30
0.000000
  70
    32
  0
VERTEX
  8
実線
  5
998
 10
132.554
 20
214.326
 30
0.000000
  70
    32
  0
VERTEX
  8
実線
  5
999
 10
132.548
 20
214.299
 30
0.000000
  70
    32
  0
VERTEX
  8
実線
  5
99A
 10
132.542
 20
214.271
 30
0.000000
  70
    32
  0
VERTEX
  8
実線
  5
99B
 10
132.537
 20
214.244
 30
0.000000
  70
    32
  0
VERTEX
  8
実線
  5
99C
 10
132.532
 20
214.216
 30
0.000000
  70
    32
  0
VERTEX
  8
実線
  5
99D
 10
132.528
 20
214.188
 30
0.000000
  70
    32
  0
VERTEX
  8
実線
  5
99E
 10
132.523
 20
214.160
 30
0.000000
  70
    32
  0
VERTEX
  8
実線
  5
99F
 10
132.520
 20
214.131
 30
0.000000
  70
    32
  0
VERTEX
  8
実線
  5
9A0
 10
132.516
 20
214.103
 30
0.000000
  70
    32
  0
VERTEX
  8
実線
  5
9A1
 10
132.513
 20
214.074
 30
0.000000
  70
    32
  0
VERTEX
  8
実線
  5
9A2
 10
132.511
 20
214.046
 30
0.000000
  70
    32
  0
VERTEX
  8
実線
  5
9A3
 10
132.508
 20
214.017
 30
0.000000
  70
    32
  0
VERTEX
  8
実線
  5
9A4
 10
132.507
 20
213.987
 30
0.000000
  70
    32
  0
VERTEX
  8
実線
  5
9A5
 10
132.505
 20
213.958
 30
0.000000
  70
    32
  0
VERTEX
  8
実線
  5
9A6
 10
132.504
 20
213.929
 30
0.000000
  70
    32
  0
VERTEX
  8
実線
  5
9A7
 10
132.503
 20
213.899
 30
0.000000
  70
    32
  0
VERTEX
  8
実線
  5
9A8
 10
132.503
 20
213.869
 30
0.000000
  70
    32
  0
VERTEX
  8
実線
  5
9A9
 10
132.503
 20
213.840
 30
0.000000
  70
    32
  0
VERTEX
  8
実線
  5
9AA
 10
132.503
 20
213.810
 30
0.000000
  70
    32
  0
VERTEX
  8
実線
  5
9AB
 10
132.504
 20
213.779
 30
0.000000
  70
    32
  0
VERTEX
  8
実線
  5
9AC
 10
132.505
 20
213.749
 30
0.000000
  70
    32
  0
VERTEX
  8
実線
  5
9AD
 10
132.507
 20
213.719
 30
0.000000
  70
    32
  0
VERTEX
  8
実線
  5
9AE
 10
132.509
 20
213.688
 30
0.000000
  70
    32
  0
VERTEX
  8
実線
  5
9AF
 10
132.511
 20
213.658
 30
0.000000
  70
    32
  0
VERTEX
  8
実線
  5
9B0
 10
132.514
 20
213.627
 30
0.000000
  70
    32
  0
VERTEX
  8
実線
  5
9B1
 10
132.517
 20
213.596
 30
0.000000
  70
    32
  0
VERTEX
  8
実線
  5
9B2
 10
132.520
 20
213.565
 30
0.000000
  70
    32
  0
VERTEX
  8
実線
  5
9B3
 10
132.524
 20
213.534
 30
0.000000
  70
    32
  0
VERTEX
  8
実線
  5
9B4
 10
132.528
 20
213.503
 30
0.000000
  70
    32
  0
VERTEX
  8
実線
  5
9B5
 10
132.533
 20
213.472
 30
0.000000
  70
    32
  0
VERTEX
  8
実線
  5
9B6
 10
132.538
 20
213.441
 30
0.000000
  70
    32
  0
VERTEX
  8
実線
  5
9B7
 10
132.543
 20
213.409
 30
0.000000
  70
    32
  0
VERTEX
  8
実線
  5
9B8
 10
132.549
 20
213.378
 30
0.000000
  70
    32
  0
VERTEX
  8
実線
  5
9B9
 10
132.555
 20
213.346
 30
0.000000
  70
    32
  0
VERTEX
  8
実線
  5
9BA
 10
132.562
 20
213.315
 30
0.000000
  70
    32
  0
VERTEX
  8
実線
  5
9BB
 10
132.569
 20
213.283
 30
0.000000
  70
    32
  0
VERTEX
  8
実線
  5
9BC
 10
132.576
 20
213.252
 30
0.000000
  70
    32
  0
VERTEX
  8
実線
  5
9BD
 10
132.584
 20
213.220
 30
0.000000
  70
    32
  0
VERTEX
  8
実線
  5
9BE
 10
132.592
 20
213.188
 30
0.000000
  70
    32
  0
VERTEX
  8
実線
  5
9BF
 10
132.601
 20
213.156
 30
0.000000
  70
    32
  0
VERTEX
  8
実線
  5
9C0
 10
132.610
 20
213.124
 30
0.000000
  70
    32
  0
VERTEX
  8
実線
  5
9C1
 10
132.620
 20
213.092
 30
0.000000
  70
    32
  0
VERTEX
  8
実線
  5
9C2
 10
132.629
 20
213.060
 30
0.000000
  70
    32
  0
VERTEX
  8
実線
  5
9C3
 10
132.640
 20
213.028
 30
0.000000
  70
    32
  0
VERTEX
  8
実線
  5
9C4
 10
132.650
 20
212.996
 30
0.000000
  70
    32
  0
VERTEX
  8
実線
  5
9C5
 10
132.662
 20
212.964
 30
0.000000
  70
    32
  0
VERTEX
  8
実線
  5
9C6
 10
132.673
 20
212.932
 30
0.000000
  70
    32
  0
VERTEX
  8
実線
  5
9C7
 10
132.685
 20
212.900
 30
0.000000
  70
    32
  0
VERTEX
  8
実線
  5
9C8
 10
132.697
 20
212.868
 30
0.000000
  70
    32
  0
VERTEX
  8
実線
  5
9C9
 10
132.710
 20
212.836
 30
0.000000
  70
    32
  0
VERTEX
  8
実線
  5
9CA
 10
132.723
 20
212.804
 30
0.000000
  70
    32
  0
VERTEX
  8
実線
  5
9CB
 10
132.737
 20
212.772
 30
0.000000
  70
    32
  0
VERTEX
  8
実線
  5
9CC
 10
132.751
 20
212.739
 30
0.000000
  70
    32
  0
VERTEX
  8
実線
  5
9CD
 10
132.764
 20
212.710
 30
0.000000
  70
    32
  0
VERTEX
  8
実線
  5
9CE
 10
132.776
 20
212.683
 30
0.000000
  70
    32
  0
VERTEX
  8
実線
  5
9CF
 10
132.789
 20
212.656
 30
0.000000
  70
    32
  0
VERTEX
  8
実線
  5
9D0
 10
132.802
 20
212.629
 30
0.000000
  70
    32
  0
VERTEX
  8
実線
  5
9D1
 10
132.815
 20
212.602
 30
0.000000
  70
    32
  0
VERTEX
  8
実線
  5
9D2
 10
132.829
 20
212.576
 30
0.000000
  70
    32
  0
VERTEX
  8
実線
  5
9D3
 10
132.842
 20
212.550
 30
0.000000
  70
    32
  0
VERTEX
  8
実線
  5
9D4
 10
132.856
 20
212.524
 30
0.000000
  70
    32
  0
VERTEX
  8
実線
  5
9D5
 10
132.870
 20
212.498
 30
0.000000
  70
    32
  0
VERTEX
  8
実線
  5
9D6
 10
132.885
 20
212.472
 30
0.000000
  70
    32
  0
VERTEX
  8
実線
  5
9D7
 10
132.899
 20
212.446
 30
0.000000
  70
    32
  0
VERTEX
  8
実線
  5
9D8
 10
132.914
 20
212.421
 30
0.000000
  70
    32
  0
VERTEX
  8
実線
  5
9D9
 10
132.929
 20
212.396
 30
0.000000
  70
    32
  0
VERTEX
  8
実線
  5
9DA
 10
132.944
 20
212.370
 30
0.000000
  70
    32
  0
VERTEX
  8
実線
  5
9DB
 10
132.959
 20
212.346
 30
0.000000
  70
    32
  0
VERTEX
  8
実線
  5
9DC
 10
132.975
 20
212.321
 30
0.000000
  70
    32
  0
VERTEX
  8
実線
  5
9DD
 10
132.990
 20
212.296
 30
0.000000
  70
    32
  0
VERTEX
  8
実線
  5
9DE
 10
133.006
 20
212.272
 30
0.000000
  70
    32
  0
VERTEX
  8
実線
  5
9DF
 10
133.023
 20
212.248
 30
0.000000
  70
    32
  0
VERTEX
  8
実線
  5
9E0
 10
133.039
 20
212.224
 30
0.000000
  70
    32
  0
VERTEX
  8
実線
  5
9E1
 10
133.055
 20
212.200
 30
0.000000
  70
    32
  0
VERTEX
  8
実線
  5
9E2
 10
133.072
 20
212.176
 30
0.000000
  70
    32
  0
VERTEX
  8
実線
  5
9E3
 10
133.089
 20
212.153
 30
0.000000
  70
    32
  0
VERTEX
  8
実線
  5
9E4
 10
133.106
 20
212.129
 30
0.000000
  70
    32
  0
VERTEX
  8
実線
  5
9E5
 10
133.123
 20
212.106
 30
0.000000
  70
    32
  0
VERTEX
  8
実線
  5
9E6
 10
133.141
 20
212.084
 30
0.000000
  70
    32
  0
VERTEX
  8
実線
  5
9E7
 10
133.159
 20
212.061
 30
0.000000
  70
    32
  0
VERTEX
  8
実線
  5
9E8
 10
133.176
 20
212.038
 30
0.000000
  70
    32
  0
VERTEX
  8
実線
  5
9E9
 10
133.194
 20
212.016
 30
0.000000
  70
    32
  0
VERTEX
  8
実線
  5
9EA
 10
133.213
 20
211.994
 30
0.000000
  70
    32
  0
VERTEX
  8
実線
  5
9EB
 10
133.231
 20
211.972
 30
0.000000
  70
    32
  0
VERTEX
  8
実線
  5
9EC
 10
133.249
 20
211.951
 30
0.000000
  70
    32
  0
VERTEX
  8
実線
  5
9ED
 10
133.268
 20
211.929
 30
0.000000
  70
    32
  0
VERTEX
  8
実線
  5
9EE
 10
133.287
 20
211.908
 30
0.000000
  70
    32
  0
VERTEX
  8
実線
  5
9EF
 10
133.306
 20
211.887
 30
0.000000
  70
    32
  0
VERTEX
  8
実線
  5
9F0
 10
133.325
 20
211.866
 30
0.000000
  70
    32
  0
VERTEX
  8
実線
  5
9F1
 10
133.344
 20
211.846
 30
0.000000
  70
    32
  0
VERTEX
  8
実線
  5
9F2
 10
133.364
 20
211.825
 30
0.000000
  70
    32
  0
VERTEX
  8
実線
  5
9F3
 10
133.383
 20
211.805
 30
0.000000
  70
    32
  0
VERTEX
  8
実線
  5
9F4
 10
133.403
 20
211.785
 30
0.000000
  70
    32
  0
VERTEX
  8
実線
  5
9F5
 10
133.423
 20
211.765
 30
0.000000
  70
    32
  0
VERTEX
  8
実線
  5
9F6
 10
133.443
 20
211.746
 30
0.000000
  70
    32
  0
VERTEX
  8
実線
  5
9F7
 10
133.463
 20
211.727
 30
0.000000
  70
    32
  0
VERTEX
  8
実線
  5
9F8
 10
133.483
 20
211.708
 30
0.000000
  70
    32
  0
VERTEX
  8
実線
  5
9F9
 10
133.504
 20
211.689
 30
0.000000
  70
    32
  0
VERTEX
  8
実線
  5
9FA
 10
133.524
 20
211.670
 30
0.000000
  70
    32
  0
VERTEX
  8
実線
  5
9FB
 10
133.545
 20
211.652
 30
0.000000
  70
    32
  0
VERTEX
  8
実線
  5
9FC
 10
133.566
 20
211.634
 30
0.000000
  70
    32
  0
VERTEX
  8
実線
  5
9FD
 10
133.587
 20
211.616
 30
0.000000
  70
    32
  0
VERTEX
  8
実線
  5
9FE
 10
133.608
 20
211.598
 30
0.000000
  70
    32
  0
VERTEX
  8
実線
  5
9FF
 10
133.629
 20
211.581
 30
0.000000
  70
    32
  0
VERTEX
  8
実線
  5
A00
 10
133.650
 20
211.564
 30
0.000000
  70
    32
  0
VERTEX
  8
実線
  5
A01
 10
133.672
 20
211.547
 30
0.000000
  70
    32
  0
VERTEX
  8
実線
  5
A02
 10
133.693
 20
211.530
 30
0.000000
  70
    32
  0
VERTEX
  8
実線
  5
A03
 10
133.715
 20
211.514
 30
0.000000
  70
    32
  0
VERTEX
  8
実線
  5
A04
 10
133.737
 20
211.498
 30
0.000000
  70
    32
  0
VERTEX
  8
実線
  5
A05
 10
133.758
 20
211.482
 30
0.000000
  70
    32
  0
VERTEX
  8
実線
  5
A06
 10
133.780
 20
211.466
 30
0.000000
  70
    32
  0
VERTEX
  8
実線
  5
A07
 10
133.802
 20
211.451
 30
0.000000
  70
    32
  0
VERTEX
  8
実線
  5
A08
 10
133.825
 20
211.436
 30
0.000000
  70
    32
  0
VERTEX
  8
実線
  5
A09
 10
133.847
 20
211.421
 30
0.000000
  70
    32
  0
VERTEX
  8
実線
  5
A0A
 10
133.869
 20
211.406
 30
0.000000
  70
    32
  0
VERTEX
  8
実線
  5
A0B
 10
133.891
 20
211.392
 30
0.000000
  70
    32
  0
VERTEX
  8
実線
  5
A0C
 10
133.914
 20
211.378
 30
0.000000
  70
    32
  0
VERTEX
  8
実線
  5
A0D
 10
133.937
 20
211.364
 30
0.000000
  70
    32
  0
VERTEX
  8
実線
  5
A0E
 10
133.959
 20
211.350
 30
0.000000
  70
    32
  0
VERTEX
  8
実線
  5
A0F
 10
133.982
 20
211.337
 30
0.000000
  70
    32
  0
VERTEX
  8
実線
  5
A10
 10
134.005
 20
211.324
 30
0.000000
  70
    32
  0
VERTEX
  8
実線
  5
A11
 10
134.028
 20
211.311
 30
0.000000
  70
    32
  0
VERTEX
  8
実線
  5
A12
 10
134.051
 20
211.299
 30
0.000000
  70
    32
  0
VERTEX
  8
実線
  5
A13
 10
134.074
 20
211.287
 30
0.000000
  70
    32
  0
VERTEX
  8
実線
  5
A14
 10
134.097
 20
211.275
 30
0.000000
  70
    32
  0
VERTEX
  8
実線
  5
A15
 10
134.120
 20
211.263
 30
0.000000
  70
    32
  0
VERTEX
  8
実線
  5
A16
 10
134.143
 20
211.252
 30
0.000000
  70
    32
  0
VERTEX
  8
実線
  5
A17
 10
134.167
 20
211.241
 30
0.000000
  70
    32
  0
VERTEX
  8
実線
  5
A18
 10
134.190
 20
211.230
 30
0.000000
  70
    32
  0
VERTEX
  8
実線
  5
A19
 10
134.213
 20
211.219
 30
0.000000
  70
    32
  0
VERTEX
  8
実線
  5
A1A
 10
134.237
 20
211.209
 30
0.000000
  70
    32
  0
VERTEX
  8
実線
  5
A1B
 10
134.260
 20
211.199
 30
0.000000
  70
    32
  0
VERTEX
  8
実線
  5
A1C
 10
134.284
 20
211.190
 30
0.000000
  70
    32
  0
VERTEX
  8
実線
  5
A1D
 10
134.308
 20
211.180
 30
0.000000
  70
    32
  0
VERTEX
  8
実線
  5
A1E
 10
134.331
 20
211.171
 30
0.000000
  70
    32
  0
VERTEX
  8
実線
  5
A1F
 10
134.355
 20
211.162
 30
0.000000
  70
    32
  0
VERTEX
  8
実線
  5
A20
 10
134.379
 20
211.154
 30
0.000000
  70
    32
  0
VERTEX
  8
実線
  5
A21
 10
134.402
 20
211.146
 30
0.000000
  70
    32
  0
VERTEX
  8
実線
  5
A22
 10
134.426
 20
211.138
 30
0.000000
  70
    32
  0
VERTEX
  8
実線
  5
A23
 10
134.450
 20
211.131
 30
0.000000
  70
    32
  0
VERTEX
  8
実線
  5
A24
 10
134.474
 20
211.123
 30
0.000000
  70
    32
  0
VERTEX
  8
実線
  5
A25
 10
134.498
 20
211.116
 30
0.000000
  70
    32
  0
VERTEX
  8
実線
  5
A26
 10
134.522
 20
211.110
 30
0.000000
  70
    32
  0
VERTEX
  8
実線
  5
A27
 10
134.546
 20
211.103
 30
0.000000
  70
    32
  0
VERTEX
  8
実線
  5
A28
 10
134.570
 20
211.097
 30
0.000000
  70
    32
  0
VERTEX
  8
実線
  5
A29
 10
134.594
 20
211.092
 30
0.000000
  70
    32
  0
VERTEX
  8
実線
  5
A2A
 10
134.618
 20
211.086
 30
0.000000
  70
    32
  0
VERTEX
  8
実線
  5
A2B
 10
134.642
 20
211.081
 30
0.000000
  70
    32
  0
VERTEX
  8
実線
  5
A2C
 10
134.666
 20
211.077
 30
0.000000
  70
    32
  0
VERTEX
  8
実線
  5
A2D
 10
134.690
 20
211.072
 30
0.000000
  70
    32
  0
VERTEX
  8
実線
  5
A2E
 10
134.714
 20
211.068
 30
0.000000
  70
    32
  0
VERTEX
  8
実線
  5
A2F
 10
134.738
 20
211.064
 30
0.000000
  70
    32
  0
VERTEX
  8
実線
  5
A30
 10
134.762
 20
211.061
 30
0.000000
  70
    32
  0
VERTEX
  8
実線
  5
A31
 10
134.786
 20
211.058
 30
0.000000
  70
    32
  0
VERTEX
  8
実線
  5
A32
 10
134.810
 20
211.055
 30
0.000000
  70
    32
  0
VERTEX
  8
実線
  5
A33
 10
134.834
 20
211.053
 30
0.000000
  70
    32
  0
VERTEX
  8
実線
  5
A34
 10
134.858
 20
211.051
 30
0.000000
  70
    32
  0
VERTEX
  8
実線
  5
A35
 10
134.882
 20
211.049
 30
0.000000
  70
    32
  0
VERTEX
  8
実線
  5
A36
 10
134.906
 20
211.048
 30
0.000000
  70
    32
  0
VERTEX
  8
実線
  5
A37
 10
134.929
 20
211.047
 30
0.000000
  70
    32
  0
VERTEX
  8
実線
  5
A38
 10
134.953
 20
211.046
 30
0.000000
  70
    32
  0
VERTEX
  8
実線
  5
A39
 10
134.977
 20
211.045
 30
0.000000
  70
    32
  0
VERTEX
  8
実線
  5
A3A
 10
135.001
 20
211.045
 30
0.000000
  70
    32
  0
VERTEX
  8
実線
  5
A3B
 10
135.025
 20
211.046
 30
0.000000
  70
    32
  0
VERTEX
  8
実線
  5
A3C
 10
135.049
 20
211.046
 30
0.000000
  70
    32
  0
SEQEND
  8
実線
  5
A3D
  0
POLYLINE
  8
実線
  5
A3E
  62
7
  66
     1
 10
0.000000
 20
0.000000
 30
0.000000
  70
     8
  0
VERTEX
  8
実線
  5
A3F
 10
137.178
 20
215.916
 30
0.000000
  70
    32
  0
VERTEX
  8
実線
  5
A40
 10
137.174
 20
215.863
 30
0.000000
  70
    32
  0
VERTEX
  8
実線
  5
A41
 10
137.170
 20
215.811
 30
0.000000
  70
    32
  0
VERTEX
  8
実線
  5
A42
 10
137.167
 20
215.759
 30
0.000000
  70
    32
  0
VERTEX
  8
実線
  5
A43
 10
137.164
 20
215.706
 30
0.000000
  70
    32
  0
VERTEX
  8
実線
  5
A44
 10
137.162
 20
215.654
 30
0.000000
  70
    32
  0
VERTEX
  8
実線
  5
A45
 10
137.161
 20
215.601
 30
0.000000
  70
    32
  0
VERTEX
  8
実線
  5
A46
 10
137.160
 20
215.549
 30
0.000000
  70
    32
  0
VERTEX
  8
実線
  5
A47
 10
137.160
 20
215.496
 30
0.000000
  70
    32
  0
VERTEX
  8
実線
  5
A48
 10
137.160
 20
215.444
 30
0.000000
  70
    32
  0
VERTEX
  8
実線
  5
A49
 10
137.161
 20
215.391
 30
0.000000
  70
    32
  0
VERTEX
  8
実線
  5
A4A
 10
137.163
 20
215.339
 30
0.000000
  70
    32
  0
VERTEX
  8
実線
  5
A4B
 10
137.165
 20
215.286
 30
0.000000
  70
    32
  0
VERTEX
  8
実線
  5
A4C
 10
137.167
 20
215.234
 30
0.000000
  70
    32
  0
VERTEX
  8
実線
  5
A4D
 10
137.170
 20
215.181
 30
0.000000
  70
    32
  0
VERTEX
  8
実線
  5
A4E
 10
137.174
 20
215.129
 30
0.000000
  70
    32
  0
VERTEX
  8
実線
  5
A4F
 10
137.178
 20
215.076
 30
0.000000
  70
    32
  0
VERTEX
  8
実線
  5
A50
 10
137.183
 20
215.024
 30
0.000000
  70
    32
  0
VERTEX
  8
実線
  5
A51
 10
137.188
 20
214.971
 30
0.000000
  70
    32
  0
VERTEX
  8
実線
  5
A52
 10
137.194
 20
214.919
 30
0.000000
  70
    32
  0
VERTEX
  8
実線
  5
A53
 10
137.200
 20
214.867
 30
0.000000
  70
    32
  0
VERTEX
  8
実線
  5
A54
 10
137.207
 20
214.815
 30
0.000000
  70
    32
  0
VERTEX
  8
実線
  5
A55
 10
137.214
 20
214.763
 30
0.000000
  70
    32
  0
VERTEX
  8
実線
  5
A56
 10
137.222
 20
214.711
 30
0.000000
  70
    32
  0
VERTEX
  8
実線
  5
A57
 10
137.230
 20
214.659
 30
0.000000
  70
    32
  0
VERTEX
  8
実線
  5
A58
 10
137.239
 20
214.607
 30
0.000000
  70
    32
  0
VERTEX
  8
実線
  5
A59
 10
137.249
 20
214.556
 30
0.000000
  70
    32
  0
VERTEX
  8
実線
  5
A5A
 10
137.258
 20
214.504
 30
0.000000
  70
    32
  0
VERTEX
  8
実線
  5
A5B
 10
137.269
 20
214.453
 30
0.000000
  70
    32
  0
VERTEX
  8
実線
  5
A5C
 10
137.280
 20
214.402
 30
0.000000
  70
    32
  0
VERTEX
  8
実線
  5
A5D
 10
137.291
 20
214.351
 30
0.000000
  70
    32
  0
VERTEX
  8
実線
  5
A5E
 10
137.303
 20
214.300
 30
0.000000
  70
    32
  0
VERTEX
  8
実線
  5
A5F
 10
137.315
 20
214.249
 30
0.000000
  70
    32
  0
VERTEX
  8
実線
  5
A60
 10
137.328
 20
214.198
 30
0.000000
  70
    32
  0
VERTEX
  8
実線
  5
A61
 10
137.341
 20
214.148
 30
0.000000
  70
    32
  0
VERTEX
  8
実線
  5
A62
 10
137.355
 20
214.098
 30
0.000000
  70
    32
  0
VERTEX
  8
実線
  5
A63
 10
137.369
 20
214.048
 30
0.000000
  70
    32
  0
VERTEX
  8
実線
  5
A64
 10
137.384
 20
213.998
 30
0.000000
  70
    32
  0
VERTEX
  8
実線
  5
A65
 10
137.399
 20
213.948
 30
0.000000
  70
    32
  0
VERTEX
  8
実線
  5
A66
 10
137.415
 20
213.899
 30
0.000000
  70
    32
  0
VERTEX
  8
実線
  5
A67
 10
137.431
 20
213.850
 30
0.000000
  70
    32
  0
VERTEX
  8
実線
  5
A68
 10
137.447
 20
213.801
 30
0.000000
  70
    32
  0
VERTEX
  8
実線
  5
A69
 10
137.464
 20
213.752
 30
0.000000
  70
    32
  0
VERTEX
  8
実線
  5
A6A
 10
137.482
 20
213.704
 30
0.000000
  70
    32
  0
VERTEX
  8
実線
  5
A6B
 10
137.499
 20
213.656
 30
0.000000
  70
    32
  0
VERTEX
  8
実線
  5
A6C
 10
137.518
 20
213.608
 30
0.000000
  70
    32
  0
VERTEX
  8
実線
  5
A6D
 10
137.536
 20
213.560
 30
0.000000
  70
    32
  0
VERTEX
  8
実線
  5
A6E
 10
137.555
 20
213.513
 30
0.000000
  70
    32
  0
VERTEX
  8
実線
  5
A6F
 10
137.575
 20
213.466
 30
0.000000
  70
    32
  0
VERTEX
  8
実線
  5
A70
 10
137.595
 20
213.419
 30
0.000000
  70
    32
  0
VERTEX
  8
実線
  5
A71
 10
137.615
 20
213.372
 30
0.000000
  70
    32
  0
VERTEX
  8
実線
  5
A72
 10
137.636
 20
213.326
 30
0.000000
  70
    32
  0
VERTEX
  8
実線
  5
A73
 10
137.657
 20
213.280
 30
0.000000
  70
    32
  0
VERTEX
  8
実線
  5
A74
 10
137.679
 20
213.235
 30
0.000000
  70
    32
  0
VERTEX
  8
実線
  5
A75
 10
137.701
 20
213.189
 30
0.000000
  70
    32
  0
VERTEX
  8
実線
  5
A76
 10
137.723
 20
213.145
 30
0.000000
  70
    32
  0
VERTEX
  8
実線
  5
A77
 10
137.746
 20
213.100
 30
0.000000
  70
    32
  0
VERTEX
  8
実線
  5
A78
 10
137.769
 20
213.056
 30
0.000000
  70
    32
  0
VERTEX
  8
実線
  5
A79
 10
137.793
 20
213.012
 30
0.000000
  70
    32
  0
VERTEX
  8
実線
  5
A7A
 10
137.817
 20
212.968
 30
0.000000
  70
    32
  0
VERTEX
  8
実線
  5
A7B
 10
137.841
 20
212.925
 30
0.000000
  70
    32
  0
VERTEX
  8
実線
  5
A7C
 10
137.866
 20
212.883
 30
0.000000
  70
    32
  0
VERTEX
  8
実線
  5
A7D
 10
137.891
 20
212.840
 30
0.000000
  70
    32
  0
VERTEX
  8
実線
  5
A7E
 10
137.917
 20
212.798
 30
0.000000
  70
    32
  0
VERTEX
  8
実線
  5
A7F
 10
137.942
 20
212.757
 30
0.000000
  70
    32
  0
VERTEX
  8
実線
  5
A80
 10
137.969
 20
212.716
 30
0.000000
  70
    32
  0
VERTEX
  8
実線
  5
A81
 10
137.995
 20
212.675
 30
0.000000
  70
    32
  0
VERTEX
  8
実線
  5
A82
 10
138.022
 20
212.635
 30
0.000000
  70
    32
  0
VERTEX
  8
実線
  5
A83
 10
138.049
 20
212.595
 30
0.000000
  70
    32
  0
VERTEX
  8
実線
  5
A84
 10
138.077
 20
212.556
 30
0.000000
  70
    32
  0
VERTEX
  8
実線
  5
A85
 10
138.105
 20
212.517
 30
0.000000
  70
    32
  0
VERTEX
  8
実線
  5
A86
 10
138.133
 20
212.478
 30
0.000000
  70
    32
  0
VERTEX
  8
実線
  5
A87
 10
138.162
 20
212.440
 30
0.000000
  70
    32
  0
VERTEX
  8
実線
  5
A88
 10
138.191
 20
212.403
 30
0.000000
  70
    32
  0
VERTEX
  8
実線
  5
A89
 10
138.220
 20
212.366
 30
0.000000
  70
    32
  0
VERTEX
  8
実線
  5
A8A
 10
138.250
 20
212.329
 30
0.000000
  70
    32
  0
VERTEX
  8
実線
  5
A8B
 10
138.279
 20
212.293
 30
0.000000
  70
    32
  0
VERTEX
  8
実線
  5
A8C
 10
138.310
 20
212.258
 30
0.000000
  70
    32
  0
VERTEX
  8
実線
  5
A8D
 10
138.340
 20
212.223
 30
0.000000
  70
    32
  0
VERTEX
  8
実線
  5
A8E
 10
138.371
 20
212.188
 30
0.000000
  70
    32
  0
VERTEX
  8
実線
  5
A8F
 10
138.402
 20
212.154
 30
0.000000
  70
    32
  0
VERTEX
  8
実線
  5
A90
 10
138.434
 20
212.121
 30
0.000000
  70
    32
  0
VERTEX
  8
実線
  5
A91
 10
138.466
 20
212.088
 30
0.000000
  70
    32
  0
VERTEX
  8
実線
  5
A92
 10
138.498
 20
212.056
 30
0.000000
  70
    32
  0
VERTEX
  8
実線
  5
A93
 10
138.530
 20
212.024
 30
0.000000
  70
    32
  0
VERTEX
  8
実線
  5
A94
 10
138.563
 20
211.993
 30
0.000000
  70
    32
  0
VERTEX
  8
実線
  5
A95
 10
138.596
 20
211.962
 30
0.000000
  70
    32
  0
VERTEX
  8
実線
  5
A96
 10
138.629
 20
211.932
 30
0.000000
  70
    32
  0
VERTEX
  8
実線
  5
A97
 10
138.662
 20
211.902
 30
0.000000
  70
    32
  0
VERTEX
  8
実線
  5
A98
 10
138.696
 20
211.873
 30
0.000000
  70
    32
  0
VERTEX
  8
実線
  5
A99
 10
138.730
 20
211.845
 30
0.000000
  70
    32
  0
VERTEX
  8
実線
  5
A9A
 10
138.764
 20
211.818
 30
0.000000
  70
    32
  0
VERTEX
  8
実線
  5
A9B
 10
138.799
 20
211.790
 30
0.000000
  70
    32
  0
VERTEX
  8
実線
  5
A9C
 10
138.834
 20
211.764
 30
0.000000
  70
    32
  0
VERTEX
  8
実線
  5
A9D
 10
138.869
 20
211.738
 30
0.000000
  70
    32
  0
VERTEX
  8
実線
  5
A9E
 10
138.904
 20
211.713
 30
0.000000
  70
    32
  0
VERTEX
  8
実線
  5
A9F
 10
138.940
 20
211.689
 30
0.000000
  70
    32
  0
VERTEX
  8
実線
  5
AA0
 10
138.975
 20
211.665
 30
0.000000
  70
    32
  0
VERTEX
  8
実線
  5
AA1
 10
139.012
 20
211.642
 30
0.000000
  70
    32
  0
VERTEX
  8
実線
  5
AA2
 10
139.048
 20
211.619
 30
0.000000
  70
    32
  0
VERTEX
  8
実線
  5
AA3
 10
139.084
 20
211.597
 30
0.000000
  70
    32
  0
VERTEX
  8
実線
  5
AA4
 10
139.121
 20
211.576
 30
0.000000
  70
    32
  0
VERTEX
  8
実線
  5
AA5
 10
139.158
 20
211.556
 30
0.000000
  70
    32
  0
VERTEX
  8
実線
  5
AA6
 10
139.195
 20
211.536
 30
0.000000
  70
    32
  0
VERTEX
  8
実線
  5
AA7
 10
139.233
 20
211.517
 30
0.000000
  70
    32
  0
VERTEX
  8
実線
  5
AA8
 10
139.270
 20
211.499
 30
0.000000
  70
    32
  0
VERTEX
  8
実線
  5
AA9
 10
139.308
 20
211.481
 30
0.000000
  70
    32
  0
VERTEX
  8
実線
  5
AAA
 10
139.346
 20
211.464
 30
0.000000
  70
    32
  0
VERTEX
  8
実線
  5
AAB
 10
139.384
 20
211.448
 30
0.000000
  70
    32
  0
VERTEX
  8
実線
  5
AAC
 10
139.422
 20
211.433
 30
0.000000
  70
    32
  0
VERTEX
  8
実線
  5
AAD
 10
139.460
 20
211.419
 30
0.000000
  70
    32
  0
VERTEX
  8
実線
  5
AAE
 10
139.497
 20
211.405
 30
0.000000
  70
    32
  0
VERTEX
  8
実線
  5
AAF
 10
139.535
 20
211.393
 30
0.000000
  70
    32
  0
VERTEX
  8
実線
  5
AB0
 10
139.573
 20
211.381
 30
0.000000
  70
    32
  0
VERTEX
  8
実線
  5
AB1
 10
139.610
 20
211.370
 30
0.000000
  70
    32
  0
VERTEX
  8
実線
  5
AB2
 10
139.647
 20
211.360
 30
0.000000
  70
    32
  0
VERTEX
  8
実線
  5
AB3
 10
139.685
 20
211.351
 30
0.000000
  70
    32
  0
VERTEX
  8
実線
  5
AB4
 10
139.722
 20
211.342
 30
0.000000
  70
    32
  0
VERTEX
  8
実線
  5
AB5
 10
139.759
 20
211.334
 30
0.000000
  70
    32
  0
VERTEX
  8
実線
  5
AB6
 10
139.796
 20
211.328
 30
0.000000
  70
    32
  0
VERTEX
  8
実線
  5
AB7
 10
139.832
 20
211.322
 30
0.000000
  70
    32
  0
VERTEX
  8
実線
  5
AB8
 10
139.869
 20
211.316
 30
0.000000
  70
    32
  0
VERTEX
  8
実線
  5
AB9
 10
139.906
 20
211.312
 30
0.000000
  70
    32
  0
VERTEX
  8
実線
  5
ABA
 10
139.942
 20
211.308
 30
0.000000
  70
    32
  0
VERTEX
  8
実線
  5
ABB
 10
139.978
 20
211.305
 30
0.000000
  70
    32
  0
VERTEX
  8
実線
  5
ABC
 10
140.014
 20
211.303
 30
0.000000
  70
    32
  0
VERTEX
  8
実線
  5
ABD
 10
140.050
 20
211.302
 30
0.000000
  70
    32
  0
VERTEX
  8
実線
  5
ABE
 10
140.086
 20
211.302
 30
0.000000
  70
    32
  0
VERTEX
  8
実線
  5
ABF
 10
140.122
 20
211.302
 30
0.000000
  70
    32
  0
VERTEX
  8
実線
  5
AC0
 10
140.157
 20
211.303
 30
0.000000
  70
    32
  0
VERTEX
  8
実線
  5
AC1
 10
140.192
 20
211.305
 30
0.000000
  70
    32
  0
VERTEX
  8
実線
  5
AC2
 10
140.227
 20
211.307
 30
0.000000
  70
    32
  0
VERTEX
  8
実線
  5
AC3
 10
140.262
 20
211.311
 30
0.000000
  70
    32
  0
VERTEX
  8
実線
  5
AC4
 10
140.297
 20
211.315
 30
0.000000
  70
    32
  0
VERTEX
  8
実線
  5
AC5
 10
140.332
 20
211.320
 30
0.000000
  70
    32
  0
VERTEX
  8
実線
  5
AC6
 10
140.366
 20
211.325
 30
0.000000
  70
    32
  0
VERTEX
  8
実線
  5
AC7
 10
140.400
 20
211.332
 30
0.000000
  70
    32
  0
VERTEX
  8
実線
  5
AC8
 10
140.434
 20
211.339
 30
0.000000
  70
    32
  0
VERTEX
  8
実線
  5
AC9
 10
140.468
 20
211.346
 30
0.000000
  70
    32
  0
VERTEX
  8
実線
  5
ACA
 10
140.501
 20
211.355
 30
0.000000
  70
    32
  0
VERTEX
  8
実線
  5
ACB
 10
140.534
 20
211.364
 30
0.000000
  70
    32
  0
VERTEX
  8
実線
  5
ACC
 10
140.567
 20
211.374
 30
0.000000
  70
    32
  0
VERTEX
  8
実線
  5
ACD
 10
140.600
 20
211.385
 30
0.000000
  70
    32
  0
VERTEX
  8
実線
  5
ACE
 10
140.633
 20
211.396
 30
0.000000
  70
    32
  0
VERTEX
  8
実線
  5
ACF
 10
140.665
 20
211.409
 30
0.000000
  70
    32
  0
VERTEX
  8
実線
  5
AD0
 10
140.697
 20
211.422
 30
0.000000
  70
    32
  0
VERTEX
  8
実線
  5
AD1
 10
140.729
 20
211.435
 30
0.000000
  70
    32
  0
VERTEX
  8
実線
  5
AD2
 10
140.761
 20
211.449
 30
0.000000
  70
    32
  0
VERTEX
  8
実線
  5
AD3
 10
140.792
 20
211.464
 30
0.000000
  70
    32
  0
VERTEX
  8
実線
  5
AD4
 10
140.823
 20
211.480
 30
0.000000
  70
    32
  0
VERTEX
  8
実線
  5
AD5
 10
140.854
 20
211.496
 30
0.000000
  70
    32
  0
VERTEX
  8
実線
  5
AD6
 10
140.885
 20
211.514
 30
0.000000
  70
    32
  0
VERTEX
  8
実線
  5
AD7
 10
140.915
 20
211.531
 30
0.000000
  70
    32
  0
VERTEX
  8
実線
  5
AD8
 10
140.945
 20
211.550
 30
0.000000
  70
    32
  0
VERTEX
  8
実線
  5
AD9
 10
140.975
 20
211.569
 30
0.000000
  70
    32
  0
VERTEX
  8
実線
  5
ADA
 10
141.004
 20
211.589
 30
0.000000
  70
    32
  0
VERTEX
  8
実線
  5
ADB
 10
141.033
 20
211.609
 30
0.000000
  70
    32
  0
VERTEX
  8
実線
  5
ADC
 10
141.062
 20
211.630
 30
0.000000
  70
    32
  0
VERTEX
  8
実線
  5
ADD
 10
141.091
 20
211.652
 30
0.000000
  70
    32
  0
VERTEX
  8
実線
  5
ADE
 10
141.119
 20
211.674
 30
0.000000
  70
    32
  0
VERTEX
  8
実線
  5
ADF
 10
141.147
 20
211.697
 30
0.000000
  70
    32
  0
VERTEX
  8
実線
  5
AE0
 10
141.175
 20
211.721
 30
0.000000
  70
    32
  0
VERTEX
  8
実線
  5
AE1
 10
141.202
 20
211.746
 30
0.000000
  70
    32
  0
VERTEX
  8
実線
  5
AE2
 10
141.229
 20
211.771
 30
0.000000
  70
    32
  0
VERTEX
  8
実線
  5
AE3
 10
141.256
 20
211.796
 30
0.000000
  70
    32
  0
VERTEX
  8
実線
  5
AE4
 10
141.282
 20
211.823
 30
0.000000
  70
    32
  0
VERTEX
  8
実線
  5
AE5
 10
141.308
 20
211.849
 30
0.000000
  70
    32
  0
VERTEX
  8
実線
  5
AE6
 10
141.333
 20
211.877
 30
0.000000
  70
    32
  0
VERTEX
  8
実線
  5
AE7
 10
141.359
 20
211.905
 30
0.000000
  70
    32
  0
VERTEX
  8
実線
  5
AE8
 10
141.384
 20
211.934
 30
0.000000
  70
    32
  0
VERTEX
  8
実線
  5
AE9
 10
141.408
 20
211.963
 30
0.000000
  70
    32
  0
VERTEX
  8
実線
  5
AEA
 10
141.432
 20
211.993
 30
0.000000
  70
    32
  0
VERTEX
  8
実線
  5
AEB
 10
141.456
 20
212.024
 30
0.000000
  70
    32
  0
VERTEX
  8
実線
  5
AEC
 10
141.480
 20
212.055
 30
0.000000
  70
    32
  0
VERTEX
  8
実線
  5
AED
 10
141.503
 20
212.087
 30
0.000000
  70
    32
  0
VERTEX
  8
実線
  5
AEE
 10
141.525
 20
212.119
 30
0.000000
  70
    32
  0
VERTEX
  8
実線
  5
AEF
 10
141.548
 20
212.152
 30
0.000000
  70
    32
  0
VERTEX
  8
実線
  5
AF0
 10
141.570
 20
212.186
 30
0.000000
  70
    32
  0
VERTEX
  8
実線
  5
AF1
 10
141.591
 20
212.220
 30
0.000000
  70
    32
  0
VERTEX
  8
実線
  5
AF2
 10
141.612
 20
212.255
 30
0.000000
  70
    32
  0
VERTEX
  8
実線
  5
AF3
 10
141.633
 20
212.290
 30
0.000000
  70
    32
  0
VERTEX
  8
実線
  5
AF4
 10
141.653
 20
212.326
 30
0.000000
  70
    32
  0
VERTEX
  8
実線
  5
AF5
 10
141.673
 20
212.362
 30
0.000000
  70
    32
  0
VERTEX
  8
実線
  5
AF6
 10
141.692
 20
212.399
 30
0.000000
  70
    32
  0
VERTEX
  8
実線
  5
AF7
 10
141.712
 20
212.437
 30
0.000000
  70
    32
  0
VERTEX
  8
実線
  5
AF8
 10
141.730
 20
212.475
 30
0.000000
  70
    32
  0
VERTEX
  8
実線
  5
AF9
 10
141.748
 20
212.514
 30
0.000000
  70
    32
  0
VERTEX
  8
実線
  5
AFA
 10
141.766
 20
212.553
 30
0.000000
  70
    32
  0
VERTEX
  8
実線
  5
AFB
 10
141.783
 20
212.593
 30
0.000000
  70
    32
  0
VERTEX
  8
実線
  5
AFC
 10
141.800
 20
212.633
 30
0.000000
  70
    32
  0
VERTEX
  8
実線
  5
AFD
 10
141.816
 20
212.674
 30
0.000000
  70
    32
  0
VERTEX
  8
実線
  5
AFE
 10
141.832
 20
212.715
 30
0.000000
  70
    32
  0
VERTEX
  8
実線
  5
AFF
 10
141.848
 20
212.757
 30
0.000000
  70
    32
  0
VERTEX
  8
実線
  5
B00
 10
141.863
 20
212.800
 30
0.000000
  70
    32
  0
VERTEX
  8
実線
  5
B01
 10
141.877
 20
212.843
 30
0.000000
  70
    32
  0
VERTEX
  8
実線
  5
B02
 10
141.891
 20
212.886
 30
0.000000
  70
    32
  0
VERTEX
  8
実線
  5
B03
 10
141.905
 20
212.930
 30
0.000000
  70
    32
  0
VERTEX
  8
実線
  5
B04
 10
141.918
 20
212.975
 30
0.000000
  70
    32
  0
VERTEX
  8
実線
  5
B05
 10
141.931
 20
213.020
 30
0.000000
  70
    32
  0
VERTEX
  8
実線
  5
B06
 10
141.943
 20
213.065
 30
0.000000
  70
    32
  0
VERTEX
  8
実線
  5
B07
 10
141.954
 20
213.111
 30
0.000000
  70
    32
  0
VERTEX
  8
実線
  5
B08
 10
141.965
 20
213.158
 30
0.000000
  70
    32
  0
VERTEX
  8
実線
  5
B09
 10
141.976
 20
213.205
 30
0.000000
  70
    32
  0
VERTEX
  8
実線
  5
B0A
 10
141.986
 20
213.252
 30
0.000000
  70
    32
  0
VERTEX
  8
実線
  5
B0B
 10
141.996
 20
213.300
 30
0.000000
  70
    32
  0
VERTEX
  8
実線
  5
B0C
 10
142.005
 20
213.349
 30
0.000000
  70
    32
  0
VERTEX
  8
実線
  5
B0D
 10
142.013
 20
213.398
 30
0.000000
  70
    32
  0
VERTEX
  8
実線
  5
B0E
 10
142.021
 20
213.447
 30
0.000000
  70
    32
  0
VERTEX
  8
実線
  5
B0F
 10
142.028
 20
213.497
 30
0.000000
  70
    32
  0
VERTEX
  8
実線
  5
B10
 10
142.035
 20
213.547
 30
0.000000
  70
    32
  0
VERTEX
  8
実線
  5
B11
 10
142.042
 20
213.598
 30
0.000000
  70
    32
  0
VERTEX
  8
実線
  5
B12
 10
142.047
 20
213.649
 30
0.000000
  70
    32
  0
VERTEX
  8
実線
  5
B13
 10
142.053
 20
213.701
 30
0.000000
  70
    32
  0
VERTEX
  8
実線
  5
B14
 10
142.056
 20
213.737
 30
0.000000
  70
    32
  0
VERTEX
  8
実線
  5
B15
 10
142.056
 20
213.742
 30
0.000000
  70
    32
  0
VERTEX
  8
実線
  5
B16
 10
142.057
 20
213.747
 30
0.000000
  70
    32
  0
VERTEX
  8
実線
  5
B17
 10
142.057
 20
213.752
 30
0.000000
  70
    32
  0
VERTEX
  8
実線
  5
B18
 10
142.058
 20
213.757
 30
0.000000
  70
    32
  0
VERTEX
  8
実線
  5
B19
 10
142.058
 20
213.762
 30
0.000000
  70
    32
  0
VERTEX
  8
実線
  5
B1A
 10
142.059
 20
213.767
 30
0.000000
  70
    32
  0
VERTEX
  8
実線
  5
B1B
 10
142.059
 20
213.772
 30
0.000000
  70
    32
  0
VERTEX
  8
実線
  5
B1C
 10
142.059
 20
213.777
 30
0.000000
  70
    32
  0
VERTEX
  8
実線
  5
B1D
 10
142.060
 20
213.782
 30
0.000000
  70
    32
  0
VERTEX
  8
実線
  5
B1E
 10
142.060
 20
213.787
 30
0.000000
  70
    32
  0
VERTEX
  8
実線
  5
B1F
 10
142.060
 20
213.792
 30
0.000000
  70
    32
  0
VERTEX
  8
実線
  5
B20
 10
142.061
 20
213.797
 30
0.000000
  70
    32
  0
VERTEX
  8
実線
  5
B21
 10
142.061
 20
213.801
 30
0.000000
  70
    32
  0
VERTEX
  8
実線
  5
B22
 10
142.062
 20
213.806
 30
0.000000
  70
    32
  0
VERTEX
  8
実線
  5
B23
 10
142.062
 20
213.811
 30
0.000000
  70
    32
  0
VERTEX
  8
実線
  5
B24
 10
142.062
 20
213.816
 30
0.000000
  70
    32
  0
VERTEX
  8
実線
  5
B25
 10
142.063
 20
213.821
 30
0.000000
  70
    32
  0
VERTEX
  8
実線
  5
B26
 10
142.063
 20
213.826
 30
0.000000
  70
    32
  0
VERTEX
  8
実線
  5
B27
 10
142.063
 20
213.831
 30
0.000000
  70
    32
  0
VERTEX
  8
実線
  5
B28
 10
142.064
 20
213.836
 30
0.000000
  70
    32
  0
VERTEX
  8
実線
  5
B29
 10
142.064
 20
213.841
 30
0.000000
  70
    32
  0
VERTEX
  8
実線
  5
B2A
 10
142.064
 20
213.846
 30
0.000000
  70
    32
  0
VERTEX
  8
実線
  5
B2B
 10
142.065
 20
213.851
 30
0.000000
  70
    32
  0
VERTEX
  8
実線
  5
B2C
 10
142.065
 20
213.856
 30
0.000000
  70
    32
  0
VERTEX
  8
実線
  5
B2D
 10
142.065
 20
213.861
 30
0.000000
  70
    32
  0
VERTEX
  8
実線
  5
B2E
 10
142.066
 20
213.866
 30
0.000000
  70
    32
  0
VERTEX
  8
実線
  5
B2F
 10
142.066
 20
213.871
 30
0.000000
  70
    32
  0
VERTEX
  8
実線
  5
B30
 10
142.066
 20
213.876
 30
0.000000
  70
    32
  0
VERTEX
  8
実線
  5
B31
 10
142.066
 20
213.881
 30
0.000000
  70
    32
  0
VERTEX
  8
実線
  5
B32
 10
142.067
 20
213.886
 30
0.000000
  70
    32
  0
VERTEX
  8
実線
  5
B33
 10
142.067
 20
213.891
 30
0.000000
  70
    32
  0
VERTEX
  8
実線
  5
B34
 10
142.067
 20
213.896
 30
0.000000
  70
    32
  0
VERTEX
  8
実線
  5
B35
 10
142.067
 20
213.901
 30
0.000000
  70
    32
  0
VERTEX
  8
実線
  5
B36
 10
142.068
 20
213.906
 30
0.000000
  70
    32
  0
VERTEX
  8
実線
  5
B37
 10
142.068
 20
213.911
 30
0.000000
  70
    32
  0
VERTEX
  8
実線
  5
B38
 10
142.068
 20
213.916
 30
0.000000
  70
    32
  0
VERTEX
  8
実線
  5
B39
 10
142.068
 20
213.921
 30
0.000000
  70
    32
  0
VERTEX
  8
実線
  5
B3A
 10
142.069
 20
213.926
 30
0.000000
  70
    32
  0
VERTEX
  8
実線
  5
B3B
 10
142.069
 20
213.931
 30
0.000000
  70
    32
  0
VERTEX
  8
実線
  5
B3C
 10
142.069
 20
213.936
 30
0.000000
  70
    32
  0
VERTEX
  8
実線
  5
B3D
 10
142.069
 20
213.941
 30
0.000000
  70
    32
  0
VERTEX
  8
実線
  5
B3E
 10
142.070
 20
213.946
 30
0.000000
  70
    32
  0
VERTEX
  8
実線
  5
B3F
 10
142.070
 20
213.951
 30
0.000000
  70
    32
  0
VERTEX
  8
実線
  5
B40
 10
142.070
 20
213.956
 30
0.000000
  70
    32
  0
VERTEX
  8
実線
  5
B41
 10
142.070
 20
213.961
 30
0.000000
  70
    32
  0
VERTEX
  8
実線
  5
B42
 10
142.070
 20
213.966
 30
0.000000
  70
    32
  0
VERTEX
  8
実線
  5
B43
 10
142.071
 20
213.971
 30
0.000000
  70
    32
  0
VERTEX
  8
実線
  5
B44
 10
142.071
 20
213.976
 30
0.000000
  70
    32
  0
VERTEX
  8
実線
  5
B45
 10
142.071
 20
213.981
 30
0.000000
  70
    32
  0
VERTEX
  8
実線
  5
B46
 10
142.071
 20
213.986
 30
0.000000
  70
    32
  0
VERTEX
  8
実線
  5
B47
 10
142.071
 20
213.991
 30
0.000000
  70
    32
  0
VERTEX
  8
実線
  5
B48
 10
142.072
 20
213.996
 30
0.000000
  70
    32
  0
VERTEX
  8
実線
  5
B49
 10
142.072
 20
214.001
 30
0.000000
  70
    32
  0
VERTEX
  8
実線
  5
B4A
 10
142.072
 20
214.006
 30
0.000000
  70
    32
  0
VERTEX
  8
実線
  5
B4B
 10
142.072
 20
214.011
 30
0.000000
  70
    32
  0
VERTEX
  8
実線
  5
B4C
 10
142.072
 20
214.016
 30
0.000000
  70
    32
  0
VERTEX
  8
実線
  5
B4D
 10
142.072
 20
214.021
 30
0.000000
  70
    32
  0
VERTEX
  8
実線
  5
B4E
 10
142.072
 20
214.026
 30
0.000000
  70
    32
  0
VERTEX
  8
実線
  5
B4F
 10
142.073
 20
214.031
 30
0.000000
  70
    32
  0
VERTEX
  8
実線
  5
B50
 10
142.073
 20
214.036
 30
0.000000
  70
    32
  0
VERTEX
  8
実線
  5
B51
 10
142.073
 20
214.041
 30
0.000000
  70
    32
  0
VERTEX
  8
実線
  5
B52
 10
142.073
 20
214.046
 30
0.000000
  70
    32
  0
VERTEX
  8
実線
  5
B53
 10
142.073
 20
214.051
 30
0.000000
  70
    32
  0
VERTEX
  8
実線
  5
B54
 10
142.073
 20
214.056
 30
0.000000
  70
    32
  0
VERTEX
  8
実線
  5
B55
 10
142.073
 20
214.061
 30
0.000000
  70
    32
  0
VERTEX
  8
実線
  5
B56
 10
142.073
 20
214.066
 30
0.000000
  70
    32
  0
VERTEX
  8
実線
  5
B57
 10
142.073
 20
214.071
 30
0.000000
  70
    32
  0
VERTEX
  8
実線
  5
B58
 10
142.073
 20
214.077
 30
0.000000
  70
    32
  0
VERTEX
  8
実線
  5
B59
 10
142.074
 20
214.082
 30
0.000000
  70
    32
  0
VERTEX
  8
実線
  5
B5A
 10
142.074
 20
214.087
 30
0.000000
  70
    32
  0
VERTEX
  8
実線
  5
B5B
 10
142.074
 20
214.092
 30
0.000000
  70
    32
  0
VERTEX
  8
実線
  5
B5C
 10
142.074
 20
214.097
 30
0.000000
  70
    32
  0
VERTEX
  8
実線
  5
B5D
 10
142.074
 20
214.102
 30
0.000000
  70
    32
  0
VERTEX
  8
実線
  5
B5E
 10
142.074
 20
214.107
 30
0.000000
  70
    32
  0
VERTEX
  8
実線
  5
B5F
 10
142.074
 20
214.112
 30
0.000000
  70
    32
  0
VERTEX
  8
実線
  5
B60
 10
142.074
 20
214.117
 30
0.000000
  70
    32
  0
VERTEX
  8
実線
  5
B61
 10
142.074
 20
214.122
 30
0.000000
  70
    32
  0
VERTEX
  8
実線
  5
B62
 10
142.074
 20
214.127
 30
0.000000
  70
    32
  0
VERTEX
  8
実線
  5
B63
 10
142.074
 20
214.132
 30
0.000000
  70
    32
  0
VERTEX
  8
実線
  5
B64
 10
142.074
 20
214.137
 30
0.000000
  70
    32
  0
VERTEX
  8
実線
  5
B65
 10
142.074
 20
214.142
 30
0.000000
  70
    32
  0
VERTEX
  8
実線
  5
B66
 10
142.074
 20
214.147
 30
0.000000
  70
    32
  0
VERTEX
  8
実線
  5
B67
 10
142.074
 20
214.152
 30
0.000000
  70
    32
  0
VERTEX
  8
実線
  5
B68
 10
142.074
 20
214.157
 30
0.000000
  70
    32
  0
VERTEX
  8
実線
  5
B69
 10
142.074
 20
214.162
 30
0.000000
  70
    32
  0
VERTEX
  8
実線
  5
B6A
 10
142.074
 20
214.168
 30
0.000000
  70
    32
  0
VERTEX
  8
実線
  5
B6B
 10
142.074
 20
214.173
 30
0.000000
  70
    32
  0
VERTEX
  8
実線
  5
B6C
 10
142.074
 20
214.178
 30
0.000000
  70
    32
  0
VERTEX
  8
実線
  5
B6D
 10
142.074
 20
214.183
 30
0.000000
  70
    32
  0
VERTEX
  8
実線
  5
B6E
 10
142.074
 20
214.188
 30
0.000000
  70
    32
  0
VERTEX
  8
実線
  5
B6F
 10
142.074
 20
214.193
 30
0.000000
  70
    32
  0
VERTEX
  8
実線
  5
B70
 10
142.074
 20
214.198
 30
0.000000
  70
    32
  0
VERTEX
  8
実線
  5
B71
 10
142.074
 20
214.203
 30
0.000000
  70
    32
  0
VERTEX
  8
実線
  5
B72
 10
142.074
 20
214.208
 30
0.000000
  70
    32
  0
VERTEX
  8
実線
  5
B73
 10
142.074
 20
214.213
 30
0.000000
  70
    32
  0
VERTEX
  8
実線
  5
B74
 10
142.074
 20
214.218
 30
0.000000
  70
    32
  0
VERTEX
  8
実線
  5
B75
 10
142.074
 20
214.223
 30
0.000000
  70
    32
  0
VERTEX
  8
実線
  5
B76
 10
142.074
 20
214.228
 30
0.000000
  70
    32
  0
VERTEX
  8
実線
  5
B77
 10
142.073
 20
214.234
 30
0.000000
  70
    32
  0
VERTEX
  8
実線
  5
B78
 10
142.073
 20
214.239
 30
0.000000
  70
    32
  0
VERTEX
  8
実線
  5
B79
 10
142.073
 20
214.244
 30
0.000000
  70
    32
  0
VERTEX
  8
実線
  5
B7A
 10
142.073
 20
214.249
 30
0.000000
  70
    32
  0
VERTEX
  8
実線
  5
B7B
 10
142.073
 20
214.254
 30
0.000000
  70
    32
  0
VERTEX
  8
実線
  5
B7C
 10
142.073
 20
214.259
 30
0.000000
  70
    32
  0
VERTEX
  8
実線
  5
B7D
 10
142.073
 20
214.264
 30
0.000000
  70
    32
  0
VERTEX
  8
実線
  5
B7E
 10
142.073
 20
214.269
 30
0.000000
  70
    32
  0
SEQEND
  8
実線
  5
B7F
  0
POLYLINE
  8
実線
  5
B80
  62
7
  66
     1
 10
0.000000
 20
0.000000
 30
0.000000
  70
     8
  0
VERTEX
  8
実線
  5
B81
 10
134.257
 20
214.879
 30
0.000000
  70
    32
  0
VERTEX
  8
実線
  5
B82
 10
134.253
 20
214.826
 30
0.000000
  70
    32
  0
VERTEX
  8
実線
  5
B83
 10
134.250
 20
214.773
 30
0.000000
  70
    32
  0
VERTEX
  8
実線
  5
B84
 10
134.247
 20
214.720
 30
0.000000
  70
    32
  0
VERTEX
  8
実線
  5
B85
 10
134.246
 20
214.668
 30
0.000000
  70
    32
  0
VERTEX
  8
実線
  5
B86
 10
134.246
 20
214.615
 30
0.000000
  70
    32
  0
VERTEX
  8
実線
  5
B87
 10
134.246
 20
214.563
 30
0.000000
  70
    32
  0
VERTEX
  8
実線
  5
B88
 10
134.248
 20
214.511
 30
0.000000
  70
    32
  0
VERTEX
  8
実線
  5
B89
 10
134.250
 20
214.459
 30
0.000000
  70
    32
  0
VERTEX
  8
実線
  5
B8A
 10
134.253
 20
214.407
 30
0.000000
  70
    32
  0
VERTEX
  8
実線
  5
B8B
 10
134.257
 20
214.355
 30
0.000000
  70
    32
  0
VERTEX
  8
実線
  5
B8C
 10
134.262
 20
214.304
 30
0.000000
  70
    32
  0
VERTEX
  8
実線
  5
B8D
 10
134.268
 20
214.252
 30
0.000000
  70
    32
  0
VERTEX
  8
実線
  5
B8E
 10
134.275
 20
214.201
 30
0.000000
  70
    32
  0
VERTEX
  8
実線
  5
B8F
 10
134.282
 20
214.150
 30
0.000000
  70
    32
  0
VERTEX
  8
実線
  5
B90
 10
134.291
 20
214.100
 30
0.000000
  70
    32
  0
VERTEX
  8
実線
  5
B91
 10
134.300
 20
214.049
 30
0.000000
  70
    32
  0
VERTEX
  8
実線
  5
B92
 10
134.310
 20
213.999
 30
0.000000
  70
    32
  0
VERTEX
  8
実線
  5
B93
 10
134.321
 20
213.949
 30
0.000000
  70
    32
  0
VERTEX
  8
実線
  5
B94
 10
134.333
 20
213.899
 30
0.000000
  70
    32
  0
VERTEX
  8
実線
  5
B95
 10
134.346
 20
213.850
 30
0.000000
  70
    32
  0
VERTEX
  8
実線
  5
B96
 10
134.359
 20
213.800
 30
0.000000
  70
    32
  0
VERTEX
  8
実線
  5
B97
 10
134.374
 20
213.751
 30
0.000000
  70
    32
  0
VERTEX
  8
実線
  5
B98
 10
134.389
 20
213.702
 30
0.000000
  70
    32
  0
VERTEX
  8
実線
  5
B99
 10
134.405
 20
213.654
 30
0.000000
  70
    32
  0
VERTEX
  8
実線
  5
B9A
 10
134.422
 20
213.605
 30
0.000000
  70
    32
  0
VERTEX
  8
実線
  5
B9B
 10
134.439
 20
213.557
 30
0.000000
  70
    32
  0
VERTEX
  8
実線
  5
B9C
 10
134.458
 20
213.509
 30
0.000000
  70
    32
  0
VERTEX
  8
実線
  5
B9D
 10
134.477
 20
213.462
 30
0.000000
  70
    32
  0
VERTEX
  8
実線
  5
B9E
 10
134.497
 20
213.415
 30
0.000000
  70
    32
  0
VERTEX
  8
実線
  5
B9F
 10
134.518
 20
213.368
 30
0.000000
  70
    32
  0
VERTEX
  8
実線
  5
BA0
 10
134.539
 20
213.321
 30
0.000000
  70
    32
  0
VERTEX
  8
実線
  5
BA1
 10
134.561
 20
213.275
 30
0.000000
  70
    32
  0
VERTEX
  8
実線
  5
BA2
 10
134.584
 20
213.229
 30
0.000000
  70
    32
  0
VERTEX
  8
実線
  5
BA3
 10
134.608
 20
213.183
 30
0.000000
  70
    32
  0
VERTEX
  8
実線
  5
BA4
 10
134.633
 20
213.137
 30
0.000000
  70
    32
  0
VERTEX
  8
実線
  5
BA5
 10
134.658
 20
213.092
 30
0.000000
  70
    32
  0
VERTEX
  8
実線
  5
BA6
 10
134.684
 20
213.048
 30
0.000000
  70
    32
  0
VERTEX
  8
実線
  5
BA7
 10
134.711
 20
213.003
 30
0.000000
  70
    32
  0
VERTEX
  8
実線
  5
BA8
 10
134.738
 20
212.959
 30
0.000000
  70
    32
  0
VERTEX
  8
実線
  5
BA9
 10
134.766
 20
212.915
 30
0.000000
  70
    32
  0
VERTEX
  8
実線
  5
BAA
 10
134.795
 20
212.872
 30
0.000000
  70
    32
  0
VERTEX
  8
実線
  5
BAB
 10
134.825
 20
212.829
 30
0.000000
  70
    32
  0
VERTEX
  8
実線
  5
BAC
 10
134.855
 20
212.786
 30
0.000000
  70
    32
  0
VERTEX
  8
実線
  5
BAD
 10
134.886
 20
212.744
 30
0.000000
  70
    32
  0
VERTEX
  8
実線
  5
BAE
 10
134.917
 20
212.702
 30
0.000000
  70
    32
  0
VERTEX
  8
実線
  5
BAF
 10
134.950
 20
212.660
 30
0.000000
  70
    32
  0
VERTEX
  8
実線
  5
BB0
 10
134.983
 20
212.619
 30
0.000000
  70
    32
  0
VERTEX
  8
実線
  5
BB1
 10
135.016
 20
212.578
 30
0.000000
  70
    32
  0
VERTEX
  8
実線
  5
BB2
 10
135.051
 20
212.538
 30
0.000000
  70
    32
  0
VERTEX
  8
実線
  5
BB3
 10
135.086
 20
212.498
 30
0.000000
  70
    32
  0
VERTEX
  8
実線
  5
BB4
 10
135.121
 20
212.459
 30
0.000000
  70
    32
  0
VERTEX
  8
実線
  5
BB5
 10
135.158
 20
212.419
 30
0.000000
  70
    32
  0
VERTEX
  8
実線
  5
BB6
 10
135.195
 20
212.381
 30
0.000000
  70
    32
  0
VERTEX
  8
実線
  5
BB7
 10
135.232
 20
212.342
 30
0.000000
  70
    32
  0
VERTEX
  8
実線
  5
BB8
 10
135.270
 20
212.305
 30
0.000000
  70
    32
  0
VERTEX
  8
実線
  5
BB9
 10
135.309
 20
212.267
 30
0.000000
  70
    32
  0
VERTEX
  8
実線
  5
BBA
 10
135.348
 20
212.230
 30
0.000000
  70
    32
  0
VERTEX
  8
実線
  5
BBB
 10
135.389
 20
212.194
 30
0.000000
  70
    32
  0
VERTEX
  8
実線
  5
BBC
 10
135.429
 20
212.157
 30
0.000000
  70
    32
  0
VERTEX
  8
実線
  5
BBD
 10
135.470
 20
212.122
 30
0.000000
  70
    32
  0
VERTEX
  8
実線
  5
BBE
 10
135.512
 20
212.087
 30
0.000000
  70
    32
  0
VERTEX
  8
実線
  5
BBF
 10
135.555
 20
212.052
 30
0.000000
  70
    32
  0
VERTEX
  8
実線
  5
BC0
 10
135.598
 20
212.018
 30
0.000000
  70
    32
  0
VERTEX
  8
実線
  5
BC1
 10
135.641
 20
211.984
 30
0.000000
  70
    32
  0
VERTEX
  8
実線
  5
BC2
 10
135.685
 20
211.951
 30
0.000000
  70
    32
  0
VERTEX
  8
実線
  5
BC3
 10
135.730
 20
211.918
 30
0.000000
  70
    32
  0
VERTEX
  8
実線
  5
BC4
 10
135.775
 20
211.886
 30
0.000000
  70
    32
  0
VERTEX
  8
実線
  5
BC5
 10
135.821
 20
211.854
 30
0.000000
  70
    32
  0
VERTEX
  8
実線
  5
BC6
 10
135.867
 20
211.823
 30
0.000000
  70
    32
  0
VERTEX
  8
実線
  5
BC7
 10
135.914
 20
211.792
 30
0.000000
  70
    32
  0
VERTEX
  8
実線
  5
BC8
 10
135.962
 20
211.762
 30
0.000000
  70
    32
  0
VERTEX
  8
実線
  5
BC9
 10
136.009
 20
211.732
 30
0.000000
  70
    32
  0
VERTEX
  8
実線
  5
BCA
 10
136.058
 20
211.703
 30
0.000000
  70
    32
  0
VERTEX
  8
実線
  5
BCB
 10
136.107
 20
211.674
 30
0.000000
  70
    32
  0
VERTEX
  8
実線
  5
BCC
 10
136.156
 20
211.646
 30
0.000000
  70
    32
  0
VERTEX
  8
実線
  5
BCD
 10
136.206
 20
211.619
 30
0.000000
  70
    32
  0
VERTEX
  8
実線
  5
BCE
 10
136.257
 20
211.592
 30
0.000000
  70
    32
  0
VERTEX
  8
実線
  5
BCF
 10
136.308
 20
211.566
 30
0.000000
  70
    32
  0
VERTEX
  8
実線
  5
BD0
 10
136.359
 20
211.540
 30
0.000000
  70
    32
  0
VERTEX
  8
実線
  5
BD1
 10
136.411
 20
211.515
 30
0.000000
  70
    32
  0
VERTEX
  8
実線
  5
BD2
 10
136.464
 20
211.490
 30
0.000000
  70
    32
  0
VERTEX
  8
実線
  5
BD3
 10
136.516
 20
211.466
 30
0.000000
  70
    32
  0
VERTEX
  8
実線
  5
BD4
 10
136.570
 20
211.442
 30
0.000000
  70
    32
  0
VERTEX
  8
実線
  5
BD5
 10
136.623
 20
211.419
 30
0.000000
  70
    32
  0
VERTEX
  8
実線
  5
BD6
 10
136.678
 20
211.397
 30
0.000000
  70
    32
  0
VERTEX
  8
実線
  5
BD7
 10
136.732
 20
211.375
 30
0.000000
  70
    32
  0
VERTEX
  8
実線
  5
BD8
 10
136.787
 20
211.354
 30
0.000000
  70
    32
  0
VERTEX
  8
実線
  5
BD9
 10
136.843
 20
211.334
 30
0.000000
  70
    32
  0
VERTEX
  8
実線
  5
BDA
 10
136.899
 20
211.314
 30
0.000000
  70
    32
  0
VERTEX
  8
実線
  5
BDB
 10
136.955
 20
211.295
 30
0.000000
  70
    32
  0
VERTEX
  8
実線
  5
BDC
 10
137.012
 20
211.276
 30
0.000000
  70
    32
  0
VERTEX
  8
実線
  5
BDD
 10
137.069
 20
211.259
 30
0.000000
  70
    32
  0
VERTEX
  8
実線
  5
BDE
 10
137.127
 20
211.241
 30
0.000000
  70
    32
  0
VERTEX
  8
実線
  5
BDF
 10
137.185
 20
211.225
 30
0.000000
  70
    32
  0
VERTEX
  8
実線
  5
BE0
 10
137.243
 20
211.209
 30
0.000000
  70
    32
  0
VERTEX
  8
実線
  5
BE1
 10
137.302
 20
211.193
 30
0.000000
  70
    32
  0
VERTEX
  8
実線
  5
BE2
 10
137.361
 20
211.179
 30
0.000000
  70
    32
  0
VERTEX
  8
実線
  5
BE3
 10
137.421
 20
211.165
 30
0.000000
  70
    32
  0
VERTEX
  8
実線
  5
BE4
 10
137.481
 20
211.152
 30
0.000000
  70
    32
  0
VERTEX
  8
実線
  5
BE5
 10
137.541
 20
211.139
 30
0.000000
  70
    32
  0
VERTEX
  8
実線
  5
BE6
 10
137.601
 20
211.127
 30
0.000000
  70
    32
  0
VERTEX
  8
実線
  5
BE7
 10
137.662
 20
211.116
 30
0.000000
  70
    32
  0
VERTEX
  8
実線
  5
BE8
 10
137.724
 20
211.106
 30
0.000000
  70
    32
  0
VERTEX
  8
実線
  5
BE9
 10
137.785
 20
211.096
 30
0.000000
  70
    32
  0
VERTEX
  8
実線
  5
BEA
 10
137.847
 20
211.087
 30
0.000000
  70
    32
  0
VERTEX
  8
実線
  5
BEB
 10
137.910
 20
211.078
 30
0.000000
  70
    32
  0
VERTEX
  8
実線
  5
BEC
 10
137.972
 20
211.071
 30
0.000000
  70
    32
  0
VERTEX
  8
実線
  5
BED
 10
138.035
 20
211.064
 30
0.000000
  70
    32
  0
VERTEX
  8
実線
  5
BEE
 10
138.098
 20
211.058
 30
0.000000
  70
    32
  0
VERTEX
  8
実線
  5
BEF
 10
138.162
 20
211.052
 30
0.000000
  70
    32
  0
VERTEX
  8
実線
  5
BF0
 10
138.226
 20
211.048
 30
0.000000
  70
    32
  0
VERTEX
  8
実線
  5
BF1
 10
138.274
 20
211.045
 30
0.000000
  70
    32
  0
VERTEX
  8
実線
  5
BF2
 10
138.306
 20
211.043
 30
0.000000
  70
    32
  0
VERTEX
  8
実線
  5
BF3
 10
138.338
 20
211.042
 30
0.000000
  70
    32
  0
VERTEX
  8
実線
  5
BF4
 10
138.370
 20
211.040
 30
0.000000
  70
    32
  0
VERTEX
  8
実線
  5
BF5
 10
138.402
 20
211.039
 30
0.000000
  70
    32
  0
VERTEX
  8
実線
  5
BF6
 10
138.434
 20
211.038
 30
0.000000
  70
    32
  0
VERTEX
  8
実線
  5
BF7
 10
138.466
 20
211.038
 30
0.000000
  70
    32
  0
VERTEX
  8
実線
  5
BF8
 10
138.498
 20
211.037
 30
0.000000
  70
    32
  0
VERTEX
  8
実線
  5
BF9
 10
138.530
 20
211.037
 30
0.000000
  70
    32
  0
VERTEX
  8
実線
  5
BFA
 10
138.562
 20
211.037
 30
0.000000
  70
    32
  0
VERTEX
  8
実線
  5
BFB
 10
138.593
 20
211.037
 30
0.000000
  70
    32
  0
VERTEX
  8
実線
  5
BFC
 10
138.625
 20
211.037
 30
0.000000
  70
    32
  0
VERTEX
  8
実線
  5
BFD
 10
138.657
 20
211.037
 30
0.000000
  70
    32
  0
VERTEX
  8
実線
  5
BFE
 10
138.689
 20
211.038
 30
0.000000
  70
    32
  0
VERTEX
  8
実線
  5
BFF
 10
138.721
 20
211.039
 30
0.000000
  70
    32
  0
VERTEX
  8
実線
  5
C00
 10
138.753
 20
211.040
 30
0.000000
  70
    32
  0
VERTEX
  8
実線
  5
C01
 10
138.784
 20
211.041
 30
0.000000
  70
    32
  0
VERTEX
  8
実線
  5
C02
 10
138.816
 20
211.042
 30
0.000000
  70
    32
  0
VERTEX
  8
実線
  5
C03
 10
138.848
 20
211.044
 30
0.000000
  70
    32
  0
VERTEX
  8
実線
  5
C04
 10
138.880
 20
211.046
 30
0.000000
  70
    32
  0
VERTEX
  8
実線
  5
C05
 10
138.911
 20
211.048
 30
0.000000
  70
    32
  0
VERTEX
  8
実線
  5
C06
 10
138.943
 20
211.050
 30
0.000000
  70
    32
  0
VERTEX
  8
実線
  5
C07
 10
138.974
 20
211.052
 30
0.000000
  70
    32
  0
VERTEX
  8
実線
  5
C08
 10
139.006
 20
211.055
 30
0.000000
  70
    32
  0
VERTEX
  8
実線
  5
C09
 10
139.037
 20
211.058
 30
0.000000
  70
    32
  0
VERTEX
  8
実線
  5
C0A
 10
139.069
 20
211.061
 30
0.000000
  70
    32
  0
VERTEX
  8
実線
  5
C0B
 10
139.100
 20
211.064
 30
0.000000
  70
    32
  0
VERTEX
  8
実線
  5
C0C
 10
139.132
 20
211.067
 30
0.000000
  70
    32
  0
VERTEX
  8
実線
  5
C0D
 10
139.163
 20
211.070
 30
0.000000
  70
    32
  0
VERTEX
  8
実線
  5
C0E
 10
139.194
 20
211.074
 30
0.000000
  70
    32
  0
VERTEX
  8
実線
  5
C0F
 10
139.226
 20
211.078
 30
0.000000
  70
    32
  0
VERTEX
  8
実線
  5
C10
 10
139.257
 20
211.082
 30
0.000000
  70
    32
  0
VERTEX
  8
実線
  5
C11
 10
139.288
 20
211.086
 30
0.000000
  70
    32
  0
VERTEX
  8
実線
  5
C12
 10
139.319
 20
211.091
 30
0.000000
  70
    32
  0
VERTEX
  8
実線
  5
C13
 10
139.350
 20
211.095
 30
0.000000
  70
    32
  0
VERTEX
  8
実線
  5
C14
 10
139.381
 20
211.100
 30
0.000000
  70
    32
  0
VERTEX
  8
実線
  5
C15
 10
139.412
 20
211.105
 30
0.000000
  70
    32
  0
VERTEX
  8
実線
  5
C16
 10
139.443
 20
211.110
 30
0.000000
  70
    32
  0
VERTEX
  8
実線
  5
C17
 10
139.474
 20
211.116
 30
0.000000
  70
    32
  0
VERTEX
  8
実線
  5
C18
 10
139.505
 20
211.121
 30
0.000000
  70
    32
  0
VERTEX
  8
実線
  5
C19
 10
139.535
 20
211.127
 30
0.000000
  70
    32
  0
VERTEX
  8
実線
  5
C1A
 10
139.566
 20
211.133
 30
0.000000
  70
    32
  0
VERTEX
  8
実線
  5
C1B
 10
139.597
 20
211.139
 30
0.000000
  70
    32
  0
VERTEX
  8
実線
  5
C1C
 10
139.627
 20
211.145
 30
0.000000
  70
    32
  0
VERTEX
  8
実線
  5
C1D
 10
139.658
 20
211.152
 30
0.000000
  70
    32
  0
VERTEX
  8
実線
  5
C1E
 10
139.688
 20
211.158
 30
0.000000
  70
    32
  0
VERTEX
  8
実線
  5
C1F
 10
139.719
 20
211.165
 30
0.000000
  70
    32
  0
VERTEX
  8
実線
  5
C20
 10
139.749
 20
211.172
 30
0.000000
  70
    32
  0
VERTEX
  8
実線
  5
C21
 10
139.779
 20
211.179
 30
0.000000
  70
    32
  0
VERTEX
  8
実線
  5
C22
 10
139.809
 20
211.187
 30
0.000000
  70
    32
  0
VERTEX
  8
実線
  5
C23
 10
139.839
 20
211.194
 30
0.000000
  70
    32
  0
VERTEX
  8
実線
  5
C24
 10
139.870
 20
211.202
 30
0.000000
  70
    32
  0
VERTEX
  8
実線
  5
C25
 10
139.900
 20
211.210
 30
0.000000
  70
    32
  0
VERTEX
  8
実線
  5
C26
 10
139.929
 20
211.218
 30
0.000000
  70
    32
  0
VERTEX
  8
実線
  5
C27
 10
139.959
 20
211.226
 30
0.000000
  70
    32
  0
VERTEX
  8
実線
  5
C28
 10
139.989
 20
211.235
 30
0.000000
  70
    32
  0
VERTEX
  8
実線
  5
C29
 10
140.019
 20
211.244
 30
0.000000
  70
    32
  0
VERTEX
  8
実線
  5
C2A
 10
140.048
 20
211.252
 30
0.000000
  70
    32
  0
VERTEX
  8
実線
  5
C2B
 10
140.078
 20
211.261
 30
0.000000
  70
    32
  0
VERTEX
  8
実線
  5
C2C
 10
140.107
 20
211.271
 30
0.000000
  70
    32
  0
VERTEX
  8
実線
  5
C2D
 10
140.137
 20
211.280
 30
0.000000
  70
    32
  0
VERTEX
  8
実線
  5
C2E
 10
140.166
 20
211.289
 30
0.000000
  70
    32
  0
VERTEX
  8
実線
  5
C2F
 10
140.195
 20
211.299
 30
0.000000
  70
    32
  0
VERTEX
  8
実線
  5
C30
 10
140.224
 20
211.309
 30
0.000000
  70
    32
  0
VERTEX
  8
実線
  5
C31
 10
140.253
 20
211.319
 30
0.000000
  70
    32
  0
VERTEX
  8
実線
  5
C32
 10
140.282
 20
211.329
 30
0.000000
  70
    32
  0
VERTEX
  8
実線
  5
C33
 10
140.311
 20
211.340
 30
0.000000
  70
    32
  0
VERTEX
  8
実線
  5
C34
 10
140.340
 20
211.350
 30
0.000000
  70
    32
  0
VERTEX
  8
実線
  5
C35
 10
140.369
 20
211.361
 30
0.000000
  70
    32
  0
VERTEX
  8
実線
  5
C36
 10
140.397
 20
211.372
 30
0.000000
  70
    32
  0
VERTEX
  8
実線
  5
C37
 10
140.426
 20
211.383
 30
0.000000
  70
    32
  0
VERTEX
  8
実線
  5
C38
 10
140.454
 20
211.394
 30
0.000000
  70
    32
  0
VERTEX
  8
実線
  5
C39
 10
140.482
 20
211.406
 30
0.000000
  70
    32
  0
VERTEX
  8
実線
  5
C3A
 10
140.511
 20
211.417
 30
0.000000
  70
    32
  0
VERTEX
  8
実線
  5
C3B
 10
140.539
 20
211.429
 30
0.000000
  70
    32
  0
VERTEX
  8
実線
  5
C3C
 10
140.567
 20
211.441
 30
0.000000
  70
    32
  0
VERTEX
  8
実線
  5
C3D
 10
140.595
 20
211.453
 30
0.000000
  70
    32
  0
VERTEX
  8
実線
  5
C3E
 10
140.623
 20
211.466
 30
0.000000
  70
    32
  0
VERTEX
  8
実線
  5
C3F
 10
140.650
 20
211.478
 30
0.000000
  70
    32
  0
VERTEX
  8
実線
  5
C40
 10
140.678
 20
211.491
 30
0.000000
  70
    32
  0
VERTEX
  8
実線
  5
C41
 10
140.705
 20
211.504
 30
0.000000
  70
    32
  0
VERTEX
  8
実線
  5
C42
 10
140.733
 20
211.517
 30
0.000000
  70
    32
  0
VERTEX
  8
実線
  5
C43
 10
140.760
 20
211.530
 30
0.000000
  70
    32
  0
VERTEX
  8
実線
  5
C44
 10
140.787
 20
211.543
 30
0.000000
  70
    32
  0
VERTEX
  8
実線
  5
C45
 10
140.814
 20
211.557
 30
0.000000
  70
    32
  0
VERTEX
  8
実線
  5
C46
 10
140.841
 20
211.570
 30
0.000000
  70
    32
  0
VERTEX
  8
実線
  5
C47
 10
140.868
 20
211.584
 30
0.000000
  70
    32
  0
VERTEX
  8
実線
  5
C48
 10
140.895
 20
211.598
 30
0.000000
  70
    32
  0
VERTEX
  8
実線
  5
C49
 10
140.922
 20
211.612
 30
0.000000
  70
    32
  0
VERTEX
  8
実線
  5
C4A
 10
140.948
 20
211.627
 30
0.000000
  70
    32
  0
VERTEX
  8
実線
  5
C4B
 10
140.975
 20
211.641
 30
0.000000
  70
    32
  0
VERTEX
  8
実線
  5
C4C
 10
141.001
 20
211.656
 30
0.000000
  70
    32
  0
VERTEX
  8
実線
  5
C4D
 10
141.027
 20
211.671
 30
0.000000
  70
    32
  0
VERTEX
  8
実線
  5
C4E
 10
141.053
 20
211.686
 30
0.000000
  70
    32
  0
VERTEX
  8
実線
  5
C4F
 10
141.079
 20
211.701
 30
0.000000
  70
    32
  0
VERTEX
  8
実線
  5
C50
 10
141.105
 20
211.716
 30
0.000000
  70
    32
  0
VERTEX
  8
実線
  5
C51
 10
141.131
 20
211.732
 30
0.000000
  70
    32
  0
VERTEX
  8
実線
  5
C52
 10
141.156
 20
211.748
 30
0.000000
  70
    32
  0
VERTEX
  8
実線
  5
C53
 10
141.182
 20
211.763
 30
0.000000
  70
    32
  0
VERTEX
  8
実線
  5
C54
 10
141.207
 20
211.779
 30
0.000000
  70
    32
  0
VERTEX
  8
実線
  5
C55
 10
141.232
 20
211.796
 30
0.000000
  70
    32
  0
VERTEX
  8
実線
  5
C56
 10
141.257
 20
211.812
 30
0.000000
  70
    32
  0
VERTEX
  8
実線
  5
C57
 10
141.282
 20
211.828
 30
0.000000
  70
    32
  0
VERTEX
  8
実線
  5
C58
 10
141.307
 20
211.845
 30
0.000000
  70
    32
  0
VERTEX
  8
実線
  5
C59
 10
141.331
 20
211.862
 30
0.000000
  70
    32
  0
VERTEX
  8
実線
  5
C5A
 10
141.356
 20
211.879
 30
0.000000
  70
    32
  0
VERTEX
  8
実線
  5
C5B
 10
141.380
 20
211.896
 30
0.000000
  70
    32
  0
VERTEX
  8
実線
  5
C5C
 10
141.405
 20
211.913
 30
0.000000
  70
    32
  0
VERTEX
  8
実線
  5
C5D
 10
141.429
 20
211.931
 30
0.000000
  70
    32
  0
VERTEX
  8
実線
  5
C5E
 10
141.453
 20
211.948
 30
0.000000
  70
    32
  0
VERTEX
  8
実線
  5
C5F
 10
141.476
 20
211.966
 30
0.000000
  70
    32
  0
VERTEX
  8
実線
  5
C60
 10
141.500
 20
211.984
 30
0.000000
  70
    32
  0
SEQEND
  8
実線
  5
C61
  0
POLYLINE
  5
CF
  8
実線
 62
     7
 66
     1
 10
0.0
 20
0.0
 30
0.0
  0
VERTEX
  5
D0
  8
実線
 62
     7
 10
-1.1415331421006041
 20
181.6252092899644
 30
0.0
  0
VERTEX
  5
D1
  8
実線
 62
     7
 10
136.4200145490943
 20
220.1551826150079
 30
0.0
  0
SEQEND
  5
D2
  8
実線
  0
POLYLINE
  5
D3
  8
実線
 62
     7
 66
     1
 10
0.0
 20
0.0
 30
0.0
  0
VERTEX
  5
D4
  8
実線
 62
     7
 10
2.524912146810121
 20
182.03896553069561
 30
0.0
  0
VERTEX
  5
D5
  8
実線
 62
     7
 10
7.3156650890316453
 20
181.4452029321109
 30
0.0
  0
SEQEND
  5
D6
  8
実線
  0
POLYLINE
  5
D7
  8
実線
 62
     7
 66
     1
 10
0.0
 20
0.0
 30
0.0
  0
VERTEX
  5
D8
  8
実線
 62
     7
 10
0.5064293704203682
 20
181.5933421357033
 30
0.0
  0
VERTEX
  5
D9
  8
実線
 62
     7
 10
2.4356841148789141
 20
182.0591193525797
 30
0.0
  0
SEQEND
  5
DA
  8
実線
  0
POLYLINE
  5
DB
  8
実線
 62
     7
 66
     1
 10
0.0
 20
0.0
 30
0.0
  0
VERTEX
  5
DC
  8
実線
 62
     7
 10
2.4356841148789141
 20
182.02725219831839
 30
0.0
  0
VERTEX
  5
DD
  8
実線
 62
     7
 10
2.4356841148789141
 20
177.74878529270589
 30
0.0
  0
SEQEND
  5
DE
  8
実線
  0
POLYLINE
  5
DF
  8
実線
 62
     7
 66
     1
 10
0.0
 20
0.0
 30
0.0
  0
VERTEX
  5
E0
  8
実線
 62
     7
 10
0.5064293704203682
 20
181.5933421357033
 30
0.0
  0
VERTEX
  5
E1
  8
実線
 62
     7
 10
0.5064293704203682
 20
177.05390907492509
 30
0.0
  0
SEQEND
  5
E2
  8
実線
  0
POLYLINE
  5
E3
  8
実線
 62
     7
 66
     1
 10
0.0
 20
0.0
 30
0.0
  0
VERTEX
  5
E4
  8
実線
 62
     7
 10
-1.1415331421006041
 20
181.61952487866381
 30
0.0
  0
VERTEX
  5
E5
  8
実線
 62
     7
 10
0.5064293704203682
 20
181.24969363434661
 30
0.0
  0
SEQEND
  5
E6
  8
実線
  0
POLYLINE
  5
E7
  8
実線
 62
     7
 66
     1
 10
0.0
 20
0.0
 30
0.0
  0
VERTEX
  5
E8
  8
実線
 62
     7
 10
142.0362129141235
 20
217.1217740391227
 30
0.0
  0
VERTEX
  5
E9
  8
実線
 62
     7
 10
142.0362129141235
 20
214.371380244054
 30
0.0
  0
SEQEND
  5
EA
  8
実線
  0
POLYLINE
  5
EB
  8
実線
 62
     7
 66
     1
 10
0.0
 20
0.0
 30
0.0
  0
VERTEX
  5
EC
  8
実線
 62
     7
 10
137.21996624849299
 20
218.3051651189825
 30
0.0
  0
VERTEX
  5
ED
  8
実線
 62
     7
 10
142.0362129141235
 20
217.0489102215418
 30
0.0
  0
SEQEND
  5
EE
  8
実線
  0
POLYLINE
  5
EF
  8
実線
 62
     7
 66
     1
 10
0.0
 20
0.0
 30
0.0
  0
VERTEX
  5
F0
  8
実線
 62
     7
 10
137.18999389799879
 20
218.3580473695672
 30
0.0
  0
VERTEX
  5
F1
  8
実線
 62
     7
 10
137.18999389799879
 20
214.96720990129339
 30
0.0
  0
SEQEND
  5
F2
  8
実線
  0
POLYLINE
  5
F3
  8
実線
 62
     7
 66
     1
 10
0.0
 20
0.0
 30
0.0
  0
VERTEX
  5
F4
  8
実線
 62
     7
 10
134.2613162939555
 20
217.48729891124239
 30
0.0
  0
VERTEX
  5
F5
  8
実線
 62
     7
 10
137.18999389799879
 20
218.3580473695672
 30
0.0
  0
SEQEND
  5
F6
  8
実線
  0
POLYLINE
  5
F7
  8
実線
 62
     7
 66
     1
 10
0.0
 20
0.0
 30
0.0
  0
VERTEX
  5
F8
  8
実線
 62
     7
 10
134.2613162939555
 20
217.48729891124239
 30
0.0
  0
VERTEX
  5
F9
  8
実線
 62
     7
 10
134.2613162939555
 20
214.3515709319457
 30
0.0
  0
SEQEND
  5
FA
  8
実線
  0
POLYLINE
  5
FB
  8
実線
 62
     7
 66
     1
 10
0.0
 20
0.0
 30
0.0
  0
VERTEX
  5
FC
  8
実線
 62
     7
 10
142.0362129141235
 20
217.09696933526541
 30
0.0
  0
VERTEX
  5
FD
  8
実線
 62
     7
 10
144.5335642788699
 20
218.0841620978093
 30
0.0
  0
SEQEND
  5
FE
  8
実線
  0
POLYLINE
  5
FF
  8
実線
 62
     7
 66
     1
 10
0.0
 20
0.0
 30
0.0
  0
VERTEX
  5
100
  8
実線
 62
     7
 10
136.69183276219749
 20
220.1551826150079
 30
0.0
  0
VERTEX
  5
101
  8
実線
 62
     7
 10
144.5335642788699
 20
218.04850533601439
 30
0.0
  0
SEQEND
  5
102
  8
実線
  0
POLYLINE
  5
103
  8
実線
 62
     7
 66
     1
 10
0.0
 20
0.0
 30
0.0
  0
VERTEX
  5
104
  8
実線
 62
     7
 10
7.3156650890316453
 20
181.4663902833224
 30
0.0
  0
VERTEX
  5
105
  8
実線
 62
     7
 10
7.3156650890316453
 20
179.8881910004001
 30
0.0
  0
SEQEND
  5
106
  8
実線
  0
ENDSEC
  0
EOF
