  0
SECTION
  2
HEADER
  9
$ACADVER
  1
AC1018
  9
$ACADMAINTVER
 70
     0
  9
$DWGCODEPAGE
  3
ANSI_932
  9
$INSBASE
 10
0.0
 20
0.0
 30
0.0
  9
$EXTMIN
 10
1.000000000000000E+20
 20
1.000000000000000E+20
 30
1.000000000000000E+20
  9
$EXTMAX
 10
-1.000000000000000E+20
 20
-1.000000000000000E+20
 30
-1.000000000000000E+20
  9
$LIMMIN
 10
0.0
 20
0.0
  9
$LIMMAX
 10
12.0
 20
9.0
  9
$ORTHOMODE
 70
     0
  9
$REGENMODE
 70
     1
  9
$FILLMODE
 70
     1
  9
$QTEXTMODE
 70
     0
  9
$MIRRTEXT
 70
     1
  9
$LTSCALE
 40
1.0
  9
$ATTMODE
 70
     1
  9
$TEXTSIZE
 40
0.2
  9
$TRACEWID
 40
0.05
  9
$TEXTSTYLE
  7
Standard
  9
$CLAYER
  8
0
  9
$CELTYPE
  6
ByLayer
  9
$CECOLOR
 62
   256
  9
$CELTSCALE
 40
1.0
  9
$DISPSILH
 70
     0
  9
$DIMSCALE
 40
1.0
  9
$DIMASZ
 40
0.18
  9
$DIMEXO
 40
0.0625
  9
$DIMDLI
 40
0.38
  9
$DIMRND
 40
0.0
  9
$DIMDLE
 40
0.0
  9
$DIMEXE
 40
0.18
  9
$DIMTP
 40
0.0
  9
$DIMTM
 40
0.0
  9
$DIMTXT
 40
0.18
  9
$DIMCEN
 40
0.09
  9
$DIMTSZ
 40
0.0
  9
$DIMTOL
 70
     0
  9
$DIMLIM
 70
     0
  9
$DIMTIH
 70
     1
  9
$DIMTOH
 70
     1
  9
$DIMSE1
 70
     0
  9
$DIMSE2
 70
     0
  9
$DIMTAD
 70
     0
  9
$DIMZIN
 70
     0
  9
$DIMBLK
  1

  9
$DIMASO
 70
     1
  9
$DIMSHO
 70
     1
  9
$DIMPOST
  1

  9
$DIMAPOST
  1

  9
$DIMALT
 70
     0
  9
$DIMALTD
 70
     2
  9
$DIMALTF
 40
25.4
  9
$DIMLFAC
 40
1.0
  9
$DIMTOFL
 70
     0
  9
$DIMTVP
 40
0.0
  9
$DIMTIX
 70
     0
  9
$DIMSOXD
 70
     0
  9
$DIMSAH
 70
     0
  9
$DIMBLK1
  1

  9
$DIMBLK2
  1

  9
$DIMSTYLE
  2
Standard
  9
$DIMCLRD
 70
     0
  9
$DIMCLRE
 70
     0
  9
$DIMCLRT
 70
     0
  9
$DIMTFAC
 40
1.0
  9
$DIMGAP
 40
0.09
  9
$DIMJUST
 70
     0
  9
$DIMSD1
 70
     0
  9
$DIMSD2
 70
     0
  9
$DIMTOLJ
 70
     1
  9
$DIMTZIN
 70
     0
  9
$DIMALTZ
 70
     0
  9
$DIMALTTZ
 70
     0
  9
$DIMUPT
 70
     0
  9
$DIMDEC
 70
     4
  9
$DIMTDEC
 70
     4
  9
$DIMALTU
 70
     2
  9
$DIMALTTD
 70
     2
  9
$DIMTXSTY
  7
Standard
  9
$DIMAUNIT
 70
     0
  9
$DIMADEC
 70
     0
  9
$DIMALTRND
 40
0.0
  9
$DIMAZIN
 70
     0
  9
$DIMDSEP
 70
    46
  9
$DIMATFIT
 70
     3
  9
$DIMFRAC
 70
     0
  9
$DIMLDRBLK
  1

  9
$DIMLUNIT
 70
     2
  9
$DIMLWD
 70
    -2
  9
$DIMLWE
 70
    -2
  9
$DIMTMOVE
 70
     0
  9
$LUNITS
 70
     2
  9
$LUPREC
 70
     4
  9
$SKETCHINC
 40
0.1
  9
$FILLETRAD
 40
0.5
  9
$AUNITS
 70
     0
  9
$AUPREC
 70
     0
  9
$MENU
  1
.
  9
$ELEVATION
 40
0.0
  9
$PELEVATION
 40
0.0
  9
$THICKNESS
 40
0.0
  9
$LIMCHECK
 70
     0
  9
$CHAMFERA
 40
0.5
  9
$CHAMFERB
 40
0.5
  9
$CHAMFERC
 40
1.0
  9
$CHAMFERD
 40
0.0
  9
$SKPOLY
 70
     0
  9
$TDCREATE
 40
2457242.694842292
  9
$TDUCREATE
 40
2457242.319842292
  9
$TDUPDATE
 40
2457242.694842303
  9
$TDUUPDATE
 40
2457242.319842303
  9
$TDINDWG
 40
0.0000000116
  9
$TDUSRTIMER
 40
0.0000000116
  9
$USRTIMER
 70
     1
  9
$ANGBASE
 50
0.0
  9
$ANGDIR
 70
     0
  9
$PDMODE
 70
     0
  9
$PDSIZE
 40
0.0
  9
$PLINEWID
 40
0.0
  9
$SPLFRAME
 70
     0
  9
$SPLINETYPE
 70
     6
  9
$SPLINESEGS
 70
     8
  9
$HANDSEED
  5
7F
  9
$SURFTAB1
 70
     6
  9
$SURFTAB2
 70
     6
  9
$SURFTYPE
 70
     6
  9
$SURFU
 70
     6
  9
$SURFV
 70
     6
  9
$UCSBASE
  2

  9
$UCSNAME
  2

  9
$UCSORG
 10
0.0
 20
0.0
 30
0.0
  9
$UCSXDIR
 10
1.0
 20
0.0
 30
0.0
  9
$UCSYDIR
 10
0.0
 20
1.0
 30
0.0
  9
$UCSORTHOREF
  2

  9
$UCSORTHOVIEW
 70
     0
  9
$UCSORGTOP
 10
0.0
 20
0.0
 30
0.0
  9
$UCSORGBOTTOM
 10
0.0
 20
0.0
 30
0.0
  9
$UCSORGLEFT
 10
0.0
 20
0.0
 30
0.0
  9
$UCSORGRIGHT
 10
0.0
 20
0.0
 30
0.0
  9
$UCSORGFRONT
 10
0.0
 20
0.0
 30
0.0
  9
$UCSORGBACK
 10
0.0
 20
0.0
 30
0.0
  9
$PUCSBASE
  2

  9
$PUCSNAME
  2

  9
$PUCSORG
 10
0.0
 20
0.0
 30
0.0
  9
$PUCSXDIR
 10
1.0
 20
0.0
 30
0.0
  9
$PUCSYDIR
 10
0.0
 20
1.0
 30
0.0
  9
$PUCSORTHOREF
  2

  9
$PUCSORTHOVIEW
 70
     0
  9
$PUCSORGTOP
 10
0.0
 20
0.0
 30
0.0
  9
$PUCSORGBOTTOM
 10
0.0
 20
0.0
 30
0.0
  9
$PUCSORGLEFT
 10
0.0
 20
0.0
 30
0.0
  9
$PUCSORGRIGHT
 10
0.0
 20
0.0
 30
0.0
  9
$PUCSORGFRONT
 10
0.0
 20
0.0
 30
0.0
  9
$PUCSORGBACK
 10
0.0
 20
0.0
 30
0.0
  9
$USERI1
 70
     0
  9
$USERI2
 70
     0
  9
$USERI3
 70
     0
  9
$USERI4
 70
     0
  9
$USERI5
 70
     0
  9
$USERR1
 40
0.0
  9
$USERR2
 40
0.0
  9
$USERR3
 40
0.0
  9
$USERR4
 40
0.0
  9
$USERR5
 40
0.0
  9
$WORLDVIEW
 70
     1
  9
$SHADEDGE
 70
     3
  9
$SHADEDIF
 70
    70
  9
$TILEMODE
 70
     1
  9
$MAXACTVP
 70
    64
  9
$PINSBASE
 10
0.0
 20
0.0
 30
0.0
  9
$PLIMCHECK
 70
     0
  9
$PEXTMIN
 10
1.000000000000000E+20
 20
1.000000000000000E+20
 30
1.000000000000000E+20
  9
$PEXTMAX
 10
-1.000000000000000E+20
 20
-1.000000000000000E+20
 30
-1.000000000000000E+20
  9
$PLIMMIN
 10
0.0
 20
0.0
  9
$PLIMMAX
 10
12.0
 20
9.0
  9
$UNITMODE
 70
     0
  9
$VISRETAIN
 70
     1
  9
$PLINEGEN
 70
     0
  9
$PSLTSCALE
 70
     1
  9
$TREEDEPTH
 70
  3020
  9
$CMLSTYLE
  2
Standard
  9
$CMLJUST
 70
     0
  9
$CMLSCALE
 40
1.0
  9
$PROXYGRAPHICS
 70
     1
  9
$MEASUREMENT
 70
     0
  9
$CELWEIGHT
370
    -1
  9
$ENDCAPS
280
     0
  9
$JOINSTYLE
280
     0
  9
$LWDISPLAY
290
     1
  9
$INSUNITS
 70
     1
  9
$HYPERLINKBASE
  1

  9
$STYLESHEET
  1

  9
$XEDIT
290
     1
  9
$CEPSNTYPE
380
     0
  9
$PSTYLEMODE
290
     1
  9
$FINGERPRINTGUID
  2
{623E60AE-DCD9-49D9-9F57-E1733B48B86B}
  9
$VERSIONGUID
  2
{FAEB1C32-E019-11D5-929B-00C0DF256EC4}
  9
$EXTNAMES
290
     1
  9
$PSVPSCALE
 40
0.0
  9
$OLESTARTUP
290
     0
  9
$SORTENTS
280
   127
  9
$INDEXCTL
280
     0
  9
$HIDETEXT
280
     1
  9
$XCLIPFRAME
290
     0
  9
$HALOGAP
280
     0
  9
$OBSCOLOR
 70
   257
  9
$OBSLTYPE
280
     0
  9
$INTERSECTIONDISPLAY
280
     0
  9
$INTERSECTIONCOLOR
 70
   257
  9
$DIMASSOC
280
     2
  9
$PROJECTNAME
  1

  0
ENDSEC
  0
SECTION
  2
CLASSES
  0
CLASS
  1
ACDBDICTIONARYWDFLT
  2
AcDbDictionaryWithDefault
  3
ObjectDBX Classes
 90
        0
 91
        3
280
     0
281
     0
  0
CLASS
  1
VISUALSTYLE
  2
AcDbVisualStyle
  3
ObjectDBX Classes
 90
     4095
 91
        3
280
     0
281
     0
  0
ENDSEC
  0
SECTION
  2
TABLES
  0
TABLE
  2
VPORT
  5
8
330
0
100
AcDbSymbolTable
 70
     1
  0
VPORT
  5
29
330
8
100
AcDbSymbolTableRecord
100
AcDbViewportTableRecord
  2
*Active
 70
     0
 10
0.0
 20
0.0
 11
1.0
 21
1.0
 12
0.0
 22
0.0
 13
0.0
 23
0.0
 14
0.5
 24
0.5
 15
0.5
 25
0.5
 16
0.0
 26
0.0
 36
1.0
 17
105.0003092185416
 27
148.4998934904358
 37
0.0
 40
296.9997869808716
 41
0.707073296488958
 42
50.0
 43
0.0
 44
0.0
 50
0.0
 51
0.0
 71
     0
 72
   100
 73
     1
 74
     3
 75
     0
 76
     0
 77
     0
 78
     0
281
     0
 65
     1
110
0.0
120
0.0
130
0.0
111
1.0
121
0.0
131
0.0
112
0.0
122
1.0
132
0.0
 79
     0
146
0.0
  0
ENDTAB
  0
TABLE
  2
LTYPE
  5
5
330
0
100
AcDbSymbolTable
 70
     1
  0
LTYPE
  5
14
330
5
100
AcDbSymbolTableRecord
100
AcDbLinetypeTableRecord
  2
ByBlock
 70
     0
  3

 72
    65
 73
     0
 40
0.0
  0
LTYPE
  5
15
330
5
100
AcDbSymbolTableRecord
100
AcDbLinetypeTableRecord
  2
ByLayer
 70
     0
  3

 72
    65
 73
     0
 40
0.0
  0
LTYPE
  5
16
330
5
100
AcDbSymbolTableRecord
100
AcDbLinetypeTableRecord
  2
Continuous
 70
     0
  3
Solid line
 72
    65
 73
     0
 40
0.0
  0
ENDTAB
  0
TABLE
  2
LAYER
  5
2
330
0
100
AcDbSymbolTable
 70
     2
  0
LAYER
  5
10
330
2
100
AcDbSymbolTableRecord
100
AcDbLayerTableRecord
  2
0
 70
     0
 62
     7
  6
Continuous
370
    -3
390
F
  0
LAYER
  5
3B
330
2
100
AcDbSymbolTableRecord
100
AcDbLayerTableRecord
  2
\U+30EC\U+30A4\U+30E4\U+30FC 1
 70
     0
 62
     7
  6
Continuous
370
    -3
390
F
  0
ENDTAB
  0
TABLE
  2
STYLE
  5
3
330
0
100
AcDbSymbolTable
 70
     1
  0
STYLE
  5
11
330
3
100
AcDbSymbolTableRecord
100
AcDbTextStyleTableRecord
  2
Standard
 70
     0
 40
0.0
 41
1.0
 50
0.0
 71
     0
 42
0.2
  3
txt
  4

  0
ENDTAB
  0
TABLE
  2
VIEW
  5
6
330
0
100
AcDbSymbolTable
 70
     0
  0
ENDTAB
  0
TABLE
  2
UCS
  5
7
330
0
100
AcDbSymbolTable
 70
     0
  0
ENDTAB
  0
TABLE
  2
APPID
  5
9
330
0
100
AcDbSymbolTable
 70
     1
  0
APPID
  5
12
330
9
100
AcDbSymbolTableRecord
100
AcDbRegAppTableRecord
  2
ACAD
 70
     0
  0
ENDTAB
  0
TABLE
  2
DIMSTYLE
  5
A
330
0
100
AcDbSymbolTable
 70
     1
100
AcDbDimStyleTable
  0
DIMSTYLE
105
27
330
A
100
AcDbSymbolTableRecord
100
AcDbDimStyleTableRecord
  2
Standard
 70
     0
340
11
  0
ENDTAB
  0
TABLE
  2
BLOCK_RECORD
  5
1
330
0
100
AcDbSymbolTable
 70
     1
  0
BLOCK_RECORD
  5
1F
330
1
100
AcDbSymbolTableRecord
100
AcDbBlockTableRecord
  2
*Model_Space
340
22
  0
BLOCK_RECORD
  5
1B
330
1
100
AcDbSymbolTableRecord
100
AcDbBlockTableRecord
  2
*Paper_Space
340
1E
  0
BLOCK_RECORD
  5
23
330
1
100
AcDbSymbolTableRecord
100
AcDbBlockTableRecord
  2
*Paper_Space0
340
26
  0
ENDTAB
  0
ENDSEC
  0
SECTION
  2
BLOCKS
  0
BLOCK
  5
20
330
1F
100
AcDbEntity
  8
0
100
AcDbBlockBegin
  2
*Model_Space
 70
     0
 71
     0
 10
0.0
 20
0.0
 30
0.0
  3
*Model_Space
  1

  0
ENDBLK
  5
21
330
1F
100
AcDbEntity
  8
0
100
AcDbBlockEnd
  0
BLOCK
  5
1C
330
1B
100
AcDbEntity
 67
     1
  8
0
100
AcDbBlockBegin
  2
*Paper_Space
 70
     0
 71
     0
 10
0.0
 20
0.0
 30
0.0
  3
*Paper_Space
  1

  0
ENDBLK
  5
1D
330
1B
100
AcDbEntity
 67
     1
  8
0
100
AcDbBlockEnd
  0
BLOCK
  5
24
330
23
100
AcDbEntity
  8
0
100
AcDbBlockBegin
  2
*Paper_Space0
 70
     0
 71
     0
 10
0.0
 20
0.0
 30
0.0
  3
*Paper_Space0
  1

  0
ENDBLK
  5
25
330
23
100
AcDbEntity
  8
0
100
AcDbBlockEnd
  0
ENDSEC
  0
SECTION
  2
ENTITIES
  0
MTEXT
  5
3C
330
1F
100
AcDbEntity
  8
\U+30EC\U+30A4\U+30E4\U+30FC 1
 62
   250
420
  2235935
100
AcDbMText
 10
14.78187119856148
 20
11.48767089556558
 30
0.0
 40
3.598333332433751
 41
0.0
 71
     7
 72
     1
  1
\fGothicBBBPro Medium-90pv-RKSJ-H|b0|i0|c0|p34;\W1;PLTV-1E17R
 73
     1
 44
1.0
  0
SPLINE
  5
3D
330
1F
100
AcDbEntity
  8
\U+30EC\U+30A4\U+30E4\U+30FC 1
370
     0
100
AcDbSpline
210
0.0
220
0.0
230
1.0
 70
    11
 71
     3
 72
    23
 73
    19
 74
     0
 42
0.0000000001
 43
0.0000000001
 40
0.0
 40
0.0
 40
0.0
 40
0.0
 40
1.0
 40
1.0
 40
1.0
 40
2.0
 40
2.0
 40
2.0
 40
3.0
 40
3.0
 40
3.0
 40
4.0
 40
4.0
 40
4.0
 40
5.0
 40
5.0
 40
5.0
 40
6.0
 40
6.0
 40
6.0
 40
6.0
 10
103.3459743665246
 20
261.8238117835024
 30
0.0
 10
103.5035874849748
 20
261.8549898976439
 30
0.0
 10
103.8739352496392
 20
261.8598130313233
 30
0.0
 10
104.1188815386404
 20
261.8446546111882
 30
0.0
 10
104.1188815386404
 20
261.8446546111882
 30
0.0
 10
107.7470838489313
 20
259.6952595379408
 30
0.0
 10
107.7470838489313
 20
259.6952595379408
 30
0.0
 10
107.7470838489313
 20
259.6952595379408
 30
0.0
 10
106.8017496477787
 20
259.5085353626403
 30
0.0
 10
106.8017496477787
 20
259.5085353626403
 30
0.0
 10
106.6439642745543
 20
259.4771849937244
 30
0.0
 10
106.2736165098899
 20
259.4725341148194
 30
0.0
 10
106.0286702208887
 20
259.4878647897287
 30
0.0
 10
106.0286702208887
 20
259.4878647897287
 30
0.0
 10
102.4004679105978
 20
261.6369153534276
 30
0.0
 10
102.4004679105978
 20
261.6369153534276
 30
0.0
 10
102.4004679105978
 20
261.6369153534276
 30
0.0
 10
103.3459743665246
 20
261.8238117835024
 30
0.0
 10
103.3459743665246
 20
261.8238117835024
 30
0.0
  0
HATCH
  5
3E
330
1F
100
AcDbEntity
  8
\U+30EC\U+30A4\U+30E4\U+30FC 1
 62
     7
420
 16711679
100
AcDbHatch
 10
0.0
 20
0.0
 30
0.0
210
0.0
220
0.0
230
1.0
  2
SOLID
 70
     1
 71
     0
 91
        1
 92
        1
 93
        2
 72
     4
 94
        3
 73
     0
 74
     0
 95
       23
 96
       19
 40
0.0
 40
0.0
 40
0.0
 40
0.0
 40
0.3527777776895833
 40
0.3527777776895833
 40
0.3527777776895833
 40
0.7055555553791667
 40
0.7055555553791667
 40
0.7055555553791667
 40
1.05833333306875
 40
1.05833333306875
 40
1.05833333306875
 40
1.411111110758333
 40
1.411111110758333
 40
1.411111110758333
 40
1.763888888447917
 40
1.763888888447917
 40
1.763888888447917
 40
2.1166666661375
 40
2.1166666661375
 40
2.1166666661375
 40
2.1166666661375
 10
103.3459743665246
 20
261.8238117835024
 10
103.5035874849748
 20
261.8549898976439
 10
103.8739352496392
 20
261.8598130313233
 10
104.1188815386404
 20
261.8446546111882
 10
104.1188815386404
 20
261.8446546111882
 10
107.7470838489313
 20
259.6952595379408
 10
107.7470838489313
 20
259.6952595379408
 10
107.7470838489313
 20
259.6952595379408
 10
106.8017496477787
 20
259.5085353626403
 10
106.8017496477787
 20
259.5085353626403
 10
106.6439642745543
 20
259.4771849937244
 10
106.2736165098899
 20
259.4725341148194
 10
106.0286702208887
 20
259.4878647897287
 10
106.0286702208887
 20
259.4878647897287
 10
102.4004679105978
 20
261.6369153534276
 10
102.4004679105978
 20
261.6369153534276
 10
102.4004679105978
 20
261.6369153534276
 10
103.3459743665246
 20
261.8238117835024
 10
103.3459743665246
 20
261.8238117835024
 72
     1
 10
103.3459743665246
 20
261.8238117835024
 11
103.3459743665246
 21
261.8238117835024
 97
        0
 75
     2
 76
     1
 98
        0
  0
SPLINE
  5
3F
330
1F
100
AcDbEntity
  8
\U+30EC\U+30A4\U+30E4\U+30FC 1
 62
   250
420
  2235935
370
    15
100
AcDbSpline
210
0.0
220
0.0
230
1.0
 70
    11
 71
     3
 72
    23
 73
    19
 74
     0
 42
0.0000000001
 43
0.0000000001
 40
0.0
 40
0.0
 40
0.0
 40
0.0
 40
1.0
 40
1.0
 40
1.0
 40
2.0
 40
2.0
 40
2.0
 40
3.0
 40
3.0
 40
3.0
 40
4.0
 40
4.0
 40
4.0
 40
5.0
 40
5.0
 40
5.0
 40
6.0
 40
6.0
 40
6.0
 40
6.0
 10
103.3459743665246
 20
261.8238117835024
 30
0.0
 10
103.5035874849748
 20
261.8549898976439
 30
0.0
 10
103.8739352496392
 20
261.8598130313233
 30
0.0
 10
104.1188815386404
 20
261.8446546111882
 30
0.0
 10
104.1188815386404
 20
261.8446546111882
 30
0.0
 10
107.7470838489313
 20
259.6952595379408
 30
0.0
 10
107.7470838489313
 20
259.6952595379408
 30
0.0
 10
107.7470838489313
 20
259.6952595379408
 30
0.0
 10
106.8017496477787
 20
259.5085353626403
 30
0.0
 10
106.8017496477787
 20
259.5085353626403
 30
0.0
 10
106.6439642745543
 20
259.4771849937244
 30
0.0
 10
106.2736165098899
 20
259.4725341148194
 30
0.0
 10
106.0286702208887
 20
259.4878647897287
 30
0.0
 10
106.0286702208887
 20
259.4878647897287
 30
0.0
 10
102.4004679105978
 20
261.6369153534276
 30
0.0
 10
102.4004679105978
 20
261.6369153534276
 30
0.0
 10
102.4004679105978
 20
261.6369153534276
 30
0.0
 10
103.3459743665246
 20
261.8238117835024
 30
0.0
 10
103.3459743665246
 20
261.8238117835024
 30
0.0
  0
SPLINE
  5
40
330
1F
100
AcDbEntity
  8
\U+30EC\U+30A4\U+30E4\U+30FC 1
370
     0
100
AcDbSpline
210
0.0
220
0.0
230
1.0
 70
    11
 71
     3
 72
    29
 73
    25
 74
     0
 42
0.0000000001
 43
0.0000000001
 40
0.0
 40
0.0
 40
0.0
 40
0.0
 40
1.0
 40
1.0
 40
1.0
 40
2.0
 40
2.0
 40
2.0
 40
3.0
 40
3.0
 40
3.0
 40
4.0
 40
4.0
 40
4.0
 40
5.0
 40
5.0
 40
5.0
 40
6.0
 40
6.0
 40
6.0
 40
7.0
 40
7.0
 40
7.0
 40
8.0
 40
8.0
 40
8.0
 40
8.0
 10
107.7470838489313
 20
259.6952595379408
 30
0.0
 10
107.7470838489313
 20
259.6952595379408
 30
0.0
 10
104.1188815386404
 20
261.8446546111882
 30
0.0
 10
104.1188815386404
 20
261.8446546111882
 30
0.0
 10
103.8739352496392
 20
261.8598130313233
 30
0.0
 10
103.5035874849748
 20
261.8549898976439
 30
0.0
 10
103.3459743665246
 20
261.8238117835024
 30
0.0
 10
103.3459743665246
 20
261.8238117835024
 30
0.0
 10
102.4004679105978
 20
261.6369153534276
 30
0.0
 10
102.4004679105978
 20
261.6369153534276
 30
0.0
 10
102.4004679105978
 20
261.6369153534276
 30
0.0
 10
102.4004679105978
 20
261.9907266597627
 30
0.0
 10
102.4004679105978
 20
261.9907266597627
 30
0.0
 10
102.4004679105978
 20
261.9907266597627
 30
0.0
 10
103.3459743665246
 20
262.177278580289
 30
0.0
 10
103.3459743665246
 20
262.177278580289
 30
0.0
 10
103.5035874849748
 20
262.2084566944305
 30
0.0
 10
103.8739352496392
 20
262.2132798281099
 30
0.0
 10
104.1188815386404
 20
262.1981214079748
 30
0.0
 10
104.1188815386404
 20
262.1981214079748
 30
0.0
 10
107.7470838489313
 20
260.0490708442759
 30
0.0
 10
107.7470838489313
 20
260.0490708442759
 30
0.0
 10
107.7470838489313
 20
260.0490708442759
 30
0.0
 10
107.7470838489313
 20
259.6952595379408
 30
0.0
 10
107.7470838489313
 20
259.6952595379408
 30
0.0
  0
HATCH
  5
41
330
1F
100
AcDbEntity
  8
\U+30EC\U+30A4\U+30E4\U+30FC 1
 62
     7
420
 16711679
100
AcDbHatch
 10
0.0
 20
0.0
 30
0.0
210
0.0
220
0.0
230
1.0
  2
SOLID
 70
     1
 71
     0
 91
        1
 92
        1
 93
        2
 72
     4
 94
        3
 73
     0
 74
     0
 95
       29
 96
       25
 40
0.0
 40
0.0
 40
0.0
 40
0.0
 40
0.3527777776895833
 40
0.3527777776895833
 40
0.3527777776895833
 40
0.7055555553791667
 40
0.7055555553791667
 40
0.7055555553791667
 40
1.05833333306875
 40
1.05833333306875
 40
1.05833333306875
 40
1.411111110758333
 40
1.411111110758333
 40
1.411111110758333
 40
1.763888888447917
 40
1.763888888447917
 40
1.763888888447917
 40
2.1166666661375
 40
2.1166666661375
 40
2.1166666661375
 40
2.469444443827083
 40
2.469444443827083
 40
2.469444443827083
 40
2.822222221516667
 40
2.822222221516667
 40
2.822222221516667
 40
2.822222221516667
 10
107.7470838489313
 20
259.6952595379408
 10
107.7470838489313
 20
259.6952595379408
 10
104.1188815386404
 20
261.8446546111882
 10
104.1188815386404
 20
261.8446546111882
 10
103.8739352496392
 20
261.8598130313233
 10
103.5035874849748
 20
261.8549898976439
 10
103.3459743665246
 20
261.8238117835024
 10
103.3459743665246
 20
261.8238117835024
 10
102.4004679105978
 20
261.6369153534276
 10
102.4004679105978
 20
261.6369153534276
 10
102.4004679105978
 20
261.6369153534276
 10
102.4004679105978
 20
261.9907266597627
 10
102.4004679105978
 20
261.9907266597627
 10
102.4004679105978
 20
261.9907266597627
 10
103.3459743665246
 20
262.177278580289
 10
103.3459743665246
 20
262.177278580289
 10
103.5035874849748
 20
262.2084566944305
 10
103.8739352496392
 20
262.2132798281099
 10
104.1188815386404
 20
262.1981214079748
 10
104.1188815386404
 20
262.1981214079748
 10
107.7470838489313
 20
260.0490708442759
 10
107.7470838489313
 20
260.0490708442759
 10
107.7470838489313
 20
260.0490708442759
 10
107.7470838489313
 20
259.6952595379408
 10
107.7470838489313
 20
259.6952595379408
 72
     1
 10
107.7470838489313
 20
259.6952595379408
 11
107.7470838489313
 21
259.6952595379408
 97
        0
 75
     2
 76
     1
 98
        0
  0
SPLINE
  5
42
330
1F
100
AcDbEntity
  8
\U+30EC\U+30A4\U+30E4\U+30FC 1
 62
   250
420
  2235935
370
    15
100
AcDbSpline
210
0.0
220
0.0
230
1.0
 70
    11
 71
     3
 72
    29
 73
    25
 74
     0
 42
0.0000000001
 43
0.0000000001
 40
0.0
 40
0.0
 40
0.0
 40
0.0
 40
1.0
 40
1.0
 40
1.0
 40
2.0
 40
2.0
 40
2.0
 40
3.0
 40
3.0
 40
3.0
 40
4.0
 40
4.0
 40
4.0
 40
5.0
 40
5.0
 40
5.0
 40
6.0
 40
6.0
 40
6.0
 40
7.0
 40
7.0
 40
7.0
 40
8.0
 40
8.0
 40
8.0
 40
8.0
 10
107.7470838489313
 20
259.6952595379408
 30
0.0
 10
107.7470838489313
 20
259.6952595379408
 30
0.0
 10
104.1188815386404
 20
261.8446546111882
 30
0.0
 10
104.1188815386404
 20
261.8446546111882
 30
0.0
 10
103.8739352496392
 20
261.8598130313233
 30
0.0
 10
103.5035874849748
 20
261.8549898976439
 30
0.0
 10
103.3459743665246
 20
261.8238117835024
 30
0.0
 10
103.3459743665246
 20
261.8238117835024
 30
0.0
 10
102.4004679105978
 20
261.6369153534276
 30
0.0
 10
102.4004679105978
 20
261.6369153534276
 30
0.0
 10
102.4004679105978
 20
261.6369153534276
 30
0.0
 10
102.4004679105978
 20
261.9907266597627
 30
0.0
 10
102.4004679105978
 20
261.9907266597627
 30
0.0
 10
102.4004679105978
 20
261.9907266597627
 30
0.0
 10
103.3459743665246
 20
262.177278580289
 30
0.0
 10
103.3459743665246
 20
262.177278580289
 30
0.0
 10
103.5035874849748
 20
262.2084566944305
 30
0.0
 10
103.8739352496392
 20
262.2132798281099
 30
0.0
 10
104.1188815386404
 20
262.1981214079748
 30
0.0
 10
104.1188815386404
 20
262.1981214079748
 30
0.0
 10
107.7470838489313
 20
260.0490708442759
 30
0.0
 10
107.7470838489313
 20
260.0490708442759
 30
0.0
 10
107.7470838489313
 20
260.0490708442759
 30
0.0
 10
107.7470838489313
 20
259.6952595379408
 30
0.0
 10
107.7470838489313
 20
259.6952595379408
 30
0.0
  0
POLYLINE
  5
43
330
1F
100
AcDbEntity
  8
\U+30EC\U+30A4\U+30E4\U+30FC 1
 62
   250
420
  2235935
370
    15
100
AcDb2dPolyline
 66
     1
 10
0.0
 20
0.0
 30
0.0
  0
VERTEX
  5
44
330
43
100
AcDbEntity
  8
\U+30EC\U+30A4\U+30E4\U+30FC 1
 62
   250
420
  2235935
370
    15
100
AcDbVertex
100
AcDb2dVertex
 10
104.1188815386404
 20
261.8446546111882
 30
0.0
  0
VERTEX
  5
45
330
43
100
AcDbEntity
  8
\U+30EC\U+30A4\U+30E4\U+30FC 1
 62
   250
420
  2235935
370
    15
100
AcDbVertex
100
AcDb2dVertex
 10
104.1188815386404
 20
262.1981214079748
 30
0.0
  0
SEQEND
  5
46
330
43
100
AcDbEntity
  8
\U+30EC\U+30A4\U+30E4\U+30FC 1
370
    15
  0
SPLINE
  5
47
330
1F
100
AcDbEntity
  8
\U+30EC\U+30A4\U+30E4\U+30FC 1
370
     0
100
AcDbSpline
210
0.0
220
0.0
230
1.0
 70
    11
 71
     3
 72
    23
 73
    19
 74
     0
 42
0.0000000001
 43
0.0000000001
 40
0.0
 40
0.0
 40
0.0
 40
0.0
 40
1.0
 40
1.0
 40
1.0
 40
2.0
 40
2.0
 40
2.0
 40
3.0
 40
3.0
 40
3.0
 40
4.0
 40
4.0
 40
4.0
 40
5.0
 40
5.0
 40
5.0
 40
6.0
 40
6.0
 40
6.0
 40
6.0
 10
103.2005913370471
 20
261.0929347763067
 30
0.0
 10
103.6065958399838
 20
261.1733777558872
 30
0.0
 10
104.5632988562377
 20
261.1861246091826
 30
0.0
 10
105.1959906421038
 20
261.1468505206508
 30
0.0
 10
105.1959906421038
 20
261.1468505206508
 30
0.0
 10
109.3872938094587
 20
258.6636256948827
 30
0.0
 10
109.3872938094587
 20
258.6636256948827
 30
0.0
 10
109.3872938094587
 20
258.6636256948827
 30
0.0
 10
106.9467881677078
 20
258.1818290912705
 30
0.0
 10
106.9467881677078
 20
258.1818290912705
 30
0.0
 10
106.5399223908997
 20
258.1017306212385
 30
0.0
 10
105.5835638841944
 20
258.088983767943
 30
0.0
 10
104.951388862651
 20
258.1279133469264
 30
0.0
 10
104.951388862651
 20
258.1279133469264
 30
0.0
 10
100.7597411857476
 20
260.6111381726944
 30
0.0
 10
100.7597411857476
 20
260.6111381726944
 30
0.0
 10
100.7597411857476
 20
260.6111381726944
 30
0.0
 10
103.2005913370471
 20
261.0929347763067
 30
0.0
 10
103.2005913370471
 20
261.0929347763067
 30
0.0
  0
HATCH
  5
48
330
1F
100
AcDbEntity
  8
\U+30EC\U+30A4\U+30E4\U+30FC 1
 62
     7
420
 16711679
100
AcDbHatch
 10
0.0
 20
0.0
 30
0.0
210
0.0
220
0.0
230
1.0
  2
SOLID
 70
     1
 71
     0
 91
        1
 92
        1
 93
        2
 72
     4
 94
        3
 73
     0
 74
     0
 95
       23
 96
       19
 40
0.0
 40
0.0
 40
0.0
 40
0.0
 40
0.3527777776895833
 40
0.3527777776895833
 40
0.3527777776895833
 40
0.7055555553791667
 40
0.7055555553791667
 40
0.7055555553791667
 40
1.05833333306875
 40
1.05833333306875
 40
1.05833333306875
 40
1.411111110758333
 40
1.411111110758333
 40
1.411111110758333
 40
1.763888888447917
 40
1.763888888447917
 40
1.763888888447917
 40
2.1166666661375
 40
2.1166666661375
 40
2.1166666661375
 40
2.1166666661375
 10
103.2005913370471
 20
261.0929347763067
 10
103.6065958399838
 20
261.1733777558872
 10
104.5632988562377
 20
261.1861246091826
 10
105.1959906421038
 20
261.1468505206508
 10
105.1959906421038
 20
261.1468505206508
 10
109.3872938094587
 20
258.6636256948827
 10
109.3872938094587
 20
258.6636256948827
 10
109.3872938094587
 20
258.6636256948827
 10
106.9467881677078
 20
258.1818290912705
 10
106.9467881677078
 20
258.1818290912705
 10
106.5399223908997
 20
258.1017306212385
 10
105.5835638841944
 20
258.088983767943
 10
104.951388862651
 20
258.1279133469264
 10
104.951388862651
 20
258.1279133469264
 10
100.7597411857476
 20
260.6111381726944
 10
100.7597411857476
 20
260.6111381726944
 10
100.7597411857476
 20
260.6111381726944
 10
103.2005913370471
 20
261.0929347763067
 10
103.2005913370471
 20
261.0929347763067
 72
     1
 10
103.2005913370471
 20
261.0929347763067
 11
103.2005913370471
 21
261.0929347763067
 97
        0
 75
     2
 76
     1
 98
        0
  0
SPLINE
  5
49
330
1F
100
AcDbEntity
  8
\U+30EC\U+30A4\U+30E4\U+30FC 1
 62
   250
420
  2235935
370
    15
100
AcDbSpline
210
0.0
220
0.0
230
1.0
 70
    11
 71
     3
 72
    23
 73
    19
 74
     0
 42
0.0000000001
 43
0.0000000001
 40
0.0
 40
0.0
 40
0.0
 40
0.0
 40
1.0
 40
1.0
 40
1.0
 40
2.0
 40
2.0
 40
2.0
 40
3.0
 40
3.0
 40
3.0
 40
4.0
 40
4.0
 40
4.0
 40
5.0
 40
5.0
 40
5.0
 40
6.0
 40
6.0
 40
6.0
 40
6.0
 10
103.2005913370471
 20
261.0929347763067
 30
0.0
 10
103.6065958399838
 20
261.1733777558872
 30
0.0
 10
104.5632988562377
 20
261.1861246091826
 30
0.0
 10
105.1959906421038
 20
261.1468505206508
 30
0.0
 10
105.1959906421038
 20
261.1468505206508
 30
0.0
 10
109.3872938094587
 20
258.6636256948827
 30
0.0
 10
109.3872938094587
 20
258.6636256948827
 30
0.0
 10
109.3872938094587
 20
258.6636256948827
 30
0.0
 10
106.9467881677078
 20
258.1818290912705
 30
0.0
 10
106.9467881677078
 20
258.1818290912705
 30
0.0
 10
106.5399223908997
 20
258.1017306212385
 30
0.0
 10
105.5835638841944
 20
258.088983767943
 30
0.0
 10
104.951388862651
 20
258.1279133469264
 30
0.0
 10
104.951388862651
 20
258.1279133469264
 30
0.0
 10
100.7597411857476
 20
260.6111381726944
 30
0.0
 10
100.7597411857476
 20
260.6111381726944
 30
0.0
 10
100.7597411857476
 20
260.6111381726944
 30
0.0
 10
103.2005913370471
 20
261.0929347763067
 30
0.0
 10
103.2005913370471
 20
261.0929347763067
 30
0.0
  0
SPLINE
  5
4A
330
1F
100
AcDbEntity
  8
\U+30EC\U+30A4\U+30E4\U+30FC 1
370
     0
100
AcDbSpline
210
0.0
220
0.0
230
1.0
 70
    11
 71
     3
 72
    29
 73
    25
 74
     0
 42
0.0000000001
 43
0.0000000001
 40
0.0
 40
0.0
 40
0.0
 40
0.0
 40
1.0
 40
1.0
 40
1.0
 40
2.0
 40
2.0
 40
2.0
 40
3.0
 40
3.0
 40
3.0
 40
4.0
 40
4.0
 40
4.0
 40
5.0
 40
5.0
 40
5.0
 40
6.0
 40
6.0
 40
6.0
 40
7.0
 40
7.0
 40
7.0
 40
8.0
 40
8.0
 40
8.0
 40
8.0
 10
109.3872938094587
 20
258.6636256948827
 30
0.0
 10
109.3872938094587
 20
258.6636256948827
 30
0.0
 10
105.1959906421038
 20
261.1468505206508
 30
0.0
 10
105.1959906421038
 20
261.1468505206508
 30
0.0
 10
104.5632988562377
 20
261.1861246091826
 30
0.0
 10
103.6065958399838
 20
261.1733777558872
 30
0.0
 10
103.2005913370471
 20
261.0929347763067
 30
0.0
 10
103.2005913370471
 20
261.0929347763067
 30
0.0
 10
100.7597411857476
 20
260.6109659179202
 30
0.0
 10
100.7597411857476
 20
260.6109659179202
 30
0.0
 10
100.7597411857476
 20
260.6109659179202
 30
0.0
 10
100.7597411857476
 20
261.1094712346359
 30
0.0
 10
100.7597411857476
 20
261.1094712346359
 30
0.0
 10
100.7597411857476
 20
261.1094712346359
 30
0.0
 10
103.2005913370471
 20
261.5914400930223
 30
0.0
 10
103.2005913370471
 20
261.5914400930223
 30
0.0
 10
103.6065958399838
 20
261.6718830726029
 30
0.0
 10
104.5632988562377
 20
261.6846299258983
 30
0.0
 10
105.1959906421038
 20
261.6453558373664
 30
0.0
 10
105.1959906421038
 20
261.6453558373664
 30
0.0
 10
109.3872938094587
 20
259.1617865020498
 30
0.0
 10
109.3872938094587
 20
259.1617865020498
 30
0.0
 10
109.3872938094587
 20
259.1617865020498
 30
0.0
 10
109.3872938094587
 20
258.6636256948827
 30
0.0
 10
109.3872938094587
 20
258.6636256948827
 30
0.0
  0
HATCH
  5
4B
330
1F
100
AcDbEntity
  8
\U+30EC\U+30A4\U+30E4\U+30FC 1
 62
     7
420
 16711679
100
AcDbHatch
 10
0.0
 20
0.0
 30
0.0
210
0.0
220
0.0
230
1.0
  2
SOLID
 70
     1
 71
     0
 91
        1
 92
        1
 93
        2
 72
     4
 94
        3
 73
     0
 74
     0
 95
       29
 96
       25
 40
0.0
 40
0.0
 40
0.0
 40
0.0
 40
0.3527777776895833
 40
0.3527777776895833
 40
0.3527777776895833
 40
0.7055555553791667
 40
0.7055555553791667
 40
0.7055555553791667
 40
1.05833333306875
 40
1.05833333306875
 40
1.05833333306875
 40
1.411111110758333
 40
1.411111110758333
 40
1.411111110758333
 40
1.763888888447917
 40
1.763888888447917
 40
1.763888888447917
 40
2.1166666661375
 40
2.1166666661375
 40
2.1166666661375
 40
2.469444443827083
 40
2.469444443827083
 40
2.469444443827083
 40
2.822222221516667
 40
2.822222221516667
 40
2.822222221516667
 40
2.822222221516667
 10
109.3872938094587
 20
258.6636256948827
 10
109.3872938094587
 20
258.6636256948827
 10
105.1959906421038
 20
261.1468505206508
 10
105.1959906421038
 20
261.1468505206508
 10
104.5632988562377
 20
261.1861246091826
 10
103.6065958399838
 20
261.1733777558872
 10
103.2005913370471
 20
261.0929347763067
 10
103.2005913370471
 20
261.0929347763067
 10
100.7597411857476
 20
260.6109659179202
 10
100.7597411857476
 20
260.6109659179202
 10
100.7597411857476
 20
260.6109659179202
 10
100.7597411857476
 20
261.1094712346359
 10
100.7597411857476
 20
261.1094712346359
 10
100.7597411857476
 20
261.1094712346359
 10
103.2005913370471
 20
261.5914400930223
 10
103.2005913370471
 20
261.5914400930223
 10
103.6065958399838
 20
261.6718830726029
 10
104.5632988562377
 20
261.6846299258983
 10
105.1959906421038
 20
261.6453558373664
 10
105.1959906421038
 20
261.6453558373664
 10
109.3872938094587
 20
259.1617865020498
 10
109.3872938094587
 20
259.1617865020498
 10
109.3872938094587
 20
259.1617865020498
 10
109.3872938094587
 20
258.6636256948827
 10
109.3872938094587
 20
258.6636256948827
 72
     1
 10
109.3872938094587
 20
258.6636256948827
 11
109.3872938094587
 21
258.6636256948827
 97
        0
 75
     2
 76
     1
 98
        0
  0
SPLINE
  5
4C
330
1F
100
AcDbEntity
  8
\U+30EC\U+30A4\U+30E4\U+30FC 1
 62
   250
420
  2235935
370
    15
100
AcDbSpline
210
0.0
220
0.0
230
1.0
 70
    11
 71
     3
 72
    29
 73
    25
 74
     0
 42
0.0000000001
 43
0.0000000001
 40
0.0
 40
0.0
 40
0.0
 40
0.0
 40
1.0
 40
1.0
 40
1.0
 40
2.0
 40
2.0
 40
2.0
 40
3.0
 40
3.0
 40
3.0
 40
4.0
 40
4.0
 40
4.0
 40
5.0
 40
5.0
 40
5.0
 40
6.0
 40
6.0
 40
6.0
 40
7.0
 40
7.0
 40
7.0
 40
8.0
 40
8.0
 40
8.0
 40
8.0
 10
109.3872938094587
 20
258.6636256948827
 30
0.0
 10
109.3872938094587
 20
258.6636256948827
 30
0.0
 10
105.1959906421038
 20
261.1468505206508
 30
0.0
 10
105.1959906421038
 20
261.1468505206508
 30
0.0
 10
104.5632988562377
 20
261.1861246091826
 30
0.0
 10
103.6065958399838
 20
261.1733777558872
 30
0.0
 10
103.2005913370471
 20
261.0929347763067
 30
0.0
 10
103.2005913370471
 20
261.0929347763067
 30
0.0
 10
100.7597411857476
 20
260.6109659179202
 30
0.0
 10
100.7597411857476
 20
260.6109659179202
 30
0.0
 10
100.7597411857476
 20
260.6109659179202
 30
0.0
 10
100.7597411857476
 20
261.1094712346359
 30
0.0
 10
100.7597411857476
 20
261.1094712346359
 30
0.0
 10
100.7597411857476
 20
261.1094712346359
 30
0.0
 10
103.2005913370471
 20
261.5914400930223
 30
0.0
 10
103.2005913370471
 20
261.5914400930223
 30
0.0
 10
103.6065958399838
 20
261.6718830726029
 30
0.0
 10
104.5632988562377
 20
261.6846299258983
 30
0.0
 10
105.1959906421038
 20
261.6453558373664
 30
0.0
 10
105.1959906421038
 20
261.6453558373664
 30
0.0
 10
109.3872938094587
 20
259.1617865020498
 30
0.0
 10
109.3872938094587
 20
259.1617865020498
 30
0.0
 10
109.3872938094587
 20
259.1617865020498
 30
0.0
 10
109.3872938094587
 20
258.6636256948827
 30
0.0
 10
109.3872938094587
 20
258.6636256948827
 30
0.0
  0
POLYLINE
  5
4D
330
1F
100
AcDbEntity
  8
\U+30EC\U+30A4\U+30E4\U+30FC 1
 62
   250
420
  2235935
370
    15
100
AcDb2dPolyline
 66
     1
 10
0.0
 20
0.0
 30
0.0
  0
VERTEX
  5
4E
330
4D
100
AcDbEntity
  8
\U+30EC\U+30A4\U+30E4\U+30FC 1
 62
   250
420
  2235935
370
    15
100
AcDbVertex
100
AcDb2dVertex
 10
105.1959906421038
 20
261.1468505206508
 30
0.0
  0
VERTEX
  5
4F
330
4D
100
AcDbEntity
  8
\U+30EC\U+30A4\U+30E4\U+30FC 1
 62
   250
420
  2235935
370
    15
100
AcDbVertex
100
AcDb2dVertex
 10
105.1959906421038
 20
261.6453558373664
 30
0.0
  0
SEQEND
  5
50
330
4D
100
AcDbEntity
  8
\U+30EC\U+30A4\U+30E4\U+30FC 1
370
    15
  0
SPLINE
  5
51
330
1F
100
AcDbEntity
  8
\U+30EC\U+30A4\U+30E4\U+30FC 1
370
     0
100
AcDbSpline
210
0.0
220
0.0
230
1.0
 70
    11
 71
     3
 72
    17
 73
    13
 74
     0
 42
0.0000000001
 43
0.0000000001
 40
0.0
 40
0.0
 40
0.0
 40
0.0
 40
1.0
 40
1.0
 40
1.0
 40
2.0
 40
2.0
 40
2.0
 40
3.0
 40
3.0
 40
3.0
 40
4.0
 40
4.0
 40
4.0
 40
4.0
 10
93.36863333169256
 20
253.6690985151418
 30
0.0
 10
89.48945581530126
 20
255.8770602116384
 30
0.0
 10
91.57821720800823
 20
258.7423461267207
 30
0.0
 10
98.03415389259216
 20
260.0688801433161
 30
0.0
 10
104.4895738128533
 20
261.3955864146859
 30
0.0
 10
112.8678737782066
 20
260.6812458658193
 30
0.0
 10
116.7463622755009
 20
258.4736286788712
 30
0.0
 10
120.6251952823437
 20
256.2651502180518
 30
0.0
 10
118.5357448705397
 20
253.3998643029695
 30
0.0
 10
112.0803249502785
 20
252.0731580315998
 30
0.0
 10
105.6252495395659
 20
250.7466240150043
 30
0.0
 10
97.24746633853536
 20
251.4609645638709
 30
0.0
 10
93.36863333169256
 20
253.6690985151418
 30
0.0
  0
HATCH
  5
52
330
1F
100
AcDbEntity
  8
\U+30EC\U+30A4\U+30E4\U+30FC 1
 62
     7
420
 16711679
100
AcDbHatch
 10
0.0
 20
0.0
 30
0.0
210
0.0
220
0.0
230
1.0
  2
SOLID
 70
     1
 71
     0
 91
        1
 92
        1
 93
        2
 72
     4
 94
        3
 73
     0
 74
     0
 95
       17
 96
       13
 40
0.0
 40
0.0
 40
0.0
 40
0.0
 40
0.3527777776895833
 40
0.3527777776895833
 40
0.3527777776895833
 40
0.7055555553791667
 40
0.7055555553791667
 40
0.7055555553791667
 40
1.05833333306875
 40
1.05833333306875
 40
1.05833333306875
 40
1.411111110758333
 40
1.411111110758333
 40
1.411111110758333
 40
1.411111110758333
 10
93.36863333169256
 20
253.6690985151418
 10
89.48945581530126
 20
255.8770602116384
 10
91.57821720800823
 20
258.7423461267207
 10
98.03415389259216
 20
260.0688801433161
 10
104.4895738128533
 20
261.3955864146859
 10
112.8678737782066
 20
260.6812458658193
 10
116.7463622755009
 20
258.4736286788712
 10
120.6251952823437
 20
256.2651502180518
 10
118.5357448705397
 20
253.3998643029695
 10
112.0803249502785
 20
252.0731580315998
 10
105.6252495395659
 20
250.7466240150043
 10
97.24746633853536
 20
251.4609645638709
 10
93.36863333169256
 20
253.6690985151418
 72
     1
 10
93.36863333169256
 20
253.6690985151418
 11
93.36863333169256
 21
253.6690985151418
 97
        0
 75
     2
 76
     1
 98
        0
  0
SPLINE
  5
53
330
1F
100
AcDbEntity
  8
\U+30EC\U+30A4\U+30E4\U+30FC 1
 62
   250
420
  2235935
370
    15
100
AcDbSpline
210
0.0
220
0.0
230
1.0
 70
    11
 71
     3
 72
    17
 73
    13
 74
     0
 42
0.0000000001
 43
0.0000000001
 40
0.0
 40
0.0
 40
0.0
 40
0.0
 40
1.0
 40
1.0
 40
1.0
 40
2.0
 40
2.0
 40
2.0
 40
3.0
 40
3.0
 40
3.0
 40
4.0
 40
4.0
 40
4.0
 40
4.0
 10
93.36863333169256
 20
253.6690985151418
 30
0.0
 10
89.48945581530126
 20
255.8770602116384
 30
0.0
 10
91.57821720800823
 20
258.7423461267207
 30
0.0
 10
98.03415389259216
 20
260.0688801433161
 30
0.0
 10
104.4895738128533
 20
261.3955864146859
 30
0.0
 10
112.8678737782066
 20
260.6812458658193
 30
0.0
 10
116.7463622755009
 20
258.4736286788712
 30
0.0
 10
120.6251952823437
 20
256.2651502180518
 30
0.0
 10
118.5357448705397
 20
253.3998643029695
 30
0.0
 10
112.0803249502785
 20
252.0731580315998
 30
0.0
 10
105.6252495395659
 20
250.7466240150043
 30
0.0
 10
97.24746633853536
 20
251.4609645638709
 30
0.0
 10
93.36863333169256
 20
253.6690985151418
 30
0.0
  0
SPLINE
  5
54
330
1F
100
AcDbEntity
  8
\U+30EC\U+30A4\U+30E4\U+30FC 1
370
     0
100
AcDbSpline
210
0.0
220
0.0
230
1.0
 70
    11
 71
     3
 72
    17
 73
    13
 74
     0
 42
0.0000000001
 43
0.0000000001
 40
0.0
 40
0.0
 40
0.0
 40
0.0
 40
1.0
 40
1.0
 40
1.0
 40
2.0
 40
2.0
 40
2.0
 40
3.0
 40
3.0
 40
3.0
 40
4.0
 40
4.0
 40
4.0
 40
4.0
 10
98.0133110649064
 20
209.3036756204172
 30
0.0
 10
95.67581377816438
 20
210.6345160063692
 30
0.0
 10
96.93447941370042
 20
212.3608533540279
 30
0.0
 10
100.8248534904188
 20
213.1602877613801
 30
0.0
 10
104.7153998219114
 20
213.9600666782808
 30
0.0
 10
109.7638427459965
 20
213.5296019973989
 30
0.0
 10
112.1016845422871
 20
212.1989338662211
 30
0.0
 10
114.4388373194806
 20
210.8682657350434
 30
0.0
 10
113.1803439387188
 20
209.1414116230619
 30
0.0
 10
109.2897976072262
 20
208.3421494704839
 30
0.0
 10
105.3999402948306
 20
207.5423705535832
 30
0.0
 10
100.3508083516484
 20
207.9730074892394
 30
0.0
 10
98.0133110649064
 20
209.3036756204172
 30
0.0
  0
HATCH
  5
55
330
1F
100
AcDbEntity
  8
\U+30EC\U+30A4\U+30E4\U+30FC 1
 62
     7
420
 16711679
100
AcDbHatch
 10
0.0
 20
0.0
 30
0.0
210
0.0
220
0.0
230
1.0
  2
SOLID
 70
     1
 71
     0
 91
        1
 92
        1
 93
        2
 72
     4
 94
        3
 73
     0
 74
     0
 95
       17
 96
       13
 40
0.0
 40
0.0
 40
0.0
 40
0.0
 40
0.3527777776895833
 40
0.3527777776895833
 40
0.3527777776895833
 40
0.7055555553791667
 40
0.7055555553791667
 40
0.7055555553791667
 40
1.05833333306875
 40
1.05833333306875
 40
1.05833333306875
 40
1.411111110758333
 40
1.411111110758333
 40
1.411111110758333
 40
1.411111110758333
 10
98.0133110649064
 20
209.3036756204172
 10
95.67581377816438
 20
210.6345160063692
 10
96.93447941370042
 20
212.3608533540279
 10
100.8248534904188
 20
213.1602877613801
 10
104.7153998219114
 20
213.9600666782808
 10
109.7638427459965
 20
213.5296019973989
 10
112.1016845422871
 20
212.1989338662211
 10
114.4388373194806
 20
210.8682657350434
 10
113.1803439387188
 20
209.1414116230619
 10
109.2897976072262
 20
208.3421494704839
 10
105.3999402948306
 20
207.5423705535832
 10
100.3508083516484
 20
207.9730074892394
 10
98.0133110649064
 20
209.3036756204172
 72
     1
 10
98.0133110649064
 20
209.3036756204172
 11
98.0133110649064
 21
209.3036756204172
 97
        0
 75
     2
 76
     1
 98
        0
  0
SPLINE
  5
56
330
1F
100
AcDbEntity
  8
\U+30EC\U+30A4\U+30E4\U+30FC 1
 62
   250
420
  2235935
370
    15
100
AcDbSpline
210
0.0
220
0.0
230
1.0
 70
    11
 71
     3
 72
    17
 73
    13
 74
     0
 42
0.0000000001
 43
0.0000000001
 40
0.0
 40
0.0
 40
0.0
 40
0.0
 40
1.0
 40
1.0
 40
1.0
 40
2.0
 40
2.0
 40
2.0
 40
3.0
 40
3.0
 40
3.0
 40
4.0
 40
4.0
 40
4.0
 40
4.0
 10
98.0133110649064
 20
209.3036756204172
 30
0.0
 10
95.67581377816438
 20
210.6345160063692
 30
0.0
 10
96.93447941370042
 20
212.3608533540279
 30
0.0
 10
100.8248534904188
 20
213.1602877613801
 30
0.0
 10
104.7153998219114
 20
213.9600666782808
 30
0.0
 10
109.7638427459965
 20
213.5296019973989
 30
0.0
 10
112.1016845422871
 20
212.1989338662211
 30
0.0
 10
114.4388373194806
 20
210.8682657350434
 30
0.0
 10
113.1803439387188
 20
209.1414116230619
 30
0.0
 10
109.2897976072262
 20
208.3421494704839
 30
0.0
 10
105.3999402948306
 20
207.5423705535832
 30
0.0
 10
100.3508083516484
 20
207.9730074892394
 30
0.0
 10
98.0133110649064
 20
209.3036756204172
 30
0.0
  0
SPLINE
  5
57
330
1F
100
AcDbEntity
  8
\U+30EC\U+30A4\U+30E4\U+30FC 1
370
     0
100
AcDbSpline
210
0.0
220
0.0
230
1.0
 70
    11
 71
     3
 72
    17
 73
    13
 74
     0
 42
0.0000000001
 43
0.0000000001
 40
0.0
 40
0.0
 40
0.0
 40
0.0
 40
1.0
 40
1.0
 40
1.0
 40
2.0
 40
2.0
 40
2.0
 40
3.0
 40
3.0
 40
3.0
 40
4.0
 40
4.0
 40
4.0
 40
4.0
 10
102.4607570815897
 20
196.2700181258457
 30
0.0
 10
101.5989664459544
 20
196.760427468171
 30
0.0
 10
102.0631930625918
 20
197.3970811138452
 30
0.0
 10
103.4972140583271
 20
197.691636777834
 30
0.0
 10
104.9314073088366
 20
197.9863646965972
 30
0.0
 10
106.79210338042
 20
197.8275457947271
 30
0.0
 10
107.6544107803781
 20
197.3371364524018
 30
0.0
 10
108.515340142142
 20
196.8468993648508
 30
0.0
 10
108.0519747993759
 20
196.2100734644023
 30
0.0
 10
106.6170925297693
 20
195.915173290865
 30
0.0
 10
105.1835882983569
 20
195.6206176268761
 30
0.0
 10
103.3225477172249
 20
195.7792642739718
 30
0.0
 10
102.4607570815897
 20
196.2700181258457
 30
0.0
  0
HATCH
  5
58
330
1F
100
AcDbEntity
  8
\U+30EC\U+30A4\U+30E4\U+30FC 1
 62
     7
420
 16711679
100
AcDbHatch
 10
0.0
 20
0.0
 30
0.0
210
0.0
220
0.0
230
1.0
  2
SOLID
 70
     1
 71
     0
 91
        1
 92
        1
 93
        2
 72
     4
 94
        3
 73
     0
 74
     0
 95
       17
 96
       13
 40
0.0
 40
0.0
 40
0.0
 40
0.0
 40
0.3527777776895833
 40
0.3527777776895833
 40
0.3527777776895833
 40
0.7055555553791667
 40
0.7055555553791667
 40
0.7055555553791667
 40
1.05833333306875
 40
1.05833333306875
 40
1.05833333306875
 40
1.411111110758333
 40
1.411111110758333
 40
1.411111110758333
 40
1.411111110758333
 10
102.4607570815897
 20
196.2700181258457
 10
101.5989664459544
 20
196.760427468171
 10
102.0631930625918
 20
197.3970811138452
 10
103.4972140583271
 20
197.691636777834
 10
104.9314073088366
 20
197.9863646965972
 10
106.79210338042
 20
197.8275457947271
 10
107.6544107803781
 20
197.3371364524018
 10
108.515340142142
 20
196.8468993648508
 10
108.0519747993759
 20
196.2100734644023
 10
106.6170925297693
 20
195.915173290865
 10
105.1835882983569
 20
195.6206176268761
 10
103.3225477172249
 20
195.7792642739718
 10
102.4607570815897
 20
196.2700181258457
 72
     1
 10
102.4607570815897
 20
196.2700181258457
 11
102.4607570815897
 21
196.2700181258457
 97
        0
 75
     2
 76
     1
 98
        0
  0
SPLINE
  5
59
330
1F
100
AcDbEntity
  8
\U+30EC\U+30A4\U+30E4\U+30FC 1
 62
   250
420
  2235935
370
    15
100
AcDbSpline
210
0.0
220
0.0
230
1.0
 70
    11
 71
     3
 72
    17
 73
    13
 74
     0
 42
0.0000000001
 43
0.0000000001
 40
0.0
 40
0.0
 40
0.0
 40
0.0
 40
1.0
 40
1.0
 40
1.0
 40
2.0
 40
2.0
 40
2.0
 40
3.0
 40
3.0
 40
3.0
 40
4.0
 40
4.0
 40
4.0
 40
4.0
 10
102.4607570815897
 20
196.2700181258457
 30
0.0
 10
101.5989664459544
 20
196.760427468171
 30
0.0
 10
102.0631930625918
 20
197.3970811138452
 30
0.0
 10
103.4972140583271
 20
197.691636777834
 30
0.0
 10
104.9314073088366
 20
197.9863646965972
 30
0.0
 10
106.79210338042
 20
197.8275457947271
 30
0.0
 10
107.6544107803781
 20
197.3371364524018
 30
0.0
 10
108.515340142142
 20
196.8468993648508
 30
0.0
 10
108.0519747993759
 20
196.2100734644023
 30
0.0
 10
106.6170925297693
 20
195.915173290865
 30
0.0
 10
105.1835882983569
 20
195.6206176268761
 30
0.0
 10
103.3225477172249
 20
195.7792642739718
 30
0.0
 10
102.4607570815897
 20
196.2700181258457
 30
0.0
  0
SPLINE
  5
5A
330
1F
100
AcDbEntity
  8
\U+30EC\U+30A4\U+30E4\U+30FC 1
370
     0
100
AcDbSpline
210
0.0
220
0.0
230
1.0
 70
    11
 71
     3
 72
    29
 73
    25
 74
     0
 42
0.0000000001
 43
0.0000000001
 40
0.0
 40
0.0
 40
0.0
 40
0.0
 40
1.0
 40
1.0
 40
1.0
 40
2.0
 40
2.0
 40
2.0
 40
3.0
 40
3.0
 40
3.0
 40
4.0
 40
4.0
 40
4.0
 40
5.0
 40
5.0
 40
5.0
 40
6.0
 40
6.0
 40
6.0
 40
7.0
 40
7.0
 40
7.0
 40
8.0
 40
8.0
 40
8.0
 40
8.0
 10
102.027880833868
 20
196.7867824486332
 30
0.0
 10
101.8242756906898
 20
201.435422041655
 30
0.0
 10
101.6208428022858
 20
206.0832003608056
 30
0.0
 10
101.416893149559
 20
210.7314954442789
 30
0.0
 10
101.3986341434872
 20
211.1604098321926
 30
0.0
 10
102.0292588720621
 20
211.5815727552643
 30
0.0
 10
103.1825045857495
 20
211.818250815101
 30
0.0
 10
104.9059136022457
 20
212.172578885759
 30
0.0
 10
107.1421250817214
 20
211.9820651054246
 30
0.0
 10
108.178065294136
 20
211.3922647583499
 30
0.0
 10
108.5401448296358
 20
211.1860757935576
 30
0.0
 10
108.7072319606704
 20
210.9583549819826
 30
0.0
 10
108.6975856933117
 20
210.7339070111186
 30
0.0
 10
108.6975856933117
 20
210.7339070111186
 30
0.0
 10
108.0867702637769
 20
196.7890217606986
 30
0.0
 10
108.0867702637769
 20
196.7890217606986
 30
0.0
 10
108.0950384929415
 20
196.9755736812249
 30
0.0
 10
107.9555121257889
 20
197.1653984424621
 30
0.0
 10
107.6544107803781
 20
197.3371364524018
 30
0.0
 10
106.79210338042
 20
197.8275457947271
 30
0.0
 10
104.9314073088366
 20
197.9861924418229
 30
0.0
 10
103.4972140583271
 20
197.691636777834
 30
0.0
 10
102.537754965685
 20
197.4945773160778
 30
0.0
 10
102.0123779041844
 20
197.1442111052278
 30
0.0
 10
102.027880833868
 20
196.7867824486332
 30
0.0
  0
HATCH
  5
5B
330
1F
100
AcDbEntity
  8
\U+30EC\U+30A4\U+30E4\U+30FC 1
 62
     7
420
 16711679
100
AcDbHatch
 10
0.0
 20
0.0
 30
0.0
210
0.0
220
0.0
230
1.0
  2
SOLID
 70
     1
 71
     0
 91
        1
 92
        1
 93
        2
 72
     4
 94
        3
 73
     0
 74
     0
 95
       29
 96
       25
 40
0.0
 40
0.0
 40
0.0
 40
0.0
 40
0.3527777776895833
 40
0.3527777776895833
 40
0.3527777776895833
 40
0.7055555553791667
 40
0.7055555553791667
 40
0.7055555553791667
 40
1.05833333306875
 40
1.05833333306875
 40
1.05833333306875
 40
1.411111110758333
 40
1.411111110758333
 40
1.411111110758333
 40
1.763888888447917
 40
1.763888888447917
 40
1.763888888447917
 40
2.1166666661375
 40
2.1166666661375
 40
2.1166666661375
 40
2.469444443827083
 40
2.469444443827083
 40
2.469444443827083
 40
2.822222221516667
 40
2.822222221516667
 40
2.822222221516667
 40
2.822222221516667
 10
102.027880833868
 20
196.7867824486332
 10
101.8242756906898
 20
201.435422041655
 10
101.6208428022858
 20
206.0832003608056
 10
101.416893149559
 20
210.7314954442789
 10
101.3986341434872
 20
211.1604098321926
 10
102.0292588720621
 20
211.5815727552643
 10
103.1825045857495
 20
211.818250815101
 10
104.9059136022457
 20
212.172578885759
 10
107.1421250817214
 20
211.9820651054246
 10
108.178065294136
 20
211.3922647583499
 10
108.5401448296358
 20
211.1860757935576
 10
108.7072319606704
 20
210.9583549819826
 10
108.6975856933117
 20
210.7339070111186
 10
108.6975856933117
 20
210.7339070111186
 10
108.0867702637769
 20
196.7890217606986
 10
108.0867702637769
 20
196.7890217606986
 10
108.0950384929415
 20
196.9755736812249
 10
107.9555121257889
 20
197.1653984424621
 10
107.6544107803781
 20
197.3371364524018
 10
106.79210338042
 20
197.8275457947271
 10
104.9314073088366
 20
197.9861924418229
 10
103.4972140583271
 20
197.691636777834
 10
102.537754965685
 20
197.4945773160778
 10
102.0123779041844
 20
197.1442111052278
 10
102.027880833868
 20
196.7867824486332
 72
     1
 10
102.027880833868
 20
196.7867824486332
 11
102.027880833868
 21
196.7867824486332
 97
        0
 75
     2
 76
     1
 98
        0
  0
SPLINE
  5
5C
330
1F
100
AcDbEntity
  8
\U+30EC\U+30A4\U+30E4\U+30FC 1
 62
   250
420
  2235935
370
    15
100
AcDbSpline
210
0.0
220
0.0
230
1.0
 70
    11
 71
     3
 72
    29
 73
    25
 74
     0
 42
0.0000000001
 43
0.0000000001
 40
0.0
 40
0.0
 40
0.0
 40
0.0
 40
1.0
 40
1.0
 40
1.0
 40
2.0
 40
2.0
 40
2.0
 40
3.0
 40
3.0
 40
3.0
 40
4.0
 40
4.0
 40
4.0
 40
5.0
 40
5.0
 40
5.0
 40
6.0
 40
6.0
 40
6.0
 40
7.0
 40
7.0
 40
7.0
 40
8.0
 40
8.0
 40
8.0
 40
8.0
 10
102.027880833868
 20
196.7867824486332
 30
0.0
 10
101.8242756906898
 20
201.435422041655
 30
0.0
 10
101.6208428022858
 20
206.0832003608056
 30
0.0
 10
101.416893149559
 20
210.7314954442789
 30
0.0
 10
101.3986341434872
 20
211.1604098321926
 30
0.0
 10
102.0292588720621
 20
211.5815727552643
 30
0.0
 10
103.1825045857495
 20
211.818250815101
 30
0.0
 10
104.9059136022457
 20
212.172578885759
 30
0.0
 10
107.1421250817214
 20
211.9820651054246
 30
0.0
 10
108.178065294136
 20
211.3922647583499
 30
0.0
 10
108.5401448296358
 20
211.1860757935576
 30
0.0
 10
108.7072319606704
 20
210.9583549819826
 30
0.0
 10
108.6975856933117
 20
210.7339070111186
 30
0.0
 10
108.6975856933117
 20
210.7339070111186
 30
0.0
 10
108.0867702637769
 20
196.7890217606986
 30
0.0
 10
108.0867702637769
 20
196.7890217606986
 30
0.0
 10
108.0950384929415
 20
196.9755736812249
 30
0.0
 10
107.9555121257889
 20
197.1653984424621
 30
0.0
 10
107.6544107803781
 20
197.3371364524018
 30
0.0
 10
106.79210338042
 20
197.8275457947271
 30
0.0
 10
104.9314073088366
 20
197.9861924418229
 30
0.0
 10
103.4972140583271
 20
197.691636777834
 30
0.0
 10
102.537754965685
 20
197.4945773160778
 30
0.0
 10
102.0123779041844
 20
197.1442111052278
 30
0.0
 10
102.027880833868
 20
196.7867824486332
 30
0.0
  0
SPLINE
  5
5D
330
1F
100
AcDbEntity
  8
\U+30EC\U+30A4\U+30E4\U+30FC 1
370
     0
100
AcDbSpline
210
0.0
220
0.0
230
1.0
 70
    11
 71
     3
 72
    71
 73
    67
 74
     0
 42
0.0000000001
 43
0.0000000001
 40
0.0
 40
0.0
 40
0.0
 40
0.0
 40
1.0
 40
1.0
 40
1.0
 40
2.0
 40
2.0
 40
2.0
 40
3.0
 40
3.0
 40
3.0
 40
4.0
 40
4.0
 40
4.0
 40
5.0
 40
5.0
 40
5.0
 40
6.0
 40
6.0
 40
6.0
 40
7.0
 40
7.0
 40
7.0
 40
8.0
 40
8.0
 40
8.0
 40
9.0
 40
9.0
 40
9.0
 40
10.0
 40
10.0
 40
10.0
 40
11.0
 40
11.0
 40
11.0
 40
12.0
 40
12.0
 40
12.0
 40
13.0
 40
13.0
 40
13.0
 40
14.0
 40
14.0
 40
14.0
 40
15.0
 40
15.0
 40
15.0
 40
16.0
 40
16.0
 40
16.0
 40
17.0
 40
17.0
 40
17.0
 40
18.0
 40
18.0
 40
18.0
 40
19.0
 40
19.0
 40
19.0
 40
20.0
 40
20.0
 40
20.0
 40
21.0
 40
21.0
 40
21.0
 40
22.0
 40
22.0
 40
22.0
 40
22.0
 10
96.88969317239217
 20
210.4347004682247
 30
0.0
 10
96.77428247363629
 20
210.8171060670874
 30
0.0
 10
96.61201847628102
 20
211.3256021607103
 30
0.0
 10
96.50453149714123
 20
211.7107638359612
 30
0.0
 10
96.37568492599289
 20
212.1729233953075
 30
0.0
 10
96.21100936179795
 20
212.7913180349098
 30
0.0
 10
96.10335012788389
 20
213.2591620018067
 30
0.0
 10
95.98621688138539
 20
213.7681748597524
 30
0.0
 10
95.8208522980934
 20
214.4444471035069
 30
0.0
 10
95.71560463101902
 20
214.9555270187438
 30
0.0
 10
95.23277449876126
 20
217.3068046874268
 30
0.0
 10
95.23277449876126
 20
217.3068046874268
 30
0.0
 10
94.94562579006568
 20
218.8925821392873
 30
0.0
 10
94.25057777591653
 20
222.7333468410181
 30
0.0
 10
93.5834350351979
 20
227.5985106852879
 30
0.0
 10
93.1912109142022
 20
230.8708346319524
 30
0.0
 10
92.45309920648742
 20
237.02463644248
 30
0.0
 10
92.07465546743273
 20
241.7621594990213
 30
0.0
 10
91.91445852736861
 20
244.0385063409001
 30
0.0
 10
91.66830645494751
 20
247.5406181564308
 30
0.0
 10
91.62300344931647
 20
248.6278902915757
 30
0.0
 10
91.5034586359783
 20
251.5336560786097
 30
0.0
 10
91.50242510733273
 20
251.5544989062954
 30
0.0
 10
91.41888154181542
 20
253.7361056223299
 30
0.0
 10
91.4185370322669
 20
256.0665404633271
 30
0.0
 10
91.4185370322669
 20
257.6502508578965
 30
0.0
 10
93.77687714669467
 20
259.1939981448369
 30
0.0
 10
98.03415389259216
 20
260.0688801433161
 30
0.0
 10
104.4895738128533
 20
261.3955864146859
 30
0.0
 10
112.8678737782066
 20
260.6812458658193
 30
0.0
 10
116.7463622755009
 20
258.4736286788712
 30
0.0
 10
118.0672118845457
 20
257.7213920796669
 30
0.0
 10
118.6959418106038
 20
256.8931911250128
 30
0.0
 10
118.6959418106038
 20
256.075669966363
 30
0.0
 10
118.6900851482789
 20
255.4171399643575
 30
0.0
 10
118.6866400527936
 20
254.5396741442644
 30
0.0
 10
118.6749267281438
 20
253.8818331613559
 30
0.0
 10
118.6614908557513
 20
253.1819620135274
 30
0.0
 10
118.6401312637427
 20
252.2495469204446
 30
0.0
 10
118.6115369712152
 20
251.5503647917131
 30
0.0
 10
118.49130313878
 20
248.6383978328057
 30
0.0
 10
118.4468614070202
 20
247.5487141308212
 30
0.0
 10
118.2005370798249
 20
244.0526312323896
 30
0.0
 10
118.0403401397608
 20
241.7740450784454
 30
0.0
 10
117.6617241459318
 20
237.0327324168703
 30
0.0
 10
116.9237846929913
 20
230.8782415872457
 30
0.0
 10
116.5313883172213
 20
227.6055731310327
 30
0.0
 10
115.864417831277
 20
222.7421318345054
 30
0.0
 10
115.1705756005476
 20
218.9084295785194
 30
0.0
 10
114.8832546370778
 20
217.3185180120766
 30
0.0
 10
114.8832546370778
 20
217.3185180120766
 30
0.0
 10
114.403008326434
 20
214.9799871966891
 30
0.0
 10
114.2979329141339
 20
214.4680460075809
 30
0.0
 10
114.1329128403904
 20
213.7907402351808
 30
0.0
 10
114.0154350843434
 20
213.2813828676866
 30
0.0
 10
114.0123344984066
 20
213.2669134666486
 30
0.0
 10
113.6633463257508
 20
211.7724310451472
 30
0.0
 10
113.2251301800271
 20
210.4383178184842
 30
0.0
 10
113.4197780749437
 20
211.0305297323986
 30
0.0
 10
113.0680338258997
 20
211.6487521172267
 30
0.0
 10
112.1016845422871
 20
212.1989338662211
 30
0.0
 10
109.7638427459965
 20
213.5296019973989
 30
0.0
 10
104.7153998219114
 20
213.9600666782808
 30
0.0
 10
100.8250257451931
 20
213.1602877613801
 30
0.0
 10
97.97834334573112
 20
212.5754828027589
 30
0.0
 10
96.54053274496209
 20
211.4937228203905
 30
0.0
 10
96.88969317239217
 20
210.4347004682247
 30
0.0
  0
HATCH
  5
5E
330
1F
100
AcDbEntity
  8
\U+30EC\U+30A4\U+30E4\U+30FC 1
 62
     7
420
 16711679
100
AcDbHatch
 10
0.0
 20
0.0
 30
0.0
210
0.0
220
0.0
230
1.0
  2
SOLID
 70
     1
 71
     0
 91
        1
 92
        1
 93
        2
 72
     4
 94
        3
 73
     0
 74
     0
 95
       71
 96
       67
 40
0.0
 40
0.0
 40
0.0
 40
0.0
 40
0.3527777776895833
 40
0.3527777776895833
 40
0.3527777776895833
 40
0.7055555553791667
 40
0.7055555553791667
 40
0.7055555553791667
 40
1.05833333306875
 40
1.05833333306875
 40
1.05833333306875
 40
1.411111110758333
 40
1.411111110758333
 40
1.411111110758333
 40
1.763888888447917
 40
1.763888888447917
 40
1.763888888447917
 40
2.1166666661375
 40
2.1166666661375
 40
2.1166666661375
 40
2.469444443827083
 40
2.469444443827083
 40
2.469444443827083
 40
2.822222221516667
 40
2.822222221516667
 40
2.822222221516667
 40
3.17499999920625
 40
3.17499999920625
 40
3.17499999920625
 40
3.527777776895833
 40
3.527777776895833
 40
3.527777776895833
 40
3.880555554585417
 40
3.880555554585417
 40
3.880555554585417
 40
4.233333332275
 40
4.233333332275
 40
4.233333332275
 40
4.586111109964584
 40
4.586111109964584
 40
4.586111109964584
 40
4.938888887654167
 40
4.938888887654167
 40
4.938888887654167
 40
5.29166666534375
 40
5.29166666534375
 40
5.29166666534375
 40
5.644444443033334
 40
5.644444443033334
 40
5.644444443033334
 40
5.997222220722917
 40
5.997222220722917
 40
5.997222220722917
 40
6.349999998412501
 40
6.349999998412501
 40
6.349999998412501
 40
6.702777776102083
 40
6.702777776102083
 40
6.702777776102083
 40
7.055555553791667
 40
7.055555553791667
 40
7.055555553791667
 40
7.40833333148125
 40
7.40833333148125
 40
7.40833333148125
 40
7.761111109170834
 40
7.761111109170834
 40
7.761111109170834
 40
7.761111109170834
 10
96.88969317239217
 20
210.4347004682247
 10
96.77428247363629
 20
210.8171060670874
 10
96.61201847628102
 20
211.3256021607103
 10
96.50453149714123
 20
211.7107638359612
 10
96.37568492599289
 20
212.1729233953075
 10
96.21100936179795
 20
212.7913180349098
 10
96.10335012788389
 20
213.2591620018067
 10
95.98621688138539
 20
213.7681748597524
 10
95.8208522980934
 20
214.4444471035069
 10
95.71560463101902
 20
214.9555270187438
 10
95.23277449876126
 20
217.3068046874268
 10
95.23277449876126
 20
217.3068046874268
 10
94.94562579006568
 20
218.8925821392873
 10
94.25057777591653
 20
222.7333468410181
 10
93.5834350351979
 20
227.5985106852879
 10
93.1912109142022
 20
230.8708346319524
 10
92.45309920648742
 20
237.02463644248
 10
92.07465546743273
 20
241.7621594990213
 10
91.91445852736861
 20
244.0385063409001
 10
91.66830645494751
 20
247.5406181564308
 10
91.62300344931647
 20
248.6278902915757
 10
91.5034586359783
 20
251.5336560786097
 10
91.50242510733273
 20
251.5544989062954
 10
91.41888154181542
 20
253.7361056223299
 10
91.4185370322669
 20
256.0665404633271
 10
91.4185370322669
 20
257.6502508578965
 10
93.77687714669467
 20
259.1939981448369
 10
98.03415389259216
 20
260.0688801433161
 10
104.4895738128533
 20
261.3955864146859
 10
112.8678737782066
 20
260.6812458658193
 10
116.7463622755009
 20
258.4736286788712
 10
118.0672118845457
 20
257.7213920796669
 10
118.6959418106038
 20
256.8931911250128
 10
118.6959418106038
 20
256.075669966363
 10
118.6900851482789
 20
255.4171399643575
 10
118.6866400527936
 20
254.5396741442644
 10
118.6749267281438
 20
253.8818331613559
 10
118.6614908557513
 20
253.1819620135274
 10
118.6401312637427
 20
252.2495469204446
 10
118.6115369712152
 20
251.5503647917131
 10
118.49130313878
 20
248.6383978328057
 10
118.4468614070202
 20
247.5487141308212
 10
118.2005370798249
 20
244.0526312323896
 10
118.0403401397608
 20
241.7740450784454
 10
117.6617241459318
 20
237.0327324168703
 10
116.9237846929913
 20
230.8782415872457
 10
116.5313883172213
 20
227.6055731310327
 10
115.864417831277
 20
222.7421318345054
 10
115.1705756005476
 20
218.9084295785194
 10
114.8832546370778
 20
217.3185180120766
 10
114.8832546370778
 20
217.3185180120766
 10
114.403008326434
 20
214.9799871966891
 10
114.2979329141339
 20
214.4680460075809
 10
114.1329128403904
 20
213.7907402351808
 10
114.0154350843434
 20
213.2813828676866
 10
114.0123344984066
 20
213.2669134666486
 10
113.6633463257508
 20
211.7724310451472
 10
113.2251301800271
 20
210.4383178184842
 10
113.4197780749437
 20
211.0305297323986
 10
113.0680338258997
 20
211.6487521172267
 10
112.1016845422871
 20
212.1989338662211
 10
109.7638427459965
 20
213.5296019973989
 10
104.7153998219114
 20
213.9600666782808
 10
100.8250257451931
 20
213.1602877613801
 10
97.97834334573112
 20
212.5754828027589
 10
96.54053274496209
 20
211.4937228203905
 10
96.88969317239217
 20
210.4347004682247
 72
     1
 10
96.88969317239217
 20
210.4347004682247
 11
96.88969317239217
 21
210.4347004682247
 97
        0
 75
     2
 76
     1
 98
        0
  0
SPLINE
  5
5F
330
1F
100
AcDbEntity
  8
\U+30EC\U+30A4\U+30E4\U+30FC 1
 62
   250
420
  2235935
370
    15
100
AcDbSpline
210
0.0
220
0.0
230
1.0
 70
    11
 71
     3
 72
    71
 73
    67
 74
     0
 42
0.0000000001
 43
0.0000000001
 40
0.0
 40
0.0
 40
0.0
 40
0.0
 40
1.0
 40
1.0
 40
1.0
 40
2.0
 40
2.0
 40
2.0
 40
3.0
 40
3.0
 40
3.0
 40
4.0
 40
4.0
 40
4.0
 40
5.0
 40
5.0
 40
5.0
 40
6.0
 40
6.0
 40
6.0
 40
7.0
 40
7.0
 40
7.0
 40
8.0
 40
8.0
 40
8.0
 40
9.0
 40
9.0
 40
9.0
 40
10.0
 40
10.0
 40
10.0
 40
11.0
 40
11.0
 40
11.0
 40
12.0
 40
12.0
 40
12.0
 40
13.0
 40
13.0
 40
13.0
 40
14.0
 40
14.0
 40
14.0
 40
15.0
 40
15.0
 40
15.0
 40
16.0
 40
16.0
 40
16.0
 40
17.0
 40
17.0
 40
17.0
 40
18.0
 40
18.0
 40
18.0
 40
19.0
 40
19.0
 40
19.0
 40
20.0
 40
20.0
 40
20.0
 40
21.0
 40
21.0
 40
21.0
 40
22.0
 40
22.0
 40
22.0
 40
22.0
 10
96.88969317239217
 20
210.4347004682247
 30
0.0
 10
96.77428247363629
 20
210.8171060670874
 30
0.0
 10
96.61201847628102
 20
211.3256021607103
 30
0.0
 10
96.50453149714123
 20
211.7107638359612
 30
0.0
 10
96.37568492599289
 20
212.1729233953075
 30
0.0
 10
96.21100936179795
 20
212.7913180349098
 30
0.0
 10
96.10335012788389
 20
213.2591620018067
 30
0.0
 10
95.98621688138539
 20
213.7681748597524
 30
0.0
 10
95.8208522980934
 20
214.4444471035069
 30
0.0
 10
95.71560463101902
 20
214.9555270187438
 30
0.0
 10
95.23277449876126
 20
217.3068046874268
 30
0.0
 10
95.23277449876126
 20
217.3068046874268
 30
0.0
 10
94.94562579006568
 20
218.8925821392873
 30
0.0
 10
94.25057777591653
 20
222.7333468410181
 30
0.0
 10
93.5834350351979
 20
227.5985106852879
 30
0.0
 10
93.1912109142022
 20
230.8708346319524
 30
0.0
 10
92.45309920648742
 20
237.02463644248
 30
0.0
 10
92.07465546743273
 20
241.7621594990213
 30
0.0
 10
91.91445852736861
 20
244.0385063409001
 30
0.0
 10
91.66830645494751
 20
247.5406181564308
 30
0.0
 10
91.62300344931647
 20
248.6278902915757
 30
0.0
 10
91.5034586359783
 20
251.5336560786097
 30
0.0
 10
91.50242510733273
 20
251.5544989062954
 30
0.0
 10
91.41888154181542
 20
253.7361056223299
 30
0.0
 10
91.4185370322669
 20
256.0665404633271
 30
0.0
 10
91.4185370322669
 20
257.6502508578965
 30
0.0
 10
93.77687714669467
 20
259.1939981448369
 30
0.0
 10
98.03415389259216
 20
260.0688801433161
 30
0.0
 10
104.4895738128533
 20
261.3955864146859
 30
0.0
 10
112.8678737782066
 20
260.6812458658193
 30
0.0
 10
116.7463622755009
 20
258.4736286788712
 30
0.0
 10
118.0672118845457
 20
257.7213920796669
 30
0.0
 10
118.6959418106038
 20
256.8931911250128
 30
0.0
 10
118.6959418106038
 20
256.075669966363
 30
0.0
 10
118.6900851482789
 20
255.4171399643575
 30
0.0
 10
118.6866400527936
 20
254.5396741442644
 30
0.0
 10
118.6749267281438
 20
253.8818331613559
 30
0.0
 10
118.6614908557513
 20
253.1819620135274
 30
0.0
 10
118.6401312637427
 20
252.2495469204446
 30
0.0
 10
118.6115369712152
 20
251.5503647917131
 30
0.0
 10
118.49130313878
 20
248.6383978328057
 30
0.0
 10
118.4468614070202
 20
247.5487141308212
 30
0.0
 10
118.2005370798249
 20
244.0526312323896
 30
0.0
 10
118.0403401397608
 20
241.7740450784454
 30
0.0
 10
117.6617241459318
 20
237.0327324168703
 30
0.0
 10
116.9237846929913
 20
230.8782415872457
 30
0.0
 10
116.5313883172213
 20
227.6055731310327
 30
0.0
 10
115.864417831277
 20
222.7421318345054
 30
0.0
 10
115.1705756005476
 20
218.9084295785194
 30
0.0
 10
114.8832546370778
 20
217.3185180120766
 30
0.0
 10
114.8832546370778
 20
217.3185180120766
 30
0.0
 10
114.403008326434
 20
214.9799871966891
 30
0.0
 10
114.2979329141339
 20
214.4680460075809
 30
0.0
 10
114.1329128403904
 20
213.7907402351808
 30
0.0
 10
114.0154350843434
 20
213.2813828676866
 30
0.0
 10
114.0123344984066
 20
213.2669134666486
 30
0.0
 10
113.6633463257508
 20
211.7724310451472
 30
0.0
 10
113.2251301800271
 20
210.4383178184842
 30
0.0
 10
113.4197780749437
 20
211.0305297323986
 30
0.0
 10
113.0680338258997
 20
211.6487521172267
 30
0.0
 10
112.1016845422871
 20
212.1989338662211
 30
0.0
 10
109.7638427459965
 20
213.5296019973989
 30
0.0
 10
104.7153998219114
 20
213.9600666782808
 30
0.0
 10
100.8250257451931
 20
213.1602877613801
 30
0.0
 10
97.97834334573112
 20
212.5754828027589
 30
0.0
 10
96.54053274496209
 20
211.4937228203905
 30
0.0
 10
96.88969317239217
 20
210.4347004682247
 30
0.0
  0
SPLINE
  5
60
330
1F
100
AcDbEntity
  8
\U+30EC\U+30A4\U+30E4\U+30FC 1
370
     0
100
AcDbSpline
210
0.0
220
0.0
230
1.0
 70
    11
 71
     3
 72
    29
 73
    25
 74
     0
 42
0.0000000001
 43
0.0000000001
 40
0.0
 40
0.0
 40
0.0
 40
0.0
 40
1.0
 40
1.0
 40
1.0
 40
2.0
 40
2.0
 40
2.0
 40
3.0
 40
3.0
 40
3.0
 40
4.0
 40
4.0
 40
4.0
 40
5.0
 40
5.0
 40
5.0
 40
6.0
 40
6.0
 40
6.0
 40
7.0
 40
7.0
 40
7.0
 40
8.0
 40
8.0
 40
8.0
 40
8.0
 10
103.8294935178794
 20
136.4436957124169
 30
0.0
 10
103.8294935178794
 20
136.4436957124169
 30
0.0
 10
103.8294935178794
 20
196.8034911617366
 30
0.0
 10
103.8294935178794
 20
196.8034911617366
 30
0.0
 10
103.8294935178794
 20
196.9456013505032
 30
0.0
 10
104.0418836545451
 20
197.084610953333
 30
0.0
 10
104.4249782725049
 20
197.1631591303967
 30
0.0
 10
105.006510390415
 20
197.2828761985091
 30
0.0
 10
105.7602972825877
 20
197.2186251677092
 30
0.0
 10
106.109629964792
 20
197.0196709034361
 30
0.0
 10
106.2284857590332
 20
196.9519747771509
 30
0.0
 10
106.2853298345398
 20
196.8775607146695
 30
0.0
 10
106.2853298345398
 20
196.8038356712852
 30
0.0
 10
106.2853298345398
 20
196.8038356712852
 30
0.0
 10
106.2853298345398
 20
136.4443847315139
 30
0.0
 10
106.2853298345398
 20
136.4443847315139
 30
0.0
 10
106.2853298345398
 20
136.5184542844468
 30
0.0
 10
106.2284857590332
 20
136.5928683469282
 30
0.0
 10
106.109629964792
 20
136.6607367279876
 30
0.0
 10
105.7602972825877
 20
136.8595187374865
 30
0.0
 10
105.006510390415
 20
136.9235975135122
 30
0.0
 10
104.4249782725049
 20
136.8043972097225
 30
0.0
 10
104.0418836545451
 20
136.7255045231103
 30
0.0
 10
103.8294935178794
 20
136.5866671750547
 30
0.0
 10
103.8294935178794
 20
136.4436957124169
 30
0.0
  0
HATCH
  5
61
330
1F
100
AcDbEntity
  8
\U+30EC\U+30A4\U+30E4\U+30FC 1
 62
     7
420
 16711679
100
AcDbHatch
 10
0.0
 20
0.0
 30
0.0
210
0.0
220
0.0
230
1.0
  2
SOLID
 70
     1
 71
     0
 91
        1
 92
        1
 93
        2
 72
     4
 94
        3
 73
     0
 74
     0
 95
       29
 96
       25
 40
0.0
 40
0.0
 40
0.0
 40
0.0
 40
0.3527777776895833
 40
0.3527777776895833
 40
0.3527777776895833
 40
0.7055555553791667
 40
0.7055555553791667
 40
0.7055555553791667
 40
1.05833333306875
 40
1.05833333306875
 40
1.05833333306875
 40
1.411111110758333
 40
1.411111110758333
 40
1.411111110758333
 40
1.763888888447917
 40
1.763888888447917
 40
1.763888888447917
 40
2.1166666661375
 40
2.1166666661375
 40
2.1166666661375
 40
2.469444443827083
 40
2.469444443827083
 40
2.469444443827083
 40
2.822222221516667
 40
2.822222221516667
 40
2.822222221516667
 40
2.822222221516667
 10
103.8294935178794
 20
136.4436957124169
 10
103.8294935178794
 20
136.4436957124169
 10
103.8294935178794
 20
196.8034911617366
 10
103.8294935178794
 20
196.8034911617366
 10
103.8294935178794
 20
196.9456013505032
 10
104.0418836545451
 20
197.084610953333
 10
104.4249782725049
 20
197.1631591303967
 10
105.006510390415
 20
197.2828761985091
 10
105.7602972825877
 20
197.2186251677092
 10
106.109629964792
 20
197.0196709034361
 10
106.2284857590332
 20
196.9519747771509
 10
106.2853298345398
 20
196.8775607146695
 10
106.2853298345398
 20
196.8038356712852
 10
106.2853298345398
 20
196.8038356712852
 10
106.2853298345398
 20
136.4443847315139
 10
106.2853298345398
 20
136.4443847315139
 10
106.2853298345398
 20
136.5184542844468
 10
106.2284857590332
 20
136.5928683469282
 10
106.109629964792
 20
136.6607367279876
 10
105.7602972825877
 20
136.8595187374865
 10
105.006510390415
 20
136.9235975135122
 10
104.4249782725049
 20
136.8043972097225
 10
104.0418836545451
 20
136.7255045231103
 10
103.8294935178794
 20
136.5866671750547
 10
103.8294935178794
 20
136.4436957124169
 72
     1
 10
103.8294935178794
 20
136.4436957124169
 11
103.8294935178794
 21
136.4436957124169
 97
        0
 75
     2
 76
     1
 98
        0
  0
SPLINE
  5
62
330
1F
100
AcDbEntity
  8
\U+30EC\U+30A4\U+30E4\U+30FC 1
 62
   250
420
  2235935
370
    15
100
AcDbSpline
210
0.0
220
0.0
230
1.0
 70
    11
 71
     3
 72
    29
 73
    25
 74
     0
 42
0.0000000001
 43
0.0000000001
 40
0.0
 40
0.0
 40
0.0
 40
0.0
 40
1.0
 40
1.0
 40
1.0
 40
2.0
 40
2.0
 40
2.0
 40
3.0
 40
3.0
 40
3.0
 40
4.0
 40
4.0
 40
4.0
 40
5.0
 40
5.0
 40
5.0
 40
6.0
 40
6.0
 40
6.0
 40
7.0
 40
7.0
 40
7.0
 40
8.0
 40
8.0
 40
8.0
 40
8.0
 10
103.8294935178794
 20
136.4436957124169
 30
0.0
 10
103.8294935178794
 20
136.4436957124169
 30
0.0
 10
103.8294935178794
 20
196.8034911617366
 30
0.0
 10
103.8294935178794
 20
196.8034911617366
 30
0.0
 10
103.8294935178794
 20
196.9456013505032
 30
0.0
 10
104.0418836545451
 20
197.084610953333
 30
0.0
 10
104.4249782725049
 20
197.1631591303967
 30
0.0
 10
105.006510390415
 20
197.2828761985091
 30
0.0
 10
105.7602972825877
 20
197.2186251677092
 30
0.0
 10
106.109629964792
 20
197.0196709034361
 30
0.0
 10
106.2284857590332
 20
196.9519747771509
 30
0.0
 10
106.2853298345398
 20
196.8775607146695
 30
0.0
 10
106.2853298345398
 20
196.8038356712852
 30
0.0
 10
106.2853298345398
 20
196.8038356712852
 30
0.0
 10
106.2853298345398
 20
136.4443847315139
 30
0.0
 10
106.2853298345398
 20
136.4443847315139
 30
0.0
 10
106.2853298345398
 20
136.5184542844468
 30
0.0
 10
106.2284857590332
 20
136.5928683469282
 30
0.0
 10
106.109629964792
 20
136.6607367279876
 30
0.0
 10
105.7602972825877
 20
136.8595187374865
 30
0.0
 10
105.006510390415
 20
136.9235975135122
 30
0.0
 10
104.4249782725049
 20
136.8043972097225
 30
0.0
 10
104.0418836545451
 20
136.7255045231103
 30
0.0
 10
103.8294935178794
 20
136.5866671750547
 30
0.0
 10
103.8294935178794
 20
136.4436957124169
 30
0.0
  0
SPLINE
  5
63
330
1F
100
AcDbEntity
  8
\U+30EC\U+30A4\U+30E4\U+30FC 1
370
     0
100
AcDbSpline
210
0.0
220
0.0
230
1.0
 70
    11
 71
     3
 72
    29
 73
    25
 74
     0
 42
0.0000000001
 43
0.0000000001
 40
0.0
 40
0.0
 40
0.0
 40
0.0
 40
1.0
 40
1.0
 40
1.0
 40
2.0
 40
2.0
 40
2.0
 40
3.0
 40
3.0
 40
3.0
 40
4.0
 40
4.0
 40
4.0
 40
5.0
 40
5.0
 40
5.0
 40
6.0
 40
6.0
 40
6.0
 40
7.0
 40
7.0
 40
7.0
 40
8.0
 40
8.0
 40
8.0
 40
8.0
 10
103.299637832248
 20
105.1026285544535
 30
0.0
 10
103.299637832248
 20
105.1026285544535
 30
0.0
 10
103.299637832248
 20
136.4436957124169
 30
0.0
 10
103.299637832248
 20
136.4436957124169
 30
0.0
 10
103.299637832248
 20
136.6476453651437
 30
0.0
 10
103.6038397635956
 20
136.8467718841911
 30
0.0
 10
104.1522989648473
 20
136.9594265065588
 30
0.0
 10
104.9841172697609
 20
137.1306477521757
 30
0.0
 10
106.0641547043867
 20
137.0386637027195
 30
0.0
 10
106.5640380592965
 20
136.7540988156379
 30
0.0
 10
106.7338812667193
 20
136.6569471229538
 30
0.0
 10
106.8151855201712
 20
136.5501491629111
 30
0.0
 10
106.8151855201712
 20
136.4443847315139
 30
0.0
 10
106.8151855201712
 20
136.4443847315139
 30
0.0
 10
106.8151855201712
 20
105.1036620830991
 30
0.0
 10
106.8151855201712
 20
105.1036620830991
 30
0.0
 10
106.8151855201712
 20
105.2083929858507
 30
0.0
 10
106.7338812667193
 20
105.3158799649905
 30
0.0
 10
106.5640380592965
 20
105.4123426385775
 30
0.0
 10
106.0641547043867
 20
105.6969075256591
 30
0.0
 10
104.9841172697609
 20
105.7892360846638
 30
0.0
 10
104.1522989648473
 20
105.6176703294984
 30
0.0
 10
103.6038397635956
 20
105.5057047262277
 30
0.0
 10
103.299637832248
 20
105.3065782071803
 30
0.0
 10
103.299637832248
 20
105.1026285544535
 30
0.0
  0
HATCH
  5
64
330
1F
100
AcDbEntity
  8
\U+30EC\U+30A4\U+30E4\U+30FC 1
 62
     7
420
 16711679
100
AcDbHatch
 10
0.0
 20
0.0
 30
0.0
210
0.0
220
0.0
230
1.0
  2
SOLID
 70
     1
 71
     0
 91
        1
 92
        1
 93
        2
 72
     4
 94
        3
 73
     0
 74
     0
 95
       29
 96
       25
 40
0.0
 40
0.0
 40
0.0
 40
0.0
 40
0.3527777776895833
 40
0.3527777776895833
 40
0.3527777776895833
 40
0.7055555553791667
 40
0.7055555553791667
 40
0.7055555553791667
 40
1.05833333306875
 40
1.05833333306875
 40
1.05833333306875
 40
1.411111110758333
 40
1.411111110758333
 40
1.411111110758333
 40
1.763888888447917
 40
1.763888888447917
 40
1.763888888447917
 40
2.1166666661375
 40
2.1166666661375
 40
2.1166666661375
 40
2.469444443827083
 40
2.469444443827083
 40
2.469444443827083
 40
2.822222221516667
 40
2.822222221516667
 40
2.822222221516667
 40
2.822222221516667
 10
103.299637832248
 20
105.1026285544535
 10
103.299637832248
 20
105.1026285544535
 10
103.299637832248
 20
136.4436957124169
 10
103.299637832248
 20
136.4436957124169
 10
103.299637832248
 20
136.6476453651437
 10
103.6038397635956
 20
136.8467718841911
 10
104.1522989648473
 20
136.9594265065588
 10
104.9841172697609
 20
137.1306477521757
 10
106.0641547043867
 20
137.0386637027195
 10
106.5640380592965
 20
136.7540988156379
 10
106.7338812667193
 20
136.6569471229538
 10
106.8151855201712
 20
136.5501491629111
 10
106.8151855201712
 20
136.4443847315139
 10
106.8151855201712
 20
136.4443847315139
 10
106.8151855201712
 20
105.1036620830991
 10
106.8151855201712
 20
105.1036620830991
 10
106.8151855201712
 20
105.2083929858507
 10
106.7338812667193
 20
105.3158799649905
 10
106.5640380592965
 20
105.4123426385775
 10
106.0641547043867
 20
105.6969075256591
 10
104.9841172697609
 20
105.7892360846638
 10
104.1522989648473
 20
105.6176703294984
 10
103.6038397635956
 20
105.5057047262277
 10
103.299637832248
 20
105.3065782071803
 10
103.299637832248
 20
105.1026285544535
 72
     1
 10
103.299637832248
 20
105.1026285544535
 11
103.299637832248
 21
105.1026285544535
 97
        0
 75
     2
 76
     1
 98
        0
  0
SPLINE
  5
65
330
1F
100
AcDbEntity
  8
\U+30EC\U+30A4\U+30E4\U+30FC 1
 62
   250
420
  2235935
370
    15
100
AcDbSpline
210
0.0
220
0.0
230
1.0
 70
    11
 71
     3
 72
    29
 73
    25
 74
     0
 42
0.0000000001
 43
0.0000000001
 40
0.0
 40
0.0
 40
0.0
 40
0.0
 40
1.0
 40
1.0
 40
1.0
 40
2.0
 40
2.0
 40
2.0
 40
3.0
 40
3.0
 40
3.0
 40
4.0
 40
4.0
 40
4.0
 40
5.0
 40
5.0
 40
5.0
 40
6.0
 40
6.0
 40
6.0
 40
7.0
 40
7.0
 40
7.0
 40
8.0
 40
8.0
 40
8.0
 40
8.0
 10
103.299637832248
 20
105.1026285544535
 30
0.0
 10
103.299637832248
 20
105.1026285544535
 30
0.0
 10
103.299637832248
 20
136.4436957124169
 30
0.0
 10
103.299637832248
 20
136.4436957124169
 30
0.0
 10
103.299637832248
 20
136.6476453651437
 30
0.0
 10
103.6038397635956
 20
136.8467718841911
 30
0.0
 10
104.1522989648473
 20
136.9594265065588
 30
0.0
 10
104.9841172697609
 20
137.1306477521757
 30
0.0
 10
106.0641547043867
 20
137.0386637027195
 30
0.0
 10
106.5640380592965
 20
136.7540988156379
 30
0.0
 10
106.7338812667193
 20
136.6569471229538
 30
0.0
 10
106.8151855201712
 20
136.5501491629111
 30
0.0
 10
106.8151855201712
 20
136.4443847315139
 30
0.0
 10
106.8151855201712
 20
136.4443847315139
 30
0.0
 10
106.8151855201712
 20
105.1036620830991
 30
0.0
 10
106.8151855201712
 20
105.1036620830991
 30
0.0
 10
106.8151855201712
 20
105.2083929858507
 30
0.0
 10
106.7338812667193
 20
105.3158799649905
 30
0.0
 10
106.5640380592965
 20
105.4123426385775
 30
0.0
 10
106.0641547043867
 20
105.6969075256591
 30
0.0
 10
104.9841172697609
 20
105.7892360846638
 30
0.0
 10
104.1522989648473
 20
105.6176703294984
 30
0.0
 10
103.6038397635956
 20
105.5057047262277
 30
0.0
 10
103.299637832248
 20
105.3065782071803
 30
0.0
 10
103.299637832248
 20
105.1026285544535
 30
0.0
  0
SPLINE
  5
66
330
1F
100
AcDbEntity
  8
\U+30EC\U+30A4\U+30E4\U+30FC 1
370
     0
100
AcDbSpline
210
0.0
220
0.0
230
1.0
 70
    11
 71
     3
 72
    17
 73
    13
 74
     0
 42
0.0000000001
 43
0.0000000001
 40
0.0
 40
0.0
 40
0.0
 40
0.0
 40
1.0
 40
1.0
 40
1.0
 40
2.0
 40
2.0
 40
2.0
 40
3.0
 40
3.0
 40
3.0
 40
4.0
 40
4.0
 40
4.0
 40
4.0
 10
102.7677150893254
 20
104.6375406639448
 30
0.0
 10
102.0159952544439
 20
105.0654215232128
 30
0.0
 10
102.4206217191865
 20
105.6197373867895
 30
0.0
 10
103.6708468707837
 20
105.8770860195377
 30
0.0
 10
104.9210720223808
 20
106.1334011236403
 30
0.0
 10
106.543367486385
 20
105.9955973042303
 30
0.0
 10
107.294742811718
 20
105.5677164449622
 30
0.0
 10
108.0464626465995
 20
105.1405246047913
 30
0.0
 10
107.6413194175341
 20
104.585864231666
 30
0.0
 10
106.3914387754855
 20
104.3288601084664
 30
0.0
 10
105.1412136238883
 20
104.0718559852668
 30
0.0
 10
103.5184013955614
 20
104.2103488237738
 30
0.0
 10
102.7677150893254
 20
104.6375406639448
 30
0.0
  0
HATCH
  5
67
330
1F
100
AcDbEntity
  8
\U+30EC\U+30A4\U+30E4\U+30FC 1
 62
     7
420
 16711679
100
AcDbHatch
 10
0.0
 20
0.0
 30
0.0
210
0.0
220
0.0
230
1.0
  2
SOLID
 70
     1
 71
     0
 91
        1
 92
        1
 93
        2
 72
     4
 94
        3
 73
     0
 74
     0
 95
       17
 96
       13
 40
0.0
 40
0.0
 40
0.0
 40
0.0
 40
0.3527777776895833
 40
0.3527777776895833
 40
0.3527777776895833
 40
0.7055555553791667
 40
0.7055555553791667
 40
0.7055555553791667
 40
1.05833333306875
 40
1.05833333306875
 40
1.05833333306875
 40
1.411111110758333
 40
1.411111110758333
 40
1.411111110758333
 40
1.411111110758333
 10
102.7677150893254
 20
104.6375406639448
 10
102.0159952544439
 20
105.0654215232128
 10
102.4206217191865
 20
105.6197373867895
 10
103.6708468707837
 20
105.8770860195377
 10
104.9210720223808
 20
106.1334011236403
 10
106.543367486385
 20
105.9955973042303
 10
107.294742811718
 20
105.5677164449622
 10
108.0464626465995
 20
105.1405246047913
 10
107.6413194175341
 20
104.585864231666
 10
106.3914387754855
 20
104.3288601084664
 10
105.1412136238883
 20
104.0718559852668
 10
103.5184013955614
 20
104.2103488237738
 10
102.7677150893254
 20
104.6375406639448
 72
     1
 10
102.7677150893254
 20
104.6375406639448
 11
102.7677150893254
 21
104.6375406639448
 97
        0
 75
     2
 76
     1
 98
        0
  0
SPLINE
  5
68
330
1F
100
AcDbEntity
  8
\U+30EC\U+30A4\U+30E4\U+30FC 1
 62
   250
420
  2235935
370
    15
100
AcDbSpline
210
0.0
220
0.0
230
1.0
 70
    11
 71
     3
 72
    17
 73
    13
 74
     0
 42
0.0000000001
 43
0.0000000001
 40
0.0
 40
0.0
 40
0.0
 40
0.0
 40
1.0
 40
1.0
 40
1.0
 40
2.0
 40
2.0
 40
2.0
 40
3.0
 40
3.0
 40
3.0
 40
4.0
 40
4.0
 40
4.0
 40
4.0
 10
102.7677150893254
 20
104.6375406639448
 30
0.0
 10
102.0159952544439
 20
105.0654215232128
 30
0.0
 10
102.4206217191865
 20
105.6197373867895
 30
0.0
 10
103.6708468707837
 20
105.8770860195377
 30
0.0
 10
104.9210720223808
 20
106.1334011236403
 30
0.0
 10
106.543367486385
 20
105.9955973042303
 30
0.0
 10
107.294742811718
 20
105.5677164449622
 30
0.0
 10
108.0464626465995
 20
105.1405246047913
 30
0.0
 10
107.6413194175341
 20
104.585864231666
 30
0.0
 10
106.3914387754855
 20
104.3288601084664
 30
0.0
 10
105.1412136238883
 20
104.0718559852668
 30
0.0
 10
103.5184013955614
 20
104.2103488237738
 30
0.0
 10
102.7677150893254
 20
104.6375406639448
 30
0.0
  0
SPLINE
  5
69
330
1F
100
AcDbEntity
  8
\U+30EC\U+30A4\U+30E4\U+30FC 1
370
     0
100
AcDbSpline
210
0.0
220
0.0
230
1.0
 70
    11
 71
     3
 72
    29
 73
    25
 74
     0
 42
0.0000000001
 43
0.0000000001
 40
0.0
 40
0.0
 40
0.0
 40
0.0
 40
1.0
 40
1.0
 40
1.0
 40
2.0
 40
2.0
 40
2.0
 40
3.0
 40
3.0
 40
3.0
 40
4.0
 40
4.0
 40
4.0
 40
5.0
 40
5.0
 40
5.0
 40
6.0
 40
6.0
 40
6.0
 40
7.0
 40
7.0
 40
7.0
 40
8.0
 40
8.0
 40
8.0
 40
8.0
 10
102.389443605045
 20
104.1552272960098
 30
0.0
 10
102.389443605045
 20
104.1552272960098
 30
0.0
 10
102.389443605045
 20
105.1019395353565
 30
0.0
 10
102.389443605045
 20
105.1019395353565
 30
0.0
 10
102.389443605045
 20
105.4088975430922
 30
0.0
 10
102.8464355211634
 20
105.7072428121149
 30
0.0
 10
103.6708468707837
 20
105.8770860195377
 30
0.0
 10
104.9210720223808
 20
106.1334011236403
 30
0.0
 10
106.543367486385
 20
105.9955973042303
 30
0.0
 10
107.294742811718
 20
105.5677164449622
 30
0.0
 10
107.5510579158206
 20
105.4223334154847
 30
0.0
 10
107.6719807673528
 20
105.2617919658721
 30
0.0
 10
107.6719807673528
 20
105.1036620830991
 30
0.0
 10
107.6719807673528
 20
105.1036620830991
 30
0.0
 10
107.6719807673528
 20
104.1566053342039
 30
0.0
 10
107.6719807673528
 20
104.1566053342039
 30
0.0
 10
107.6719807673528
 20
104.3147352169769
 30
0.0
 10
107.5510579158206
 20
104.474932157041
 30
0.0
 10
107.294742811718
 20
104.6203151865185
 30
0.0
 10
106.543367486385
 20
105.0485405553351
 30
0.0
 10
104.9210720223808
 20
105.1866888842936
 30
0.0
 10
103.6708468707837
 20
104.9293402515455
 30
0.0
 10
102.8464355211634
 20
104.7601860632197
 30
0.0
 10
102.389443605045
 20
104.4611517751
 30
0.0
 10
102.389443605045
 20
104.1552272960098
 30
0.0
  0
HATCH
  5
6A
330
1F
100
AcDbEntity
  8
\U+30EC\U+30A4\U+30E4\U+30FC 1
 62
     7
420
 16711679
100
AcDbHatch
 10
0.0
 20
0.0
 30
0.0
210
0.0
220
0.0
230
1.0
  2
SOLID
 70
     1
 71
     0
 91
        1
 92
        1
 93
        2
 72
     4
 94
        3
 73
     0
 74
     0
 95
       29
 96
       25
 40
0.0
 40
0.0
 40
0.0
 40
0.0
 40
0.3527777776895833
 40
0.3527777776895833
 40
0.3527777776895833
 40
0.7055555553791667
 40
0.7055555553791667
 40
0.7055555553791667
 40
1.05833333306875
 40
1.05833333306875
 40
1.05833333306875
 40
1.411111110758333
 40
1.411111110758333
 40
1.411111110758333
 40
1.763888888447917
 40
1.763888888447917
 40
1.763888888447917
 40
2.1166666661375
 40
2.1166666661375
 40
2.1166666661375
 40
2.469444443827083
 40
2.469444443827083
 40
2.469444443827083
 40
2.822222221516667
 40
2.822222221516667
 40
2.822222221516667
 40
2.822222221516667
 10
102.389443605045
 20
104.1552272960098
 10
102.389443605045
 20
104.1552272960098
 10
102.389443605045
 20
105.1019395353565
 10
102.389443605045
 20
105.1019395353565
 10
102.389443605045
 20
105.4088975430922
 10
102.8464355211634
 20
105.7072428121149
 10
103.6708468707837
 20
105.8770860195377
 10
104.9210720223808
 20
106.1334011236403
 10
106.543367486385
 20
105.9955973042303
 10
107.294742811718
 20
105.5677164449622
 10
107.5510579158206
 20
105.4223334154847
 10
107.6719807673528
 20
105.2617919658721
 10
107.6719807673528
 20
105.1036620830991
 10
107.6719807673528
 20
105.1036620830991
 10
107.6719807673528
 20
104.1566053342039
 10
107.6719807673528
 20
104.1566053342039
 10
107.6719807673528
 20
104.3147352169769
 10
107.5510579158206
 20
104.474932157041
 10
107.294742811718
 20
104.6203151865185
 10
106.543367486385
 20
105.0485405553351
 10
104.9210720223808
 20
105.1866888842936
 10
103.6708468707837
 20
104.9293402515455
 10
102.8464355211634
 20
104.7601860632197
 10
102.389443605045
 20
104.4611517751
 10
102.389443605045
 20
104.1552272960098
 72
     1
 10
102.389443605045
 20
104.1552272960098
 11
102.389443605045
 21
104.1552272960098
 97
        0
 75
     2
 76
     1
 98
        0
  0
SPLINE
  5
6B
330
1F
100
AcDbEntity
  8
\U+30EC\U+30A4\U+30E4\U+30FC 1
 62
   250
420
  2235935
370
    15
100
AcDbSpline
210
0.0
220
0.0
230
1.0
 70
    11
 71
     3
 72
    29
 73
    25
 74
     0
 42
0.0000000001
 43
0.0000000001
 40
0.0
 40
0.0
 40
0.0
 40
0.0
 40
1.0
 40
1.0
 40
1.0
 40
2.0
 40
2.0
 40
2.0
 40
3.0
 40
3.0
 40
3.0
 40
4.0
 40
4.0
 40
4.0
 40
5.0
 40
5.0
 40
5.0
 40
6.0
 40
6.0
 40
6.0
 40
7.0
 40
7.0
 40
7.0
 40
8.0
 40
8.0
 40
8.0
 40
8.0
 10
102.389443605045
 20
104.1552272960098
 30
0.0
 10
102.389443605045
 20
104.1552272960098
 30
0.0
 10
102.389443605045
 20
105.1019395353565
 30
0.0
 10
102.389443605045
 20
105.1019395353565
 30
0.0
 10
102.389443605045
 20
105.4088975430922
 30
0.0
 10
102.8464355211634
 20
105.7072428121149
 30
0.0
 10
103.6708468707837
 20
105.8770860195377
 30
0.0
 10
104.9210720223808
 20
106.1334011236403
 30
0.0
 10
106.543367486385
 20
105.9955973042303
 30
0.0
 10
107.294742811718
 20
105.5677164449622
 30
0.0
 10
107.5510579158206
 20
105.4223334154847
 30
0.0
 10
107.6719807673528
 20
105.2617919658721
 30
0.0
 10
107.6719807673528
 20
105.1036620830991
 30
0.0
 10
107.6719807673528
 20
105.1036620830991
 30
0.0
 10
107.6719807673528
 20
104.1566053342039
 30
0.0
 10
107.6719807673528
 20
104.1566053342039
 30
0.0
 10
107.6719807673528
 20
104.3147352169769
 30
0.0
 10
107.5510579158206
 20
104.474932157041
 30
0.0
 10
107.294742811718
 20
104.6203151865185
 30
0.0
 10
106.543367486385
 20
105.0485405553351
 30
0.0
 10
104.9210720223808
 20
105.1866888842936
 30
0.0
 10
103.6708468707837
 20
104.9293402515455
 30
0.0
 10
102.8464355211634
 20
104.7601860632197
 30
0.0
 10
102.389443605045
 20
104.4611517751
 30
0.0
 10
102.389443605045
 20
104.1552272960098
 30
0.0
  0
SPLINE
  5
6C
330
1F
100
AcDbEntity
  8
\U+30EC\U+30A4\U+30E4\U+30FC 1
370
     0
100
AcDbSpline
210
0.0
220
0.0
230
1.0
 70
    11
 71
     3
 72
    68
 73
    64
 74
     0
 42
0.0000000001
 43
0.0000000001
 40
0.0
 40
0.0
 40
0.0
 40
0.0
 40
1.0
 40
1.0
 40
1.0
 40
2.0
 40
2.0
 40
2.0
 40
3.0
 40
3.0
 40
3.0
 40
4.0
 40
4.0
 40
4.0
 40
5.0
 40
5.0
 40
5.0
 40
6.0
 40
6.0
 40
6.0
 40
7.0
 40
7.0
 40
7.0
 40
8.0
 40
8.0
 40
8.0
 40
9.0
 40
9.0
 40
9.0
 40
10.0
 40
10.0
 40
10.0
 40
11.0
 40
11.0
 40
11.0
 40
12.0
 40
12.0
 40
12.0
 40
13.0
 40
13.0
 40
13.0
 40
14.0
 40
14.0
 40
14.0
 40
15.0
 40
15.0
 40
15.0
 40
16.0
 40
16.0
 40
16.0
 40
17.0
 40
17.0
 40
17.0
 40
18.0
 40
18.0
 40
18.0
 40
19.0
 40
19.0
 40
19.0
 40
20.0
 40
20.0
 40
20.0
 40
21.0
 40
21.0
 40
21.0
 40
21.0
 10
96.40858558787703
 20
95.79708113924518
 30
0.0
 10
96.42116018639818
 20
96.27904999763163
 30
0.0
 10
96.42546655575475
 20
96.4413139949869
 30
0.0
 10
96.45578339602494
 20
96.69383949405571
 30
0.0
 10
96.48937307700614
 20
96.973581247458
 30
0.0
 10
96.54294431180176
 20
97.34565155986498
 30
0.0
 10
96.58773055311002
 20
97.6229817464276
 30
0.0
 10
96.61201847628102
 20
97.77284340003597
 30
0.0
 10
96.65232609345846
 20
97.9705918808893
 30
0.0
 10
96.68643253876242
 20
98.11804196765799
 30
0.0
 10
96.78668481738319
 20
98.54661184602307
 30
0.0
 10
96.89038219148921
 20
98.9896511254262
 30
0.0
 10
97.0907144939565
 20
99.61080184141674
 30
0.0
 10
97.30741099997871
 20
100.2808729132978
 30
0.0
 10
97.52617456329207
 20
100.8014268411191
 30
0.0
 10
97.64330780979057
 20
101.0804795754243
 30
0.0
 10
97.75957978241775
 20
101.3564317237928
 30
0.0
 10
98.19038897284824
 20
102.3348388416038
 30
0.0
 10
98.86097680905212
 20
103.3166910549
 30
0.0
 10
99.45404999683788
 20
104.1841660980859
 30
0.0
 10
99.99906410260441
 20
104.6533881031769
 30
0.0
 10
100.2047363030738
 20
104.8304660111188
 30
0.0
 10
100.6150471753671
 20
105.1742865405467
 30
0.0
 10
101.3428235966261
 20
105.4774549432487
 30
0.0
 10
102.3462076567051
 20
105.6841606723637
 30
0.0
 10
104.8142740623381
 20
106.1909342182439
 30
0.0
 10
108.0168348254264
 20
105.9177381462636
 30
0.0
 10
109.4996039222779
 20
105.0736897523774
 30
0.0
 10
109.6405083276246
 20
104.9937635371196
 30
0.0
 10
109.7610866696083
 20
104.9110812454736
 30
0.0
 10
109.8616834577776
 20
104.8259873869879
 30
0.0
 10
110.2723388396194
 20
104.4566731509692
 30
0.0
 10
110.3064452849234
 20
104.4267008202475
 30
0.0
 10
110.5744737136758
 20
104.1255994748367
 30
0.0
 10
110.7622314176219
 20
103.9144151215908
 30
0.0
 10
111.0126898593996
 20
103.592987712817
 30
0.0
 10
111.183566595468
 20
103.344251818782
 30
0.0
 10
111.507061061533
 20
102.8719292277543
 30
0.0
 10
111.6775932880528
 20
102.5680718059552
 30
0.0
 10
111.7223795293611
 20
102.4867675525033
 30
0.0
 10
111.8687960874842
 20
102.2190836332994
 30
0.0
 10
112.0555202627847
 20
101.8587266455423
 30
0.0
 10
112.1916015344521
 20
101.585530573562
 30
0.0
 10
112.2629150109968
 20
101.441870091827
 30
0.0
 10
112.3504204363221
 20
101.2454996491678
 30
0.0
 10
112.4134656837022
 20
101.0973605433021
 30
0.0
 10
112.549202445821
 20
100.7742105867856
 30
0.0
 10
112.7538411176449
 20
100.2870740851713
 30
0.0
 10
112.9677815472789
 20
99.62630477110038
 30
0.0
 10
113.1696641427145
 20
99.00308699781868
 30
0.0
 10
113.2551025107487
 20
98.6392849145763
 30
0.0
 10
113.3729247763443
 20
98.13492293553571
 30
0.0
 10
113.5124511434969
 20
97.53995494523308
 30
0.0
 10
113.6533555488436
 20
96.58841957220707
 30
0.0
 10
113.6533555488436
 20
95.80259329202158
 30
0.0
 10
113.6533555488436
 20
96.31970212435758
 30
0.0
 10
113.2564805489428
 20
96.84301212856703
 30
0.0
 10
112.4210448937697
 20
97.31877981508003
 30
0.0
 10
109.9684814178204
 20
98.71473250570327
 30
0.0
 10
104.6719916187973
 20
99.16569550472246
 30
0.0
 10
100.5907592521961
 20
98.32715926361266
 30
0.0
 10
97.89927840434463
 20
97.77456594777858
 30
0.0
 10
96.40858558787703
 20
96.79822588725878
 30
0.0
 10
96.40858558787703
 20
95.79708113924518
 30
0.0
  0
HATCH
  5
6D
330
1F
100
AcDbEntity
  8
\U+30EC\U+30A4\U+30E4\U+30FC 1
 62
     7
420
 16711679
100
AcDbHatch
 10
0.0
 20
0.0
 30
0.0
210
0.0
220
0.0
230
1.0
  2
SOLID
 70
     1
 71
     0
 91
        1
 92
        1
 93
        2
 72
     4
 94
        3
 73
     0
 74
     0
 95
       68
 96
       64
 40
0.0
 40
0.0
 40
0.0
 40
0.0
 40
0.3527777776895833
 40
0.3527777776895833
 40
0.3527777776895833
 40
0.7055555553791667
 40
0.7055555553791667
 40
0.7055555553791667
 40
1.05833333306875
 40
1.05833333306875
 40
1.05833333306875
 40
1.411111110758333
 40
1.411111110758333
 40
1.411111110758333
 40
1.763888888447917
 40
1.763888888447917
 40
1.763888888447917
 40
2.1166666661375
 40
2.1166666661375
 40
2.1166666661375
 40
2.469444443827083
 40
2.469444443827083
 40
2.469444443827083
 40
2.822222221516667
 40
2.822222221516667
 40
2.822222221516667
 40
3.17499999920625
 40
3.17499999920625
 40
3.17499999920625
 40
3.527777776895833
 40
3.527777776895833
 40
3.527777776895833
 40
3.880555554585417
 40
3.880555554585417
 40
3.880555554585417
 40
4.233333332275
 40
4.233333332275
 40
4.233333332275
 40
4.586111109964584
 40
4.586111109964584
 40
4.586111109964584
 40
4.938888887654167
 40
4.938888887654167
 40
4.938888887654167
 40
5.29166666534375
 40
5.29166666534375
 40
5.29166666534375
 40
5.644444443033334
 40
5.644444443033334
 40
5.644444443033334
 40
5.997222220722917
 40
5.997222220722917
 40
5.997222220722917
 40
6.349999998412501
 40
6.349999998412501
 40
6.349999998412501
 40
6.702777776102083
 40
6.702777776102083
 40
6.702777776102083
 40
7.055555553791667
 40
7.055555553791667
 40
7.055555553791667
 40
7.40833333148125
 40
7.40833333148125
 40
7.40833333148125
 40
7.40833333148125
 10
96.40858558787703
 20
95.79708113924518
 10
96.42116018639818
 20
96.27904999763163
 10
96.42546655575475
 20
96.4413139949869
 10
96.45578339602494
 20
96.69383949405571
 10
96.48937307700614
 20
96.973581247458
 10
96.54294431180176
 20
97.34565155986498
 10
96.58773055311002
 20
97.6229817464276
 10
96.61201847628102
 20
97.77284340003597
 10
96.65232609345846
 20
97.9705918808893
 10
96.68643253876242
 20
98.11804196765799
 10
96.78668481738319
 20
98.54661184602307
 10
96.89038219148921
 20
98.9896511254262
 10
97.0907144939565
 20
99.61080184141674
 10
97.30741099997871
 20
100.2808729132978
 10
97.52617456329207
 20
100.8014268411191
 10
97.64330780979057
 20
101.0804795754243
 10
97.75957978241775
 20
101.3564317237928
 10
98.19038897284824
 20
102.3348388416038
 10
98.86097680905212
 20
103.3166910549
 10
99.45404999683788
 20
104.1841660980859
 10
99.99906410260441
 20
104.6533881031769
 10
100.2047363030738
 20
104.8304660111188
 10
100.6150471753671
 20
105.1742865405467
 10
101.3428235966261
 20
105.4774549432487
 10
102.3462076567051
 20
105.6841606723637
 10
104.8142740623381
 20
106.1909342182439
 10
108.0168348254264
 20
105.9177381462636
 10
109.4996039222779
 20
105.0736897523774
 10
109.6405083276246
 20
104.9937635371196
 10
109.7610866696083
 20
104.9110812454736
 10
109.8616834577776
 20
104.8259873869879
 10
110.2723388396194
 20
104.4566731509692
 10
110.3064452849234
 20
104.4267008202475
 10
110.5744737136758
 20
104.1255994748367
 10
110.7622314176219
 20
103.9144151215908
 10
111.0126898593996
 20
103.592987712817
 10
111.183566595468
 20
103.344251818782
 10
111.507061061533
 20
102.8719292277543
 10
111.6775932880528
 20
102.5680718059552
 10
111.7223795293611
 20
102.4867675525033
 10
111.8687960874842
 20
102.2190836332994
 10
112.0555202627847
 20
101.8587266455423
 10
112.1916015344521
 20
101.585530573562
 10
112.2629150109968
 20
101.441870091827
 10
112.3504204363221
 20
101.2454996491678
 10
112.4134656837022
 20
101.0973605433021
 10
112.549202445821
 20
100.7742105867856
 10
112.7538411176449
 20
100.2870740851713
 10
112.9677815472789
 20
99.62630477110038
 10
113.1696641427145
 20
99.00308699781868
 10
113.2551025107487
 20
98.6392849145763
 10
113.3729247763443
 20
98.13492293553571
 10
113.5124511434969
 20
97.53995494523308
 10
113.6533555488436
 20
96.58841957220707
 10
113.6533555488436
 20
95.80259329202158
 10
113.6533555488436
 20
96.31970212435758
 10
113.2564805489428
 20
96.84301212856703
 10
112.4210448937697
 20
97.31877981508003
 10
109.9684814178204
 20
98.71473250570327
 10
104.6719916187973
 20
99.16569550472246
 10
100.5907592521961
 20
98.32715926361266
 10
97.89927840434463
 20
97.77456594777858
 10
96.40858558787703
 20
96.79822588725878
 10
96.40858558787703
 20
95.79708113924518
 72
     1
 10
96.40858558787703
 20
95.79708113924518
 11
96.40858558787703
 21
95.79708113924518
 97
        0
 75
     2
 76
     1
 98
        0
  0
SPLINE
  5
6E
330
1F
100
AcDbEntity
  8
\U+30EC\U+30A4\U+30E4\U+30FC 1
 62
   250
420
  2235935
370
    15
100
AcDbSpline
210
0.0
220
0.0
230
1.0
 70
    11
 71
     3
 72
    68
 73
    64
 74
     0
 42
0.0000000001
 43
0.0000000001
 40
0.0
 40
0.0
 40
0.0
 40
0.0
 40
1.0
 40
1.0
 40
1.0
 40
2.0
 40
2.0
 40
2.0
 40
3.0
 40
3.0
 40
3.0
 40
4.0
 40
4.0
 40
4.0
 40
5.0
 40
5.0
 40
5.0
 40
6.0
 40
6.0
 40
6.0
 40
7.0
 40
7.0
 40
7.0
 40
8.0
 40
8.0
 40
8.0
 40
9.0
 40
9.0
 40
9.0
 40
10.0
 40
10.0
 40
10.0
 40
11.0
 40
11.0
 40
11.0
 40
12.0
 40
12.0
 40
12.0
 40
13.0
 40
13.0
 40
13.0
 40
14.0
 40
14.0
 40
14.0
 40
15.0
 40
15.0
 40
15.0
 40
16.0
 40
16.0
 40
16.0
 40
17.0
 40
17.0
 40
17.0
 40
18.0
 40
18.0
 40
18.0
 40
19.0
 40
19.0
 40
19.0
 40
20.0
 40
20.0
 40
20.0
 40
21.0
 40
21.0
 40
21.0
 40
21.0
 10
96.40858558787703
 20
95.79708113924518
 30
0.0
 10
96.42116018639818
 20
96.27904999763163
 30
0.0
 10
96.42546655575475
 20
96.4413139949869
 30
0.0
 10
96.45578339602494
 20
96.69383949405571
 30
0.0
 10
96.48937307700614
 20
96.973581247458
 30
0.0
 10
96.54294431180176
 20
97.34565155986498
 30
0.0
 10
96.58773055311002
 20
97.6229817464276
 30
0.0
 10
96.61201847628102
 20
97.77284340003597
 30
0.0
 10
96.65232609345846
 20
97.9705918808893
 30
0.0
 10
96.68643253876242
 20
98.11804196765799
 30
0.0
 10
96.78668481738319
 20
98.54661184602307
 30
0.0
 10
96.89038219148921
 20
98.9896511254262
 30
0.0
 10
97.0907144939565
 20
99.61080184141674
 30
0.0
 10
97.30741099997871
 20
100.2808729132978
 30
0.0
 10
97.52617456329207
 20
100.8014268411191
 30
0.0
 10
97.64330780979057
 20
101.0804795754243
 30
0.0
 10
97.75957978241775
 20
101.3564317237928
 30
0.0
 10
98.19038897284824
 20
102.3348388416038
 30
0.0
 10
98.86097680905212
 20
103.3166910549
 30
0.0
 10
99.45404999683788
 20
104.1841660980859
 30
0.0
 10
99.99906410260441
 20
104.6533881031769
 30
0.0
 10
100.2047363030738
 20
104.8304660111188
 30
0.0
 10
100.6150471753671
 20
105.1742865405467
 30
0.0
 10
101.3428235966261
 20
105.4774549432487
 30
0.0
 10
102.3462076567051
 20
105.6841606723637
 30
0.0
 10
104.8142740623381
 20
106.1909342182439
 30
0.0
 10
108.0168348254264
 20
105.9177381462636
 30
0.0
 10
109.4996039222779
 20
105.0736897523774
 30
0.0
 10
109.6405083276246
 20
104.9937635371196
 30
0.0
 10
109.7610866696083
 20
104.9110812454736
 30
0.0
 10
109.8616834577776
 20
104.8259873869879
 30
0.0
 10
110.2723388396194
 20
104.4566731509692
 30
0.0
 10
110.3064452849234
 20
104.4267008202475
 30
0.0
 10
110.5744737136758
 20
104.1255994748367
 30
0.0
 10
110.7622314176219
 20
103.9144151215908
 30
0.0
 10
111.0126898593996
 20
103.592987712817
 30
0.0
 10
111.183566595468
 20
103.344251818782
 30
0.0
 10
111.507061061533
 20
102.8719292277543
 30
0.0
 10
111.6775932880528
 20
102.5680718059552
 30
0.0
 10
111.7223795293611
 20
102.4867675525033
 30
0.0
 10
111.8687960874842
 20
102.2190836332994
 30
0.0
 10
112.0555202627847
 20
101.8587266455423
 30
0.0
 10
112.1916015344521
 20
101.585530573562
 30
0.0
 10
112.2629150109968
 20
101.441870091827
 30
0.0
 10
112.3504204363221
 20
101.2454996491678
 30
0.0
 10
112.4134656837022
 20
101.0973605433021
 30
0.0
 10
112.549202445821
 20
100.7742105867856
 30
0.0
 10
112.7538411176449
 20
100.2870740851713
 30
0.0
 10
112.9677815472789
 20
99.62630477110038
 30
0.0
 10
113.1696641427145
 20
99.00308699781868
 30
0.0
 10
113.2551025107487
 20
98.6392849145763
 30
0.0
 10
113.3729247763443
 20
98.13492293553571
 30
0.0
 10
113.5124511434969
 20
97.53995494523308
 30
0.0
 10
113.6533555488436
 20
96.58841957220707
 30
0.0
 10
113.6533555488436
 20
95.80259329202158
 30
0.0
 10
113.6533555488436
 20
96.31970212435758
 30
0.0
 10
113.2564805489428
 20
96.84301212856703
 30
0.0
 10
112.4210448937697
 20
97.31877981508003
 30
0.0
 10
109.9684814178204
 20
98.71473250570327
 30
0.0
 10
104.6719916187973
 20
99.16569550472246
 30
0.0
 10
100.5907592521961
 20
98.32715926361266
 30
0.0
 10
97.89927840434463
 20
97.77456594777858
 30
0.0
 10
96.40858558787703
 20
96.79822588725878
 30
0.0
 10
96.40858558787703
 20
95.79708113924518
 30
0.0
  0
SPLINE
  5
6F
330
1F
100
AcDbEntity
  8
\U+30EC\U+30A4\U+30E4\U+30FC 1
370
     0
100
AcDbSpline
210
0.0
220
0.0
230
1.0
 70
    11
 71
     3
 72
    38
 73
    34
 74
     0
 42
0.0000000001
 43
0.0000000001
 40
0.0
 40
0.0
 40
0.0
 40
0.0
 40
1.0
 40
1.0
 40
1.0
 40
2.0
 40
2.0
 40
2.0
 40
3.0
 40
3.0
 40
3.0
 40
4.0
 40
4.0
 40
4.0
 40
5.0
 40
5.0
 40
5.0
 40
6.0
 40
6.0
 40
6.0
 40
7.0
 40
7.0
 40
7.0
 40
8.0
 40
8.0
 40
8.0
 40
9.0
 40
9.0
 40
9.0
 40
10.0
 40
10.0
 40
10.0
 40
11.0
 40
11.0
 40
11.0
 40
11.0
 10
90.93450111658929
 20
96.95049910770682
 30
0.0
 10
91.80645478390603
 20
98.200724259304
 30
0.0
 10
94.09141436449798
 20
99.33484969304824
 30
0.0
 10
97.56768796388933
 20
100.0490179871405
 30
0.0
 10
104.4292846418614
 20
101.4587510597048
 30
0.0
 10
113.3336506878124
 20
100.7004855434013
 30
0.0
 10
117.4560519454624
 20
98.35299747975203
 30
0.0
 10
118.2425672447449
 20
97.90582408576661
 30
0.0
 10
118.7982611465157
 20
97.43212345654476
 30
0.0
 10
119.1355359945217
 20
96.95049910770682
 30
0.0
 10
128.3969861875188
 20
80.91426864296588
 30
0.0
 10
130.2060058268235
 20
60.33912487640828
 30
0.0
 10
122.4428276603615
 20
41.95058321433874
 30
0.0
 10
122.3122585414706
 20
41.69805771526993
 30
0.0
 10
122.1406927863051
 20
41.35802679087578
 30
0.0
 10
121.9915201517938
 20
41.11549206871418
 30
0.0
 10
121.808585581527
 20
40.8178358187886
 30
0.0
 10
121.5474473437451
 20
40.43129610534357
 30
0.0
 10
121.3362629904993
 20
40.1532768996839
 30
0.0
 10
122.5044948695475
 20
41.62123208594886
 30
0.0
 10
121.9884195658571
 20
43.24387205950153
 30
0.0
 10
119.5172525742874
 20
44.65016003658052
 30
0.0
 10
114.7106553532668
 20
47.38625487096594
 30
0.0
 10
104.3286878536921
 20
48.27164441067514
 30
0.0
 10
96.32952064649054
 20
46.6273003355654
 30
0.0
 10
89.69581703486772
 20
45.26442056160057
 30
0.0
 10
86.7833333116375
 20
42.58999293640112
 30
0.0
 10
88.72257756028463
 20
40.15637748562063
 30
0.0
 10
88.41837562893707
 20
40.58563638308276
 30
0.0
 10
88.02012259084219
 20
41.16647948189588
 30
0.0
 10
87.77965492597176
 20
41.63328992014723
 30
0.0
 10
80.01630450473552
 20
60.02148707266824
 30
0.0
 10
81.67270641404363
 20
80.9146131525144
 30
0.0
 10
90.93450111658929
 20
96.95049910770682
 30
0.0
  0
HATCH
  5
70
330
1F
100
AcDbEntity
  8
\U+30EC\U+30A4\U+30E4\U+30FC 1
 62
     7
420
 16711679
100
AcDbHatch
 10
0.0
 20
0.0
 30
0.0
210
0.0
220
0.0
230
1.0
  2
SOLID
 70
     1
 71
     0
 91
        1
 92
        1
 93
        2
 72
     4
 94
        3
 73
     0
 74
     0
 95
       38
 96
       34
 40
0.0
 40
0.0
 40
0.0
 40
0.0
 40
0.3527777776895833
 40
0.3527777776895833
 40
0.3527777776895833
 40
0.7055555553791667
 40
0.7055555553791667
 40
0.7055555553791667
 40
1.05833333306875
 40
1.05833333306875
 40
1.05833333306875
 40
1.411111110758333
 40
1.411111110758333
 40
1.411111110758333
 40
1.763888888447917
 40
1.763888888447917
 40
1.763888888447917
 40
2.1166666661375
 40
2.1166666661375
 40
2.1166666661375
 40
2.469444443827083
 40
2.469444443827083
 40
2.469444443827083
 40
2.822222221516667
 40
2.822222221516667
 40
2.822222221516667
 40
3.17499999920625
 40
3.17499999920625
 40
3.17499999920625
 40
3.527777776895833
 40
3.527777776895833
 40
3.527777776895833
 40
3.880555554585417
 40
3.880555554585417
 40
3.880555554585417
 40
3.880555554585417
 10
90.93450111658929
 20
96.95049910770682
 10
91.80645478390603
 20
98.200724259304
 10
94.09141436449798
 20
99.33484969304824
 10
97.56768796388933
 20
100.0490179871405
 10
104.4292846418614
 20
101.4587510597048
 10
113.3336506878124
 20
100.7004855434013
 10
117.4560519454624
 20
98.35299747975203
 10
118.2425672447449
 20
97.90582408576661
 10
118.7982611465157
 20
97.43212345654476
 10
119.1355359945217
 20
96.95049910770682
 10
128.3969861875188
 20
80.91426864296588
 10
130.2060058268235
 20
60.33912487640828
 10
122.4428276603615
 20
41.95058321433874
 10
122.3122585414706
 20
41.69805771526993
 10
122.1406927863051
 20
41.35802679087578
 10
121.9915201517938
 20
41.11549206871418
 10
121.808585581527
 20
40.8178358187886
 10
121.5474473437451
 20
40.43129610534357
 10
121.3362629904993
 20
40.1532768996839
 10
122.5044948695475
 20
41.62123208594886
 10
121.9884195658571
 20
43.24387205950153
 10
119.5172525742874
 20
44.65016003658052
 10
114.7106553532668
 20
47.38625487096594
 10
104.3286878536921
 20
48.27164441067514
 10
96.32952064649054
 20
46.6273003355654
 10
89.69581703486772
 20
45.26442056160057
 10
86.7833333116375
 20
42.58999293640112
 10
88.72257756028463
 20
40.15637748562063
 10
88.41837562893707
 20
40.58563638308276
 10
88.02012259084219
 20
41.16647948189588
 10
87.77965492597176
 20
41.63328992014723
 10
80.01630450473552
 20
60.02148707266824
 10
81.67270641404363
 20
80.9146131525144
 10
90.93450111658929
 20
96.95049910770682
 72
     1
 10
90.93450111658929
 20
96.95049910770682
 11
90.93450111658929
 21
96.95049910770682
 97
        0
 75
     2
 76
     1
 98
        0
  0
SPLINE
  5
71
330
1F
100
AcDbEntity
  8
\U+30EC\U+30A4\U+30E4\U+30FC 1
 62
   250
420
  2235935
370
    15
100
AcDbSpline
210
0.0
220
0.0
230
1.0
 70
    11
 71
     3
 72
    38
 73
    34
 74
     0
 42
0.0000000001
 43
0.0000000001
 40
0.0
 40
0.0
 40
0.0
 40
0.0
 40
1.0
 40
1.0
 40
1.0
 40
2.0
 40
2.0
 40
2.0
 40
3.0
 40
3.0
 40
3.0
 40
4.0
 40
4.0
 40
4.0
 40
5.0
 40
5.0
 40
5.0
 40
6.0
 40
6.0
 40
6.0
 40
7.0
 40
7.0
 40
7.0
 40
8.0
 40
8.0
 40
8.0
 40
9.0
 40
9.0
 40
9.0
 40
10.0
 40
10.0
 40
10.0
 40
11.0
 40
11.0
 40
11.0
 40
11.0
 10
90.93450111658929
 20
96.95049910770682
 30
0.0
 10
91.80645478390603
 20
98.200724259304
 30
0.0
 10
94.09141436449798
 20
99.33484969304824
 30
0.0
 10
97.56768796388933
 20
100.0490179871405
 30
0.0
 10
104.4292846418614
 20
101.4587510597048
 30
0.0
 10
113.3336506878124
 20
100.7004855434013
 30
0.0
 10
117.4560519454624
 20
98.35299747975203
 30
0.0
 10
118.2425672447449
 20
97.90582408576661
 30
0.0
 10
118.7982611465157
 20
97.43212345654476
 30
0.0
 10
119.1355359945217
 20
96.95049910770682
 30
0.0
 10
128.3969861875188
 20
80.91426864296588
 30
0.0
 10
130.2060058268235
 20
60.33912487640828
 30
0.0
 10
122.4428276603615
 20
41.95058321433874
 30
0.0
 10
122.3122585414706
 20
41.69805771526993
 30
0.0
 10
122.1406927863051
 20
41.35802679087578
 30
0.0
 10
121.9915201517938
 20
41.11549206871418
 30
0.0
 10
121.808585581527
 20
40.8178358187886
 30
0.0
 10
121.5474473437451
 20
40.43129610534357
 30
0.0
 10
121.3362629904993
 20
40.1532768996839
 30
0.0
 10
122.5044948695475
 20
41.62123208594886
 30
0.0
 10
121.9884195658571
 20
43.24387205950153
 30
0.0
 10
119.5172525742874
 20
44.65016003658052
 30
0.0
 10
114.7106553532668
 20
47.38625487096594
 30
0.0
 10
104.3286878536921
 20
48.27164441067514
 30
0.0
 10
96.32952064649054
 20
46.6273003355654
 30
0.0
 10
89.69581703486772
 20
45.26442056160057
 30
0.0
 10
86.7833333116375
 20
42.58999293640112
 30
0.0
 10
88.72257756028463
 20
40.15637748562063
 30
0.0
 10
88.41837562893707
 20
40.58563638308276
 30
0.0
 10
88.02012259084219
 20
41.16647948189588
 30
0.0
 10
87.77965492597176
 20
41.63328992014723
 30
0.0
 10
80.01630450473552
 20
60.02148707266824
 30
0.0
 10
81.67270641404363
 20
80.9146131525144
 30
0.0
 10
90.93450111658929
 20
96.95049910770682
 30
0.0
  0
SPLINE
  5
72
330
1F
100
AcDbEntity
  8
\U+30EC\U+30A4\U+30E4\U+30FC 1
 62
   250
420
  2235935
370
     9
100
AcDbSpline
210
0.0
220
0.0
230
1.0
 70
     8
 71
     3
 72
     8
 73
     4
 74
     0
 42
0.0000000001
 43
0.0000000001
 40
0.0
 40
0.0
 40
0.0
 40
0.0
 40
1.0
 40
1.0
 40
1.0
 40
1.0
 10
94.06781546042403
 20
98.99998641188195
 30
0.0
 10
87.02776283631599
 20
83.32893606857749
 30
0.0
 10
85.65403101157261
 20
63.05248208059105
 30
0.0
 10
91.23077932832078
 20
44.97606606948515
 30
0.0
  0
SPLINE
  5
73
330
1F
100
AcDbEntity
  8
\U+30EC\U+30A4\U+30E4\U+30FC 1
 62
   250
420
  2235935
370
     9
100
AcDbSpline
210
0.0
220
0.0
230
1.0
 70
     8
 71
     3
 72
     8
 73
     4
 74
     0
 42
0.0000000001
 43
0.0000000001
 40
0.0
 40
0.0
 40
0.0
 40
0.0
 40
1.0
 40
1.0
 40
1.0
 40
1.0
 10
97.20078529471023
 20
99.99079587343981
 30
0.0
 10
92.20694713406633
 20
84.42723250927514
 30
0.0
 10
91.22475041122159
 20
64.35472817401549
 30
0.0
 10
95.11495223316571
 20
46.37477483649658
 30
0.0
  0
SPLINE
  5
74
330
1F
100
AcDbEntity
  8
\U+30EC\U+30A4\U+30E4\U+30FC 1
 62
   250
420
  2235935
370
     9
100
AcDbSpline
210
0.0
220
0.0
230
1.0
 70
     8
 71
     3
 72
     8
 73
     4
 74
     0
 42
0.0000000001
 43
0.0000000001
 40
0.0
 40
0.0
 40
0.0
 40
0.0
 40
1.0
 40
1.0
 40
1.0
 40
1.0
 10
100.3342718933192
 20
100.4379692674252
 30
0.0
 10
97.35185273173843
 20
84.94675290845082
 30
0.0
 10
96.78323972189794
 20
65.0223876790569
 30
0.0
 10
99.08077390101106
 20
47.10892468440333
 30
0.0
  0
SPLINE
  5
75
330
1F
100
AcDbEntity
  8
\U+30EC\U+30A4\U+30E4\U+30FC 1
 62
   250
420
  2235935
370
     9
100
AcDbSpline
210
0.0
220
0.0
230
1.0
 70
     8
 71
     3
 72
     8
 73
     4
 74
     0
 42
0.0000000001
 43
0.0000000001
 40
0.0
 40
0.0
 40
0.0
 40
0.0
 40
1.0
 40
1.0
 40
1.0
 40
1.0
 10
103.4679307467025
 20
100.6935953524308
 30
0.0
 10
102.4745374635307
 20
85.2168483944944
 30
0.0
 10
102.3320827652156
 20
65.34829371196155
 30
0.0
 10
103.0989610202322
 20
47.45033364699159
 30
0.0
  0
SPLINE
  5
76
330
1F
100
AcDbEntity
  8
\U+30EC\U+30A4\U+30E4\U+30FC 1
 62
   250
420
  2235935
370
     9
100
AcDbSpline
210
0.0
220
0.0
230
1.0
 70
     8
 71
     3
 72
     8
 73
     4
 74
     0
 42
0.0000000001
 43
0.0000000001
 40
0.0
 40
0.0
 40
0.0
 40
0.0
 40
1.0
 40
1.0
 40
1.0
 40
1.0
 10
106.6005560714401
 20
100.6935953524308
 30
0.0
 10
107.5954996475803
 20
85.19307723564619
 30
0.0
 10
107.8800645346619
 20
65.31935490988545
 30
0.0
 10
107.1190429419702
 20
47.40279132929514
 30
0.0
  0
SPLINE
  5
77
330
1F
100
AcDbEntity
  8
\U+30EC\U+30A4\U+30E4\U+30FC 1
 62
   250
420
  2235935
370
     9
100
AcDbSpline
210
0.0
220
0.0
230
1.0
 70
     8
 71
     3
 72
     8
 73
     4
 74
     0
 42
0.0000000001
 43
0.0000000001
 40
0.0
 40
0.0
 40
0.0
 40
0.0
 40
1.0
 40
1.0
 40
1.0
 40
1.0
 10
109.7342149248234
 20
100.4379692674252
 30
0.0
 10
112.7235242773747
 20
84.91436901088947
 30
0.0
 10
113.4314913995935
 20
65.0389241373861
 30
0.0
 10
111.1260335008643
 20
47.10272351252988
 30
0.0
  0
SPLINE
  5
78
330
1F
100
AcDbEntity
  8
\U+30EC\U+30A4\U+30E4\U+30FC 1
 62
   250
420
  2235935
370
     9
100
AcDbSpline
210
0.0
220
0.0
230
1.0
 70
     8
 71
     3
 72
     8
 73
     4
 74
     0
 42
0.0000000001
 43
0.0000000001
 40
0.0
 40
0.0
 40
0.0
 40
0.0
 40
1.0
 40
1.0
 40
1.0
 40
1.0
 10
112.8682182877552
 20
99.99079587343981
 30
0.0
 10
117.8815212378907
 20
84.3659098096377
 30
0.0
 10
118.9970431560146
 20
64.36437444137418
 30
0.0
 10
115.0613660736652
 20
46.33997937209556
 30
0.0
  0
SPLINE
  5
79
330
1F
100
AcDbEntity
  8
\U+30EC\U+30A4\U+30E4\U+30FC 1
 62
   250
420
  2235935
370
     9
100
AcDbSpline
210
0.0
220
0.0
230
1.0
 70
     8
 71
     3
 72
     8
 73
     4
 74
     0
 42
0.0000000001
 43
0.0000000001
 40
0.0
 40
0.0
 40
0.0
 40
0.0
 40
1.0
 40
1.0
 40
1.0
 40
1.0
 10
116.0018771411384
 20
98.99998641188195
 30
0.0
 10
123.0743136628078
 20
83.25555553474167
 30
0.0
 10
124.5756862752797
 20
63.1014024364816
 30
0.0
 10
118.9133273357231
 20
44.96952038806318
 30
0.0
  0
SPLINE
  5
7A
330
1F
100
AcDbEntity
  8
\U+30EC\U+30A4\U+30E4\U+30FC 1
370
     0
100
AcDbSpline
210
0.0
220
0.0
230
1.0
 70
    11
 71
     3
 72
    17
 73
    13
 74
     0
 42
0.0000000001
 43
0.0000000001
 40
0.0
 40
0.0
 40
0.0
 40
0.0
 40
1.0
 40
1.0
 40
1.0
 40
2.0
 40
2.0
 40
2.0
 40
3.0
 40
3.0
 40
3.0
 40
4.0
 40
4.0
 40
4.0
 40
4.0
 10
90.54813365791853
 20
38.69669052852027
 30
0.0
 10
85.74119192734943
 20
41.43312987245422
 30
0.0
 10
88.32983667496616
 20
44.9836452795527
 30
0.0
 10
96.32952064649054
 20
46.6273003355654
 30
0.0
 10
104.3286878536921
 20
48.27164441067514
 30
0.0
 10
114.7106553532668
 20
47.38625487096594
 30
0.0
 10
119.5172525742874
 20
44.65016003658052
 30
0.0
 10
124.3238497953079
 20
41.9140652021951
 30
0.0
 10
121.7355495572397
 20
38.36354979509662
 30
0.0
 10
113.7360378404896
 20
36.71955022953539
 30
0.0
 10
105.736181614191
 20
35.07555066397417
 30
0.0
 10
95.35438636939057
 20
35.96059569413485
 30
0.0
 10
90.54813365791853
 20
38.69669052852027
 30
0.0
  0
HATCH
  5
7B
330
1F
100
AcDbEntity
  8
\U+30EC\U+30A4\U+30E4\U+30FC 1
 62
     7
420
 16711679
100
AcDbHatch
 10
0.0
 20
0.0
 30
0.0
210
0.0
220
0.0
230
1.0
  2
SOLID
 70
     1
 71
     0
 91
        1
 92
        1
 93
        2
 72
     4
 94
        3
 73
     0
 74
     0
 95
       17
 96
       13
 40
0.0
 40
0.0
 40
0.0
 40
0.0
 40
0.3527777776895833
 40
0.3527777776895833
 40
0.3527777776895833
 40
0.7055555553791667
 40
0.7055555553791667
 40
0.7055555553791667
 40
1.05833333306875
 40
1.05833333306875
 40
1.05833333306875
 40
1.411111110758333
 40
1.411111110758333
 40
1.411111110758333
 40
1.411111110758333
 10
90.54813365791853
 20
38.69669052852027
 10
85.74119192734943
 20
41.43312987245422
 10
88.32983667496616
 20
44.9836452795527
 10
96.32952064649054
 20
46.6273003355654
 10
104.3286878536921
 20
48.27164441067514
 10
114.7106553532668
 20
47.38625487096594
 10
119.5172525742874
 20
44.65016003658052
 10
124.3238497953079
 20
41.9140652021951
 10
121.7355495572397
 20
38.36354979509662
 10
113.7360378404896
 20
36.71955022953539
 10
105.736181614191
 20
35.07555066397417
 10
95.35438636939057
 20
35.96059569413485
 10
90.54813365791853
 20
38.69669052852027
 72
     1
 10
90.54813365791853
 20
38.69669052852027
 11
90.54813365791853
 21
38.69669052852027
 97
        0
 75
     2
 76
     1
 98
        0
  0
SPLINE
  5
7C
330
1F
100
AcDbEntity
  8
\U+30EC\U+30A4\U+30E4\U+30FC 1
 62
   250
420
  2235935
370
    15
100
AcDbSpline
210
0.0
220
0.0
230
1.0
 70
    11
 71
     3
 72
    17
 73
    13
 74
     0
 42
0.0000000001
 43
0.0000000001
 40
0.0
 40
0.0
 40
0.0
 40
0.0
 40
1.0
 40
1.0
 40
1.0
 40
2.0
 40
2.0
 40
2.0
 40
3.0
 40
3.0
 40
3.0
 40
4.0
 40
4.0
 40
4.0
 40
4.0
 10
90.54813365791853
 20
38.69669052852027
 30
0.0
 10
85.74119192734943
 20
41.43312987245422
 30
0.0
 10
88.32983667496616
 20
44.9836452795527
 30
0.0
 10
96.32952064649054
 20
46.6273003355654
 30
0.0
 10
104.3286878536921
 20
48.27164441067514
 30
0.0
 10
114.7106553532668
 20
47.38625487096594
 30
0.0
 10
119.5172525742874
 20
44.65016003658052
 30
0.0
 10
124.3238497953079
 20
41.9140652021951
 30
0.0
 10
121.7355495572397
 20
38.36354979509662
 30
0.0
 10
113.7360378404896
 20
36.71955022953539
 30
0.0
 10
105.736181614191
 20
35.07555066397417
 30
0.0
 10
95.35438636939057
 20
35.96059569413485
 30
0.0
 10
90.54813365791853
 20
38.69669052852027
 30
0.0
  0
SPLINE
  5
7D
330
1F
100
AcDbEntity
  8
\U+30EC\U+30A4\U+30E4\U+30FC 1
 62
   250
420
  2235935
370
    15
100
AcDbSpline
210
0.0
220
0.0
230
1.0
 70
    11
 71
     3
 72
    17
 73
    13
 74
     0
 42
0.0000000001
 43
0.0000000001
 40
0.0
 40
0.0
 40
0.0
 40
0.0
 40
1.0
 40
1.0
 40
1.0
 40
2.0
 40
2.0
 40
2.0
 40
3.0
 40
3.0
 40
3.0
 40
4.0
 40
4.0
 40
4.0
 40
4.0
 10
91.9962795451433
 20
38.99469128799439
 30
0.0
 10
87.67096216341213
 20
41.45690103130244
 30
0.0
 10
90.0003634757638
 20
44.65291611296872
 30
0.0
 10
97.19975176606465
 20
46.13189560478647
 30
0.0
 10
104.3993123111398
 20
47.61156411570128
 30
0.0
 10
113.7422390123631
 20
46.81505803951151
 30
0.0
 10
118.0685899227398
 20
44.35215927710641
 30
0.0
 10
122.394596323568
 20
41.89029404334687
 30
0.0
 10
120.0646782468936
 20
38.69462347122912
 30
0.0
 10
112.8651177018184
 20
37.21495496031432
 30
0.0
 10
105.6659016662919
 20
35.73563095894804
 30
0.0
 10
96.3228027102943
 20
36.5321370351378
 30
0.0
 10
91.9962795451433
 20
38.99469128799439
 30
0.0
  0
ENDSEC
  0
SECTION
  2
OBJECTS
  0
DICTIONARY
  5
C
330
0
100
AcDbDictionary
281
     1
  3
ACAD_GROUP
350
D
  3
ACAD_LAYOUT
350
1A
  3
ACAD_MLINESTYLE
350
17
  3
ACAD_PLOTSETTINGS
350
19
  3
ACAD_PLOTSTYLENAME
350
E
  3
ACAD_TABLESTYLE
350
7E
  3
ACAD_VISUALSTYLE
350
2A
  0
DICTIONARY
  5
D
102
{ACAD_REACTORS
330
C
102
}
330
C
100
AcDbDictionary
281
     1
  0
DICTIONARY
  5
1A
102
{ACAD_REACTORS
330
C
102
}
330
C
100
AcDbDictionary
281
     1
  3
Layout1
350
1E
  3
Layout2
350
26
  3
Model
350
22
  0
DICTIONARY
  5
17
102
{ACAD_REACTORS
330
C
102
}
330
C
100
AcDbDictionary
281
     1
  3
Standard
350
18
  0
DICTIONARY
  5
19
102
{ACAD_REACTORS
330
C
102
}
330
C
100
AcDbDictionary
281
     1
  0
ACDBDICTIONARYWDFLT
  5
E
102
{ACAD_REACTORS
330
C
102
}
330
C
100
AcDbDictionary
281
     1
  3
Normal
350
F
100
AcDbDictionaryWithDefault
340
F
  0
DICTIONARY
  5
7E
102
{ACAD_REACTORS
330
C
102
}
330
C
100
AcDbDictionary
281
     1
  0
DICTIONARY
  5
2A
102
{ACAD_REACTORS
330
C
102
}
330
C
100
AcDbDictionary
281
     1
  3
2dWireframe
350
2F
  3
3D Hidden
350
31
  3
3dWireframe
350
30
  3
Basic
350
32
  3
Brighten
350
36
  3
ColorChange
350
3A
  3
Conceptual
350
34
  3
Dim
350
35
  3
Facepattern
350
39
  3
Flat
350
2B
  3
FlatWithEdges
350
2C
  3
Gouraud
350
2D
  3
GouraudWithEdges
350
2E
  3
Linepattern
350
38
  3
Realistic
350
33
  3
Thicken
350
37
  0
LAYOUT
  5
1E
102
{ACAD_REACTORS
330
1A
102
}
330
1A
100
AcDbPlotSettings
  1

  2
none_device
  4

  6

 40
0.0
 41
0.0
 42
0.0
 43
0.0
 44
0.0
 45
0.0
 46
0.0
 47
0.0
 48
0.0
 49
0.0
140
0.0
141
0.0
142
1.0
143
1.0
 70
   688
 72
     0
 73
     0
 74
     5
  7

 75
    16
 76
     0
 77
     2
 78
   300
147
1.0
148
0.0
149
0.0
100
AcDbLayout
  1
Layout1
 70
     1
 71
     1
 10
0.0
 20
0.0
 11
12.0
 21
9.0
 12
0.0
 22
0.0
 32
0.0
 14
1.000000000000000E+20
 24
1.000000000000000E+20
 34
1.000000000000000E+20
 15
-1.000000000000000E+20
 25
-1.000000000000000E+20
 35
-1.000000000000000E+20
146
0.0
 13
0.0
 23
0.0
 33
0.0
 16
1.0
 26
0.0
 36
0.0
 17
0.0
 27
1.0
 37
0.0
 76
     0
330
1B
  0
LAYOUT
  5
26
102
{ACAD_REACTORS
330
1A
102
}
330
1A
100
AcDbPlotSettings
  1

  2
none_device
  4

  6

 40
0.0
 41
0.0
 42
0.0
 43
0.0
 44
0.0
 45
0.0
 46
0.0
 47
0.0
 48
0.0
 49
0.0
140
0.0
141
0.0
142
1.0
143
1.0
 70
   688
 72
     0
 73
     0
 74
     5
  7

 75
    16
 76
     0
 77
     2
 78
   300
147
1.0
148
0.0
149
0.0
100
AcDbLayout
  1
Layout2
 70
     1
 71
     2
 10
0.0
 20
0.0
 11
0.0
 21
0.0
 12
0.0
 22
0.0
 32
0.0
 14
0.0
 24
0.0
 34
0.0
 15
0.0
 25
0.0
 35
0.0
146
0.0
 13
0.0
 23
0.0
 33
0.0
 16
1.0
 26
0.0
 36
0.0
 17
0.0
 27
1.0
 37
0.0
 76
     0
330
23
  0
LAYOUT
  5
22
102
{ACAD_REACTORS
330
1A
102
}
330
1A
100
AcDbPlotSettings
  1

  2
none_device
  4

  6

 40
0.0
 41
0.0
 42
0.0
 43
0.0
 44
0.0
 45
0.0
 46
0.0
 47
0.0
 48
0.0
 49
0.0
140
0.0
141
0.0
142
1.0
143
1.0
 70
  1712
 72
     0
 73
     0
 74
     0
  7

 75
     0
 76
     0
 77
     2
 78
   300
147
1.0
148
0.0
149
0.0
100
AcDbLayout
  1
Model
 70
     1
 71
     0
 10
0.0
 20
0.0
 11
12.0
 21
9.0
 12
0.0
 22
0.0
 32
0.0
 14
1.000000000000000E+20
 24
1.000000000000000E+20
 34
1.000000000000000E+20
 15
-1.000000000000000E+20
 25
-1.000000000000000E+20
 35
-1.000000000000000E+20
146
0.0
 13
0.0
 23
0.0
 33
0.0
 16
1.0
 26
0.0
 36
0.0
 17
0.0
 27
1.0
 37
0.0
 76
     0
330
1F
331
29
  0
MLINESTYLE
  5
18
102
{ACAD_REACTORS
330
17
102
}
330
17
100
AcDbMlineStyle
  2
Standard
 70
     0
  3

 62
   256
 51
90.0
 52
90.0
 71
     2
 49
0.5
 62
   256
  6
BYLAYER
 49
-0.5
 62
   256
  6
BYLAYER
  0
ACDBPLACEHOLDER
  5
F
102
{ACAD_REACTORS
330
E
102
}
330
E
  0
VISUALSTYLE
  5
2F
102
{ACAD_REACTORS
330
2A
102
}
330
2A
100
AcDbVisualStyle
  2
2dWireframe
 70
     4
 71
     0
 72
     2
 73
     0
 90
        0
 40
-0.6
 41
-30.0
 62
     5
 63
     7
421
 16777215
 74
     1
 91
        4
 64
     7
 65
   257
 75
     1
175
     1
 42
1.0
 92
        0
 66
   257
 43
1.0
 76
     1
 77
     6
 78
     2
 67
     7
 79
     5
170
     0
171
     0
290
     0
174
     0
 93
        1
 44
0.0
173
     0
291
     0
 45
0.0
1001
ACAD
1000
AcDbSavedByObjectVersion
1070
     0
  0
VISUALSTYLE
  5
31
102
{ACAD_REACTORS
330
2A
102
}
330
2A
100
AcDbVisualStyle
  2
3D Hidden
 70
     6
 71
     1
 72
     2
 73
     2
 90
        0
 40
-0.6
 41
-30.0
 62
     5
 63
     7
421
 16777215
 74
     2
 91
        2
 64
     7
 65
   257
 75
     2
175
     1
 42
40.0
 92
        0
 66
   257
 43
1.0
 76
     1
 77
     6
 78
     2
 67
     7
 79
     3
170
     0
171
     0
290
     0
174
     0
 93
        1
 44
0.0
173
     0
291
     0
 45
0.0
1001
ACAD
1000
AcDbSavedByObjectVersion
1070
     0
  0
VISUALSTYLE
  5
30
102
{ACAD_REACTORS
330
2A
102
}
330
2A
100
AcDbVisualStyle
  2
3dWireframe
 70
     5
 71
     0
 72
     2
 73
     0
 90
        0
 40
-0.6
 41
-30.0
 62
     5
 63
     7
421
 16777215
 74
     1
 91
        4
 64
     7
 65
   257
 75
     1
175
     1
 42
1.0
 92
        0
 66
   257
 43
1.0
 76
     1
 77
     6
 78
     2
 67
     7
 79
     5
170
     0
171
     0
290
     0
174
     0
 93
        1
 44
0.0
173
     0
291
     0
 45
0.0
1001
ACAD
1000
AcDbSavedByObjectVersion
1070
     0
  0
VISUALSTYLE
  5
32
102
{ACAD_REACTORS
330
2A
102
}
330
2A
100
AcDbVisualStyle
  2
Basic
 70
     7
 71
     1
 72
     0
 73
     1
 90
        0
 40
-0.6
 41
-30.0
 62
     5
 63
     7
421
 16777215
 74
     0
 91
        4
 64
     7
 65
   257
 75
     1
175
     1
 42
1.0
 92
        8
 66
     7
 43
1.0
 76
     1
 77
     6
 78
     2
 67
     7
 79
     5
170
     0
171
     0
290
     0
174
     0
 93
        1
 44
0.0
173
     0
291
     1
 45
0.0
1001
ACAD
1000
AcDbSavedByObjectVersion
1070
     0
  0
VISUALSTYLE
  5
36
102
{ACAD_REACTORS
330
2A
102
}
330
2A
100
AcDbVisualStyle
  2
Brighten
 70
    12
 71
     2
 72
     2
 73
     0
 90
        0
 40
-0.6
 41
-30.0
 62
     5
 63
     7
421
 16777215
 74
     1
 91
        4
 64
     7
 65
   257
 75
     1
175
     1
 42
1.0
 92
        8
 66
     7
 43
1.0
 76
     1
 77
     6
 78
     2
 67
     7
 79
     5
170
     0
171
     0
290
     0
174
     0
 93
        1
 44
50.0
173
     0
291
     1
 45
0.0
1001
ACAD
1000
AcDbSavedByObjectVersion
1070
     0
  0
VISUALSTYLE
  5
3A
102
{ACAD_REACTORS
330
2A
102
}
330
2A
100
AcDbVisualStyle
  2
ColorChange
 70
    16
 71
     2
 72
     2
 73
     3
 90
        0
 40
-0.6
 41
-30.0
 62
     5
 63
     8
421
  8421504
 74
     1
 91
        4
 64
     7
 65
   257
 75
     1
175
     1
 42
1.0
 92
        8
 66
     8
424
  8421504
 43
1.0
 76
     1
 77
     6
 78
     2
 67
     7
 79
     5
170
     0
171
     0
290
     0
174
     0
 93
        1
 44
0.0
173
     0
291
     1
 45
0.0
1001
ACAD
1000
AcDbSavedByObjectVersion
1070
     0
  0
VISUALSTYLE
  5
34
102
{ACAD_REACTORS
330
2A
102
}
330
2A
100
AcDbVisualStyle
  2
Conceptual
 70
     9
 71
     3
 72
     2
 73
     0
 90
        0
 40
-0.6
 41
-30.0
 62
     5
 63
     7
421
 16777215
 74
     2
 91
        2
 64
     7
 65
   257
 75
     1
175
     1
 42
40.0
 92
        8
 66
     7
 43
1.0
 76
     1
 77
     6
 78
     2
 67
     7
 79
     3
170
     0
171
     0
290
     0
174
     0
 93
        1
 44
0.0
173
     0
291
     0
 45
0.0
1001
ACAD
1000
AcDbSavedByObjectVersion
1070
     0
  0
VISUALSTYLE
  5
35
102
{ACAD_REACTORS
330
2A
102
}
330
2A
100
AcDbVisualStyle
  2
Dim
 70
    11
 71
     2
 72
     2
 73
     0
 90
        0
 40
-0.6
 41
-30.0
 62
     5
 63
     7
421
 16777215
 74
     1
 91
        4
 64
     7
 65
   257
 75
     1
175
     1
 42
1.0
 92
        8
 66
     7
 43
1.0
 76
     1
 77
     6
 78
     2
 67
     7
 79
     5
170
     0
171
     0
290
     0
174
     0
 93
        1
 44
-50.0
173
     0
291
     1
 45
0.0
1001
ACAD
1000
AcDbSavedByObjectVersion
1070
     0
  0
VISUALSTYLE
  5
39
102
{ACAD_REACTORS
330
2A
102
}
330
2A
100
AcDbVisualStyle
  2
Facepattern
 70
    15
 71
     2
 72
     2
 73
     0
 90
        0
 40
-0.6
 41
-30.0
 62
     5
 63
     7
421
 16777215
 74
     1
 91
        4
 64
     7
 65
   257
 75
     1
175
     1
 42
1.0
 92
        8
 66
     7
 43
1.0
 76
     1
 77
     6
 78
     2
 67
     7
 79
     5
170
     0
171
     0
290
     0
174
     0
 93
        1
 44
0.0
173
     0
291
     1
 45
0.0
1001
ACAD
1000
AcDbSavedByObjectVersion
1070
     0
  0
VISUALSTYLE
  5
2B
102
{ACAD_REACTORS
330
2A
102
}
330
2A
100
AcDbVisualStyle
  2
Flat
 70
     0
 71
     2
 72
     1
 73
     1
 90
        2
 40
-0.6
 41
30.0
 62
     5
 63
     7
421
 16777215
 74
     0
 91
        4
 64
     7
 65
   257
 75
     1
175
     1
 42
1.0
 92
        8
 66
     7
 43
1.0
 76
     1
 77
     6
 78
     2
 67
     7
 79
     5
170
     0
171
     0
290
     0
174
     0
 93
       13
 44
0.0
173
     0
291
     1
 45
0.0
1001
ACAD
1000
AcDbSavedByObjectVersion
1070
     0
  0
VISUALSTYLE
  5
2C
102
{ACAD_REACTORS
330
2A
102
}
330
2A
100
AcDbVisualStyle
  2
FlatWithEdges
 70
     1
 71
     2
 72
     1
 73
     1
 90
        2
 40
-0.6
 41
30.0
 62
     5
 63
     7
421
 16777215
 74
     1
 91
        4
 64
     7
 65
   257
 75
     1
175
     1
 42
1.0
 92
        0
 66
   257
 43
1.0
 76
     1
 77
     6
 78
     2
 67
     7
 79
     5
170
     0
171
     0
290
     0
174
     0
 93
       13
 44
0.0
173
     0
291
     1
 45
0.0
1001
ACAD
1000
AcDbSavedByObjectVersion
1070
     0
  0
VISUALSTYLE
  5
2D
102
{ACAD_REACTORS
330
2A
102
}
330
2A
100
AcDbVisualStyle
  2
Gouraud
 70
     2
 71
     2
 72
     2
 73
     1
 90
        2
 40
-0.6
 41
30.0
 62
     5
 63
     7
421
 16777215
 74
     0
 91
        4
 64
     7
 65
   257
 75
     1
175
     1
 42
1.0
 92
        0
 66
     7
 43
1.0
 76
     1
 77
     6
 78
     2
 67
     7
 79
     5
170
     0
171
     0
290
     0
174
     0
 93
       13
 44
0.0
173
     0
291
     1
 45
0.0
1001
ACAD
1000
AcDbSavedByObjectVersion
1070
     0
  0
VISUALSTYLE
  5
2E
102
{ACAD_REACTORS
330
2A
102
}
330
2A
100
AcDbVisualStyle
  2
GouraudWithEdges
 70
     3
 71
     2
 72
     2
 73
     1
 90
        2
 40
-0.6
 41
30.0
 62
     5
 63
     7
421
 16777215
 74
     1
 91
        4
 64
     7
 65
   257
 75
     1
175
     1
 42
1.0
 92
        0
 66
   257
 43
1.0
 76
     1
 77
     6
 78
     2
 67
     7
 79
     5
170
     0
171
     0
290
     0
174
     0
 93
       13
 44
0.0
173
     0
291
     1
 45
0.0
1001
ACAD
1000
AcDbSavedByObjectVersion
1070
     0
  0
VISUALSTYLE
  5
38
102
{ACAD_REACTORS
330
2A
102
}
330
2A
100
AcDbVisualStyle
  2
Linepattern
 70
    14
 71
     2
 72
     2
 73
     0
 90
        0
 40
-0.6
 41
-30.0
 62
     5
 63
     7
421
 16777215
 74
     1
 91
        4
 64
     7
 65
   257
 75
     7
175
     7
 42
1.0
 92
        8
 66
     7
 43
1.0
 76
     1
 77
     6
 78
     2
 67
     7
 79
     5
170
     0
171
     0
290
     0
174
     0
 93
        1
 44
0.0
173
     0
291
     1
 45
0.0
1001
ACAD
1000
AcDbSavedByObjectVersion
1070
     0
  0
VISUALSTYLE
  5
33
102
{ACAD_REACTORS
330
2A
102
}
330
2A
100
AcDbVisualStyle
  2
Realistic
 70
     8
 71
     2
 72
     2
 73
     0
 90
        0
 40
-0.6
 41
-30.0
 62
     5
 63
     7
421
 16777215
 74
     1
 91
        0
 64
     7
 65
   257
 75
     1
175
     1
 42
1.0
 92
        8
 66
     8
424
  7895160
 43
1.0
 76
     1
 77
     6
 78
     2
 67
     7
 79
     5
170
     0
171
     0
290
     0
174
     0
 93
       13
 44
0.0
173
     0
291
     0
 45
0.0
1001
ACAD
1000
AcDbSavedByObjectVersion
1070
     0
  0
VISUALSTYLE
  5
37
102
{ACAD_REACTORS
330
2A
102
}
330
2A
100
AcDbVisualStyle
  2
Thicken
 70
    13
 71
     2
 72
     2
 73
     0
 90
        0
 40
-0.6
 41
-30.0
 62
     5
 63
     7
421
 16777215
 74
     1
 91
        4
 64
     7
 65
   257
 75
     1
175
     1
 42
1.0
 92
       12
 66
     7
 43
1.0
 76
     1
 77
     6
 78
     2
 67
     7
 79
     5
170
     0
171
     0
290
     0
174
     0
 93
        1
 44
0.0
173
     0
291
     1
 45
0.0
1001
ACAD
1000
AcDbSavedByObjectVersion
1070
     0
  0
ENDSEC
  0
EOF
