  0
SECTION
  2
HEADER
  9
$ACADVER
  1
AC1009
  9
$INSBASE
 10
0.0
 20
0.0
 30
0.0
  9
$EXTMIN
 10
-5.4911413164151339
 20
12.719300922394551
 30
0.0
  9
$EXTMAX
 10
191.64837670697821
 20
233.3126999722152
 30
0.0
  9
$LIMMIN
 10
0.0
 20
0.0
  9
$LIMMAX
 10
12.0
 20
9.0
  9
$ORTHOMODE
 70
     0
  9
$REGENMODE
 70
     1
  9
$FILLMODE
 70
     1
  9
$QTEXTMODE
 70
     0
  9
$MIRRTEXT
 70
     1
  9
$DRAGMODE
 70
     2
  9
$LTSCALE
 40
1.0
  9
$OSMODE
 70
    37
  9
$ATTMODE
 70
     1
  9
$TEXTSIZE
 40
0.2
  9
$TRACEWID
 40
0.05
  9
$TEXTSTYLE
  7
STANDARD
  9
$CLAYER
  8
0
  9
$CELTYPE
  6
BYLAYER
  9
$CECOLOR
 62
   256
  9
$DIMSCALE
 40
1.0
  9
$DIMASZ
 40
0.18
  9
$DIMEXO
 40
0.0625
  9
$DIMDLI
 40
0.38
  9
$DIMRND
 40
0.0
  9
$DIMDLE
 40
0.0
  9
$DIMEXE
 40
0.18
  9
$DIMTP
 40
0.0
  9
$DIMTM
 40
0.0
  9
$DIMTXT
 40
0.18
  9
$DIMCEN
 40
0.09
  9
$DIMTSZ
 40
0.0
  9
$DIMTOL
 70
     0
  9
$DIMLIM
 70
     0
  9
$DIMTIH
 70
     1
  9
$DIMTOH
 70
     1
  9
$DIMSE1
 70
     0
  9
$DIMSE2
 70
     0
  9
$DIMTAD
 70
     0
  9
$DIMZIN
 70
     0
  9
$DIMBLK
  1

  9
$DIMASO
 70
     1
  9
$DIMSHO
 70
     1
  9
$DIMPOST
  1

  9
$DIMAPOST
  1

  9
$DIMALT
 70
     0
  9
$DIMALTD
 70
     2
  9
$DIMALTF
 40
25.399999999999999
  9
$DIMLFAC
 40
1.0
  9
$DIMTOFL
 70
     0
  9
$DIMTVP
 40
0.0
  9
$DIMTIX
 70
     0
  9
$DIMSOXD
 70
     0
  9
$DIMSAH
 70
     0
  9
$DIMBLK1
  1

  9
$DIMBLK2
  1

  9
$DIMSTYLE
  2
STANDARD
  9
$DIMCLRD
 70
     0
  9
$DIMCLRE
 70
     0
  9
$DIMCLRT
 70
     0
  9
$DIMTFAC
 40
1.0
  9
$DIMGAP
 40
0.09
  9
$LUNITS
 70
     2
  9
$LUPREC
 70
     4
  9
$SKETCHINC
 40
0.1
  9
$FILLETRAD
 40
0.5
  9
$AUNITS
 70
     0
  9
$AUPREC
 70
     0
  9
$MENU
  1
.
  9
$ELEVATION
 40
0.0
  9
$PELEVATION
 40
0.0
  9
$THICKNESS
 40
0.0
  9
$LIMCHECK
 70
     0
  9
$BLIPMODE
 70
     0
  9
$CHAMFERA
 40
0.5
  9
$CHAMFERB
 40
0.5
  9
$SKPOLY
 70
     0
  9
$TDCREATE
 40
2455541.6792801968
  9
$TDUPDATE
 40
2456856.3703386462
  9
$TDINDWG
 40
0.0002539005
  9
$TDUSRTIMER
 40
0.0002539005
  9
$USRTIMER
 70
     1
  9
$ANGBASE
 50
0.0
  9
$ANGDIR
 70
     0
  9
$PDMODE
 70
     0
  9
$PDSIZE
 40
0.0
  9
$PLINEWID
 40
0.0
  9
$COORDS
 70
     1
  9
$SPLFRAME
 70
     0
  9
$SPLINETYPE
 70
     6
  9
$SPLINESEGS
 70
     8
  9
$ATTDIA
 70
     0
  9
$ATTREQ
 70
     1
  9
$HANDLING
 70
     1
  9
$HANDSEED
  5
7AF
  9
$SURFTAB1
 70
     6
  9
$SURFTAB2
 70
     6
  9
$SURFTYPE
 70
     6
  9
$SURFU
 70
     6
  9
$SURFV
 70
     6
  9
$UCSNAME
  2

  9
$UCSORG
 10
0.0
 20
0.0
 30
0.0
  9
$UCSXDIR
 10
1.0
 20
0.0
 30
0.0
  9
$UCSYDIR
 10
0.0
 20
1.0
 30
0.0
  9
$PUCSNAME
  2

  9
$PUCSORG
 10
0.0
 20
0.0
 30
0.0
  9
$PUCSXDIR
 10
1.0
 20
0.0
 30
0.0
  9
$PUCSYDIR
 10
0.0
 20
1.0
 30
0.0
  9
$USERI1
 70
     0
  9
$USERI2
 70
     0
  9
$USERI3
 70
     0
  9
$USERI4
 70
     0
  9
$USERI5
 70
     0
  9
$USERR1
 40
0.0
  9
$USERR2
 40
0.0
  9
$USERR3
 40
0.0
  9
$USERR4
 40
0.0
  9
$USERR5
 40
0.0
  9
$WORLDVIEW
 70
     1
  9
$SHADEDGE
 70
     3
  9
$SHADEDIF
 70
    70
  9
$TILEMODE
 70
     1
  9
$MAXACTVP
 70
    64
  9
$PLIMCHECK
 70
     0
  9
$PEXTMIN
 10
1.0000000000000000E+020
 20
1.0000000000000000E+020
 30
1.0000000000000000E+020
  9
$PEXTMAX
 10
-1.0000000000000000E+020
 20
-1.0000000000000000E+020
 30
-1.0000000000000000E+020
  9
$PLIMMIN
 10
0.0
 20
0.0
  9
$PLIMMAX
 10
12.0
 20
9.0
  9
$UNITMODE
 70
     0
  9
$VISRETAIN
 70
     1
  9
$PLINEGEN
 70
     0
  9
$PSLTSCALE
 70
     1
  0
ENDSEC
  0
SECTION
  2
TABLES
  0
TABLE
  2
VPORT
 70
     1
  0
VPORT
  2
*ACTIVE
 70
     0
 10
0.0
 20
0.0
 11
1.0
 21
1.0
 12
25.390558670869499
 22
-13.09691270071521
 13
0.0
 23
0.0
 14
0.5
 24
0.5
 15
0.5
 25
0.5
 16
0.0
 26
0.0
 36
1.0
 17
70.299372937306956
 27
206.7338568969848
 37
0.0
 40
200.86436474886199
 41
1.740314136125654
 42
50.0
 43
0.0
 44
0.0
 50
0.0
 51
0.0
 71
     0
 72
   100
 73
     1
 74
     3
 75
     0
 76
     0
 77
     0
 78
     0
  0
ENDTAB
  0
TABLE
  2
LTYPE
 70
     2
  0
LTYPE
  2
CONTINUOUS
 70
     0
  3
Solid line
 72
    65
 73
     0
 40
0.0
  0
LTYPE
  2
PHANTOM2
 70
     0
  3
___ _ _ ___ _ _ ___ _ _ ___ _ _
 72
    65
 73
     6
 40
1.25
 49
0.625
 49
-0.125
 49
0.125
 49
-0.125
 49
0.125
 49
-0.125
  0
ENDTAB
  0
TABLE
  2
LAYER
 70
     5
  0
LAYER
  2
0
 70
     0
 62
     7
  6
CONTINUOUS
  0
LAYER
  2
レイヤー_1
 70
     0
 62
     7
  6
CONTINUOUS
  0
LAYER
  2
レイヤー_5
 70
     0
 62
     7
  6
CONTINUOUS
  0
LAYER
  2
1
 70
     0
 62
     7
  6
CONTINUOUS
  0
LAYER
  2
実線
 70
     0
 62
     7
  6
CONTINUOUS
  0
ENDTAB
  0
TABLE
  2
STYLE
 70
     1
  0
STYLE
  2
STANDARD
 70
     0
 40
0.0
 41
1.0
 50
0.0
 71
     0
 42
0.2
  3
txt
  4

  0
ENDTAB
  0
TABLE
  2
VIEW
 70
     0
  0
ENDTAB
  0
TABLE
  2
UCS
 70
     0
  0
ENDTAB
  0
TABLE
  2
APPID
 70
     3
  0
APPID
  2
ACAD
 70
     0
  0
APPID
  2
ACAD_NAV_VCDISPLAY
 70
     0
  0
APPID
  2
ACAD_MLEADERVER
 70
     0
  0
ENDTAB
  0
TABLE
  2
DIMSTYLE
 70
     1
  0
DIMSTYLE
  2
STANDARD
 70
     0
  3

  4

  5

  6

  7

 40
1.0
 41
0.18
 42
0.0625
 43
0.38
 44
0.18
 45
0.0
 46
0.0
 47
0.0
 48
0.0
140
0.18
141
0.09
142
0.0
143
25.399999999999999
144
1.0
145
0.0
146
1.0
147
0.09
 71
     0
 72
     0
 73
     1
 74
     1
 75
     0
 76
     0
 77
     0
 78
     0
170
     0
171
     2
172
     0
173
     0
174
     0
175
     0
176
     0
177
     0
178
     0
  0
ENDTAB
  0
ENDSEC
  0
SECTION
  2
BLOCKS
  0
BLOCK
  8
0
  2
$MODEL_SPACE
 70
     0
 10
0.0
 20
0.0
 30
0.0
  3
$MODEL_SPACE
  1

  0
ENDBLK
  5
21
  8
0
  0
BLOCK
 67
     1
  8
0
  2
$PAPER_SPACE
 70
     0
 10
0.0
 20
0.0
 30
0.0
  3
$PAPER_SPACE
  1

  0
ENDBLK
  5
1D
 67
     1
  8
0
  0
BLOCK
  8
0
  2
BLOCK_2
 70
     0
 10
0.0
 20
0.0
 30
0.0
  3
BLOCK_2
  1

  0
POLYLINE
  5
40
  8
0
 62
     7
 66
     1
 10
0.0
 20
0.0
 30
0.0
  0
VERTEX
  5
41
  8
0
 62
     7
 10
24.251765667171298
 20
12.719300922394551
 30
0.0
  0
VERTEX
  5
42
  8
0
 62
     7
 10
191.64837670697821
 20
12.719300922394551
 30
0.0
  0
SEQEND
  5
43
  8
0
  0
ENDBLK
  5
3F
  8
0
  0
ENDSEC
  0
SECTION
  2
ENTITIES
  0
POLYLINE
  5
47
  8
実線
 62
     7
 66
     1
 10
0.0
 20
0.0
 30
0.0
  0
VERTEX
  5
48
  8
実線
 62
     7
 10
0.826478952135009
 20
177.128323186497
 30
0.0
  0
VERTEX
  5
49
  8
実線
 62
     7
 10
132.57562996098491
 20
217.5899628244297
 30
0.0
  0
SEQEND
  5
4A
  8
実線
  0
POLYLINE
  5
4B
  8
実線
 62
     7
 66
     1
 10
0.0
 20
0.0
 30
0.0
  0
VERTEX
  5
4C
  8
実線
 62
     7
 10
-1.0414530522318171
 20
181.30033657138861
 30
0.0
  0
VERTEX
  5
4D
  8
実線
 62
     7
 10
130.27430465866649
 20
222.52317055894289
 30
0.0
  0
SEQEND
  5
4E
  8
実線
  0
POLYLINE
  8
実線
  5
143
  62
7
  66
     1
 10
0.000000
 20
0.000000
 30
0.000000
  70
     8
  0
VERTEX
  8
実線
  5
144
 10
0.951708
 20
182.021
 30
0.000000
  70
    32
  0
VERTEX
  8
実線
  5
145
 10
0.918244
 20
182.014
 30
0.000000
  70
    32
  0
VERTEX
  8
実線
  5
146
 10
0.885150
 20
182.006
 30
0.000000
  70
    32
  0
VERTEX
  8
実線
  5
147
 10
0.852429
 20
181.998
 30
0.000000
  70
    32
  0
VERTEX
  8
実線
  5
148
 10
0.820084
 20
181.990
 30
0.000000
  70
    32
  0
VERTEX
  8
実線
  5
149
 10
0.788115
 20
181.981
 30
0.000000
  70
    32
  0
VERTEX
  8
実線
  5
14A
 10
0.756525
 20
181.971
 30
0.000000
  70
    32
  0
VERTEX
  8
実線
  5
14B
 10
0.725315
 20
181.962
 30
0.000000
  70
    32
  0
VERTEX
  8
実線
  5
14C
 10
0.694488
 20
181.952
 30
0.000000
  70
    32
  0
VERTEX
  8
実線
  5
14D
 10
0.664046
 20
181.941
 30
0.000000
  70
    32
  0
VERTEX
  8
実線
  5
14E
 10
0.633989
 20
181.930
 30
0.000000
  70
    32
  0
VERTEX
  8
実線
  5
14F
 10
0.604322
 20
181.919
 30
0.000000
  70
    32
  0
VERTEX
  8
実線
  5
150
 10
0.575044
 20
181.907
 30
0.000000
  70
    32
  0
VERTEX
  8
実線
  5
151
 10
0.546158
 20
181.895
 30
0.000000
  70
    32
  0
VERTEX
  8
実線
  5
152
 10
0.517667
 20
181.882
 30
0.000000
  70
    32
  0
VERTEX
  8
実線
  5
153
 10
0.489571
 20
181.869
 30
0.000000
  70
    32
  0
VERTEX
  8
実線
  5
154
 10
0.461873
 20
181.856
 30
0.000000
  70
    32
  0
VERTEX
  8
実線
  5
155
 10
0.434575
 20
181.842
 30
0.000000
  70
    32
  0
VERTEX
  8
実線
  5
156
 10
0.407678
 20
181.828
 30
0.000000
  70
    32
  0
VERTEX
  8
実線
  5
157
 10
0.381185
 20
181.813
 30
0.000000
  70
    32
  0
VERTEX
  8
実線
  5
158
 10
0.355097
 20
181.798
 30
0.000000
  70
    32
  0
VERTEX
  8
実線
  5
159
 10
0.329417
 20
181.783
 30
0.000000
  70
    32
  0
VERTEX
  8
実線
  5
15A
 10
0.304145
 20
181.767
 30
0.000000
  70
    32
  0
VERTEX
  8
実線
  5
15B
 10
0.279285
 20
181.751
 30
0.000000
  70
    32
  0
VERTEX
  8
実線
  5
15C
 10
0.254838
 20
181.735
 30
0.000000
  70
    32
  0
VERTEX
  8
実線
  5
15D
 10
0.230806
 20
181.718
 30
0.000000
  70
    32
  0
VERTEX
  8
実線
  5
15E
 10
0.207191
 20
181.701
 30
0.000000
  70
    32
  0
VERTEX
  8
実線
  5
15F
 10
0.183995
 20
181.684
 30
0.000000
  70
    32
  0
VERTEX
  8
実線
  5
160
 10
0.161219
 20
181.666
 30
0.000000
  70
    32
  0
VERTEX
  8
実線
  5
161
 10
0.138866
 20
181.648
 30
0.000000
  70
    32
  0
VERTEX
  8
実線
  5
162
 10
0.116938
 20
181.629
 30
0.000000
  70
    32
  0
VERTEX
  8
実線
  5
163
 10
0.0954353
 20
181.610
 30
0.000000
  70
    32
  0
VERTEX
  8
実線
  5
164
 10
0.0743614
 20
181.591
 30
0.000000
  70
    32
  0
VERTEX
  8
実線
  5
165
 10
0.0537177
 20
181.572
 30
0.000000
  70
    32
  0
VERTEX
  8
実線
  5
166
 10
0.0335061
 20
181.552
 30
0.000000
  70
    32
  0
VERTEX
  8
実線
  5
167
 10
0.0137285
 20
181.532
 30
0.000000
  70
    32
  0
VERTEX
  8
実線
  5
168
 10
-0.00561309
 20
181.512
 30
0.000000
  70
    32
  0
VERTEX
  8
実線
  5
169
 10
-0.0245169
 20
181.491
 30
0.000000
  70
    32
  0
VERTEX
  8
実線
  5
16A
 10
-0.0429810
 20
181.470
 30
0.000000
  70
    32
  0
VERTEX
  8
実線
  5
16B
 10
-0.0610034
 20
181.449
 30
0.000000
  70
    32
  0
VERTEX
  8
実線
  5
16C
 10
-0.0785822
 20
181.428
 30
0.000000
  70
    32
  0
VERTEX
  8
実線
  5
16D
 10
-0.0957156
 20
181.406
 30
0.000000
  70
    32
  0
VERTEX
  8
実線
  5
16E
 10
-0.112402
 20
181.384
 30
0.000000
  70
    32
  0
VERTEX
  8
実線
  5
16F
 10
-0.128638
 20
181.361
 30
0.000000
  70
    32
  0
VERTEX
  8
実線
  5
170
 10
-0.144424
 20
181.339
 30
0.000000
  70
    32
  0
VERTEX
  8
実線
  5
171
 10
-0.159756
 20
181.316
 30
0.000000
  70
    32
  0
VERTEX
  8
実線
  5
172
 10
-0.174634
 20
181.293
 30
0.000000
  70
    32
  0
VERTEX
  8
実線
  5
173
 10
-0.189054
 20
181.269
 30
0.000000
  70
    32
  0
VERTEX
  8
実線
  5
174
 10
-0.203016
 20
181.246
 30
0.000000
  70
    32
  0
VERTEX
  8
実線
  5
175
 10
-0.216517
 20
181.222
 30
0.000000
  70
    32
  0
VERTEX
  8
実線
  5
176
 10
-0.229556
 20
181.197
 30
0.000000
  70
    32
  0
VERTEX
  8
実線
  5
177
 10
-0.242129
 20
181.173
 30
0.000000
  70
    32
  0
VERTEX
  8
実線
  5
178
 10
-0.254237
 20
181.148
 30
0.000000
  70
    32
  0
VERTEX
  8
実線
  5
179
 10
-0.265876
 20
181.124
 30
0.000000
  70
    32
  0
VERTEX
  8
実線
  5
17A
 10
-0.277045
 20
181.098
 30
0.000000
  70
    32
  0
VERTEX
  8
実線
  5
17B
 10
-0.287742
 20
181.073
 30
0.000000
  70
    32
  0
VERTEX
  8
実線
  5
17C
 10
-0.297964
 20
181.047
 30
0.000000
  70
    32
  0
VERTEX
  8
実線
  5
17D
 10
-0.307711
 20
181.022
 30
0.000000
  70
    32
  0
VERTEX
  8
実線
  5
17E
 10
-0.316980
 20
180.996
 30
0.000000
  70
    32
  0
VERTEX
  8
実線
  5
17F
 10
-0.325769
 20
180.969
 30
0.000000
  70
    32
  0
VERTEX
  8
実線
  5
180
 10
-0.334076
 20
180.943
 30
0.000000
  70
    32
  0
VERTEX
  8
実線
  5
181
 10
-0.341900
 20
180.916
 30
0.000000
  70
    32
  0
VERTEX
  8
実線
  5
182
 10
-0.349238
 20
180.890
 30
0.000000
  70
    32
  0
VERTEX
  8
実線
  5
183
 10
-0.356089
 20
180.863
 30
0.000000
  70
    32
  0
VERTEX
  8
実線
  5
184
 10
-0.362450
 20
180.835
 30
0.000000
  70
    32
  0
VERTEX
  8
実線
  5
185
 10
-0.368320
 20
180.808
 30
0.000000
  70
    32
  0
VERTEX
  8
実線
  5
186
 10
-0.373698
 20
180.780
 30
0.000000
  70
    32
  0
VERTEX
  8
実線
  5
187
 10
-0.378580
 20
180.753
 30
0.000000
  70
    32
  0
VERTEX
  8
実線
  5
188
 10
-0.382965
 20
180.725
 30
0.000000
  70
    32
  0
VERTEX
  8
実線
  5
189
 10
-0.386851
 20
180.697
 30
0.000000
  70
    32
  0
VERTEX
  8
実線
  5
18A
 10
-0.390237
 20
180.668
 30
0.000000
  70
    32
  0
VERTEX
  8
実線
  5
18B
 10
-0.393120
 20
180.640
 30
0.000000
  70
    32
  0
VERTEX
  8
実線
  5
18C
 10
-0.395498
 20
180.611
 30
0.000000
  70
    32
  0
VERTEX
  8
実線
  5
18D
 10
-0.397370
 20
180.583
 30
0.000000
  70
    32
  0
VERTEX
  8
実線
  5
18E
 10
-0.398733
 20
180.554
 30
0.000000
  70
    32
  0
VERTEX
  8
実線
  5
18F
 10
-0.399586
 20
180.525
 30
0.000000
  70
    32
  0
VERTEX
  8
実線
  5
190
 10
-0.399927
 20
180.496
 30
0.000000
  70
    32
  0
VERTEX
  8
実線
  5
191
 10
-0.399754
 20
180.466
 30
0.000000
  70
    32
  0
VERTEX
  8
実線
  5
192
 10
-0.399065
 20
180.437
 30
0.000000
  70
    32
  0
VERTEX
  8
実線
  5
193
 10
-0.397858
 20
180.407
 30
0.000000
  70
    32
  0
VERTEX
  8
実線
  5
194
 10
-0.396131
 20
180.378
 30
0.000000
  70
    32
  0
VERTEX
  8
実線
  5
195
 10
-0.393882
 20
180.348
 30
0.000000
  70
    32
  0
VERTEX
  8
実線
  5
196
 10
-0.391110
 20
180.318
 30
0.000000
  70
    32
  0
VERTEX
  8
実線
  5
197
 10
-0.387812
 20
180.288
 30
0.000000
  70
    32
  0
VERTEX
  8
実線
  5
198
 10
-0.383987
 20
180.258
 30
0.000000
  70
    32
  0
VERTEX
  8
実線
  5
199
 10
-0.379632
 20
180.228
 30
0.000000
  70
    32
  0
VERTEX
  8
実線
  5
19A
 10
-0.374746
 20
180.197
 30
0.000000
  70
    32
  0
VERTEX
  8
実線
  5
19B
 10
-0.369327
 20
180.167
 30
0.000000
  70
    32
  0
VERTEX
  8
実線
  5
19C
 10
-0.363373
 20
180.137
 30
0.000000
  70
    32
  0
VERTEX
  8
実線
  5
19D
 10
-0.356882
 20
180.106
 30
0.000000
  70
    32
  0
VERTEX
  8
実線
  5
19E
 10
-0.349852
 20
180.075
 30
0.000000
  70
    32
  0
VERTEX
  8
実線
  5
19F
 10
-0.342281
 20
180.045
 30
0.000000
  70
    32
  0
VERTEX
  8
実線
  5
1A0
 10
-0.334168
 20
180.014
 30
0.000000
  70
    32
  0
VERTEX
  8
実線
  5
1A1
 10
-0.325510
 20
179.983
 30
0.000000
  70
    32
  0
VERTEX
  8
実線
  5
1A2
 10
-0.316305
 20
179.952
 30
0.000000
  70
    32
  0
VERTEX
  8
実線
  5
1A3
 10
-0.306552
 20
179.921
 30
0.000000
  70
    32
  0
VERTEX
  8
実線
  5
1A4
 10
-0.296249
 20
179.890
 30
0.000000
  70
    32
  0
VERTEX
  8
実線
  5
1A5
 10
-0.285393
 20
179.859
 30
0.000000
  70
    32
  0
VERTEX
  8
実線
  5
1A6
 10
-0.273983
 20
179.828
 30
0.000000
  70
    32
  0
VERTEX
  8
実線
  5
1A7
 10
-0.262017
 20
179.797
 30
0.000000
  70
    32
  0
VERTEX
  8
実線
  5
1A8
 10
-0.249494
 20
179.765
 30
0.000000
  70
    32
  0
VERTEX
  8
実線
  5
1A9
 10
-0.236410
 20
179.734
 30
0.000000
  70
    32
  0
VERTEX
  8
実線
  5
1AA
 10
-0.222765
 20
179.703
 30
0.000000
  70
    32
  0
VERTEX
  8
実線
  5
1AB
 10
-0.208556
 20
179.672
 30
0.000000
  70
    32
  0
VERTEX
  8
実線
  5
1AC
 10
-0.193781
 20
179.640
 30
0.000000
  70
    32
  0
VERTEX
  8
実線
  5
1AD
 10
-0.178439
 20
179.609
 30
0.000000
  70
    32
  0
VERTEX
  8
実線
  5
1AE
 10
-0.162527
 20
179.578
 30
0.000000
  70
    32
  0
VERTEX
  8
実線
  5
1AF
 10
-0.146090
 20
179.546
 30
0.000000
  70
    32
  0
VERTEX
  8
実線
  5
1B0
 10
-0.129205
 20
179.515
 30
0.000000
  70
    32
  0
VERTEX
  8
実線
  5
1B1
 10
-0.111875
 20
179.484
 30
0.000000
  70
    32
  0
VERTEX
  8
実線
  5
1B2
 10
-0.0941049
 20
179.454
 30
0.000000
  70
    32
  0
VERTEX
  8
実線
  5
1B3
 10
-0.0759002
 20
179.423
 30
0.000000
  70
    32
  0
VERTEX
  8
実線
  5
1B4
 10
-0.0572664
 20
179.393
 30
0.000000
  70
    32
  0
VERTEX
  8
実線
  5
1B5
 10
-0.0382092
 20
179.363
 30
0.000000
  70
    32
  0
VERTEX
  8
実線
  5
1B6
 10
-0.0187339
 20
179.333
 30
0.000000
  70
    32
  0
VERTEX
  8
実線
  5
1B7
 10
0.00115386
 20
179.304
 30
0.000000
  70
    32
  0
VERTEX
  8
実線
  5
1B8
 10
0.0214486
 20
179.275
 30
0.000000
  70
    32
  0
VERTEX
  8
実線
  5
1B9
 10
0.0421449
 20
179.246
 30
0.000000
  70
    32
  0
VERTEX
  8
実線
  5
1BA
 10
0.0632373
 20
179.217
 30
0.000000
  70
    32
  0
VERTEX
  8
実線
  5
1BB
 10
0.0847201
 20
179.188
 30
0.000000
  70
    32
  0
VERTEX
  8
実線
  5
1BC
 10
0.106588
 20
179.160
 30
0.000000
  70
    32
  0
VERTEX
  8
実線
  5
1BD
 10
0.128835
 20
179.132
 30
0.000000
  70
    32
  0
VERTEX
  8
実線
  5
1BE
 10
0.151457
 20
179.104
 30
0.000000
  70
    32
  0
VERTEX
  8
実線
  5
1BF
 10
0.174447
 20
179.077
 30
0.000000
  70
    32
  0
VERTEX
  8
実線
  5
1C0
 10
0.197800
 20
179.050
 30
0.000000
  70
    32
  0
VERTEX
  8
実線
  5
1C1
 10
0.221510
 20
179.023
 30
0.000000
  70
    32
  0
VERTEX
  8
実線
  5
1C2
 10
0.245573
 20
178.996
 30
0.000000
  70
    32
  0
VERTEX
  8
実線
  5
1C3
 10
0.269982
 20
178.969
 30
0.000000
  70
    32
  0
VERTEX
  8
実線
  5
1C4
 10
0.294732
 20
178.943
 30
0.000000
  70
    32
  0
VERTEX
  8
実線
  5
1C5
 10
0.319817
 20
178.917
 30
0.000000
  70
    32
  0
VERTEX
  8
実線
  5
1C6
 10
0.345233
 20
178.892
 30
0.000000
  70
    32
  0
VERTEX
  8
実線
  5
1C7
 10
0.370973
 20
178.866
 30
0.000000
  70
    32
  0
VERTEX
  8
実線
  5
1C8
 10
0.397032
 20
178.841
 30
0.000000
  70
    32
  0
VERTEX
  8
実線
  5
1C9
 10
0.423405
 20
178.817
 30
0.000000
  70
    32
  0
VERTEX
  8
実線
  5
1CA
 10
0.450086
 20
178.792
 30
0.000000
  70
    32
  0
VERTEX
  8
実線
  5
1CB
 10
0.477069
 20
178.768
 30
0.000000
  70
    32
  0
VERTEX
  8
実線
  5
1CC
 10
0.504350
 20
178.744
 30
0.000000
  70
    32
  0
VERTEX
  8
実線
  5
1CD
 10
0.531922
 20
178.720
 30
0.000000
  70
    32
  0
VERTEX
  8
実線
  5
1CE
 10
0.559780
 20
178.697
 30
0.000000
  70
    32
  0
VERTEX
  8
実線
  5
1CF
 10
0.587918
 20
178.674
 30
0.000000
  70
    32
  0
VERTEX
  8
実線
  5
1D0
 10
0.616332
 20
178.652
 30
0.000000
  70
    32
  0
VERTEX
  8
実線
  5
1D1
 10
0.645015
 20
178.629
 30
0.000000
  70
    32
  0
VERTEX
  8
実線
  5
1D2
 10
0.673962
 20
178.607
 30
0.000000
  70
    32
  0
VERTEX
  8
実線
  5
1D3
 10
0.703168
 20
178.585
 30
0.000000
  70
    32
  0
VERTEX
  8
実線
  5
1D4
 10
0.732627
 20
178.564
 30
0.000000
  70
    32
  0
VERTEX
  8
実線
  5
1D5
 10
0.762333
 20
178.543
 30
0.000000
  70
    32
  0
VERTEX
  8
実線
  5
1D6
 10
0.792282
 20
178.522
 30
0.000000
  70
    32
  0
VERTEX
  8
実線
  5
1D7
 10
0.822467
 20
178.501
 30
0.000000
  70
    32
  0
VERTEX
  8
実線
  5
1D8
 10
0.852883
 20
178.481
 30
0.000000
  70
    32
  0
VERTEX
  8
実線
  5
1D9
 10
0.883524
 20
178.461
 30
0.000000
  70
    32
  0
VERTEX
  8
実線
  5
1DA
 10
0.914386
 20
178.442
 30
0.000000
  70
    32
  0
VERTEX
  8
実線
  5
1DB
 10
0.945462
 20
178.423
 30
0.000000
  70
    32
  0
VERTEX
  8
実線
  5
1DC
 10
0.976748
 20
178.404
 30
0.000000
  70
    32
  0
VERTEX
  8
実線
  5
1DD
 10
1.00824
 20
178.386
 30
0.000000
  70
    32
  0
VERTEX
  8
実線
  5
1DE
 10
1.03992
 20
178.367
 30
0.000000
  70
    32
  0
VERTEX
  8
実線
  5
1DF
 10
1.07180
 20
178.350
 30
0.000000
  70
    32
  0
VERTEX
  8
実線
  5
1E0
 10
1.10387
 20
178.332
 30
0.000000
  70
    32
  0
VERTEX
  8
実線
  5
1E1
 10
1.13612
 20
178.315
 30
0.000000
  70
    32
  0
VERTEX
  8
実線
  5
1E2
 10
1.16854
 20
178.298
 30
0.000000
  70
    32
  0
VERTEX
  8
実線
  5
1E3
 10
1.20114
 20
178.282
 30
0.000000
  70
    32
  0
VERTEX
  8
実線
  5
1E4
 10
1.23390
 20
178.266
 30
0.000000
  70
    32
  0
VERTEX
  8
実線
  5
1E5
 10
1.26682
 20
178.250
 30
0.000000
  70
    32
  0
VERTEX
  8
実線
  5
1E6
 10
1.29989
 20
178.235
 30
0.000000
  70
    32
  0
VERTEX
  8
実線
  5
1E7
 10
1.33311
 20
178.220
 30
0.000000
  70
    32
  0
VERTEX
  8
実線
  5
1E8
 10
1.36648
 20
178.205
 30
0.000000
  70
    32
  0
VERTEX
  8
実線
  5
1E9
 10
1.39998
 20
178.191
 30
0.000000
  70
    32
  0
VERTEX
  8
実線
  5
1EA
 10
1.43362
 20
178.177
 30
0.000000
  70
    32
  0
VERTEX
  8
実線
  5
1EB
 10
1.46738
 20
178.164
 30
0.000000
  70
    32
  0
VERTEX
  8
実線
  5
1EC
 10
1.50126
 20
178.151
 30
0.000000
  70
    32
  0
VERTEX
  8
実線
  5
1ED
 10
1.53526
 20
178.138
 30
0.000000
  70
    32
  0
VERTEX
  8
実線
  5
1EE
 10
1.56937
 20
178.126
 30
0.000000
  70
    32
  0
VERTEX
  8
実線
  5
1EF
 10
1.60358
 20
178.114
 30
0.000000
  70
    32
  0
VERTEX
  8
実線
  5
1F0
 10
1.63789
 20
178.102
 30
0.000000
  70
    32
  0
VERTEX
  8
実線
  5
1F1
 10
1.67230
 20
178.091
 30
0.000000
  70
    32
  0
VERTEX
  8
実線
  5
1F2
 10
1.70679
 20
178.081
 30
0.000000
  70
    32
  0
VERTEX
  8
実線
  5
1F3
 10
1.74137
 20
178.070
 30
0.000000
  70
    32
  0
VERTEX
  8
実線
  5
1F4
 10
1.77602
 20
178.060
 30
0.000000
  70
    32
  0
VERTEX
  8
実線
  5
1F5
 10
1.81075
 20
178.051
 30
0.000000
  70
    32
  0
VERTEX
  8
実線
  5
1F6
 10
1.84554
 20
178.042
 30
0.000000
  70
    32
  0
VERTEX
  8
実線
  5
1F7
 10
1.88039
 20
178.033
 30
0.000000
  70
    32
  0
VERTEX
  8
実線
  5
1F8
 10
1.91530
 20
178.025
 30
0.000000
  70
    32
  0
VERTEX
  8
実線
  5
1F9
 10
1.95026
 20
178.017
 30
0.000000
  70
    32
  0
VERTEX
  8
実線
  5
1FA
 10
1.98526
 20
178.009
 30
0.000000
  70
    32
  0
VERTEX
  8
実線
  5
1FB
 10
2.02030
 20
178.002
 30
0.000000
  70
    32
  0
VERTEX
  8
実線
  5
1FC
 10
2.05537
 20
177.996
 30
0.000000
  70
    32
  0
VERTEX
  8
実線
  5
1FD
 10
2.09047
 20
177.989
 30
0.000000
  70
    32
  0
VERTEX
  8
実線
  5
1FE
 10
2.12559
 20
177.984
 30
0.000000
  70
    32
  0
VERTEX
  8
実線
  5
1FF
 10
2.16073
 20
177.978
 30
0.000000
  70
    32
  0
VERTEX
  8
実線
  5
200
 10
2.19588
 20
177.973
 30
0.000000
  70
    32
  0
VERTEX
  8
実線
  5
201
 10
2.23104
 20
177.969
 30
0.000000
  70
    32
  0
VERTEX
  8
実線
  5
202
 10
2.26620
 20
177.965
 30
0.000000
  70
    32
  0
VERTEX
  8
実線
  5
203
 10
2.30135
 20
177.961
 30
0.000000
  70
    32
  0
VERTEX
  8
実線
  5
204
 10
2.33649
 20
177.958
 30
0.000000
  70
    32
  0
VERTEX
  8
実線
  5
205
 10
2.37161
 20
177.955
 30
0.000000
  70
    32
  0
VERTEX
  8
実線
  5
206
 10
2.40671
 20
177.953
 30
0.000000
  70
    32
  0
VERTEX
  8
実線
  5
207
 10
2.44179
 20
177.951
 30
0.000000
  70
    32
  0
VERTEX
  8
実線
  5
208
 10
2.47683
 20
177.950
 30
0.000000
  70
    32
  0
VERTEX
  8
実線
  5
209
 10
2.51183
 20
177.949
 30
0.000000
  70
    32
  0
VERTEX
  8
実線
  5
20A
 10
2.54679
 20
177.949
 30
0.000000
  70
    32
  0
VERTEX
  8
実線
  5
20B
 10
2.58170
 20
177.949
 30
0.000000
  70
    32
  0
VERTEX
  8
実線
  5
20C
 10
2.61655
 20
177.949
 30
0.000000
  70
    32
  0
VERTEX
  8
実線
  5
20D
 10
2.65135
 20
177.950
 30
0.000000
  70
    32
  0
VERTEX
  8
実線
  5
20E
 10
2.68608
 20
177.952
 30
0.000000
  70
    32
  0
VERTEX
  8
実線
  5
20F
 10
2.72074
 20
177.954
 30
0.000000
  70
    32
  0
VERTEX
  8
実線
  5
210
 10
2.75532
 20
177.956
 30
0.000000
  70
    32
  0
VERTEX
  8
実線
  5
211
 10
2.78981
 20
177.959
 30
0.000000
  70
    32
  0
VERTEX
  8
実線
  5
212
 10
2.82423
 20
177.962
 30
0.000000
  70
    32
  0
VERTEX
  8
実線
  5
213
 10
2.85854
 20
177.966
 30
0.000000
  70
    32
  0
VERTEX
  8
実線
  5
214
 10
2.89276
 20
177.970
 30
0.000000
  70
    32
  0
VERTEX
  8
実線
  5
215
 10
2.92687
 20
177.975
 30
0.000000
  70
    32
  0
VERTEX
  8
実線
  5
216
 10
2.96088
 20
177.981
 30
0.000000
  70
    32
  0
VERTEX
  8
実線
  5
217
 10
2.99477
 20
177.986
 30
0.000000
  70
    32
  0
VERTEX
  8
実線
  5
218
 10
3.02854
 20
177.993
 30
0.000000
  70
    32
  0
VERTEX
  8
実線
  5
219
 10
3.05197
 20
177.997
 30
0.000000
  70
    32
  0
VERTEX
  8
実線
  5
21A
 10
3.05494
 20
177.998
 30
0.000000
  70
    32
  0
VERTEX
  8
実線
  5
21B
 10
3.05791
 20
177.999
 30
0.000000
  70
    32
  0
VERTEX
  8
実線
  5
21C
 10
3.06088
 20
177.999
 30
0.000000
  70
    32
  0
VERTEX
  8
実線
  5
21D
 10
3.06385
 20
178.000
 30
0.000000
  70
    32
  0
VERTEX
  8
実線
  5
21E
 10
3.06681
 20
178.001
 30
0.000000
  70
    32
  0
VERTEX
  8
実線
  5
21F
 10
3.06977
 20
178.001
 30
0.000000
  70
    32
  0
VERTEX
  8
実線
  5
220
 10
3.07273
 20
178.002
 30
0.000000
  70
    32
  0
VERTEX
  8
実線
  5
221
 10
3.07568
 20
178.002
 30
0.000000
  70
    32
  0
VERTEX
  8
実線
  5
222
 10
3.07864
 20
178.003
 30
0.000000
  70
    32
  0
VERTEX
  8
実線
  5
223
 10
3.08159
 20
178.004
 30
0.000000
  70
    32
  0
VERTEX
  8
実線
  5
224
 10
3.08454
 20
178.004
 30
0.000000
  70
    32
  0
VERTEX
  8
実線
  5
225
 10
3.08749
 20
178.005
 30
0.000000
  70
    32
  0
VERTEX
  8
実線
  5
226
 10
3.09043
 20
178.006
 30
0.000000
  70
    32
  0
VERTEX
  8
実線
  5
227
 10
3.09337
 20
178.006
 30
0.000000
  70
    32
  0
VERTEX
  8
実線
  5
228
 10
3.09631
 20
178.007
 30
0.000000
  70
    32
  0
VERTEX
  8
実線
  5
229
 10
3.09925
 20
178.008
 30
0.000000
  70
    32
  0
VERTEX
  8
実線
  5
22A
 10
3.10219
 20
178.009
 30
0.000000
  70
    32
  0
VERTEX
  8
実線
  5
22B
 10
3.10512
 20
178.009
 30
0.000000
  70
    32
  0
VERTEX
  8
実線
  5
22C
 10
3.10805
 20
178.010
 30
0.000000
  70
    32
  0
VERTEX
  8
実線
  5
22D
 10
3.11098
 20
178.011
 30
0.000000
  70
    32
  0
VERTEX
  8
実線
  5
22E
 10
3.11390
 20
178.011
 30
0.000000
  70
    32
  0
VERTEX
  8
実線
  5
22F
 10
3.11683
 20
178.012
 30
0.000000
  70
    32
  0
VERTEX
  8
実線
  5
230
 10
3.11975
 20
178.013
 30
0.000000
  70
    32
  0
VERTEX
  8
実線
  5
231
 10
3.12267
 20
178.013
 30
0.000000
  70
    32
  0
VERTEX
  8
実線
  5
232
 10
3.12559
 20
178.014
 30
0.000000
  70
    32
  0
VERTEX
  8
実線
  5
233
 10
3.12850
 20
178.015
 30
0.000000
  70
    32
  0
VERTEX
  8
実線
  5
234
 10
3.13141
 20
178.016
 30
0.000000
  70
    32
  0
VERTEX
  8
実線
  5
235
 10
3.13432
 20
178.016
 30
0.000000
  70
    32
  0
VERTEX
  8
実線
  5
236
 10
3.13723
 20
178.017
 30
0.000000
  70
    32
  0
VERTEX
  8
実線
  5
237
 10
3.14013
 20
178.018
 30
0.000000
  70
    32
  0
VERTEX
  8
実線
  5
238
 10
3.14304
 20
178.018
 30
0.000000
  70
    32
  0
VERTEX
  8
実線
  5
239
 10
3.14594
 20
178.019
 30
0.000000
  70
    32
  0
VERTEX
  8
実線
  5
23A
 10
3.14883
 20
178.020
 30
0.000000
  70
    32
  0
VERTEX
  8
実線
  5
23B
 10
3.15173
 20
178.021
 30
0.000000
  70
    32
  0
VERTEX
  8
実線
  5
23C
 10
3.15462
 20
178.021
 30
0.000000
  70
    32
  0
VERTEX
  8
実線
  5
23D
 10
3.15751
 20
178.022
 30
0.000000
  70
    32
  0
VERTEX
  8
実線
  5
23E
 10
3.16040
 20
178.023
 30
0.000000
  70
    32
  0
VERTEX
  8
実線
  5
23F
 10
3.16329
 20
178.024
 30
0.000000
  70
    32
  0
VERTEX
  8
実線
  5
240
 10
3.16617
 20
178.024
 30
0.000000
  70
    32
  0
VERTEX
  8
実線
  5
241
 10
3.16905
 20
178.025
 30
0.000000
  70
    32
  0
VERTEX
  8
実線
  5
242
 10
3.17193
 20
178.026
 30
0.000000
  70
    32
  0
VERTEX
  8
実線
  5
243
 10
3.17481
 20
178.027
 30
0.000000
  70
    32
  0
VERTEX
  8
実線
  5
244
 10
3.17768
 20
178.027
 30
0.000000
  70
    32
  0
VERTEX
  8
実線
  5
245
 10
3.18055
 20
178.028
 30
0.000000
  70
    32
  0
VERTEX
  8
実線
  5
246
 10
3.18342
 20
178.029
 30
0.000000
  70
    32
  0
VERTEX
  8
実線
  5
247
 10
3.18629
 20
178.030
 30
0.000000
  70
    32
  0
VERTEX
  8
実線
  5
248
 10
3.18915
 20
178.031
 30
0.000000
  70
    32
  0
VERTEX
  8
実線
  5
249
 10
3.19202
 20
178.031
 30
0.000000
  70
    32
  0
VERTEX
  8
実線
  5
24A
 10
3.19487
 20
178.032
 30
0.000000
  70
    32
  0
VERTEX
  8
実線
  5
24B
 10
3.19773
 20
178.033
 30
0.000000
  70
    32
  0
VERTEX
  8
実線
  5
24C
 10
3.20059
 20
178.034
 30
0.000000
  70
    32
  0
VERTEX
  8
実線
  5
24D
 10
3.20344
 20
178.035
 30
0.000000
  70
    32
  0
VERTEX
  8
実線
  5
24E
 10
3.20629
 20
178.035
 30
0.000000
  70
    32
  0
VERTEX
  8
実線
  5
24F
 10
3.20914
 20
178.036
 30
0.000000
  70
    32
  0
VERTEX
  8
実線
  5
250
 10
3.21198
 20
178.037
 30
0.000000
  70
    32
  0
VERTEX
  8
実線
  5
251
 10
3.21482
 20
178.038
 30
0.000000
  70
    32
  0
VERTEX
  8
実線
  5
252
 10
3.21766
 20
178.039
 30
0.000000
  70
    32
  0
VERTEX
  8
実線
  5
253
 10
3.22050
 20
178.040
 30
0.000000
  70
    32
  0
VERTEX
  8
実線
  5
254
 10
3.22334
 20
178.040
 30
0.000000
  70
    32
  0
VERTEX
  8
実線
  5
255
 10
3.22617
 20
178.041
 30
0.000000
  70
    32
  0
VERTEX
  8
実線
  5
256
 10
3.22900
 20
178.042
 30
0.000000
  70
    32
  0
VERTEX
  8
実線
  5
257
 10
3.23183
 20
178.043
 30
0.000000
  70
    32
  0
VERTEX
  8
実線
  5
258
 10
3.23465
 20
178.044
 30
0.000000
  70
    32
  0
VERTEX
  8
実線
  5
259
 10
3.23748
 20
178.045
 30
0.000000
  70
    32
  0
VERTEX
  8
実線
  5
25A
 10
3.24030
 20
178.045
 30
0.000000
  70
    32
  0
VERTEX
  8
実線
  5
25B
 10
3.24312
 20
178.046
 30
0.000000
  70
    32
  0
VERTEX
  8
実線
  5
25C
 10
3.24593
 20
178.047
 30
0.000000
  70
    32
  0
VERTEX
  8
実線
  5
25D
 10
3.24875
 20
178.048
 30
0.000000
  70
    32
  0
VERTEX
  8
実線
  5
25E
 10
3.25156
 20
178.049
 30
0.000000
  70
    32
  0
VERTEX
  8
実線
  5
25F
 10
3.25436
 20
178.050
 30
0.000000
  70
    32
  0
VERTEX
  8
実線
  5
260
 10
3.25717
 20
178.051
 30
0.000000
  70
    32
  0
VERTEX
  8
実線
  5
261
 10
3.25997
 20
178.051
 30
0.000000
  70
    32
  0
VERTEX
  8
実線
  5
262
 10
3.26277
 20
178.052
 30
0.000000
  70
    32
  0
VERTEX
  8
実線
  5
263
 10
3.26557
 20
178.053
 30
0.000000
  70
    32
  0
VERTEX
  8
実線
  5
264
 10
3.26837
 20
178.054
 30
0.000000
  70
    32
  0
VERTEX
  8
実線
  5
265
 10
3.27116
 20
178.055
 30
0.000000
  70
    32
  0
VERTEX
  8
実線
  5
266
 10
3.27395
 20
178.056
 30
0.000000
  70
    32
  0
VERTEX
  8
実線
  5
267
 10
3.27674
 20
178.057
 30
0.000000
  70
    32
  0
VERTEX
  8
実線
  5
268
 10
3.27953
 20
178.058
 30
0.000000
  70
    32
  0
VERTEX
  8
実線
  5
269
 10
3.28231
 20
178.059
 30
0.000000
  70
    32
  0
VERTEX
  8
実線
  5
26A
 10
3.28509
 20
178.059
 30
0.000000
  70
    32
  0
VERTEX
  8
実線
  5
26B
 10
3.28787
 20
178.060
 30
0.000000
  70
    32
  0
VERTEX
  8
実線
  5
26C
 10
3.29065
 20
178.061
 30
0.000000
  70
    32
  0
VERTEX
  8
実線
  5
26D
 10
3.29342
 20
178.062
 30
0.000000
  70
    32
  0
VERTEX
  8
実線
  5
26E
 10
3.29619
 20
178.063
 30
0.000000
  70
    32
  0
VERTEX
  8
実線
  5
26F
 10
3.29896
 20
178.064
 30
0.000000
  70
    32
  0
VERTEX
  8
実線
  5
270
 10
3.30173
 20
178.065
 30
0.000000
  70
    32
  0
VERTEX
  8
実線
  5
271
 10
3.30449
 20
178.066
 30
0.000000
  70
    32
  0
VERTEX
  8
実線
  5
272
 10
3.30725
 20
178.067
 30
0.000000
  70
    32
  0
VERTEX
  8
実線
  5
273
 10
3.31001
 20
178.068
 30
0.000000
  70
    32
  0
VERTEX
  8
実線
  5
274
 10
3.31277
 20
178.069
 30
0.000000
  70
    32
  0
VERTEX
  8
実線
  5
275
 10
3.31552
 20
178.070
 30
0.000000
  70
    32
  0
VERTEX
  8
実線
  5
276
 10
3.31827
 20
178.070
 30
0.000000
  70
    32
  0
VERTEX
  8
実線
  5
277
 10
3.32102
 20
178.071
 30
0.000000
  70
    32
  0
VERTEX
  8
実線
  5
278
 10
3.32377
 20
178.072
 30
0.000000
  70
    32
  0
VERTEX
  8
実線
  5
279
 10
3.32651
 20
178.073
 30
0.000000
  70
    32
  0
VERTEX
  8
実線
  5
27A
 10
3.32925
 20
178.074
 30
0.000000
  70
    32
  0
VERTEX
  8
実線
  5
27B
 10
3.33199
 20
178.075
 30
0.000000
  70
    32
  0
VERTEX
  8
実線
  5
27C
 10
3.33472
 20
178.076
 30
0.000000
  70
    32
  0
VERTEX
  8
実線
  5
27D
 10
3.33746
 20
178.077
 30
0.000000
  70
    32
  0
VERTEX
  8
実線
  5
27E
 10
3.34019
 20
178.078
 30
0.000000
  70
    32
  0
VERTEX
  8
実線
  5
27F
 10
3.34292
 20
178.079
 30
0.000000
  70
    32
  0
VERTEX
  8
実線
  5
280
 10
3.34564
 20
178.080
 30
0.000000
  70
    32
  0
VERTEX
  8
実線
  5
281
 10
3.34836
 20
178.081
 30
0.000000
  70
    32
  0
VERTEX
  8
実線
  5
282
 10
3.35108
 20
178.082
 30
0.000000
  70
    32
  0
VERTEX
  8
実線
  5
283
 10
3.35380
 20
178.083
 30
0.000000
  70
    32
  0
SEQEND
  8
実線
  5
284
  0
POLYLINE
  8
実線
  5
285
  62
7
  66
     1
 10
0.000000
 20
0.000000
 30
0.000000
  70
     8
  0
VERTEX
  8
実線
  5
286
 10
-0.409450
 20
181.570
 30
0.000000
  70
    32
  0
VERTEX
  8
実線
  5
287
 10
-0.447270
 20
181.559
 30
0.000000
  70
    32
  0
VERTEX
  8
実線
  5
288
 10
-0.484577
 20
181.548
 30
0.000000
  70
    32
  0
VERTEX
  8
実線
  5
289
 10
-0.521369
 20
181.537
 30
0.000000
  70
    32
  0
VERTEX
  8
実線
  5
28A
 10
-0.557643
 20
181.525
 30
0.000000
  70
    32
  0
VERTEX
  8
実線
  5
28B
 10
-0.593400
 20
181.513
 30
0.000000
  70
    32
  0
VERTEX
  8
実線
  5
28C
 10
-0.628637
 20
181.500
 30
0.000000
  70
    32
  0
VERTEX
  8
実線
  5
28D
 10
-0.663352
 20
181.487
 30
0.000000
  70
    32
  0
VERTEX
  8
実線
  5
28E
 10
-0.697545
 20
181.474
 30
0.000000
  70
    32
  0
VERTEX
  8
実線
  5
28F
 10
-0.731214
 20
181.460
 30
0.000000
  70
    32
  0
VERTEX
  8
実線
  5
290
 10
-0.764357
 20
181.446
 30
0.000000
  70
    32
  0
VERTEX
  8
実線
  5
291
 10
-0.796973
 20
181.431
 30
0.000000
  70
    32
  0
VERTEX
  8
実線
  5
292
 10
-0.829061
 20
181.417
 30
0.000000
  70
    32
  0
VERTEX
  8
実線
  5
293
 10
-0.860618
 20
181.402
 30
0.000000
  70
    32
  0
VERTEX
  8
実線
  5
294
 10
-0.891645
 20
181.386
 30
0.000000
  70
    32
  0
VERTEX
  8
実線
  5
295
 10
-0.922138
 20
181.370
 30
0.000000
  70
    32
  0
VERTEX
  8
実線
  5
296
 10
-0.952096
 20
181.354
 30
0.000000
  70
    32
  0
VERTEX
  8
実線
  5
297
 10
-0.981519
 20
181.337
 30
0.000000
  70
    32
  0
VERTEX
  8
実線
  5
298
 10
-1.01040
 20
181.321
 30
0.000000
  70
    32
  0
VERTEX
  8
実線
  5
299
 10
-1.03875
 20
181.303
 30
0.000000
  70
    32
  0
VERTEX
  8
実線
  5
29A
 10
-1.06656
 20
181.286
 30
0.000000
  70
    32
  0
VERTEX
  8
実線
  5
29B
 10
-1.09382
 20
181.268
 30
0.000000
  70
    32
  0
VERTEX
  8
実線
  5
29C
 10
-1.12054
 20
181.250
 30
0.000000
  70
    32
  0
VERTEX
  8
実線
  5
29D
 10
-1.14672
 20
181.232
 30
0.000000
  70
    32
  0
VERTEX
  8
実線
  5
29E
 10
-1.17235
 20
181.213
 30
0.000000
  70
    32
  0
VERTEX
  8
実線
  5
29F
 10
-1.19743
 20
181.194
 30
0.000000
  70
    32
  0
VERTEX
  8
実線
  5
2A0
 10
-1.22197
 20
181.175
 30
0.000000
  70
    32
  0
VERTEX
  8
実線
  5
2A1
 10
-1.24595
 20
181.155
 30
0.000000
  70
    32
  0
VERTEX
  8
実線
  5
2A2
 10
-1.26938
 20
181.135
 30
0.000000
  70
    32
  0
VERTEX
  8
実線
  5
2A3
 10
-1.29226
 20
181.115
 30
0.000000
  70
    32
  0
VERTEX
  8
実線
  5
2A4
 10
-1.31458
 20
181.095
 30
0.000000
  70
    32
  0
VERTEX
  8
実線
  5
2A5
 10
-1.33634
 20
181.074
 30
0.000000
  70
    32
  0
VERTEX
  8
実線
  5
2A6
 10
-1.35755
 20
181.053
 30
0.000000
  70
    32
  0
VERTEX
  8
実線
  5
2A7
 10
-1.37820
 20
181.032
 30
0.000000
  70
    32
  0
VERTEX
  8
実線
  5
2A8
 10
-1.39829
 20
181.010
 30
0.000000
  70
    32
  0
VERTEX
  8
実線
  5
2A9
 10
-1.41781
 20
180.989
 30
0.000000
  70
    32
  0
VERTEX
  8
実線
  5
2AA
 10
-1.43677
 20
180.967
 30
0.000000
  70
    32
  0
VERTEX
  8
実線
  5
2AB
 10
-1.45517
 20
180.944
 30
0.000000
  70
    32
  0
VERTEX
  8
実線
  5
2AC
 10
-1.47300
 20
180.922
 30
0.000000
  70
    32
  0
VERTEX
  8
実線
  5
2AD
 10
-1.49026
 20
180.899
 30
0.000000
  70
    32
  0
VERTEX
  8
実線
  5
2AE
 10
-1.50695
 20
180.876
 30
0.000000
  70
    32
  0
VERTEX
  8
実線
  5
2AF
 10
-1.52307
 20
180.853
 30
0.000000
  70
    32
  0
VERTEX
  8
実線
  5
2B0
 10
-1.53861
 20
180.830
 30
0.000000
  70
    32
  0
VERTEX
  8
実線
  5
2B1
 10
-1.55359
 20
180.806
 30
0.000000
  70
    32
  0
VERTEX
  8
実線
  5
2B2
 10
-1.56798
 20
180.782
 30
0.000000
  70
    32
  0
VERTEX
  8
実線
  5
2B3
 10
-1.58180
 20
180.758
 30
0.000000
  70
    32
  0
VERTEX
  8
実線
  5
2B4
 10
-1.59504
 20
180.734
 30
0.000000
  70
    32
  0
VERTEX
  8
実線
  5
2B5
 10
-1.60771
 20
180.710
 30
0.000000
  70
    32
  0
VERTEX
  8
実線
  5
2B6
 10
-1.61978
 20
180.685
 30
0.000000
  70
    32
  0
VERTEX
  8
実線
  5
2B7
 10
-1.63128
 20
180.660
 30
0.000000
  70
    32
  0
VERTEX
  8
実線
  5
2B8
 10
-1.64219
 20
180.635
 30
0.000000
  70
    32
  0
VERTEX
  8
実線
  5
2B9
 10
-1.65252
 20
180.610
 30
0.000000
  70
    32
  0
VERTEX
  8
実線
  5
2BA
 10
-1.66226
 20
180.585
 30
0.000000
  70
    32
  0
VERTEX
  8
実線
  5
2BB
 10
-1.67141
 20
180.559
 30
0.000000
  70
    32
  0
VERTEX
  8
実線
  5
2BC
 10
-1.67997
 20
180.533
 30
0.000000
  70
    32
  0
VERTEX
  8
実線
  5
2BD
 10
-1.68793
 20
180.507
 30
0.000000
  70
    32
  0
VERTEX
  8
実線
  5
2BE
 10
-1.69531
 20
180.481
 30
0.000000
  70
    32
  0
VERTEX
  8
実線
  5
2BF
 10
-1.70209
 20
180.455
 30
0.000000
  70
    32
  0
VERTEX
  8
実線
  5
2C0
 10
-1.70827
 20
180.429
 30
0.000000
  70
    32
  0
VERTEX
  8
実線
  5
2C1
 10
-1.71386
 20
180.402
 30
0.000000
  70
    32
  0
VERTEX
  8
実線
  5
2C2
 10
-1.71884
 20
180.375
 30
0.000000
  70
    32
  0
VERTEX
  8
実線
  5
2C3
 10
-1.72323
 20
180.349
 30
0.000000
  70
    32
  0
VERTEX
  8
実線
  5
2C4
 10
-1.72701
 20
180.322
 30
0.000000
  70
    32
  0
VERTEX
  8
実線
  5
2C5
 10
-1.73019
 20
180.295
 30
0.000000
  70
    32
  0
VERTEX
  8
実線
  5
2C6
 10
-1.73276
 20
180.267
 30
0.000000
  70
    32
  0
VERTEX
  8
実線
  5
2C7
 10
-1.73473
 20
180.240
 30
0.000000
  70
    32
  0
VERTEX
  8
実線
  5
2C8
 10
-1.73609
 20
180.213
 30
0.000000
  70
    32
  0
VERTEX
  8
実線
  5
2C9
 10
-1.73684
 20
180.185
 30
0.000000
  70
    32
  0
VERTEX
  8
実線
  5
2CA
 10
-1.73698
 20
180.157
 30
0.000000
  70
    32
  0
VERTEX
  8
実線
  5
2CB
 10
-1.73651
 20
180.129
 30
0.000000
  70
    32
  0
VERTEX
  8
実線
  5
2CC
 10
-1.73542
 20
180.102
 30
0.000000
  70
    32
  0
VERTEX
  8
実線
  5
2CD
 10
-1.73372
 20
180.074
 30
0.000000
  70
    32
  0
VERTEX
  8
実線
  5
2CE
 10
-1.73140
 20
180.045
 30
0.000000
  70
    32
  0
VERTEX
  8
実線
  5
2CF
 10
-1.72846
 20
180.017
 30
0.000000
  70
    32
  0
VERTEX
  8
実線
  5
2D0
 10
-1.72490
 20
179.989
 30
0.000000
  70
    32
  0
VERTEX
  8
実線
  5
2D1
 10
-1.72072
 20
179.961
 30
0.000000
  70
    32
  0
VERTEX
  8
実線
  5
2D2
 10
-1.71592
 20
179.932
 30
0.000000
  70
    32
  0
VERTEX
  8
実線
  5
2D3
 10
-1.71049
 20
179.904
 30
0.000000
  70
    32
  0
VERTEX
  8
実線
  5
2D4
 10
-1.70444
 20
179.875
 30
0.000000
  70
    32
  0
VERTEX
  8
実線
  5
2D5
 10
-1.69776
 20
179.846
 30
0.000000
  70
    32
  0
VERTEX
  8
実線
  5
2D6
 10
-1.69046
 20
179.818
 30
0.000000
  70
    32
  0
VERTEX
  8
実線
  5
2D7
 10
-1.68252
 20
179.789
 30
0.000000
  70
    32
  0
VERTEX
  8
実線
  5
2D8
 10
-1.67395
 20
179.760
 30
0.000000
  70
    32
  0
VERTEX
  8
実線
  5
2D9
 10
-1.66475
 20
179.731
 30
0.000000
  70
    32
  0
VERTEX
  8
実線
  5
2DA
 10
-1.65491
 20
179.702
 30
0.000000
  70
    32
  0
VERTEX
  8
実線
  5
2DB
 10
-1.64444
 20
179.674
 30
0.000000
  70
    32
  0
VERTEX
  8
実線
  5
2DC
 10
-1.63333
 20
179.645
 30
0.000000
  70
    32
  0
VERTEX
  8
実線
  5
2DD
 10
-1.62158
 20
179.616
 30
0.000000
  70
    32
  0
VERTEX
  8
実線
  5
2DE
 10
-1.60919
 20
179.587
 30
0.000000
  70
    32
  0
VERTEX
  8
実線
  5
2DF
 10
-1.59615
 20
179.558
 30
0.000000
  70
    32
  0
VERTEX
  8
実線
  5
2E0
 10
-1.58248
 20
179.528
 30
0.000000
  70
    32
  0
VERTEX
  8
実線
  5
2E1
 10
-1.56816
 20
179.499
 30
0.000000
  70
    32
  0
VERTEX
  8
実線
  5
2E2
 10
-1.55319
 20
179.470
 30
0.000000
  70
    32
  0
VERTEX
  8
実線
  5
2E3
 10
-1.53758
 20
179.441
 30
0.000000
  70
    32
  0
VERTEX
  8
実線
  5
2E4
 10
-1.52131
 20
179.412
 30
0.000000
  70
    32
  0
VERTEX
  8
実線
  5
2E5
 10
-1.50440
 20
179.383
 30
0.000000
  70
    32
  0
VERTEX
  8
実線
  5
2E6
 10
-1.48683
 20
179.354
 30
0.000000
  70
    32
  0
VERTEX
  8
実線
  5
2E7
 10
-1.46861
 20
179.325
 30
0.000000
  70
    32
  0
VERTEX
  8
実線
  5
2E8
 10
-1.44974
 20
179.296
 30
0.000000
  70
    32
  0
VERTEX
  8
実線
  5
2E9
 10
-1.43020
 20
179.267
 30
0.000000
  70
    32
  0
VERTEX
  8
実線
  5
2EA
 10
-1.41001
 20
179.238
 30
0.000000
  70
    32
  0
VERTEX
  8
実線
  5
2EB
 10
-1.38916
 20
179.209
 30
0.000000
  70
    32
  0
VERTEX
  8
実線
  5
2EC
 10
-1.36765
 20
179.180
 30
0.000000
  70
    32
  0
VERTEX
  8
実線
  5
2ED
 10
-1.34548
 20
179.151
 30
0.000000
  70
    32
  0
VERTEX
  8
実線
  5
2EE
 10
-1.32264
 20
179.122
 30
0.000000
  70
    32
  0
VERTEX
  8
実線
  5
2EF
 10
-1.29914
 20
179.093
 30
0.000000
  70
    32
  0
VERTEX
  8
実線
  5
2F0
 10
-1.27497
 20
179.065
 30
0.000000
  70
    32
  0
VERTEX
  8
実線
  5
2F1
 10
-1.25016
 20
179.036
 30
0.000000
  70
    32
  0
VERTEX
  8
実線
  5
2F2
 10
-1.22486
 20
179.008
 30
0.000000
  70
    32
  0
VERTEX
  8
実線
  5
2F3
 10
-1.19907
 20
178.980
 30
0.000000
  70
    32
  0
VERTEX
  8
実線
  5
2F4
 10
-1.17281
 20
178.952
 30
0.000000
  70
    32
  0
VERTEX
  8
実線
  5
2F5
 10
-1.14608
 20
178.924
 30
0.000000
  70
    32
  0
VERTEX
  8
実線
  5
2F6
 10
-1.11889
 20
178.897
 30
0.000000
  70
    32
  0
VERTEX
  8
実線
  5
2F7
 10
-1.09125
 20
178.870
 30
0.000000
  70
    32
  0
VERTEX
  8
実線
  5
2F8
 10
-1.06316
 20
178.843
 30
0.000000
  70
    32
  0
VERTEX
  8
実線
  5
2F9
 10
-1.03463
 20
178.817
 30
0.000000
  70
    32
  0
VERTEX
  8
実線
  5
2FA
 10
-1.00567
 20
178.790
 30
0.000000
  70
    32
  0
VERTEX
  8
実線
  5
2FB
 10
-0.976283
 20
178.764
 30
0.000000
  70
    32
  0
VERTEX
  8
実線
  5
2FC
 10
-0.946478
 20
178.739
 30
0.000000
  70
    32
  0
VERTEX
  8
実線
  5
2FD
 10
-0.916260
 20
178.713
 30
0.000000
  70
    32
  0
VERTEX
  8
実線
  5
2FE
 10
-0.885638
 20
178.688
 30
0.000000
  70
    32
  0
VERTEX
  8
実線
  5
2FF
 10
-0.854617
 20
178.664
 30
0.000000
  70
    32
  0
VERTEX
  8
実線
  5
300
 10
-0.823205
 20
178.639
 30
0.000000
  70
    32
  0
VERTEX
  8
実線
  5
301
 10
-0.791409
 20
178.615
 30
0.000000
  70
    32
  0
VERTEX
  8
実線
  5
302
 10
-0.759235
 20
178.591
 30
0.000000
  70
    32
  0
VERTEX
  8
実線
  5
303
 10
-0.726691
 20
178.567
 30
0.000000
  70
    32
  0
VERTEX
  8
実線
  5
304
 10
-0.693783
 20
178.544
 30
0.000000
  70
    32
  0
VERTEX
  8
実線
  5
305
 10
-0.660518
 20
178.521
 30
0.000000
  70
    32
  0
VERTEX
  8
実線
  5
306
 10
-0.626904
 20
178.498
 30
0.000000
  70
    32
  0
VERTEX
  8
実線
  5
307
 10
-0.592947
 20
178.476
 30
0.000000
  70
    32
  0
VERTEX
  8
実線
  5
308
 10
-0.558653
 20
178.454
 30
0.000000
  70
    32
  0
VERTEX
  8
実線
  5
309
 10
-0.524031
 20
178.432
 30
0.000000
  70
    32
  0
VERTEX
  8
実線
  5
30A
 10
-0.489087
 20
178.411
 30
0.000000
  70
    32
  0
VERTEX
  8
実線
  5
30B
 10
-0.453827
 20
178.390
 30
0.000000
  70
    32
  0
VERTEX
  8
実線
  5
30C
 10
-0.418258
 20
178.369
 30
0.000000
  70
    32
  0
VERTEX
  8
実線
  5
30D
 10
-0.382389
 20
178.348
 30
0.000000
  70
    32
  0
VERTEX
  8
実線
  5
30E
 10
-0.346224
 20
178.328
 30
0.000000
  70
    32
  0
VERTEX
  8
実線
  5
30F
 10
-0.309773
 20
178.308
 30
0.000000
  70
    32
  0
VERTEX
  8
実線
  5
310
 10
-0.273040
 20
178.289
 30
0.000000
  70
    32
  0
VERTEX
  8
実線
  5
311
 10
-0.236033
 20
178.269
 30
0.000000
  70
    32
  0
VERTEX
  8
実線
  5
312
 10
-0.198760
 20
178.250
 30
0.000000
  70
    32
  0
VERTEX
  8
実線
  5
313
 10
-0.161226
 20
178.232
 30
0.000000
  70
    32
  0
VERTEX
  8
実線
  5
314
 10
-0.123439
 20
178.214
 30
0.000000
  70
    32
  0
VERTEX
  8
実線
  5
315
 10
-0.0854064
 20
178.196
 30
0.000000
  70
    32
  0
VERTEX
  8
実線
  5
316
 10
-0.0471341
 20
178.178
 30
0.000000
  70
    32
  0
VERTEX
  8
実線
  5
317
 10
-0.00862931
 20
178.161
 30
0.000000
  70
    32
  0
VERTEX
  8
実線
  5
318
 10
0.0301010
 20
178.144
 30
0.000000
  70
    32
  0
VERTEX
  8
実線
  5
319
 10
0.0690499
 20
178.128
 30
0.000000
  70
    32
  0
VERTEX
  8
実線
  5
31A
 10
0.108210
 20
178.111
 30
0.000000
  70
    32
  0
VERTEX
  8
実線
  5
31B
 10
0.147576
 20
178.095
 30
0.000000
  70
    32
  0
VERTEX
  8
実線
  5
31C
 10
0.187139
 20
178.080
 30
0.000000
  70
    32
  0
VERTEX
  8
実線
  5
31D
 10
0.226894
 20
178.065
 30
0.000000
  70
    32
  0
VERTEX
  8
実線
  5
31E
 10
0.266832
 20
178.050
 30
0.000000
  70
    32
  0
VERTEX
  8
実線
  5
31F
 10
0.306948
 20
178.036
 30
0.000000
  70
    32
  0
VERTEX
  8
実線
  5
320
 10
0.347234
 20
178.021
 30
0.000000
  70
    32
  0
VERTEX
  8
実線
  5
321
 10
0.387683
 20
178.008
 30
0.000000
  70
    32
  0
VERTEX
  8
実線
  5
322
 10
0.428289
 20
177.994
 30
0.000000
  70
    32
  0
VERTEX
  8
実線
  5
323
 10
0.469044
 20
177.981
 30
0.000000
  70
    32
  0
VERTEX
  8
実線
  5
324
 10
0.509942
 20
177.969
 30
0.000000
  70
    32
  0
VERTEX
  8
実線
  5
325
 10
0.550976
 20
177.956
 30
0.000000
  70
    32
  0
VERTEX
  8
実線
  5
326
 10
0.592139
 20
177.944
 30
0.000000
  70
    32
  0
VERTEX
  8
実線
  5
327
 10
0.633423
 20
177.933
 30
0.000000
  70
    32
  0
VERTEX
  8
実線
  5
328
 10
0.674823
 20
177.922
 30
0.000000
  70
    32
  0
VERTEX
  8
実線
  5
329
 10
0.716331
 20
177.911
 30
0.000000
  70
    32
  0
VERTEX
  8
実線
  5
32A
 10
0.757940
 20
177.900
 30
0.000000
  70
    32
  0
VERTEX
  8
実線
  5
32B
 10
0.799643
 20
177.890
 30
0.000000
  70
    32
  0
VERTEX
  8
実線
  5
32C
 10
0.841434
 20
177.881
 30
0.000000
  70
    32
  0
VERTEX
  8
実線
  5
32D
 10
0.883306
 20
177.871
 30
0.000000
  70
    32
  0
VERTEX
  8
実線
  5
32E
 10
0.925251
 20
177.862
 30
0.000000
  70
    32
  0
VERTEX
  8
実線
  5
32F
 10
0.967263
 20
177.854
 30
0.000000
  70
    32
  0
VERTEX
  8
実線
  5
330
 10
1.00933
 20
177.846
 30
0.000000
  70
    32
  0
VERTEX
  8
実線
  5
331
 10
1.05146
 20
177.838
 30
0.000000
  70
    32
  0
VERTEX
  8
実線
  5
332
 10
1.09363
 20
177.831
 30
0.000000
  70
    32
  0
VERTEX
  8
実線
  5
333
 10
1.13584
 20
177.824
 30
0.000000
  70
    32
  0
VERTEX
  8
実線
  5
334
 10
1.17808
 20
177.817
 30
0.000000
  70
    32
  0
VERTEX
  8
実線
  5
335
 10
1.22035
 20
177.811
 30
0.000000
  70
    32
  0
VERTEX
  8
実線
  5
336
 10
1.26263
 20
177.805
 30
0.000000
  70
    32
  0
VERTEX
  8
実線
  5
337
 10
1.30493
 20
177.800
 30
0.000000
  70
    32
  0
VERTEX
  8
実線
  5
338
 10
1.34723
 20
177.795
 30
0.000000
  70
    32
  0
VERTEX
  8
実線
  5
339
 10
1.38953
 20
177.790
 30
0.000000
  70
    32
  0
VERTEX
  8
実線
  5
33A
 10
1.43182
 20
177.786
 30
0.000000
  70
    32
  0
VERTEX
  8
実線
  5
33B
 10
1.47409
 20
177.782
 30
0.000000
  70
    32
  0
VERTEX
  8
実線
  5
33C
 10
1.51635
 20
177.779
 30
0.000000
  70
    32
  0
VERTEX
  8
実線
  5
33D
 10
1.55857
 20
177.776
 30
0.000000
  70
    32
  0
VERTEX
  8
実線
  5
33E
 10
1.60075
 20
177.774
 30
0.000000
  70
    32
  0
VERTEX
  8
実線
  5
33F
 10
1.64289
 20
177.771
 30
0.000000
  70
    32
  0
VERTEX
  8
実線
  5
340
 10
1.68498
 20
177.770
 30
0.000000
  70
    32
  0
VERTEX
  8
実線
  5
341
 10
1.72701
 20
177.768
 30
0.000000
  70
    32
  0
VERTEX
  8
実線
  5
342
 10
1.76898
 20
177.768
 30
0.000000
  70
    32
  0
VERTEX
  8
実線
  5
343
 10
1.81088
 20
177.767
 30
0.000000
  70
    32
  0
VERTEX
  8
実線
  5
344
 10
1.85269
 20
177.767
 30
0.000000
  70
    32
  0
VERTEX
  8
実線
  5
345
 10
1.89443
 20
177.768
 30
0.000000
  70
    32
  0
VERTEX
  8
実線
  5
346
 10
1.93607
 20
177.769
 30
0.000000
  70
    32
  0
VERTEX
  8
実線
  5
347
 10
1.97761
 20
177.770
 30
0.000000
  70
    32
  0
VERTEX
  8
実線
  5
348
 10
2.01905
 20
177.772
 30
0.000000
  70
    32
  0
VERTEX
  8
実線
  5
349
 10
2.06037
 20
177.774
 30
0.000000
  70
    32
  0
VERTEX
  8
実線
  5
34A
 10
2.10157
 20
177.776
 30
0.000000
  70
    32
  0
VERTEX
  8
実線
  5
34B
 10
2.14265
 20
177.779
 30
0.000000
  70
    32
  0
VERTEX
  8
実線
  5
34C
 10
2.18359
 20
177.783
 30
0.000000
  70
    32
  0
VERTEX
  8
実線
  5
34D
 10
2.22439
 20
177.787
 30
0.000000
  70
    32
  0
VERTEX
  8
実線
  5
34E
 10
2.26505
 20
177.791
 30
0.000000
  70
    32
  0
VERTEX
  8
実線
  5
34F
 10
2.30555
 20
177.796
 30
0.000000
  70
    32
  0
VERTEX
  8
実線
  5
350
 10
2.34589
 20
177.801
 30
0.000000
  70
    32
  0
VERTEX
  8
実線
  5
351
 10
2.38606
 20
177.807
 30
0.000000
  70
    32
  0
VERTEX
  8
実線
  5
352
 10
2.42606
 20
177.813
 30
0.000000
  70
    32
  0
VERTEX
  8
実線
  5
353
 10
2.46588
 20
177.820
 30
0.000000
  70
    32
  0
VERTEX
  8
実線
  5
354
 10
2.50550
 20
177.827
 30
0.000000
  70
    32
  0
VERTEX
  8
実線
  5
355
 10
2.54493
 20
177.835
 30
0.000000
  70
    32
  0
VERTEX
  8
実線
  5
356
 10
2.58416
 20
177.843
 30
0.000000
  70
    32
  0
VERTEX
  8
実線
  5
357
 10
2.62318
 20
177.851
 30
0.000000
  70
    32
  0
VERTEX
  8
実線
  5
358
 10
2.66198
 20
177.860
 30
0.000000
  70
    32
  0
VERTEX
  8
実線
  5
359
 10
2.70056
 20
177.870
 30
0.000000
  70
    32
  0
VERTEX
  8
実線
  5
35A
 10
2.73891
 20
177.880
 30
0.000000
  70
    32
  0
VERTEX
  8
実線
  5
35B
 10
2.76546
 20
177.887
 30
0.000000
  70
    32
  0
VERTEX
  8
実線
  5
35C
 10
2.76878
 20
177.888
 30
0.000000
  70
    32
  0
VERTEX
  8
実線
  5
35D
 10
2.77211
 20
177.889
 30
0.000000
  70
    32
  0
VERTEX
  8
実線
  5
35E
 10
2.77543
 20
177.890
 30
0.000000
  70
    32
  0
VERTEX
  8
実線
  5
35F
 10
2.77875
 20
177.891
 30
0.000000
  70
    32
  0
VERTEX
  8
実線
  5
360
 10
2.78206
 20
177.891
 30
0.000000
  70
    32
  0
VERTEX
  8
実線
  5
361
 10
2.78538
 20
177.892
 30
0.000000
  70
    32
  0
VERTEX
  8
実線
  5
362
 10
2.78869
 20
177.893
 30
0.000000
  70
    32
  0
VERTEX
  8
実線
  5
363
 10
2.79200
 20
177.894
 30
0.000000
  70
    32
  0
VERTEX
  8
実線
  5
364
 10
2.79530
 20
177.895
 30
0.000000
  70
    32
  0
VERTEX
  8
実線
  5
365
 10
2.79861
 20
177.896
 30
0.000000
  70
    32
  0
VERTEX
  8
実線
  5
366
 10
2.80191
 20
177.897
 30
0.000000
  70
    32
  0
VERTEX
  8
実線
  5
367
 10
2.80521
 20
177.898
 30
0.000000
  70
    32
  0
VERTEX
  8
実線
  5
368
 10
2.80850
 20
177.899
 30
0.000000
  70
    32
  0
VERTEX
  8
実線
  5
369
 10
2.81180
 20
177.900
 30
0.000000
  70
    32
  0
VERTEX
  8
実線
  5
36A
 10
2.81509
 20
177.901
 30
0.000000
  70
    32
  0
VERTEX
  8
実線
  5
36B
 10
2.81837
 20
177.902
 30
0.000000
  70
    32
  0
VERTEX
  8
実線
  5
36C
 10
2.82166
 20
177.903
 30
0.000000
  70
    32
  0
VERTEX
  8
実線
  5
36D
 10
2.82494
 20
177.904
 30
0.000000
  70
    32
  0
VERTEX
  8
実線
  5
36E
 10
2.82822
 20
177.905
 30
0.000000
  70
    32
  0
VERTEX
  8
実線
  5
36F
 10
2.83150
 20
177.906
 30
0.000000
  70
    32
  0
VERTEX
  8
実線
  5
370
 10
2.83477
 20
177.907
 30
0.000000
  70
    32
  0
VERTEX
  8
実線
  5
371
 10
2.83804
 20
177.908
 30
0.000000
  70
    32
  0
VERTEX
  8
実線
  5
372
 10
2.84131
 20
177.909
 30
0.000000
  70
    32
  0
VERTEX
  8
実線
  5
373
 10
2.84458
 20
177.910
 30
0.000000
  70
    32
  0
VERTEX
  8
実線
  5
374
 10
2.84784
 20
177.911
 30
0.000000
  70
    32
  0
VERTEX
  8
実線
  5
375
 10
2.85110
 20
177.912
 30
0.000000
  70
    32
  0
VERTEX
  8
実線
  5
376
 10
2.85436
 20
177.913
 30
0.000000
  70
    32
  0
VERTEX
  8
実線
  5
377
 10
2.85761
 20
177.914
 30
0.000000
  70
    32
  0
VERTEX
  8
実線
  5
378
 10
2.86087
 20
177.915
 30
0.000000
  70
    32
  0
VERTEX
  8
実線
  5
379
 10
2.86412
 20
177.916
 30
0.000000
  70
    32
  0
VERTEX
  8
実線
  5
37A
 10
2.86736
 20
177.917
 30
0.000000
  70
    32
  0
VERTEX
  8
実線
  5
37B
 10
2.87061
 20
177.919
 30
0.000000
  70
    32
  0
VERTEX
  8
実線
  5
37C
 10
2.87385
 20
177.920
 30
0.000000
  70
    32
  0
VERTEX
  8
実線
  5
37D
 10
2.87709
 20
177.921
 30
0.000000
  70
    32
  0
VERTEX
  8
実線
  5
37E
 10
2.88032
 20
177.922
 30
0.000000
  70
    32
  0
VERTEX
  8
実線
  5
37F
 10
2.88356
 20
177.923
 30
0.000000
  70
    32
  0
VERTEX
  8
実線
  5
380
 10
2.88679
 20
177.924
 30
0.000000
  70
    32
  0
VERTEX
  8
実線
  5
381
 10
2.89001
 20
177.925
 30
0.000000
  70
    32
  0
VERTEX
  8
実線
  5
382
 10
2.89324
 20
177.926
 30
0.000000
  70
    32
  0
VERTEX
  8
実線
  5
383
 10
2.89646
 20
177.927
 30
0.000000
  70
    32
  0
VERTEX
  8
実線
  5
384
 10
2.89968
 20
177.928
 30
0.000000
  70
    32
  0
VERTEX
  8
実線
  5
385
 10
2.90289
 20
177.929
 30
0.000000
  70
    32
  0
VERTEX
  8
実線
  5
386
 10
2.90611
 20
177.930
 30
0.000000
  70
    32
  0
VERTEX
  8
実線
  5
387
 10
2.90932
 20
177.931
 30
0.000000
  70
    32
  0
VERTEX
  8
実線
  5
388
 10
2.91252
 20
177.932
 30
0.000000
  70
    32
  0
VERTEX
  8
実線
  5
389
 10
2.91573
 20
177.933
 30
0.000000
  70
    32
  0
VERTEX
  8
実線
  5
38A
 10
2.91893
 20
177.934
 30
0.000000
  70
    32
  0
VERTEX
  8
実線
  5
38B
 10
2.92213
 20
177.936
 30
0.000000
  70
    32
  0
VERTEX
  8
実線
  5
38C
 10
2.92533
 20
177.937
 30
0.000000
  70
    32
  0
VERTEX
  8
実線
  5
38D
 10
2.92852
 20
177.938
 30
0.000000
  70
    32
  0
VERTEX
  8
実線
  5
38E
 10
2.93171
 20
177.939
 30
0.000000
  70
    32
  0
VERTEX
  8
実線
  5
38F
 10
2.93490
 20
177.940
 30
0.000000
  70
    32
  0
VERTEX
  8
実線
  5
390
 10
2.93808
 20
177.941
 30
0.000000
  70
    32
  0
VERTEX
  8
実線
  5
391
 10
2.94126
 20
177.942
 30
0.000000
  70
    32
  0
VERTEX
  8
実線
  5
392
 10
2.94444
 20
177.943
 30
0.000000
  70
    32
  0
VERTEX
  8
実線
  5
393
 10
2.94761
 20
177.944
 30
0.000000
  70
    32
  0
VERTEX
  8
実線
  5
394
 10
2.95079
 20
177.946
 30
0.000000
  70
    32
  0
VERTEX
  8
実線
  5
395
 10
2.95396
 20
177.947
 30
0.000000
  70
    32
  0
VERTEX
  8
実線
  5
396
 10
2.95712
 20
177.948
 30
0.000000
  70
    32
  0
VERTEX
  8
実線
  5
397
 10
2.96029
 20
177.949
 30
0.000000
  70
    32
  0
VERTEX
  8
実線
  5
398
 10
2.96345
 20
177.950
 30
0.000000
  70
    32
  0
VERTEX
  8
実線
  5
399
 10
2.96660
 20
177.951
 30
0.000000
  70
    32
  0
VERTEX
  8
実線
  5
39A
 10
2.96976
 20
177.952
 30
0.000000
  70
    32
  0
VERTEX
  8
実線
  5
39B
 10
2.97291
 20
177.953
 30
0.000000
  70
    32
  0
VERTEX
  8
実線
  5
39C
 10
2.97606
 20
177.955
 30
0.000000
  70
    32
  0
VERTEX
  8
実線
  5
39D
 10
2.97920
 20
177.956
 30
0.000000
  70
    32
  0
VERTEX
  8
実線
  5
39E
 10
2.98235
 20
177.957
 30
0.000000
  70
    32
  0
VERTEX
  8
実線
  5
39F
 10
2.98549
 20
177.958
 30
0.000000
  70
    32
  0
VERTEX
  8
実線
  5
3A0
 10
2.98862
 20
177.959
 30
0.000000
  70
    32
  0
VERTEX
  8
実線
  5
3A1
 10
2.99176
 20
177.960
 30
0.000000
  70
    32
  0
VERTEX
  8
実線
  5
3A2
 10
2.99489
 20
177.961
 30
0.000000
  70
    32
  0
VERTEX
  8
実線
  5
3A3
 10
2.99801
 20
177.963
 30
0.000000
  70
    32
  0
VERTEX
  8
実線
  5
3A4
 10
3.00114
 20
177.964
 30
0.000000
  70
    32
  0
VERTEX
  8
実線
  5
3A5
 10
3.00426
 20
177.965
 30
0.000000
  70
    32
  0
VERTEX
  8
実線
  5
3A6
 10
3.00738
 20
177.966
 30
0.000000
  70
    32
  0
VERTEX
  8
実線
  5
3A7
 10
3.01049
 20
177.967
 30
0.000000
  70
    32
  0
VERTEX
  8
実線
  5
3A8
 10
3.01361
 20
177.968
 30
0.000000
  70
    32
  0
VERTEX
  8
実線
  5
3A9
 10
3.01671
 20
177.970
 30
0.000000
  70
    32
  0
VERTEX
  8
実線
  5
3AA
 10
3.01982
 20
177.971
 30
0.000000
  70
    32
  0
VERTEX
  8
実線
  5
3AB
 10
3.02292
 20
177.972
 30
0.000000
  70
    32
  0
VERTEX
  8
実線
  5
3AC
 10
3.02602
 20
177.973
 30
0.000000
  70
    32
  0
VERTEX
  8
実線
  5
3AD
 10
3.02912
 20
177.974
 30
0.000000
  70
    32
  0
VERTEX
  8
実線
  5
3AE
 10
3.03221
 20
177.976
 30
0.000000
  70
    32
  0
VERTEX
  8
実線
  5
3AF
 10
3.03530
 20
177.977
 30
0.000000
  70
    32
  0
VERTEX
  8
実線
  5
3B0
 10
3.03839
 20
177.978
 30
0.000000
  70
    32
  0
VERTEX
  8
実線
  5
3B1
 10
3.04147
 20
177.979
 30
0.000000
  70
    32
  0
VERTEX
  8
実線
  5
3B2
 10
3.04456
 20
177.980
 30
0.000000
  70
    32
  0
VERTEX
  8
実線
  5
3B3
 10
3.04763
 20
177.982
 30
0.000000
  70
    32
  0
VERTEX
  8
実線
  5
3B4
 10
3.05071
 20
177.983
 30
0.000000
  70
    32
  0
VERTEX
  8
実線
  5
3B5
 10
3.05378
 20
177.984
 30
0.000000
  70
    32
  0
VERTEX
  8
実線
  5
3B6
 10
3.05685
 20
177.985
 30
0.000000
  70
    32
  0
VERTEX
  8
実線
  5
3B7
 10
3.05991
 20
177.986
 30
0.000000
  70
    32
  0
VERTEX
  8
実線
  5
3B8
 10
3.06297
 20
177.988
 30
0.000000
  70
    32
  0
VERTEX
  8
実線
  5
3B9
 10
3.06603
 20
177.989
 30
0.000000
  70
    32
  0
VERTEX
  8
実線
  5
3BA
 10
3.06909
 20
177.990
 30
0.000000
  70
    32
  0
VERTEX
  8
実線
  5
3BB
 10
3.07214
 20
177.991
 30
0.000000
  70
    32
  0
VERTEX
  8
実線
  5
3BC
 10
3.07519
 20
177.993
 30
0.000000
  70
    32
  0
VERTEX
  8
実線
  5
3BD
 10
3.07823
 20
177.994
 30
0.000000
  70
    32
  0
VERTEX
  8
実線
  5
3BE
 10
3.08128
 20
177.995
 30
0.000000
  70
    32
  0
VERTEX
  8
実線
  5
3BF
 10
3.08432
 20
177.996
 30
0.000000
  70
    32
  0
VERTEX
  8
実線
  5
3C0
 10
3.08735
 20
177.998
 30
0.000000
  70
    32
  0
VERTEX
  8
実線
  5
3C1
 10
3.09038
 20
177.999
 30
0.000000
  70
    32
  0
VERTEX
  8
実線
  5
3C2
 10
3.09341
 20
178.000
 30
0.000000
  70
    32
  0
VERTEX
  8
実線
  5
3C3
 10
3.09644
 20
178.001
 30
0.000000
  70
    32
  0
VERTEX
  8
実線
  5
3C4
 10
3.09946
 20
178.003
 30
0.000000
  70
    32
  0
VERTEX
  8
実線
  5
3C5
 10
3.10248
 20
178.004
 30
0.000000
  70
    32
  0
SEQEND
  8
実線
  5
3C6
  0
POLYLINE
  8
実線
  5
3C7
  62
7
  66
     1
 10
0.000000
 20
0.000000
 30
0.000000
  70
     8
  0
VERTEX
  8
実線
  5
3C8
 10
-4.19217
 20
179.371
 30
0.000000
  70
    32
  0
VERTEX
  8
実線
  5
3C9
 10
-4.20099
 20
179.343
 30
0.000000
  70
    32
  0
VERTEX
  8
実線
  5
3CA
 10
-4.20903
 20
179.315
 30
0.000000
  70
    32
  0
VERTEX
  8
実線
  5
3CB
 10
-4.21631
 20
179.287
 30
0.000000
  70
    32
  0
VERTEX
  8
実線
  5
3CC
 10
-4.22283
 20
179.259
 30
0.000000
  70
    32
  0
VERTEX
  8
実線
  5
3CD
 10
-4.22860
 20
179.230
 30
0.000000
  70
    32
  0
VERTEX
  8
実線
  5
3CE
 10
-4.23361
 20
179.202
 30
0.000000
  70
    32
  0
VERTEX
  8
実線
  5
3CF
 10
-4.23787
 20
179.174
 30
0.000000
  70
    32
  0
VERTEX
  8
実線
  5
3D0
 10
-4.24138
 20
179.146
 30
0.000000
  70
    32
  0
VERTEX
  8
実線
  5
3D1
 10
-4.24415
 20
179.118
 30
0.000000
  70
    32
  0
VERTEX
  8
実線
  5
3D2
 10
-4.24619
 20
179.090
 30
0.000000
  70
    32
  0
VERTEX
  8
実線
  5
3D3
 10
-4.24750
 20
179.061
 30
0.000000
  70
    32
  0
VERTEX
  8
実線
  5
3D4
 10
-4.24807
 20
179.033
 30
0.000000
  70
    32
  0
VERTEX
  8
実線
  5
3D5
 10
-4.24793
 20
179.005
 30
0.000000
  70
    32
  0
VERTEX
  8
実線
  5
3D6
 10
-4.24706
 20
178.977
 30
0.000000
  70
    32
  0
VERTEX
  8
実線
  5
3D7
 10
-4.24548
 20
178.949
 30
0.000000
  70
    32
  0
VERTEX
  8
実線
  5
3D8
 10
-4.24318
 20
178.921
 30
0.000000
  70
    32
  0
VERTEX
  8
実線
  5
3D9
 10
-4.24018
 20
178.893
 30
0.000000
  70
    32
  0
VERTEX
  8
実線
  5
3DA
 10
-4.23648
 20
178.865
 30
0.000000
  70
    32
  0
VERTEX
  8
実線
  5
3DB
 10
-4.23208
 20
178.837
 30
0.000000
  70
    32
  0
VERTEX
  8
実線
  5
3DC
 10
-4.22698
 20
178.810
 30
0.000000
  70
    32
  0
VERTEX
  8
実線
  5
3DD
 10
-4.22119
 20
178.782
 30
0.000000
  70
    32
  0
VERTEX
  8
実線
  5
3DE
 10
-4.21472
 20
178.754
 30
0.000000
  70
    32
  0
VERTEX
  8
実線
  5
3DF
 10
-4.20756
 20
178.727
 30
0.000000
  70
    32
  0
VERTEX
  8
実線
  5
3E0
 10
-4.19973
 20
178.699
 30
0.000000
  70
    32
  0
VERTEX
  8
実線
  5
3E1
 10
-4.19122
 20
178.672
 30
0.000000
  70
    32
  0
VERTEX
  8
実線
  5
3E2
 10
-4.18205
 20
178.644
 30
0.000000
  70
    32
  0
VERTEX
  8
実線
  5
3E3
 10
-4.17220
 20
178.617
 30
0.000000
  70
    32
  0
VERTEX
  8
実線
  5
3E4
 10
-4.16170
 20
178.590
 30
0.000000
  70
    32
  0
VERTEX
  8
実線
  5
3E5
 10
-4.15054
 20
178.562
 30
0.000000
  70
    32
  0
VERTEX
  8
実線
  5
3E6
 10
-4.13873
 20
178.535
 30
0.000000
  70
    32
  0
VERTEX
  8
実線
  5
3E7
 10
-4.12627
 20
178.508
 30
0.000000
  70
    32
  0
VERTEX
  8
実線
  5
3E8
 10
-4.11317
 20
178.481
 30
0.000000
  70
    32
  0
VERTEX
  8
実線
  5
3E9
 10
-4.09942
 20
178.455
 30
0.000000
  70
    32
  0
VERTEX
  8
実線
  5
3EA
 10
-4.08504
 20
178.428
 30
0.000000
  70
    32
  0
VERTEX
  8
実線
  5
3EB
 10
-4.07003
 20
178.401
 30
0.000000
  70
    32
  0
VERTEX
  8
実線
  5
3EC
 10
-4.05439
 20
178.375
 30
0.000000
  70
    32
  0
VERTEX
  8
実線
  5
3ED
 10
-4.03813
 20
178.348
 30
0.000000
  70
    32
  0
VERTEX
  8
実線
  5
3EE
 10
-4.02125
 20
178.322
 30
0.000000
  70
    32
  0
VERTEX
  8
実線
  5
3EF
 10
-4.00375
 20
178.296
 30
0.000000
  70
    32
  0
VERTEX
  8
実線
  5
3F0
 10
-3.98564
 20
178.270
 30
0.000000
  70
    32
  0
VERTEX
  8
実線
  5
3F1
 10
-3.96693
 20
178.244
 30
0.000000
  70
    32
  0
VERTEX
  8
実線
  5
3F2
 10
-3.94762
 20
178.218
 30
0.000000
  70
    32
  0
VERTEX
  8
実線
  5
3F3
 10
-3.92770
 20
178.193
 30
0.000000
  70
    32
  0
VERTEX
  8
実線
  5
3F4
 10
-3.90720
 20
178.167
 30
0.000000
  70
    32
  0
VERTEX
  8
実線
  5
3F5
 10
-3.88610
 20
178.142
 30
0.000000
  70
    32
  0
VERTEX
  8
実線
  5
3F6
 10
-3.86442
 20
178.117
 30
0.000000
  70
    32
  0
VERTEX
  8
実線
  5
3F7
 10
-3.84216
 20
178.092
 30
0.000000
  70
    32
  0
VERTEX
  8
実線
  5
3F8
 10
-3.81932
 20
178.067
 30
0.000000
  70
    32
  0
VERTEX
  8
実線
  5
3F9
 10
-3.79590
 20
178.042
 30
0.000000
  70
    32
  0
VERTEX
  8
実線
  5
3FA
 10
-3.77192
 20
178.017
 30
0.000000
  70
    32
  0
VERTEX
  8
実線
  5
3FB
 10
-3.74738
 20
177.993
 30
0.000000
  70
    32
  0
VERTEX
  8
実線
  5
3FC
 10
-3.72227
 20
177.969
 30
0.000000
  70
    32
  0
VERTEX
  8
実線
  5
3FD
 10
-3.69661
 20
177.944
 30
0.000000
  70
    32
  0
VERTEX
  8
実線
  5
3FE
 10
-3.67040
 20
177.920
 30
0.000000
  70
    32
  0
VERTEX
  8
実線
  5
3FF
 10
-3.64364
 20
177.897
 30
0.000000
  70
    32
  0
VERTEX
  8
実線
  5
400
 10
-3.61633
 20
177.873
 30
0.000000
  70
    32
  0
VERTEX
  8
実線
  5
401
 10
-3.58849
 20
177.850
 30
0.000000
  70
    32
  0
VERTEX
  8
実線
  5
402
 10
-3.56011
 20
177.827
 30
0.000000
  70
    32
  0
VERTEX
  8
実線
  5
403
 10
-3.53120
 20
177.804
 30
0.000000
  70
    32
  0
VERTEX
  8
実線
  5
404
 10
-3.50177
 20
177.781
 30
0.000000
  70
    32
  0
VERTEX
  8
実線
  5
405
 10
-3.47181
 20
177.758
 30
0.000000
  70
    32
  0
VERTEX
  8
実線
  5
406
 10
-3.44133
 20
177.736
 30
0.000000
  70
    32
  0
VERTEX
  8
実線
  5
407
 10
-3.41034
 20
177.713
 30
0.000000
  70
    32
  0
VERTEX
  8
実線
  5
408
 10
-3.37884
 20
177.691
 30
0.000000
  70
    32
  0
VERTEX
  8
実線
  5
409
 10
-3.34684
 20
177.670
 30
0.000000
  70
    32
  0
VERTEX
  8
実線
  5
40A
 10
-3.31433
 20
177.648
 30
0.000000
  70
    32
  0
VERTEX
  8
実線
  5
40B
 10
-3.28133
 20
177.627
 30
0.000000
  70
    32
  0
VERTEX
  8
実線
  5
40C
 10
-3.24783
 20
177.606
 30
0.000000
  70
    32
  0
VERTEX
  8
実線
  5
40D
 10
-3.21385
 20
177.585
 30
0.000000
  70
    32
  0
VERTEX
  8
実線
  5
40E
 10
-3.17938
 20
177.564
 30
0.000000
  70
    32
  0
VERTEX
  8
実線
  5
40F
 10
-3.14442
 20
177.544
 30
0.000000
  70
    32
  0
VERTEX
  8
実線
  5
410
 10
-3.10900
 20
177.523
 30
0.000000
  70
    32
  0
VERTEX
  8
実線
  5
411
 10
-3.07310
 20
177.503
 30
0.000000
  70
    32
  0
VERTEX
  8
実線
  5
412
 10
-3.03673
 20
177.484
 30
0.000000
  70
    32
  0
VERTEX
  8
実線
  5
413
 10
-2.99990
 20
177.464
 30
0.000000
  70
    32
  0
VERTEX
  8
実線
  5
414
 10
-2.96262
 20
177.445
 30
0.000000
  70
    32
  0
VERTEX
  8
実線
  5
415
 10
-2.92487
 20
177.426
 30
0.000000
  70
    32
  0
VERTEX
  8
実線
  5
416
 10
-2.88668
 20
177.407
 30
0.000000
  70
    32
  0
VERTEX
  8
実線
  5
417
 10
-2.84803
 20
177.389
 30
0.000000
  70
    32
  0
VERTEX
  8
実線
  5
418
 10
-2.80895
 20
177.371
 30
0.000000
  70
    32
  0
VERTEX
  8
実線
  5
419
 10
-2.76943
 20
177.353
 30
0.000000
  70
    32
  0
VERTEX
  8
実線
  5
41A
 10
-2.72947
 20
177.335
 30
0.000000
  70
    32
  0
VERTEX
  8
実線
  5
41B
 10
-2.68908
 20
177.318
 30
0.000000
  70
    32
  0
VERTEX
  8
実線
  5
41C
 10
-2.64827
 20
177.301
 30
0.000000
  70
    32
  0
VERTEX
  8
実線
  5
41D
 10
-2.60704
 20
177.284
 30
0.000000
  70
    32
  0
VERTEX
  8
実線
  5
41E
 10
-2.56539
 20
177.267
 30
0.000000
  70
    32
  0
VERTEX
  8
実線
  5
41F
 10
-2.52332
 20
177.251
 30
0.000000
  70
    32
  0
VERTEX
  8
実線
  5
420
 10
-2.48085
 20
177.235
 30
0.000000
  70
    32
  0
VERTEX
  8
実線
  5
421
 10
-2.43797
 20
177.220
 30
0.000000
  70
    32
  0
VERTEX
  8
実線
  5
422
 10
-2.39469
 20
177.204
 30
0.000000
  70
    32
  0
VERTEX
  8
実線
  5
423
 10
-2.35102
 20
177.189
 30
0.000000
  70
    32
  0
VERTEX
  8
実線
  5
424
 10
-2.30695
 20
177.175
 30
0.000000
  70
    32
  0
VERTEX
  8
実線
  5
425
 10
-2.26249
 20
177.160
 30
0.000000
  70
    32
  0
VERTEX
  8
実線
  5
426
 10
-2.21766
 20
177.146
 30
0.000000
  70
    32
  0
VERTEX
  8
実線
  5
427
 10
-2.17244
 20
177.132
 30
0.000000
  70
    32
  0
VERTEX
  8
実線
  5
428
 10
-2.12684
 20
177.119
 30
0.000000
  70
    32
  0
VERTEX
  8
実線
  5
429
 10
-2.08088
 20
177.106
 30
0.000000
  70
    32
  0
VERTEX
  8
実線
  5
42A
 10
-2.03455
 20
177.093
 30
0.000000
  70
    32
  0
VERTEX
  8
実線
  5
42B
 10
-1.98785
 20
177.081
 30
0.000000
  70
    32
  0
VERTEX
  8
実線
  5
42C
 10
-1.94080
 20
177.069
 30
0.000000
  70
    32
  0
VERTEX
  8
実線
  5
42D
 10
-1.89339
 20
177.057
 30
0.000000
  70
    32
  0
VERTEX
  8
実線
  5
42E
 10
-1.84564
 20
177.045
 30
0.000000
  70
    32
  0
VERTEX
  8
実線
  5
42F
 10
-1.79753
 20
177.034
 30
0.000000
  70
    32
  0
VERTEX
  8
実線
  5
430
 10
-1.74909
 20
177.024
 30
0.000000
  70
    32
  0
VERTEX
  8
実線
  5
431
 10
-1.70031
 20
177.013
 30
0.000000
  70
    32
  0
VERTEX
  8
実線
  5
432
 10
-1.65119
 20
177.003
 30
0.000000
  70
    32
  0
VERTEX
  8
実線
  5
433
 10
-1.60175
 20
176.994
 30
0.000000
  70
    32
  0
VERTEX
  8
実線
  5
434
 10
-1.55198
 20
176.984
 30
0.000000
  70
    32
  0
VERTEX
  8
実線
  5
435
 10
-1.50188
 20
176.975
 30
0.000000
  70
    32
  0
VERTEX
  8
実線
  5
436
 10
-1.45148
 20
176.967
 30
0.000000
  70
    32
  0
VERTEX
  8
実線
  5
437
 10
-1.40076
 20
176.959
 30
0.000000
  70
    32
  0
VERTEX
  8
実線
  5
438
 10
-1.36252
 20
176.953
 30
0.000000
  70
    32
  0
VERTEX
  8
実線
  5
439
 10
-1.33699
 20
176.949
 30
0.000000
  70
    32
  0
VERTEX
  8
実線
  5
43A
 10
-1.31145
 20
176.946
 30
0.000000
  70
    32
  0
VERTEX
  8
実線
  5
43B
 10
-1.28589
 20
176.942
 30
0.000000
  70
    32
  0
VERTEX
  8
実線
  5
43C
 10
-1.26033
 20
176.938
 30
0.000000
  70
    32
  0
VERTEX
  8
実線
  5
43D
 10
-1.23476
 20
176.935
 30
0.000000
  70
    32
  0
VERTEX
  8
実線
  5
43E
 10
-1.20918
 20
176.932
 30
0.000000
  70
    32
  0
VERTEX
  8
実線
  5
43F
 10
-1.18359
 20
176.929
 30
0.000000
  70
    32
  0
VERTEX
  8
実線
  5
440
 10
-1.15799
 20
176.926
 30
0.000000
  70
    32
  0
VERTEX
  8
実線
  5
441
 10
-1.13240
 20
176.923
 30
0.000000
  70
    32
  0
VERTEX
  8
実線
  5
442
 10
-1.10679
 20
176.920
 30
0.000000
  70
    32
  0
VERTEX
  8
実線
  5
443
 10
-1.08119
 20
176.917
 30
0.000000
  70
    32
  0
VERTEX
  8
実線
  5
444
 10
-1.05558
 20
176.915
 30
0.000000
  70
    32
  0
VERTEX
  8
実線
  5
445
 10
-1.02997
 20
176.912
 30
0.000000
  70
    32
  0
VERTEX
  8
実線
  5
446
 10
-1.00436
 20
176.910
 30
0.000000
  70
    32
  0
VERTEX
  8
実線
  5
447
 10
-0.978755
 20
176.908
 30
0.000000
  70
    32
  0
VERTEX
  8
実線
  5
448
 10
-0.953149
 20
176.905
 30
0.000000
  70
    32
  0
VERTEX
  8
実線
  5
449
 10
-0.927547
 20
176.903
 30
0.000000
  70
    32
  0
VERTEX
  8
実線
  5
44A
 10
-0.901948
 20
176.901
 30
0.000000
  70
    32
  0
VERTEX
  8
実線
  5
44B
 10
-0.876354
 20
176.900
 30
0.000000
  70
    32
  0
VERTEX
  8
実線
  5
44C
 10
-0.850766
 20
176.898
 30
0.000000
  70
    32
  0
VERTEX
  8
実線
  5
44D
 10
-0.825186
 20
176.896
 30
0.000000
  70
    32
  0
VERTEX
  8
実線
  5
44E
 10
-0.799613
 20
176.895
 30
0.000000
  70
    32
  0
VERTEX
  8
実線
  5
44F
 10
-0.774049
 20
176.893
 30
0.000000
  70
    32
  0
VERTEX
  8
実線
  5
450
 10
-0.748495
 20
176.892
 30
0.000000
  70
    32
  0
VERTEX
  8
実線
  5
451
 10
-0.722952
 20
176.891
 30
0.000000
  70
    32
  0
VERTEX
  8
実線
  5
452
 10
-0.697420
 20
176.890
 30
0.000000
  70
    32
  0
VERTEX
  8
実線
  5
453
 10
-0.671902
 20
176.889
 30
0.000000
  70
    32
  0
VERTEX
  8
実線
  5
454
 10
-0.646398
 20
176.888
 30
0.000000
  70
    32
  0
VERTEX
  8
実線
  5
455
 10
-0.620908
 20
176.887
 30
0.000000
  70
    32
  0
VERTEX
  8
実線
  5
456
 10
-0.595434
 20
176.886
 30
0.000000
  70
    32
  0
VERTEX
  8
実線
  5
457
 10
-0.569977
 20
176.886
 30
0.000000
  70
    32
  0
VERTEX
  8
実線
  5
458
 10
-0.544539
 20
176.885
 30
0.000000
  70
    32
  0
VERTEX
  8
実線
  5
459
 10
-0.519118
 20
176.885
 30
0.000000
  70
    32
  0
VERTEX
  8
実線
  5
45A
 10
-0.493718
 20
176.885
 30
0.000000
  70
    32
  0
VERTEX
  8
実線
  5
45B
 10
-0.468339
 20
176.884
 30
0.000000
  70
    32
  0
VERTEX
  8
実線
  5
45C
 10
-0.442981
 20
176.884
 30
0.000000
  70
    32
  0
VERTEX
  8
実線
  5
45D
 10
-0.417646
 20
176.884
 30
0.000000
  70
    32
  0
VERTEX
  8
実線
  5
45E
 10
-0.392335
 20
176.885
 30
0.000000
  70
    32
  0
VERTEX
  8
実線
  5
45F
 10
-0.367049
 20
176.885
 30
0.000000
  70
    32
  0
VERTEX
  8
実線
  5
460
 10
-0.341788
 20
176.885
 30
0.000000
  70
    32
  0
VERTEX
  8
実線
  5
461
 10
-0.316555
 20
176.886
 30
0.000000
  70
    32
  0
VERTEX
  8
実線
  5
462
 10
-0.291349
 20
176.886
 30
0.000000
  70
    32
  0
VERTEX
  8
実線
  5
463
 10
-0.266171
 20
176.887
 30
0.000000
  70
    32
  0
VERTEX
  8
実線
  5
464
 10
-0.241024
 20
176.888
 30
0.000000
  70
    32
  0
VERTEX
  8
実線
  5
465
 10
-0.215907
 20
176.889
 30
0.000000
  70
    32
  0
VERTEX
  8
実線
  5
466
 10
-0.190822
 20
176.890
 30
0.000000
  70
    32
  0
VERTEX
  8
実線
  5
467
 10
-0.165770
 20
176.891
 30
0.000000
  70
    32
  0
VERTEX
  8
実線
  5
468
 10
-0.140752
 20
176.892
 30
0.000000
  70
    32
  0
VERTEX
  8
実線
  5
469
 10
-0.115768
 20
176.893
 30
0.000000
  70
    32
  0
VERTEX
  8
実線
  5
46A
 10
-0.0908199
 20
176.895
 30
0.000000
  70
    32
  0
VERTEX
  8
実線
  5
46B
 10
-0.0659085
 20
176.896
 30
0.000000
  70
    32
  0
VERTEX
  8
実線
  5
46C
 10
-0.0410348
 20
176.898
 30
0.000000
  70
    32
  0
VERTEX
  8
実線
  5
46D
 10
-0.0161998
 20
176.899
 30
0.000000
  70
    32
  0
VERTEX
  8
実線
  5
46E
 10
0.00859559
 20
176.901
 30
0.000000
  70
    32
  0
VERTEX
  8
実線
  5
46F
 10
0.0333503
 20
176.903
 30
0.000000
  70
    32
  0
VERTEX
  8
実線
  5
470
 10
0.0580633
 20
176.905
 30
0.000000
  70
    32
  0
VERTEX
  8
実線
  5
471
 10
0.0827337
 20
176.907
 30
0.000000
  70
    32
  0
VERTEX
  8
実線
  5
472
 10
0.107361
 20
176.909
 30
0.000000
  70
    32
  0
VERTEX
  8
実線
  5
473
 10
0.131943
 20
176.912
 30
0.000000
  70
    32
  0
VERTEX
  8
実線
  5
474
 10
0.156479
 20
176.914
 30
0.000000
  70
    32
  0
VERTEX
  8
実線
  5
475
 10
0.180969
 20
176.917
 30
0.000000
  70
    32
  0
VERTEX
  8
実線
  5
476
 10
0.205411
 20
176.919
 30
0.000000
  70
    32
  0
VERTEX
  8
実線
  5
477
 10
0.229805
 20
176.922
 30
0.000000
  70
    32
  0
VERTEX
  8
実線
  5
478
 10
0.254149
 20
176.925
 30
0.000000
  70
    32
  0
VERTEX
  8
実線
  5
479
 10
0.278443
 20
176.928
 30
0.000000
  70
    32
  0
VERTEX
  8
実線
  5
47A
 10
0.302685
 20
176.931
 30
0.000000
  70
    32
  0
VERTEX
  8
実線
  5
47B
 10
0.326874
 20
176.934
 30
0.000000
  70
    32
  0
VERTEX
  8
実線
  5
47C
 10
0.351010
 20
176.937
 30
0.000000
  70
    32
  0
VERTEX
  8
実線
  5
47D
 10
0.375092
 20
176.941
 30
0.000000
  70
    32
  0
VERTEX
  8
実線
  5
47E
 10
0.399117
 20
176.944
 30
0.000000
  70
    32
  0
VERTEX
  8
実線
  5
47F
 10
0.423087
 20
176.948
 30
0.000000
  70
    32
  0
VERTEX
  8
実線
  5
480
 10
0.446998
 20
176.951
 30
0.000000
  70
    32
  0
VERTEX
  8
実線
  5
481
 10
0.470852
 20
176.955
 30
0.000000
  70
    32
  0
VERTEX
  8
実線
  5
482
 10
0.494645
 20
176.959
 30
0.000000
  70
    32
  0
VERTEX
  8
実線
  5
483
 10
0.518379
 20
176.963
 30
0.000000
  70
    32
  0
VERTEX
  8
実線
  5
484
 10
0.542051
 20
176.967
 30
0.000000
  70
    32
  0
VERTEX
  8
実線
  5
485
 10
0.565660
 20
176.971
 30
0.000000
  70
    32
  0
VERTEX
  8
実線
  5
486
 10
0.589206
 20
176.975
 30
0.000000
  70
    32
  0
VERTEX
  8
実線
  5
487
 10
0.612687
 20
176.980
 30
0.000000
  70
    32
  0
VERTEX
  8
実線
  5
488
 10
0.636103
 20
176.984
 30
0.000000
  70
    32
  0
VERTEX
  8
実線
  5
489
 10
0.659452
 20
176.989
 30
0.000000
  70
    32
  0
VERTEX
  8
実線
  5
48A
 10
0.682735
 20
176.993
 30
0.000000
  70
    32
  0
VERTEX
  8
実線
  5
48B
 10
0.705948
 20
176.998
 30
0.000000
  70
    32
  0
VERTEX
  8
実線
  5
48C
 10
0.729092
 20
177.003
 30
0.000000
  70
    32
  0
VERTEX
  8
実線
  5
48D
 10
0.752166
 20
177.008
 30
0.000000
  70
    32
  0
VERTEX
  8
実線
  5
48E
 10
0.775169
 20
177.013
 30
0.000000
  70
    32
  0
VERTEX
  8
実線
  5
48F
 10
0.798099
 20
177.018
 30
0.000000
  70
    32
  0
VERTEX
  8
実線
  5
490
 10
0.820955
 20
177.024
 30
0.000000
  70
    32
  0
VERTEX
  8
実線
  5
491
 10
0.843738
 20
177.029
 30
0.000000
  70
    32
  0
VERTEX
  8
実線
  5
492
 10
0.866444
 20
177.034
 30
0.000000
  70
    32
  0
VERTEX
  8
実線
  5
493
 10
0.889075
 20
177.040
 30
0.000000
  70
    32
  0
VERTEX
  8
実線
  5
494
 10
0.911628
 20
177.046
 30
0.000000
  70
    32
  0
VERTEX
  8
実線
  5
495
 10
0.934103
 20
177.051
 30
0.000000
  70
    32
  0
VERTEX
  8
実線
  5
496
 10
0.956498
 20
177.057
 30
0.000000
  70
    32
  0
VERTEX
  8
実線
  5
497
 10
0.978814
 20
177.063
 30
0.000000
  70
    32
  0
VERTEX
  8
実線
  5
498
 10
1.00105
 20
177.069
 30
0.000000
  70
    32
  0
VERTEX
  8
実線
  5
499
 10
1.02320
 20
177.075
 30
0.000000
  70
    32
  0
VERTEX
  8
実線
  5
49A
 10
1.04527
 20
177.082
 30
0.000000
  70
    32
  0
VERTEX
  8
実線
  5
49B
 10
1.06725
 20
177.088
 30
0.000000
  70
    32
  0
VERTEX
  8
実線
  5
49C
 10
1.08915
 20
177.095
 30
0.000000
  70
    32
  0
VERTEX
  8
実線
  5
49D
 10
1.11096
 20
177.101
 30
0.000000
  70
    32
  0
VERTEX
  8
実線
  5
49E
 10
1.13269
 20
177.108
 30
0.000000
  70
    32
  0
VERTEX
  8
実線
  5
49F
 10
1.15432
 20
177.115
 30
0.000000
  70
    32
  0
VERTEX
  8
実線
  5
4A0
 10
1.17587
 20
177.121
 30
0.000000
  70
    32
  0
VERTEX
  8
実線
  5
4A1
 10
1.19733
 20
177.128
 30
0.000000
  70
    32
  0
VERTEX
  8
実線
  5
4A2
 10
1.21870
 20
177.135
 30
0.000000
  70
    32
  0
VERTEX
  8
実線
  5
4A3
 10
1.23997
 20
177.143
 30
0.000000
  70
    32
  0
VERTEX
  8
実線
  5
4A4
 10
1.26115
 20
177.150
 30
0.000000
  70
    32
  0
VERTEX
  8
実線
  5
4A5
 10
1.28224
 20
177.157
 30
0.000000
  70
    32
  0
VERTEX
  8
実線
  5
4A6
 10
1.30323
 20
177.165
 30
0.000000
  70
    32
  0
VERTEX
  8
実線
  5
4A7
 10
1.32412
 20
177.172
 30
0.000000
  70
    32
  0
SEQEND
  8
実線
  5
4A8
  0
POLYLINE
  8
実線
  5
4A9
  62
7
  66
     1
 10
0.000000
 20
0.000000
 30
0.000000
  70
     8
  0
VERTEX
  8
実線
  5
4AA
 10
129.676
 20
222.046
 30
0.000000
  70
    32
  0
VERTEX
  8
実線
  5
4AB
 10
129.653
 20
222.037
 30
0.000000
  70
    32
  0
VERTEX
  8
実線
  5
4AC
 10
129.631
 20
222.027
 30
0.000000
  70
    32
  0
VERTEX
  8
実線
  5
4AD
 10
129.608
 20
222.016
 30
0.000000
  70
    32
  0
VERTEX
  8
実線
  5
4AE
 10
129.586
 20
222.006
 30
0.000000
  70
    32
  0
VERTEX
  8
実線
  5
4AF
 10
129.565
 20
221.994
 30
0.000000
  70
    32
  0
VERTEX
  8
実線
  5
4B0
 10
129.543
 20
221.983
 30
0.000000
  70
    32
  0
VERTEX
  8
実線
  5
4B1
 10
129.522
 20
221.971
 30
0.000000
  70
    32
  0
VERTEX
  8
実線
  5
4B2
 10
129.501
 20
221.958
 30
0.000000
  70
    32
  0
VERTEX
  8
実線
  5
4B3
 10
129.480
 20
221.945
 30
0.000000
  70
    32
  0
VERTEX
  8
実線
  5
4B4
 10
129.460
 20
221.931
 30
0.000000
  70
    32
  0
VERTEX
  8
実線
  5
4B5
 10
129.440
 20
221.918
 30
0.000000
  70
    32
  0
VERTEX
  8
実線
  5
4B6
 10
129.420
 20
221.903
 30
0.000000
  70
    32
  0
VERTEX
  8
実線
  5
4B7
 10
129.400
 20
221.888
 30
0.000000
  70
    32
  0
VERTEX
  8
実線
  5
4B8
 10
129.381
 20
221.873
 30
0.000000
  70
    32
  0
VERTEX
  8
実線
  5
4B9
 10
129.362
 20
221.857
 30
0.000000
  70
    32
  0
VERTEX
  8
実線
  5
4BA
 10
129.343
 20
221.841
 30
0.000000
  70
    32
  0
VERTEX
  8
実線
  5
4BB
 10
129.325
 20
221.825
 30
0.000000
  70
    32
  0
VERTEX
  8
実線
  5
4BC
 10
129.306
 20
221.808
 30
0.000000
  70
    32
  0
VERTEX
  8
実線
  5
4BD
 10
129.289
 20
221.791
 30
0.000000
  70
    32
  0
VERTEX
  8
実線
  5
4BE
 10
129.271
 20
221.773
 30
0.000000
  70
    32
  0
VERTEX
  8
実線
  5
4BF
 10
129.254
 20
221.755
 30
0.000000
  70
    32
  0
VERTEX
  8
実線
  5
4C0
 10
129.237
 20
221.736
 30
0.000000
  70
    32
  0
VERTEX
  8
実線
  5
4C1
 10
129.220
 20
221.717
 30
0.000000
  70
    32
  0
VERTEX
  8
実線
  5
4C2
 10
129.203
 20
221.698
 30
0.000000
  70
    32
  0
VERTEX
  8
実線
  5
4C3
 10
129.187
 20
221.679
 30
0.000000
  70
    32
  0
VERTEX
  8
実線
  5
4C4
 10
129.171
 20
221.659
 30
0.000000
  70
    32
  0
VERTEX
  8
実線
  5
4C5
 10
129.156
 20
221.638
 30
0.000000
  70
    32
  0
VERTEX
  8
実線
  5
4C6
 10
129.140
 20
221.617
 30
0.000000
  70
    32
  0
VERTEX
  8
実線
  5
4C7
 10
129.126
 20
221.596
 30
0.000000
  70
    32
  0
VERTEX
  8
実線
  5
4C8
 10
129.111
 20
221.575
 30
0.000000
  70
    32
  0
VERTEX
  8
実線
  5
4C9
 10
129.096
 20
221.553
 30
0.000000
  70
    32
  0
VERTEX
  8
実線
  5
4CA
 10
129.082
 20
221.531
 30
0.000000
  70
    32
  0
VERTEX
  8
実線
  5
4CB
 10
129.069
 20
221.508
 30
0.000000
  70
    32
  0
VERTEX
  8
実線
  5
4CC
 10
129.055
 20
221.486
 30
0.000000
  70
    32
  0
VERTEX
  8
実線
  5
4CD
 10
129.042
 20
221.462
 30
0.000000
  70
    32
  0
VERTEX
  8
実線
  5
4CE
 10
129.029
 20
221.439
 30
0.000000
  70
    32
  0
VERTEX
  8
実線
  5
4CF
 10
129.016
 20
221.415
 30
0.000000
  70
    32
  0
VERTEX
  8
実線
  5
4D0
 10
129.004
 20
221.391
 30
0.000000
  70
    32
  0
VERTEX
  8
実線
  5
4D1
 10
128.992
 20
221.366
 30
0.000000
  70
    32
  0
VERTEX
  8
実線
  5
4D2
 10
128.980
 20
221.342
 30
0.000000
  70
    32
  0
VERTEX
  8
実線
  5
4D3
 10
128.969
 20
221.317
 30
0.000000
  70
    32
  0
VERTEX
  8
実線
  5
4D4
 10
128.958
 20
221.291
 30
0.000000
  70
    32
  0
VERTEX
  8
実線
  5
4D5
 10
128.947
 20
221.265
 30
0.000000
  70
    32
  0
VERTEX
  8
実線
  5
4D6
 10
128.937
 20
221.239
 30
0.000000
  70
    32
  0
VERTEX
  8
実線
  5
4D7
 10
128.927
 20
221.213
 30
0.000000
  70
    32
  0
VERTEX
  8
実線
  5
4D8
 10
128.917
 20
221.187
 30
0.000000
  70
    32
  0
VERTEX
  8
実線
  5
4D9
 10
128.907
 20
221.160
 30
0.000000
  70
    32
  0
VERTEX
  8
実線
  5
4DA
 10
128.898
 20
221.133
 30
0.000000
  70
    32
  0
VERTEX
  8
実線
  5
4DB
 10
128.889
 20
221.105
 30
0.000000
  70
    32
  0
VERTEX
  8
実線
  5
4DC
 10
128.881
 20
221.078
 30
0.000000
  70
    32
  0
VERTEX
  8
実線
  5
4DD
 10
128.873
 20
221.050
 30
0.000000
  70
    32
  0
VERTEX
  8
実線
  5
4DE
 10
128.865
 20
221.022
 30
0.000000
  70
    32
  0
VERTEX
  8
実線
  5
4DF
 10
128.857
 20
220.993
 30
0.000000
  70
    32
  0
VERTEX
  8
実線
  5
4E0
 10
128.850
 20
220.964
 30
0.000000
  70
    32
  0
VERTEX
  8
実線
  5
4E1
 10
128.843
 20
220.936
 30
0.000000
  70
    32
  0
VERTEX
  8
実線
  5
4E2
 10
128.836
 20
220.906
 30
0.000000
  70
    32
  0
VERTEX
  8
実線
  5
4E3
 10
128.830
 20
220.877
 30
0.000000
  70
    32
  0
VERTEX
  8
実線
  5
4E4
 10
128.824
 20
220.847
 30
0.000000
  70
    32
  0
VERTEX
  8
実線
  5
4E5
 10
128.818
 20
220.817
 30
0.000000
  70
    32
  0
VERTEX
  8
実線
  5
4E6
 10
128.813
 20
220.787
 30
0.000000
  70
    32
  0
VERTEX
  8
実線
  5
4E7
 10
128.808
 20
220.757
 30
0.000000
  70
    32
  0
VERTEX
  8
実線
  5
4E8
 10
128.803
 20
220.727
 30
0.000000
  70
    32
  0
VERTEX
  8
実線
  5
4E9
 10
128.799
 20
220.696
 30
0.000000
  70
    32
  0
VERTEX
  8
実線
  5
4EA
 10
128.795
 20
220.665
 30
0.000000
  70
    32
  0
VERTEX
  8
実線
  5
4EB
 10
128.791
 20
220.634
 30
0.000000
  70
    32
  0
VERTEX
  8
実線
  5
4EC
 10
128.788
 20
220.602
 30
0.000000
  70
    32
  0
VERTEX
  8
実線
  5
4ED
 10
128.785
 20
220.571
 30
0.000000
  70
    32
  0
VERTEX
  8
実線
  5
4EE
 10
128.782
 20
220.539
 30
0.000000
  70
    32
  0
VERTEX
  8
実線
  5
4EF
 10
128.780
 20
220.507
 30
0.000000
  70
    32
  0
VERTEX
  8
実線
  5
4F0
 10
128.777
 20
220.475
 30
0.000000
  70
    32
  0
VERTEX
  8
実線
  5
4F1
 10
128.776
 20
220.443
 30
0.000000
  70
    32
  0
VERTEX
  8
実線
  5
4F2
 10
128.774
 20
220.411
 30
0.000000
  70
    32
  0
VERTEX
  8
実線
  5
4F3
 10
128.773
 20
220.378
 30
0.000000
  70
    32
  0
VERTEX
  8
実線
  5
4F4
 10
128.773
 20
220.345
 30
0.000000
  70
    32
  0
VERTEX
  8
実線
  5
4F5
 10
128.772
 20
220.313
 30
0.000000
  70
    32
  0
VERTEX
  8
実線
  5
4F6
 10
128.772
 20
220.279
 30
0.000000
  70
    32
  0
VERTEX
  8
実線
  5
4F7
 10
128.773
 20
220.246
 30
0.000000
  70
    32
  0
VERTEX
  8
実線
  5
4F8
 10
128.773
 20
220.213
 30
0.000000
  70
    32
  0
VERTEX
  8
実線
  5
4F9
 10
128.774
 20
220.180
 30
0.000000
  70
    32
  0
VERTEX
  8
実線
  5
4FA
 10
128.776
 20
220.146
 30
0.000000
  70
    32
  0
VERTEX
  8
実線
  5
4FB
 10
128.778
 20
220.112
 30
0.000000
  70
    32
  0
VERTEX
  8
実線
  5
4FC
 10
128.780
 20
220.078
 30
0.000000
  70
    32
  0
VERTEX
  8
実線
  5
4FD
 10
128.782
 20
220.044
 30
0.000000
  70
    32
  0
VERTEX
  8
実線
  5
4FE
 10
128.785
 20
220.010
 30
0.000000
  70
    32
  0
VERTEX
  8
実線
  5
4FF
 10
128.788
 20
219.976
 30
0.000000
  70
    32
  0
VERTEX
  8
実線
  5
500
 10
128.791
 20
219.942
 30
0.000000
  70
    32
  0
VERTEX
  8
実線
  5
501
 10
128.795
 20
219.907
 30
0.000000
  70
    32
  0
VERTEX
  8
実線
  5
502
 10
128.799
 20
219.873
 30
0.000000
  70
    32
  0
VERTEX
  8
実線
  5
503
 10
128.804
 20
219.838
 30
0.000000
  70
    32
  0
VERTEX
  8
実線
  5
504
 10
128.809
 20
219.804
 30
0.000000
  70
    32
  0
VERTEX
  8
実線
  5
505
 10
128.814
 20
219.769
 30
0.000000
  70
    32
  0
VERTEX
  8
実線
  5
506
 10
128.820
 20
219.734
 30
0.000000
  70
    32
  0
VERTEX
  8
実線
  5
507
 10
128.826
 20
219.699
 30
0.000000
  70
    32
  0
VERTEX
  8
実線
  5
508
 10
128.832
 20
219.664
 30
0.000000
  70
    32
  0
VERTEX
  8
実線
  5
509
 10
128.839
 20
219.629
 30
0.000000
  70
    32
  0
VERTEX
  8
実線
  5
50A
 10
128.846
 20
219.594
 30
0.000000
  70
    32
  0
VERTEX
  8
実線
  5
50B
 10
128.853
 20
219.559
 30
0.000000
  70
    32
  0
VERTEX
  8
実線
  5
50C
 10
128.861
 20
219.523
 30
0.000000
  70
    32
  0
VERTEX
  8
実線
  5
50D
 10
128.869
 20
219.488
 30
0.000000
  70
    32
  0
VERTEX
  8
実線
  5
50E
 10
128.878
 20
219.453
 30
0.000000
  70
    32
  0
VERTEX
  8
実線
  5
50F
 10
128.887
 20
219.417
 30
0.000000
  70
    32
  0
VERTEX
  8
実線
  5
510
 10
128.896
 20
219.382
 30
0.000000
  70
    32
  0
VERTEX
  8
実線
  5
511
 10
128.905
 20
219.347
 30
0.000000
  70
    32
  0
VERTEX
  8
実線
  5
512
 10
128.915
 20
219.311
 30
0.000000
  70
    32
  0
VERTEX
  8
実線
  5
513
 10
128.926
 20
219.276
 30
0.000000
  70
    32
  0
VERTEX
  8
実線
  5
514
 10
128.936
 20
219.240
 30
0.000000
  70
    32
  0
VERTEX
  8
実線
  5
515
 10
128.947
 20
219.205
 30
0.000000
  70
    32
  0
VERTEX
  8
実線
  5
516
 10
128.959
 20
219.169
 30
0.000000
  70
    32
  0
VERTEX
  8
実線
  5
517
 10
128.971
 20
219.134
 30
0.000000
  70
    32
  0
VERTEX
  8
実線
  5
518
 10
128.983
 20
219.098
 30
0.000000
  70
    32
  0
VERTEX
  8
実線
  5
519
 10
128.996
 20
219.063
 30
0.000000
  70
    32
  0
VERTEX
  8
実線
  5
51A
 10
129.008
 20
219.030
 30
0.000000
  70
    32
  0
VERTEX
  8
実線
  5
51B
 10
129.019
 20
219.000
 30
0.000000
  70
    32
  0
VERTEX
  8
実線
  5
51C
 10
129.030
 20
218.970
 30
0.000000
  70
    32
  0
VERTEX
  8
実線
  5
51D
 10
129.042
 20
218.940
 30
0.000000
  70
    32
  0
VERTEX
  8
実線
  5
51E
 10
129.054
 20
218.911
 30
0.000000
  70
    32
  0
VERTEX
  8
実線
  5
51F
 10
129.066
 20
218.882
 30
0.000000
  70
    32
  0
VERTEX
  8
実線
  5
520
 10
129.078
 20
218.853
 30
0.000000
  70
    32
  0
VERTEX
  8
実線
  5
521
 10
129.090
 20
218.824
 30
0.000000
  70
    32
  0
VERTEX
  8
実線
  5
522
 10
129.103
 20
218.795
 30
0.000000
  70
    32
  0
VERTEX
  8
実線
  5
523
 10
129.116
 20
218.767
 30
0.000000
  70
    32
  0
VERTEX
  8
実線
  5
524
 10
129.129
 20
218.738
 30
0.000000
  70
    32
  0
VERTEX
  8
実線
  5
525
 10
129.142
 20
218.710
 30
0.000000
  70
    32
  0
VERTEX
  8
実線
  5
526
 10
129.156
 20
218.682
 30
0.000000
  70
    32
  0
VERTEX
  8
実線
  5
527
 10
129.169
 20
218.654
 30
0.000000
  70
    32
  0
VERTEX
  8
実線
  5
528
 10
129.183
 20
218.627
 30
0.000000
  70
    32
  0
VERTEX
  8
実線
  5
529
 10
129.197
 20
218.599
 30
0.000000
  70
    32
  0
VERTEX
  8
実線
  5
52A
 10
129.211
 20
218.572
 30
0.000000
  70
    32
  0
VERTEX
  8
実線
  5
52B
 10
129.226
 20
218.545
 30
0.000000
  70
    32
  0
VERTEX
  8
実線
  5
52C
 10
129.240
 20
218.518
 30
0.000000
  70
    32
  0
VERTEX
  8
実線
  5
52D
 10
129.255
 20
218.492
 30
0.000000
  70
    32
  0
VERTEX
  8
実線
  5
52E
 10
129.270
 20
218.466
 30
0.000000
  70
    32
  0
VERTEX
  8
実線
  5
52F
 10
129.285
 20
218.439
 30
0.000000
  70
    32
  0
VERTEX
  8
実線
  5
530
 10
129.300
 20
218.413
 30
0.000000
  70
    32
  0
VERTEX
  8
実線
  5
531
 10
129.315
 20
218.388
 30
0.000000
  70
    32
  0
VERTEX
  8
実線
  5
532
 10
129.331
 20
218.362
 30
0.000000
  70
    32
  0
VERTEX
  8
実線
  5
533
 10
129.347
 20
218.337
 30
0.000000
  70
    32
  0
VERTEX
  8
実線
  5
534
 10
129.362
 20
218.312
 30
0.000000
  70
    32
  0
VERTEX
  8
実線
  5
535
 10
129.378
 20
218.287
 30
0.000000
  70
    32
  0
VERTEX
  8
実線
  5
536
 10
129.395
 20
218.262
 30
0.000000
  70
    32
  0
VERTEX
  8
実線
  5
537
 10
129.411
 20
218.238
 30
0.000000
  70
    32
  0
VERTEX
  8
実線
  5
538
 10
129.427
 20
218.214
 30
0.000000
  70
    32
  0
VERTEX
  8
実線
  5
539
 10
129.444
 20
218.190
 30
0.000000
  70
    32
  0
VERTEX
  8
実線
  5
53A
 10
129.461
 20
218.166
 30
0.000000
  70
    32
  0
VERTEX
  8
実線
  5
53B
 10
129.478
 20
218.143
 30
0.000000
  70
    32
  0
VERTEX
  8
実線
  5
53C
 10
129.495
 20
218.119
 30
0.000000
  70
    32
  0
VERTEX
  8
実線
  5
53D
 10
129.512
 20
218.096
 30
0.000000
  70
    32
  0
VERTEX
  8
実線
  5
53E
 10
129.529
 20
218.074
 30
0.000000
  70
    32
  0
VERTEX
  8
実線
  5
53F
 10
129.547
 20
218.051
 30
0.000000
  70
    32
  0
VERTEX
  8
実線
  5
540
 10
129.565
 20
218.029
 30
0.000000
  70
    32
  0
VERTEX
  8
実線
  5
541
 10
129.582
 20
218.007
 30
0.000000
  70
    32
  0
VERTEX
  8
実線
  5
542
 10
129.600
 20
217.985
 30
0.000000
  70
    32
  0
VERTEX
  8
実線
  5
543
 10
129.618
 20
217.963
 30
0.000000
  70
    32
  0
VERTEX
  8
実線
  5
544
 10
129.636
 20
217.942
 30
0.000000
  70
    32
  0
VERTEX
  8
実線
  5
545
 10
129.655
 20
217.921
 30
0.000000
  70
    32
  0
VERTEX
  8
実線
  5
546
 10
129.673
 20
217.900
 30
0.000000
  70
    32
  0
VERTEX
  8
実線
  5
547
 10
129.691
 20
217.880
 30
0.000000
  70
    32
  0
VERTEX
  8
実線
  5
548
 10
129.710
 20
217.859
 30
0.000000
  70
    32
  0
VERTEX
  8
実線
  5
549
 10
129.729
 20
217.839
 30
0.000000
  70
    32
  0
VERTEX
  8
実線
  5
54A
 10
129.748
 20
217.820
 30
0.000000
  70
    32
  0
VERTEX
  8
実線
  5
54B
 10
129.767
 20
217.800
 30
0.000000
  70
    32
  0
VERTEX
  8
実線
  5
54C
 10
129.786
 20
217.781
 30
0.000000
  70
    32
  0
VERTEX
  8
実線
  5
54D
 10
129.805
 20
217.762
 30
0.000000
  70
    32
  0
VERTEX
  8
実線
  5
54E
 10
129.824
 20
217.743
 30
0.000000
  70
    32
  0
VERTEX
  8
実線
  5
54F
 10
129.843
 20
217.725
 30
0.000000
  70
    32
  0
VERTEX
  8
実線
  5
550
 10
129.863
 20
217.707
 30
0.000000
  70
    32
  0
VERTEX
  8
実線
  5
551
 10
129.882
 20
217.689
 30
0.000000
  70
    32
  0
VERTEX
  8
実線
  5
552
 10
129.902
 20
217.671
 30
0.000000
  70
    32
  0
VERTEX
  8
実線
  5
553
 10
129.922
 20
217.654
 30
0.000000
  70
    32
  0
VERTEX
  8
実線
  5
554
 10
129.942
 20
217.637
 30
0.000000
  70
    32
  0
VERTEX
  8
実線
  5
555
 10
129.962
 20
217.620
 30
0.000000
  70
    32
  0
VERTEX
  8
実線
  5
556
 10
129.982
 20
217.604
 30
0.000000
  70
    32
  0
VERTEX
  8
実線
  5
557
 10
130.002
 20
217.587
 30
0.000000
  70
    32
  0
VERTEX
  8
実線
  5
558
 10
130.022
 20
217.572
 30
0.000000
  70
    32
  0
VERTEX
  8
実線
  5
559
 10
130.042
 20
217.556
 30
0.000000
  70
    32
  0
VERTEX
  8
実線
  5
55A
 10
130.062
 20
217.541
 30
0.000000
  70
    32
  0
VERTEX
  8
実線
  5
55B
 10
130.083
 20
217.526
 30
0.000000
  70
    32
  0
VERTEX
  8
実線
  5
55C
 10
130.103
 20
217.511
 30
0.000000
  70
    32
  0
VERTEX
  8
実線
  5
55D
 10
130.124
 20
217.497
 30
0.000000
  70
    32
  0
VERTEX
  8
実線
  5
55E
 10
130.144
 20
217.483
 30
0.000000
  70
    32
  0
VERTEX
  8
実線
  5
55F
 10
130.165
 20
217.469
 30
0.000000
  70
    32
  0
VERTEX
  8
実線
  5
560
 10
130.186
 20
217.455
 30
0.000000
  70
    32
  0
VERTEX
  8
実線
  5
561
 10
130.207
 20
217.442
 30
0.000000
  70
    32
  0
VERTEX
  8
実線
  5
562
 10
130.227
 20
217.429
 30
0.000000
  70
    32
  0
VERTEX
  8
実線
  5
563
 10
130.248
 20
217.417
 30
0.000000
  70
    32
  0
VERTEX
  8
実線
  5
564
 10
130.269
 20
217.404
 30
0.000000
  70
    32
  0
VERTEX
  8
実線
  5
565
 10
130.290
 20
217.392
 30
0.000000
  70
    32
  0
VERTEX
  8
実線
  5
566
 10
130.311
 20
217.381
 30
0.000000
  70
    32
  0
VERTEX
  8
実線
  5
567
 10
130.332
 20
217.369
 30
0.000000
  70
    32
  0
VERTEX
  8
実線
  5
568
 10
130.354
 20
217.359
 30
0.000000
  70
    32
  0
VERTEX
  8
実線
  5
569
 10
130.375
 20
217.348
 30
0.000000
  70
    32
  0
VERTEX
  8
実線
  5
56A
 10
130.396
 20
217.338
 30
0.000000
  70
    32
  0
VERTEX
  8
実線
  5
56B
 10
130.417
 20
217.328
 30
0.000000
  70
    32
  0
VERTEX
  8
実線
  5
56C
 10
130.439
 20
217.318
 30
0.000000
  70
    32
  0
VERTEX
  8
実線
  5
56D
 10
130.460
 20
217.309
 30
0.000000
  70
    32
  0
VERTEX
  8
実線
  5
56E
 10
130.481
 20
217.300
 30
0.000000
  70
    32
  0
VERTEX
  8
実線
  5
56F
 10
130.503
 20
217.291
 30
0.000000
  70
    32
  0
VERTEX
  8
実線
  5
570
 10
130.524
 20
217.283
 30
0.000000
  70
    32
  0
VERTEX
  8
実線
  5
571
 10
130.546
 20
217.275
 30
0.000000
  70
    32
  0
VERTEX
  8
実線
  5
572
 10
130.567
 20
217.267
 30
0.000000
  70
    32
  0
VERTEX
  8
実線
  5
573
 10
130.589
 20
217.260
 30
0.000000
  70
    32
  0
VERTEX
  8
実線
  5
574
 10
130.610
 20
217.253
 30
0.000000
  70
    32
  0
VERTEX
  8
実線
  5
575
 10
130.632
 20
217.246
 30
0.000000
  70
    32
  0
VERTEX
  8
実線
  5
576
 10
130.653
 20
217.240
 30
0.000000
  70
    32
  0
VERTEX
  8
実線
  5
577
 10
130.675
 20
217.234
 30
0.000000
  70
    32
  0
VERTEX
  8
実線
  5
578
 10
130.697
 20
217.228
 30
0.000000
  70
    32
  0
VERTEX
  8
実線
  5
579
 10
130.718
 20
217.223
 30
0.000000
  70
    32
  0
VERTEX
  8
実線
  5
57A
 10
130.740
 20
217.218
 30
0.000000
  70
    32
  0
VERTEX
  8
実線
  5
57B
 10
130.761
 20
217.214
 30
0.000000
  70
    32
  0
VERTEX
  8
実線
  5
57C
 10
130.783
 20
217.210
 30
0.000000
  70
    32
  0
VERTEX
  8
実線
  5
57D
 10
130.805
 20
217.206
 30
0.000000
  70
    32
  0
VERTEX
  8
実線
  5
57E
 10
130.826
 20
217.202
 30
0.000000
  70
    32
  0
VERTEX
  8
実線
  5
57F
 10
130.848
 20
217.199
 30
0.000000
  70
    32
  0
VERTEX
  8
実線
  5
580
 10
130.870
 20
217.197
 30
0.000000
  70
    32
  0
VERTEX
  8
実線
  5
581
 10
130.891
 20
217.194
 30
0.000000
  70
    32
  0
VERTEX
  8
実線
  5
582
 10
130.913
 20
217.192
 30
0.000000
  70
    32
  0
VERTEX
  8
実線
  5
583
 10
130.934
 20
217.191
 30
0.000000
  70
    32
  0
VERTEX
  8
実線
  5
584
 10
130.956
 20
217.190
 30
0.000000
  70
    32
  0
VERTEX
  8
実線
  5
585
 10
130.977
 20
217.189
 30
0.000000
  70
    32
  0
VERTEX
  8
実線
  5
586
 10
130.999
 20
217.188
 30
0.000000
  70
    32
  0
VERTEX
  8
実線
  5
587
 10
131.020
 20
217.188
 30
0.000000
  70
    32
  0
VERTEX
  8
実線
  5
588
 10
131.042
 20
217.189
 30
0.000000
  70
    32
  0
VERTEX
  8
実線
  5
589
 10
131.063
 20
217.189
 30
0.000000
  70
    32
  0
SEQEND
  8
実線
  5
58A
  0
POLYLINE
  8
実線
  5
58B
  62
7
  66
     1
 10
0.000000
 20
0.000000
 30
0.000000
  70
     8
  0
VERTEX
  8
実線
  5
58C
 10
133.196
 20
221.086
 30
0.000000
  70
    32
  0
VERTEX
  8
実線
  5
58D
 10
133.192
 20
221.045
 30
0.000000
  70
    32
  0
VERTEX
  8
実線
  5
58E
 10
133.188
 20
221.004
 30
0.000000
  70
    32
  0
VERTEX
  8
実線
  5
58F
 10
133.185
 20
220.963
 30
0.000000
  70
    32
  0
VERTEX
  8
実線
  5
590
 10
133.183
 20
220.922
 30
0.000000
  70
    32
  0
VERTEX
  8
実線
  5
591
 10
133.181
 20
220.881
 30
0.000000
  70
    32
  0
VERTEX
  8
実線
  5
592
 10
133.179
 20
220.840
 30
0.000000
  70
    32
  0
VERTEX
  8
実線
  5
593
 10
133.178
 20
220.799
 30
0.000000
  70
    32
  0
VERTEX
  8
実線
  5
594
 10
133.178
 20
220.757
 30
0.000000
  70
    32
  0
VERTEX
  8
実線
  5
595
 10
133.178
 20
220.716
 30
0.000000
  70
    32
  0
VERTEX
  8
実線
  5
596
 10
133.179
 20
220.675
 30
0.000000
  70
    32
  0
VERTEX
  8
実線
  5
597
 10
133.181
 20
220.634
 30
0.000000
  70
    32
  0
VERTEX
  8
実線
  5
598
 10
133.183
 20
220.593
 30
0.000000
  70
    32
  0
VERTEX
  8
実線
  5
599
 10
133.185
 20
220.552
 30
0.000000
  70
    32
  0
VERTEX
  8
実線
  5
59A
 10
133.188
 20
220.510
 30
0.000000
  70
    32
  0
VERTEX
  8
実線
  5
59B
 10
133.192
 20
220.469
 30
0.000000
  70
    32
  0
VERTEX
  8
実線
  5
59C
 10
133.196
 20
220.428
 30
0.000000
  70
    32
  0
VERTEX
  8
実線
  5
59D
 10
133.201
 20
220.387
 30
0.000000
  70
    32
  0
VERTEX
  8
実線
  5
59E
 10
133.206
 20
220.346
 30
0.000000
  70
    32
  0
VERTEX
  8
実線
  5
59F
 10
133.212
 20
220.305
 30
0.000000
  70
    32
  0
VERTEX
  8
実線
  5
5A0
 10
133.218
 20
220.264
 30
0.000000
  70
    32
  0
VERTEX
  8
実線
  5
5A1
 10
133.225
 20
220.224
 30
0.000000
  70
    32
  0
VERTEX
  8
実線
  5
5A2
 10
133.232
 20
220.183
 30
0.000000
  70
    32
  0
VERTEX
  8
実線
  5
5A3
 10
133.240
 20
220.142
 30
0.000000
  70
    32
  0
VERTEX
  8
実線
  5
5A4
 10
133.249
 20
220.102
 30
0.000000
  70
    32
  0
VERTEX
  8
実線
  5
5A5
 10
133.258
 20
220.061
 30
0.000000
  70
    32
  0
VERTEX
  8
実線
  5
5A6
 10
133.267
 20
220.021
 30
0.000000
  70
    32
  0
VERTEX
  8
実線
  5
5A7
 10
133.277
 20
219.980
 30
0.000000
  70
    32
  0
VERTEX
  8
実線
  5
5A8
 10
133.287
 20
219.940
 30
0.000000
  70
    32
  0
VERTEX
  8
実線
  5
5A9
 10
133.298
 20
219.900
 30
0.000000
  70
    32
  0
VERTEX
  8
実線
  5
5AA
 10
133.310
 20
219.860
 30
0.000000
  70
    32
  0
VERTEX
  8
実線
  5
5AB
 10
133.322
 20
219.820
 30
0.000000
  70
    32
  0
VERTEX
  8
実線
  5
5AC
 10
133.334
 20
219.780
 30
0.000000
  70
    32
  0
VERTEX
  8
実線
  5
5AD
 10
133.347
 20
219.741
 30
0.000000
  70
    32
  0
VERTEX
  8
実線
  5
5AE
 10
133.360
 20
219.701
 30
0.000000
  70
    32
  0
VERTEX
  8
実線
  5
5AF
 10
133.374
 20
219.662
 30
0.000000
  70
    32
  0
VERTEX
  8
実線
  5
5B0
 10
133.388
 20
219.623
 30
0.000000
  70
    32
  0
VERTEX
  8
実線
  5
5B1
 10
133.403
 20
219.584
 30
0.000000
  70
    32
  0
VERTEX
  8
実線
  5
5B2
 10
133.418
 20
219.545
 30
0.000000
  70
    32
  0
VERTEX
  8
実線
  5
5B3
 10
133.434
 20
219.506
 30
0.000000
  70
    32
  0
VERTEX
  8
実線
  5
5B4
 10
133.450
 20
219.468
 30
0.000000
  70
    32
  0
VERTEX
  8
実線
  5
5B5
 10
133.467
 20
219.430
 30
0.000000
  70
    32
  0
VERTEX
  8
実線
  5
5B6
 10
133.484
 20
219.391
 30
0.000000
  70
    32
  0
VERTEX
  8
実線
  5
5B7
 10
133.501
 20
219.353
 30
0.000000
  70
    32
  0
VERTEX
  8
実線
  5
5B8
 10
133.519
 20
219.316
 30
0.000000
  70
    32
  0
VERTEX
  8
実線
  5
5B9
 10
133.538
 20
219.278
 30
0.000000
  70
    32
  0
VERTEX
  8
実線
  5
5BA
 10
133.556
 20
219.241
 30
0.000000
  70
    32
  0
VERTEX
  8
実線
  5
5BB
 10
133.576
 20
219.204
 30
0.000000
  70
    32
  0
VERTEX
  8
実線
  5
5BC
 10
133.595
 20
219.167
 30
0.000000
  70
    32
  0
VERTEX
  8
実線
  5
5BD
 10
133.615
 20
219.130
 30
0.000000
  70
    32
  0
VERTEX
  8
実線
  5
5BE
 10
133.636
 20
219.094
 30
0.000000
  70
    32
  0
VERTEX
  8
実線
  5
5BF
 10
133.657
 20
219.058
 30
0.000000
  70
    32
  0
VERTEX
  8
実線
  5
5C0
 10
133.678
 20
219.022
 30
0.000000
  70
    32
  0
VERTEX
  8
実線
  5
5C1
 10
133.700
 20
218.986
 30
0.000000
  70
    32
  0
VERTEX
  8
実線
  5
5C2
 10
133.722
 20
218.950
 30
0.000000
  70
    32
  0
VERTEX
  8
実線
  5
5C3
 10
133.744
 20
218.915
 30
0.000000
  70
    32
  0
VERTEX
  8
実線
  5
5C4
 10
133.767
 20
218.880
 30
0.000000
  70
    32
  0
VERTEX
  8
実線
  5
5C5
 10
133.791
 20
218.846
 30
0.000000
  70
    32
  0
VERTEX
  8
実線
  5
5C6
 10
133.814
 20
218.811
 30
0.000000
  70
    32
  0
VERTEX
  8
実線
  5
5C7
 10
133.838
 20
218.777
 30
0.000000
  70
    32
  0
VERTEX
  8
実線
  5
5C8
 10
133.863
 20
218.744
 30
0.000000
  70
    32
  0
VERTEX
  8
実線
  5
5C9
 10
133.888
 20
218.710
 30
0.000000
  70
    32
  0
VERTEX
  8
実線
  5
5CA
 10
133.913
 20
218.677
 30
0.000000
  70
    32
  0
VERTEX
  8
実線
  5
5CB
 10
133.939
 20
218.644
 30
0.000000
  70
    32
  0
VERTEX
  8
実線
  5
5CC
 10
133.965
 20
218.612
 30
0.000000
  70
    32
  0
VERTEX
  8
実線
  5
5CD
 10
133.991
 20
218.580
 30
0.000000
  70
    32
  0
VERTEX
  8
実線
  5
5CE
 10
134.018
 20
218.548
 30
0.000000
  70
    32
  0
VERTEX
  8
実線
  5
5CF
 10
134.045
 20
218.516
 30
0.000000
  70
    32
  0
VERTEX
  8
実線
  5
5D0
 10
134.072
 20
218.485
 30
0.000000
  70
    32
  0
VERTEX
  8
実線
  5
5D1
 10
134.100
 20
218.454
 30
0.000000
  70
    32
  0
VERTEX
  8
実線
  5
5D2
 10
134.128
 20
218.424
 30
0.000000
  70
    32
  0
VERTEX
  8
実線
  5
5D3
 10
134.156
 20
218.394
 30
0.000000
  70
    32
  0
VERTEX
  8
実線
  5
5D4
 10
134.185
 20
218.364
 30
0.000000
  70
    32
  0
VERTEX
  8
実線
  5
5D5
 10
134.214
 20
218.334
 30
0.000000
  70
    32
  0
VERTEX
  8
実線
  5
5D6
 10
134.244
 20
218.305
 30
0.000000
  70
    32
  0
VERTEX
  8
実線
  5
5D7
 10
134.273
 20
218.277
 30
0.000000
  70
    32
  0
VERTEX
  8
実線
  5
5D8
 10
134.303
 20
218.249
 30
0.000000
  70
    32
  0
VERTEX
  8
実線
  5
5D9
 10
134.334
 20
218.221
 30
0.000000
  70
    32
  0
VERTEX
  8
実線
  5
5DA
 10
134.365
 20
218.193
 30
0.000000
  70
    32
  0
VERTEX
  8
実線
  5
5DB
 10
134.396
 20
218.166
 30
0.000000
  70
    32
  0
VERTEX
  8
実線
  5
5DC
 10
134.427
 20
218.140
 30
0.000000
  70
    32
  0
VERTEX
  8
実線
  5
5DD
 10
134.459
 20
218.113
 30
0.000000
  70
    32
  0
VERTEX
  8
実線
  5
5DE
 10
134.490
 20
218.088
 30
0.000000
  70
    32
  0
VERTEX
  8
実線
  5
5DF
 10
134.523
 20
218.062
 30
0.000000
  70
    32
  0
VERTEX
  8
実線
  5
5E0
 10
134.555
 20
218.037
 30
0.000000
  70
    32
  0
VERTEX
  8
実線
  5
5E1
 10
134.588
 20
218.013
 30
0.000000
  70
    32
  0
VERTEX
  8
実線
  5
5E2
 10
134.621
 20
217.989
 30
0.000000
  70
    32
  0
VERTEX
  8
実線
  5
5E3
 10
134.655
 20
217.965
 30
0.000000
  70
    32
  0
VERTEX
  8
実線
  5
5E4
 10
134.688
 20
217.942
 30
0.000000
  70
    32
  0
VERTEX
  8
実線
  5
5E5
 10
134.722
 20
217.920
 30
0.000000
  70
    32
  0
VERTEX
  8
実線
  5
5E6
 10
134.756
 20
217.898
 30
0.000000
  70
    32
  0
VERTEX
  8
実線
  5
5E7
 10
134.791
 20
217.876
 30
0.000000
  70
    32
  0
VERTEX
  8
実線
  5
5E8
 10
134.826
 20
217.855
 30
0.000000
  70
    32
  0
VERTEX
  8
実線
  5
5E9
 10
134.861
 20
217.834
 30
0.000000
  70
    32
  0
VERTEX
  8
実線
  5
5EA
 10
134.896
 20
217.814
 30
0.000000
  70
    32
  0
VERTEX
  8
実線
  5
5EB
 10
134.931
 20
217.794
 30
0.000000
  70
    32
  0
VERTEX
  8
実線
  5
5EC
 10
134.967
 20
217.775
 30
0.000000
  70
    32
  0
VERTEX
  8
実線
  5
5ED
 10
135.003
 20
217.756
 30
0.000000
  70
    32
  0
VERTEX
  8
実線
  5
5EE
 10
135.039
 20
217.738
 30
0.000000
  70
    32
  0
VERTEX
  8
実線
  5
5EF
 10
135.076
 20
217.720
 30
0.000000
  70
    32
  0
VERTEX
  8
実線
  5
5F0
 10
135.113
 20
217.703
 30
0.000000
  70
    32
  0
VERTEX
  8
実線
  5
5F1
 10
135.150
 20
217.687
 30
0.000000
  70
    32
  0
VERTEX
  8
実線
  5
5F2
 10
135.187
 20
217.671
 30
0.000000
  70
    32
  0
VERTEX
  8
実線
  5
5F3
 10
135.224
 20
217.655
 30
0.000000
  70
    32
  0
VERTEX
  8
実線
  5
5F4
 10
135.262
 20
217.640
 30
0.000000
  70
    32
  0
VERTEX
  8
実線
  5
5F5
 10
135.300
 20
217.626
 30
0.000000
  70
    32
  0
VERTEX
  8
実線
  5
5F6
 10
135.338
 20
217.612
 30
0.000000
  70
    32
  0
VERTEX
  8
実線
  5
5F7
 10
135.376
 20
217.599
 30
0.000000
  70
    32
  0
VERTEX
  8
実線
  5
5F8
 10
135.414
 20
217.587
 30
0.000000
  70
    32
  0
VERTEX
  8
実線
  5
5F9
 10
135.452
 20
217.575
 30
0.000000
  70
    32
  0
VERTEX
  8
実線
  5
5FA
 10
135.490
 20
217.564
 30
0.000000
  70
    32
  0
VERTEX
  8
実線
  5
5FB
 10
135.528
 20
217.553
 30
0.000000
  70
    32
  0
VERTEX
  8
実線
  5
5FC
 10
135.566
 20
217.543
 30
0.000000
  70
    32
  0
VERTEX
  8
実線
  5
5FD
 10
135.604
 20
217.534
 30
0.000000
  70
    32
  0
VERTEX
  8
実線
  5
5FE
 10
135.641
 20
217.525
 30
0.000000
  70
    32
  0
VERTEX
  8
実線
  5
5FF
 10
135.679
 20
217.517
 30
0.000000
  70
    32
  0
VERTEX
  8
実線
  5
600
 10
135.716
 20
217.510
 30
0.000000
  70
    32
  0
VERTEX
  8
実線
  5
601
 10
135.753
 20
217.503
 30
0.000000
  70
    32
  0
VERTEX
  8
実線
  5
602
 10
135.791
 20
217.497
 30
0.000000
  70
    32
  0
VERTEX
  8
実線
  5
603
 10
135.828
 20
217.492
 30
0.000000
  70
    32
  0
VERTEX
  8
実線
  5
604
 10
135.865
 20
217.487
 30
0.000000
  70
    32
  0
VERTEX
  8
実線
  5
605
 10
135.902
 20
217.483
 30
0.000000
  70
    32
  0
VERTEX
  8
実線
  5
606
 10
135.938
 20
217.480
 30
0.000000
  70
    32
  0
VERTEX
  8
実線
  5
607
 10
135.975
 20
217.477
 30
0.000000
  70
    32
  0
VERTEX
  8
実線
  5
608
 10
136.011
 20
217.475
 30
0.000000
  70
    32
  0
VERTEX
  8
実線
  5
609
 10
136.048
 20
217.473
 30
0.000000
  70
    32
  0
VERTEX
  8
実線
  5
60A
 10
136.084
 20
217.472
 30
0.000000
  70
    32
  0
VERTEX
  8
実線
  5
60B
 10
136.120
 20
217.472
 30
0.000000
  70
    32
  0
VERTEX
  8
実線
  5
60C
 10
136.155
 20
217.472
 30
0.000000
  70
    32
  0
VERTEX
  8
実線
  5
60D
 10
136.191
 20
217.473
 30
0.000000
  70
    32
  0
VERTEX
  8
実線
  5
60E
 10
136.226
 20
217.474
 30
0.000000
  70
    32
  0
VERTEX
  8
実線
  5
60F
 10
136.262
 20
217.476
 30
0.000000
  70
    32
  0
VERTEX
  8
実線
  5
610
 10
136.297
 20
217.479
 30
0.000000
  70
    32
  0
VERTEX
  8
実線
  5
611
 10
136.332
 20
217.482
 30
0.000000
  70
    32
  0
VERTEX
  8
実線
  5
612
 10
136.366
 20
217.486
 30
0.000000
  70
    32
  0
VERTEX
  8
実線
  5
613
 10
136.401
 20
217.490
 30
0.000000
  70
    32
  0
VERTEX
  8
実線
  5
614
 10
136.435
 20
217.495
 30
0.000000
  70
    32
  0
VERTEX
  8
実線
  5
615
 10
136.469
 20
217.501
 30
0.000000
  70
    32
  0
VERTEX
  8
実線
  5
616
 10
136.503
 20
217.507
 30
0.000000
  70
    32
  0
VERTEX
  8
実線
  5
617
 10
136.537
 20
217.514
 30
0.000000
  70
    32
  0
VERTEX
  8
実線
  5
618
 10
136.570
 20
217.521
 30
0.000000
  70
    32
  0
VERTEX
  8
実線
  5
619
 10
136.604
 20
217.529
 30
0.000000
  70
    32
  0
VERTEX
  8
実線
  5
61A
 10
136.637
 20
217.537
 30
0.000000
  70
    32
  0
VERTEX
  8
実線
  5
61B
 10
136.669
 20
217.546
 30
0.000000
  70
    32
  0
VERTEX
  8
実線
  5
61C
 10
136.702
 20
217.556
 30
0.000000
  70
    32
  0
VERTEX
  8
実線
  5
61D
 10
136.734
 20
217.566
 30
0.000000
  70
    32
  0
VERTEX
  8
実線
  5
61E
 10
136.766
 20
217.576
 30
0.000000
  70
    32
  0
VERTEX
  8
実線
  5
61F
 10
136.798
 20
217.588
 30
0.000000
  70
    32
  0
VERTEX
  8
実線
  5
620
 10
136.830
 20
217.599
 30
0.000000
  70
    32
  0
VERTEX
  8
実線
  5
621
 10
136.861
 20
217.612
 30
0.000000
  70
    32
  0
VERTEX
  8
実線
  5
622
 10
136.892
 20
217.624
 30
0.000000
  70
    32
  0
VERTEX
  8
実線
  5
623
 10
136.923
 20
217.638
 30
0.000000
  70
    32
  0
VERTEX
  8
実線
  5
624
 10
136.953
 20
217.652
 30
0.000000
  70
    32
  0
VERTEX
  8
実線
  5
625
 10
136.983
 20
217.666
 30
0.000000
  70
    32
  0
VERTEX
  8
実線
  5
626
 10
137.013
 20
217.681
 30
0.000000
  70
    32
  0
VERTEX
  8
実線
  5
627
 10
137.043
 20
217.697
 30
0.000000
  70
    32
  0
VERTEX
  8
実線
  5
628
 10
137.072
 20
217.713
 30
0.000000
  70
    32
  0
VERTEX
  8
実線
  5
629
 10
137.101
 20
217.729
 30
0.000000
  70
    32
  0
VERTEX
  8
実線
  5
62A
 10
137.130
 20
217.746
 30
0.000000
  70
    32
  0
VERTEX
  8
実線
  5
62B
 10
137.158
 20
217.764
 30
0.000000
  70
    32
  0
VERTEX
  8
実線
  5
62C
 10
137.186
 20
217.782
 30
0.000000
  70
    32
  0
VERTEX
  8
実線
  5
62D
 10
137.214
 20
217.800
 30
0.000000
  70
    32
  0
VERTEX
  8
実線
  5
62E
 10
137.241
 20
217.819
 30
0.000000
  70
    32
  0
VERTEX
  8
実線
  5
62F
 10
137.269
 20
217.839
 30
0.000000
  70
    32
  0
VERTEX
  8
実線
  5
630
 10
137.295
 20
217.859
 30
0.000000
  70
    32
  0
VERTEX
  8
実線
  5
631
 10
137.322
 20
217.880
 30
0.000000
  70
    32
  0
VERTEX
  8
実線
  5
632
 10
137.348
 20
217.901
 30
0.000000
  70
    32
  0
VERTEX
  8
実線
  5
633
 10
137.374
 20
217.922
 30
0.000000
  70
    32
  0
VERTEX
  8
実線
  5
634
 10
137.399
 20
217.944
 30
0.000000
  70
    32
  0
VERTEX
  8
実線
  5
635
 10
137.424
 20
217.967
 30
0.000000
  70
    32
  0
VERTEX
  8
実線
  5
636
 10
137.449
 20
217.990
 30
0.000000
  70
    32
  0
VERTEX
  8
実線
  5
637
 10
137.473
 20
218.014
 30
0.000000
  70
    32
  0
VERTEX
  8
実線
  5
638
 10
137.497
 20
218.038
 30
0.000000
  70
    32
  0
VERTEX
  8
実線
  5
639
 10
137.520
 20
218.062
 30
0.000000
  70
    32
  0
VERTEX
  8
実線
  5
63A
 10
137.544
 20
218.087
 30
0.000000
  70
    32
  0
VERTEX
  8
実線
  5
63B
 10
137.566
 20
218.112
 30
0.000000
  70
    32
  0
VERTEX
  8
実線
  5
63C
 10
137.589
 20
218.138
 30
0.000000
  70
    32
  0
VERTEX
  8
実線
  5
63D
 10
137.611
 20
218.164
 30
0.000000
  70
    32
  0
VERTEX
  8
実線
  5
63E
 10
137.633
 20
218.191
 30
0.000000
  70
    32
  0
VERTEX
  8
実線
  5
63F
 10
137.654
 20
218.218
 30
0.000000
  70
    32
  0
VERTEX
  8
実線
  5
640
 10
137.675
 20
218.246
 30
0.000000
  70
    32
  0
VERTEX
  8
実線
  5
641
 10
137.695
 20
218.274
 30
0.000000
  70
    32
  0
VERTEX
  8
実線
  5
642
 10
137.715
 20
218.303
 30
0.000000
  70
    32
  0
VERTEX
  8
実線
  5
643
 10
137.734
 20
218.332
 30
0.000000
  70
    32
  0
VERTEX
  8
実線
  5
644
 10
137.754
 20
218.361
 30
0.000000
  70
    32
  0
VERTEX
  8
実線
  5
645
 10
137.772
 20
218.391
 30
0.000000
  70
    32
  0
VERTEX
  8
実線
  5
646
 10
137.791
 20
218.421
 30
0.000000
  70
    32
  0
VERTEX
  8
実線
  5
647
 10
137.808
 20
218.452
 30
0.000000
  70
    32
  0
VERTEX
  8
実線
  5
648
 10
137.826
 20
218.483
 30
0.000000
  70
    32
  0
VERTEX
  8
実線
  5
649
 10
137.843
 20
218.515
 30
0.000000
  70
    32
  0
VERTEX
  8
実線
  5
64A
 10
137.859
 20
218.547
 30
0.000000
  70
    32
  0
VERTEX
  8
実線
  5
64B
 10
137.875
 20
218.579
 30
0.000000
  70
    32
  0
VERTEX
  8
実線
  5
64C
 10
137.891
 20
218.612
 30
0.000000
  70
    32
  0
VERTEX
  8
実線
  5
64D
 10
137.906
 20
218.645
 30
0.000000
  70
    32
  0
VERTEX
  8
実線
  5
64E
 10
137.920
 20
218.679
 30
0.000000
  70
    32
  0
VERTEX
  8
実線
  5
64F
 10
137.934
 20
218.713
 30
0.000000
  70
    32
  0
VERTEX
  8
実線
  5
650
 10
137.948
 20
218.747
 30
0.000000
  70
    32
  0
VERTEX
  8
実線
  5
651
 10
137.961
 20
218.782
 30
0.000000
  70
    32
  0
VERTEX
  8
実線
  5
652
 10
137.974
 20
218.818
 30
0.000000
  70
    32
  0
VERTEX
  8
実線
  5
653
 10
137.986
 20
218.853
 30
0.000000
  70
    32
  0
VERTEX
  8
実線
  5
654
 10
137.998
 20
218.889
 30
0.000000
  70
    32
  0
VERTEX
  8
実線
  5
655
 10
138.009
 20
218.926
 30
0.000000
  70
    32
  0
VERTEX
  8
実線
  5
656
 10
138.020
 20
218.962
 30
0.000000
  70
    32
  0
VERTEX
  8
実線
  5
657
 10
138.030
 20
219.000
 30
0.000000
  70
    32
  0
VERTEX
  8
実線
  5
658
 10
138.039
 20
219.037
 30
0.000000
  70
    32
  0
VERTEX
  8
実線
  5
659
 10
138.048
 20
219.075
 30
0.000000
  70
    32
  0
VERTEX
  8
実線
  5
65A
 10
138.057
 20
219.113
 30
0.000000
  70
    32
  0
VERTEX
  8
実線
  5
65B
 10
138.065
 20
219.152
 30
0.000000
  70
    32
  0
VERTEX
  8
実線
  5
65C
 10
138.072
 20
219.191
 30
0.000000
  70
    32
  0
VERTEX
  8
実線
  5
65D
 10
138.079
 20
219.231
 30
0.000000
  70
    32
  0
VERTEX
  8
実線
  5
65E
 10
138.086
 20
219.270
 30
0.000000
  70
    32
  0
VERTEX
  8
実線
  5
65F
 10
138.091
 20
219.310
 30
0.000000
  70
    32
  0
VERTEX
  8
実線
  5
660
 10
138.097
 20
219.351
 30
0.000000
  70
    32
  0
VERTEX
  8
実線
  5
661
 10
138.100
 20
219.379
 30
0.000000
  70
    32
  0
VERTEX
  8
実線
  5
662
 10
138.100
 20
219.383
 30
0.000000
  70
    32
  0
VERTEX
  8
実線
  5
663
 10
138.101
 20
219.387
 30
0.000000
  70
    32
  0
VERTEX
  8
実線
  5
664
 10
138.101
 20
219.391
 30
0.000000
  70
    32
  0
VERTEX
  8
実線
  5
665
 10
138.102
 20
219.395
 30
0.000000
  70
    32
  0
VERTEX
  8
実線
  5
666
 10
138.102
 20
219.399
 30
0.000000
  70
    32
  0
VERTEX
  8
実線
  5
667
 10
138.103
 20
219.403
 30
0.000000
  70
    32
  0
VERTEX
  8
実線
  5
668
 10
138.103
 20
219.407
 30
0.000000
  70
    32
  0
VERTEX
  8
実線
  5
669
 10
138.103
 20
219.410
 30
0.000000
  70
    32
  0
VERTEX
  8
実線
  5
66A
 10
138.104
 20
219.414
 30
0.000000
  70
    32
  0
VERTEX
  8
実線
  5
66B
 10
138.104
 20
219.418
 30
0.000000
  70
    32
  0
VERTEX
  8
実線
  5
66C
 10
138.104
 20
219.422
 30
0.000000
  70
    32
  0
VERTEX
  8
実線
  5
66D
 10
138.105
 20
219.426
 30
0.000000
  70
    32
  0
VERTEX
  8
実線
  5
66E
 10
138.105
 20
219.430
 30
0.000000
  70
    32
  0
VERTEX
  8
実線
  5
66F
 10
138.106
 20
219.434
 30
0.000000
  70
    32
  0
VERTEX
  8
実線
  5
670
 10
138.106
 20
219.438
 30
0.000000
  70
    32
  0
VERTEX
  8
実線
  5
671
 10
138.106
 20
219.442
 30
0.000000
  70
    32
  0
VERTEX
  8
実線
  5
672
 10
138.107
 20
219.445
 30
0.000000
  70
    32
  0
VERTEX
  8
実線
  5
673
 10
138.107
 20
219.449
 30
0.000000
  70
    32
  0
VERTEX
  8
実線
  5
674
 10
138.107
 20
219.453
 30
0.000000
  70
    32
  0
VERTEX
  8
実線
  5
675
 10
138.108
 20
219.457
 30
0.000000
  70
    32
  0
VERTEX
  8
実線
  5
676
 10
138.108
 20
219.461
 30
0.000000
  70
    32
  0
VERTEX
  8
実線
  5
677
 10
138.108
 20
219.465
 30
0.000000
  70
    32
  0
VERTEX
  8
実線
  5
678
 10
138.109
 20
219.469
 30
0.000000
  70
    32
  0
VERTEX
  8
実線
  5
679
 10
138.109
 20
219.473
 30
0.000000
  70
    32
  0
VERTEX
  8
実線
  5
67A
 10
138.109
 20
219.477
 30
0.000000
  70
    32
  0
VERTEX
  8
実線
  5
67B
 10
138.110
 20
219.480
 30
0.000000
  70
    32
  0
VERTEX
  8
実線
  5
67C
 10
138.110
 20
219.484
 30
0.000000
  70
    32
  0
VERTEX
  8
実線
  5
67D
 10
138.110
 20
219.488
 30
0.000000
  70
    32
  0
VERTEX
  8
実線
  5
67E
 10
138.110
 20
219.492
 30
0.000000
  70
    32
  0
VERTEX
  8
実線
  5
67F
 10
138.111
 20
219.496
 30
0.000000
  70
    32
  0
VERTEX
  8
実線
  5
680
 10
138.111
 20
219.500
 30
0.000000
  70
    32
  0
VERTEX
  8
実線
  5
681
 10
138.111
 20
219.504
 30
0.000000
  70
    32
  0
VERTEX
  8
実線
  5
682
 10
138.111
 20
219.508
 30
0.000000
  70
    32
  0
VERTEX
  8
実線
  5
683
 10
138.112
 20
219.512
 30
0.000000
  70
    32
  0
VERTEX
  8
実線
  5
684
 10
138.112
 20
219.516
 30
0.000000
  70
    32
  0
VERTEX
  8
実線
  5
685
 10
138.112
 20
219.520
 30
0.000000
  70
    32
  0
VERTEX
  8
実線
  5
686
 10
138.112
 20
219.523
 30
0.000000
  70
    32
  0
VERTEX
  8
実線
  5
687
 10
138.113
 20
219.527
 30
0.000000
  70
    32
  0
VERTEX
  8
実線
  5
688
 10
138.113
 20
219.531
 30
0.000000
  70
    32
  0
VERTEX
  8
実線
  5
689
 10
138.113
 20
219.535
 30
0.000000
  70
    32
  0
VERTEX
  8
実線
  5
68A
 10
138.113
 20
219.539
 30
0.000000
  70
    32
  0
VERTEX
  8
実線
  5
68B
 10
138.114
 20
219.543
 30
0.000000
  70
    32
  0
VERTEX
  8
実線
  5
68C
 10
138.114
 20
219.547
 30
0.000000
  70
    32
  0
VERTEX
  8
実線
  5
68D
 10
138.114
 20
219.551
 30
0.000000
  70
    32
  0
VERTEX
  8
実線
  5
68E
 10
138.114
 20
219.555
 30
0.000000
  70
    32
  0
VERTEX
  8
実線
  5
68F
 10
138.114
 20
219.559
 30
0.000000
  70
    32
  0
VERTEX
  8
実線
  5
690
 10
138.115
 20
219.563
 30
0.000000
  70
    32
  0
VERTEX
  8
実線
  5
691
 10
138.115
 20
219.567
 30
0.000000
  70
    32
  0
VERTEX
  8
実線
  5
692
 10
138.115
 20
219.570
 30
0.000000
  70
    32
  0
VERTEX
  8
実線
  5
693
 10
138.115
 20
219.574
 30
0.000000
  70
    32
  0
VERTEX
  8
実線
  5
694
 10
138.115
 20
219.578
 30
0.000000
  70
    32
  0
VERTEX
  8
実線
  5
695
 10
138.116
 20
219.582
 30
0.000000
  70
    32
  0
VERTEX
  8
実線
  5
696
 10
138.116
 20
219.586
 30
0.000000
  70
    32
  0
VERTEX
  8
実線
  5
697
 10
138.116
 20
219.590
 30
0.000000
  70
    32
  0
VERTEX
  8
実線
  5
698
 10
138.116
 20
219.594
 30
0.000000
  70
    32
  0
VERTEX
  8
実線
  5
699
 10
138.116
 20
219.598
 30
0.000000
  70
    32
  0
VERTEX
  8
実線
  5
69A
 10
138.116
 20
219.602
 30
0.000000
  70
    32
  0
VERTEX
  8
実線
  5
69B
 10
138.116
 20
219.606
 30
0.000000
  70
    32
  0
VERTEX
  8
実線
  5
69C
 10
138.117
 20
219.610
 30
0.000000
  70
    32
  0
VERTEX
  8
実線
  5
69D
 10
138.117
 20
219.614
 30
0.000000
  70
    32
  0
VERTEX
  8
実線
  5
69E
 10
138.117
 20
219.618
 30
0.000000
  70
    32
  0
VERTEX
  8
実線
  5
69F
 10
138.117
 20
219.622
 30
0.000000
  70
    32
  0
VERTEX
  8
実線
  5
6A0
 10
138.117
 20
219.626
 30
0.000000
  70
    32
  0
VERTEX
  8
実線
  5
6A1
 10
138.117
 20
219.630
 30
0.000000
  70
    32
  0
VERTEX
  8
実線
  5
6A2
 10
138.117
 20
219.633
 30
0.000000
  70
    32
  0
VERTEX
  8
実線
  5
6A3
 10
138.117
 20
219.637
 30
0.000000
  70
    32
  0
VERTEX
  8
実線
  5
6A4
 10
138.117
 20
219.641
 30
0.000000
  70
    32
  0
VERTEX
  8
実線
  5
6A5
 10
138.117
 20
219.645
 30
0.000000
  70
    32
  0
VERTEX
  8
実線
  5
6A6
 10
138.118
 20
219.649
 30
0.000000
  70
    32
  0
VERTEX
  8
実線
  5
6A7
 10
138.118
 20
219.653
 30
0.000000
  70
    32
  0
VERTEX
  8
実線
  5
6A8
 10
138.118
 20
219.657
 30
0.000000
  70
    32
  0
VERTEX
  8
実線
  5
6A9
 10
138.118
 20
219.661
 30
0.000000
  70
    32
  0
VERTEX
  8
実線
  5
6AA
 10
138.118
 20
219.665
 30
0.000000
  70
    32
  0
VERTEX
  8
実線
  5
6AB
 10
138.118
 20
219.669
 30
0.000000
  70
    32
  0
VERTEX
  8
実線
  5
6AC
 10
138.118
 20
219.673
 30
0.000000
  70
    32
  0
VERTEX
  8
実線
  5
6AD
 10
138.118
 20
219.677
 30
0.000000
  70
    32
  0
VERTEX
  8
実線
  5
6AE
 10
138.118
 20
219.681
 30
0.000000
  70
    32
  0
VERTEX
  8
実線
  5
6AF
 10
138.118
 20
219.685
 30
0.000000
  70
    32
  0
VERTEX
  8
実線
  5
6B0
 10
138.118
 20
219.689
 30
0.000000
  70
    32
  0
VERTEX
  8
実線
  5
6B1
 10
138.118
 20
219.693
 30
0.000000
  70
    32
  0
VERTEX
  8
実線
  5
6B2
 10
138.118
 20
219.697
 30
0.000000
  70
    32
  0
VERTEX
  8
実線
  5
6B3
 10
138.118
 20
219.701
 30
0.000000
  70
    32
  0
VERTEX
  8
実線
  5
6B4
 10
138.118
 20
219.705
 30
0.000000
  70
    32
  0
VERTEX
  8
実線
  5
6B5
 10
138.118
 20
219.709
 30
0.000000
  70
    32
  0
VERTEX
  8
実線
  5
6B6
 10
138.118
 20
219.713
 30
0.000000
  70
    32
  0
VERTEX
  8
実線
  5
6B7
 10
138.118
 20
219.717
 30
0.000000
  70
    32
  0
VERTEX
  8
実線
  5
6B8
 10
138.118
 20
219.721
 30
0.000000
  70
    32
  0
VERTEX
  8
実線
  5
6B9
 10
138.118
 20
219.725
 30
0.000000
  70
    32
  0
VERTEX
  8
実線
  5
6BA
 10
138.118
 20
219.728
 30
0.000000
  70
    32
  0
VERTEX
  8
実線
  5
6BB
 10
138.118
 20
219.732
 30
0.000000
  70
    32
  0
VERTEX
  8
実線
  5
6BC
 10
138.118
 20
219.736
 30
0.000000
  70
    32
  0
VERTEX
  8
実線
  5
6BD
 10
138.118
 20
219.740
 30
0.000000
  70
    32
  0
VERTEX
  8
実線
  5
6BE
 10
138.118
 20
219.744
 30
0.000000
  70
    32
  0
VERTEX
  8
実線
  5
6BF
 10
138.118
 20
219.748
 30
0.000000
  70
    32
  0
VERTEX
  8
実線
  5
6C0
 10
138.118
 20
219.752
 30
0.000000
  70
    32
  0
VERTEX
  8
実線
  5
6C1
 10
138.118
 20
219.756
 30
0.000000
  70
    32
  0
VERTEX
  8
実線
  5
6C2
 10
138.118
 20
219.760
 30
0.000000
  70
    32
  0
VERTEX
  8
実線
  5
6C3
 10
138.117
 20
219.764
 30
0.000000
  70
    32
  0
VERTEX
  8
実線
  5
6C4
 10
138.117
 20
219.768
 30
0.000000
  70
    32
  0
VERTEX
  8
実線
  5
6C5
 10
138.117
 20
219.772
 30
0.000000
  70
    32
  0
VERTEX
  8
実線
  5
6C6
 10
138.117
 20
219.776
 30
0.000000
  70
    32
  0
VERTEX
  8
実線
  5
6C7
 10
138.117
 20
219.780
 30
0.000000
  70
    32
  0
VERTEX
  8
実線
  5
6C8
 10
138.117
 20
219.784
 30
0.000000
  70
    32
  0
VERTEX
  8
実線
  5
6C9
 10
138.117
 20
219.788
 30
0.000000
  70
    32
  0
VERTEX
  8
実線
  5
6CA
 10
138.117
 20
219.792
 30
0.000000
  70
    32
  0
VERTEX
  8
実線
  5
6CB
 10
138.117
 20
219.796
 30
0.000000
  70
    32
  0
SEQEND
  8
実線
  5
6CC
  0
POLYLINE
  8
実線
  5
6CD
  62
7
  66
     1
 10
0.000000
 20
0.000000
 30
0.000000
  70
     8
  0
VERTEX
  8
実線
  5
6CE
 10
130.270
 20
221.429
 30
0.000000
  70
    32
  0
VERTEX
  8
実線
  5
6CF
 10
130.266
 20
221.369
 30
0.000000
  70
    32
  0
VERTEX
  8
実線
  5
6D0
 10
130.263
 20
221.309
 30
0.000000
  70
    32
  0
VERTEX
  8
実線
  5
6D1
 10
130.261
 20
221.249
 30
0.000000
  70
    32
  0
VERTEX
  8
実線
  5
6D2
 10
130.259
 20
221.190
 30
0.000000
  70
    32
  0
VERTEX
  8
実線
  5
6D3
 10
130.259
 20
221.130
 30
0.000000
  70
    32
  0
VERTEX
  8
実線
  5
6D4
 10
130.259
 20
221.071
 30
0.000000
  70
    32
  0
VERTEX
  8
実線
  5
6D5
 10
130.261
 20
221.012
 30
0.000000
  70
    32
  0
VERTEX
  8
実線
  5
6D6
 10
130.263
 20
220.953
 30
0.000000
  70
    32
  0
VERTEX
  8
実線
  5
6D7
 10
130.266
 20
220.895
 30
0.000000
  70
    32
  0
VERTEX
  8
実線
  5
6D8
 10
130.270
 20
220.836
 30
0.000000
  70
    32
  0
VERTEX
  8
実線
  5
6D9
 10
130.275
 20
220.778
 30
0.000000
  70
    32
  0
VERTEX
  8
実線
  5
6DA
 10
130.281
 20
220.720
 30
0.000000
  70
    32
  0
VERTEX
  8
実線
  5
6DB
 10
130.288
 20
220.662
 30
0.000000
  70
    32
  0
VERTEX
  8
実線
  5
6DC
 10
130.295
 20
220.604
 30
0.000000
  70
    32
  0
VERTEX
  8
実線
  5
6DD
 10
130.304
 20
220.547
 30
0.000000
  70
    32
  0
VERTEX
  8
実線
  5
6DE
 10
130.313
 20
220.490
 30
0.000000
  70
    32
  0
VERTEX
  8
実線
  5
6DF
 10
130.323
 20
220.433
 30
0.000000
  70
    32
  0
VERTEX
  8
実線
  5
6E0
 10
130.334
 20
220.376
 30
0.000000
  70
    32
  0
VERTEX
  8
実線
  5
6E1
 10
130.346
 20
220.320
 30
0.000000
  70
    32
  0
VERTEX
  8
実線
  5
6E2
 10
130.359
 20
220.263
 30
0.000000
  70
    32
  0
VERTEX
  8
実線
  5
6E3
 10
130.372
 20
220.208
 30
0.000000
  70
    32
  0
VERTEX
  8
実線
  5
6E4
 10
130.386
 20
220.152
 30
0.000000
  70
    32
  0
VERTEX
  8
実線
  5
6E5
 10
130.401
 20
220.097
 30
0.000000
  70
    32
  0
VERTEX
  8
実線
  5
6E6
 10
130.417
 20
220.042
 30
0.000000
  70
    32
  0
VERTEX
  8
実線
  5
6E7
 10
130.434
 20
219.987
 30
0.000000
  70
    32
  0
VERTEX
  8
実線
  5
6E8
 10
130.452
 20
219.932
 30
0.000000
  70
    32
  0
VERTEX
  8
実線
  5
6E9
 10
130.470
 20
219.878
 30
0.000000
  70
    32
  0
VERTEX
  8
実線
  5
6EA
 10
130.489
 20
219.824
 30
0.000000
  70
    32
  0
VERTEX
  8
実線
  5
6EB
 10
130.509
 20
219.771
 30
0.000000
  70
    32
  0
VERTEX
  8
実線
  5
6EC
 10
130.530
 20
219.718
 30
0.000000
  70
    32
  0
VERTEX
  8
実線
  5
6ED
 10
130.551
 20
219.665
 30
0.000000
  70
    32
  0
VERTEX
  8
実線
  5
6EE
 10
130.573
 20
219.612
 30
0.000000
  70
    32
  0
VERTEX
  8
実線
  5
6EF
 10
130.596
 20
219.560
 30
0.000000
  70
    32
  0
VERTEX
  8
実線
  5
6F0
 10
130.620
 20
219.508
 30
0.000000
  70
    32
  0
VERTEX
  8
実線
  5
6F1
 10
130.644
 20
219.457
 30
0.000000
  70
    32
  0
VERTEX
  8
実線
  5
6F2
 10
130.669
 20
219.406
 30
0.000000
  70
    32
  0
VERTEX
  8
実線
  5
6F3
 10
130.695
 20
219.355
 30
0.000000
  70
    32
  0
VERTEX
  8
実線
  5
6F4
 10
130.722
 20
219.305
 30
0.000000
  70
    32
  0
VERTEX
  8
実線
  5
6F5
 10
130.749
 20
219.255
 30
0.000000
  70
    32
  0
VERTEX
  8
実線
  5
6F6
 10
130.777
 20
219.205
 30
0.000000
  70
    32
  0
VERTEX
  8
実線
  5
6F7
 10
130.806
 20
219.156
 30
0.000000
  70
    32
  0
VERTEX
  8
実線
  5
6F8
 10
130.835
 20
219.108
 30
0.000000
  70
    32
  0
VERTEX
  8
実線
  5
6F9
 10
130.866
 20
219.059
 30
0.000000
  70
    32
  0
VERTEX
  8
実線
  5
6FA
 10
130.896
 20
219.011
 30
0.000000
  70
    32
  0
VERTEX
  8
実線
  5
6FB
 10
130.928
 20
218.964
 30
0.000000
  70
    32
  0
VERTEX
  8
実線
  5
6FC
 10
130.960
 20
218.917
 30
0.000000
  70
    32
  0
VERTEX
  8
実線
  5
6FD
 10
130.993
 20
218.870
 30
0.000000
  70
    32
  0
VERTEX
  8
実線
  5
6FE
 10
131.026
 20
218.824
 30
0.000000
  70
    32
  0
VERTEX
  8
実線
  5
6FF
 10
131.061
 20
218.778
 30
0.000000
  70
    32
  0
VERTEX
  8
実線
  5
700
 10
131.096
 20
218.733
 30
0.000000
  70
    32
  0
VERTEX
  8
実線
  5
701
 10
131.131
 20
218.688
 30
0.000000
  70
    32
  0
VERTEX
  8
実線
  5
702
 10
131.167
 20
218.644
 30
0.000000
  70
    32
  0
VERTEX
  8
実線
  5
703
 10
131.204
 20
218.600
 30
0.000000
  70
    32
  0
VERTEX
  8
実線
  5
704
 10
131.241
 20
218.557
 30
0.000000
  70
    32
  0
VERTEX
  8
実線
  5
705
 10
131.279
 20
218.514
 30
0.000000
  70
    32
  0
VERTEX
  8
実線
  5
706
 10
131.318
 20
218.471
 30
0.000000
  70
    32
  0
VERTEX
  8
実線
  5
707
 10
131.357
 20
218.429
 30
0.000000
  70
    32
  0
VERTEX
  8
実線
  5
708
 10
131.397
 20
218.388
 30
0.000000
  70
    32
  0
VERTEX
  8
実線
  5
709
 10
131.438
 20
218.347
 30
0.000000
  70
    32
  0
VERTEX
  8
実線
  5
70A
 10
131.479
 20
218.307
 30
0.000000
  70
    32
  0
VERTEX
  8
実線
  5
70B
 10
131.520
 20
218.267
 30
0.000000
  70
    32
  0
VERTEX
  8
実線
  5
70C
 10
131.563
 20
218.228
 30
0.000000
  70
    32
  0
VERTEX
  8
実線
  5
70D
 10
131.605
 20
218.189
 30
0.000000
  70
    32
  0
VERTEX
  8
実線
  5
70E
 10
131.649
 20
218.151
 30
0.000000
  70
    32
  0
VERTEX
  8
実線
  5
70F
 10
131.693
 20
218.113
 30
0.000000
  70
    32
  0
VERTEX
  8
実線
  5
710
 10
131.737
 20
218.076
 30
0.000000
  70
    32
  0
VERTEX
  8
実線
  5
711
 10
131.782
 20
218.039
 30
0.000000
  70
    32
  0
VERTEX
  8
実線
  5
712
 10
131.828
 20
218.003
 30
0.000000
  70
    32
  0
VERTEX
  8
実線
  5
713
 10
131.874
 20
217.968
 30
0.000000
  70
    32
  0
VERTEX
  8
実線
  5
714
 10
131.921
 20
217.933
 30
0.000000
  70
    32
  0
VERTEX
  8
実線
  5
715
 10
131.968
 20
217.899
 30
0.000000
  70
    32
  0
VERTEX
  8
実線
  5
716
 10
132.016
 20
217.865
 30
0.000000
  70
    32
  0
VERTEX
  8
実線
  5
717
 10
132.064
 20
217.832
 30
0.000000
  70
    32
  0
VERTEX
  8
実線
  5
718
 10
132.113
 20
217.800
 30
0.000000
  70
    32
  0
VERTEX
  8
実線
  5
719
 10
132.162
 20
217.768
 30
0.000000
  70
    32
  0
VERTEX
  8
実線
  5
71A
 10
132.212
 20
217.737
 30
0.000000
  70
    32
  0
VERTEX
  8
実線
  5
71B
 10
132.262
 20
217.707
 30
0.000000
  70
    32
  0
VERTEX
  8
実線
  5
71C
 10
132.313
 20
217.677
 30
0.000000
  70
    32
  0
VERTEX
  8
実線
  5
71D
 10
132.364
 20
217.647
 30
0.000000
  70
    32
  0
VERTEX
  8
実線
  5
71E
 10
132.416
 20
217.619
 30
0.000000
  70
    32
  0
VERTEX
  8
実線
  5
71F
 10
132.468
 20
217.591
 30
0.000000
  70
    32
  0
VERTEX
  8
実線
  5
720
 10
132.521
 20
217.564
 30
0.000000
  70
    32
  0
VERTEX
  8
実線
  5
721
 10
132.574
 20
217.537
 30
0.000000
  70
    32
  0
VERTEX
  8
実線
  5
722
 10
132.627
 20
217.511
 30
0.000000
  70
    32
  0
VERTEX
  8
実線
  5
723
 10
132.681
 20
217.486
 30
0.000000
  70
    32
  0
VERTEX
  8
実線
  5
724
 10
132.736
 20
217.461
 30
0.000000
  70
    32
  0
VERTEX
  8
実線
  5
725
 10
132.791
 20
217.438
 30
0.000000
  70
    32
  0
VERTEX
  8
実線
  5
726
 10
132.846
 20
217.414
 30
0.000000
  70
    32
  0
VERTEX
  8
実線
  5
727
 10
132.902
 20
217.392
 30
0.000000
  70
    32
  0
VERTEX
  8
実線
  5
728
 10
132.958
 20
217.370
 30
0.000000
  70
    32
  0
VERTEX
  8
実線
  5
729
 10
133.014
 20
217.349
 30
0.000000
  70
    32
  0
VERTEX
  8
実線
  5
72A
 10
133.071
 20
217.329
 30
0.000000
  70
    32
  0
VERTEX
  8
実線
  5
72B
 10
133.129
 20
217.309
 30
0.000000
  70
    32
  0
VERTEX
  8
実線
  5
72C
 10
133.187
 20
217.291
 30
0.000000
  70
    32
  0
VERTEX
  8
実線
  5
72D
 10
133.245
 20
217.273
 30
0.000000
  70
    32
  0
VERTEX
  8
実線
  5
72E
 10
133.303
 20
217.255
 30
0.000000
  70
    32
  0
VERTEX
  8
実線
  5
72F
 10
133.362
 20
217.239
 30
0.000000
  70
    32
  0
VERTEX
  8
実線
  5
730
 10
133.422
 20
217.223
 30
0.000000
  70
    32
  0
VERTEX
  8
実線
  5
731
 10
133.481
 20
217.208
 30
0.000000
  70
    32
  0
VERTEX
  8
実線
  5
732
 10
133.541
 20
217.194
 30
0.000000
  70
    32
  0
VERTEX
  8
実線
  5
733
 10
133.602
 20
217.180
 30
0.000000
  70
    32
  0
VERTEX
  8
実線
  5
734
 10
133.662
 20
217.168
 30
0.000000
  70
    32
  0
VERTEX
  8
実線
  5
735
 10
133.723
 20
217.156
 30
0.000000
  70
    32
  0
VERTEX
  8
実線
  5
736
 10
133.785
 20
217.145
 30
0.000000
  70
    32
  0
VERTEX
  8
実線
  5
737
 10
133.846
 20
217.134
 30
0.000000
  70
    32
  0
VERTEX
  8
実線
  5
738
 10
133.908
 20
217.125
 30
0.000000
  70
    32
  0
VERTEX
  8
実線
  5
739
 10
133.971
 20
217.116
 30
0.000000
  70
    32
  0
VERTEX
  8
実線
  5
73A
 10
134.033
 20
217.109
 30
0.000000
  70
    32
  0
VERTEX
  8
実線
  5
73B
 10
134.096
 20
217.102
 30
0.000000
  70
    32
  0
VERTEX
  8
実線
  5
73C
 10
134.160
 20
217.096
 30
0.000000
  70
    32
  0
VERTEX
  8
実線
  5
73D
 10
134.223
 20
217.090
 30
0.000000
  70
    32
  0
VERTEX
  8
実線
  5
73E
 10
134.271
 20
217.087
 30
0.000000
  70
    32
  0
VERTEX
  8
実線
  5
73F
 10
134.303
 20
217.085
 30
0.000000
  70
    32
  0
VERTEX
  8
実線
  5
740
 10
134.335
 20
217.083
 30
0.000000
  70
    32
  0
VERTEX
  8
実線
  5
741
 10
134.367
 20
217.082
 30
0.000000
  70
    32
  0
VERTEX
  8
実線
  5
742
 10
134.399
 20
217.081
 30
0.000000
  70
    32
  0
VERTEX
  8
実線
  5
743
 10
134.430
 20
217.080
 30
0.000000
  70
    32
  0
VERTEX
  8
実線
  5
744
 10
134.462
 20
217.079
 30
0.000000
  70
    32
  0
VERTEX
  8
実線
  5
745
 10
134.494
 20
217.078
 30
0.000000
  70
    32
  0
VERTEX
  8
実線
  5
746
 10
134.526
 20
217.078
 30
0.000000
  70
    32
  0
VERTEX
  8
実線
  5
747
 10
134.558
 20
217.078
 30
0.000000
  70
    32
  0
VERTEX
  8
実線
  5
748
 10
134.590
 20
217.078
 30
0.000000
  70
    32
  0
VERTEX
  8
実線
  5
749
 10
134.621
 20
217.078
 30
0.000000
  70
    32
  0
VERTEX
  8
実線
  5
74A
 10
134.653
 20
217.078
 30
0.000000
  70
    32
  0
VERTEX
  8
実線
  5
74B
 10
134.685
 20
217.079
 30
0.000000
  70
    32
  0
VERTEX
  8
実線
  5
74C
 10
134.716
 20
217.080
 30
0.000000
  70
    32
  0
VERTEX
  8
実線
  5
74D
 10
134.748
 20
217.081
 30
0.000000
  70
    32
  0
VERTEX
  8
実線
  5
74E
 10
134.780
 20
217.083
 30
0.000000
  70
    32
  0
VERTEX
  8
実線
  5
74F
 10
134.811
 20
217.084
 30
0.000000
  70
    32
  0
VERTEX
  8
実線
  5
750
 10
134.843
 20
217.086
 30
0.000000
  70
    32
  0
VERTEX
  8
実線
  5
751
 10
134.874
 20
217.088
 30
0.000000
  70
    32
  0
VERTEX
  8
実線
  5
752
 10
134.906
 20
217.090
 30
0.000000
  70
    32
  0
VERTEX
  8
実線
  5
753
 10
134.937
 20
217.093
 30
0.000000
  70
    32
  0
VERTEX
  8
実線
  5
754
 10
134.969
 20
217.095
 30
0.000000
  70
    32
  0
VERTEX
  8
実線
  5
755
 10
135.000
 20
217.098
 30
0.000000
  70
    32
  0
VERTEX
  8
実線
  5
756
 10
135.032
 20
217.101
 30
0.000000
  70
    32
  0
VERTEX
  8
実線
  5
757
 10
135.063
 20
217.105
 30
0.000000
  70
    32
  0
VERTEX
  8
実線
  5
758
 10
135.094
 20
217.108
 30
0.000000
  70
    32
  0
VERTEX
  8
実線
  5
759
 10
135.125
 20
217.112
 30
0.000000
  70
    32
  0
VERTEX
  8
実線
  5
75A
 10
135.157
 20
217.116
 30
0.000000
  70
    32
  0
VERTEX
  8
実線
  5
75B
 10
135.188
 20
217.120
 30
0.000000
  70
    32
  0
VERTEX
  8
実線
  5
75C
 10
135.219
 20
217.125
 30
0.000000
  70
    32
  0
VERTEX
  8
実線
  5
75D
 10
135.250
 20
217.129
 30
0.000000
  70
    32
  0
VERTEX
  8
実線
  5
75E
 10
135.281
 20
217.134
 30
0.000000
  70
    32
  0
VERTEX
  8
実線
  5
75F
 10
135.312
 20
217.139
 30
0.000000
  70
    32
  0
VERTEX
  8
実線
  5
760
 10
135.343
 20
217.144
 30
0.000000
  70
    32
  0
VERTEX
  8
実線
  5
761
 10
135.374
 20
217.150
 30
0.000000
  70
    32
  0
VERTEX
  8
実線
  5
762
 10
135.405
 20
217.155
 30
0.000000
  70
    32
  0
VERTEX
  8
実線
  5
763
 10
135.436
 20
217.161
 30
0.000000
  70
    32
  0
VERTEX
  8
実線
  5
764
 10
135.466
 20
217.167
 30
0.000000
  70
    32
  0
VERTEX
  8
実線
  5
765
 10
135.497
 20
217.174
 30
0.000000
  70
    32
  0
VERTEX
  8
実線
  5
766
 10
135.528
 20
217.180
 30
0.000000
  70
    32
  0
VERTEX
  8
実線
  5
767
 10
135.558
 20
217.187
 30
0.000000
  70
    32
  0
VERTEX
  8
実線
  5
768
 10
135.589
 20
217.194
 30
0.000000
  70
    32
  0
VERTEX
  8
実線
  5
769
 10
135.619
 20
217.201
 30
0.000000
  70
    32
  0
VERTEX
  8
実線
  5
76A
 10
135.649
 20
217.208
 30
0.000000
  70
    32
  0
VERTEX
  8
実線
  5
76B
 10
135.680
 20
217.216
 30
0.000000
  70
    32
  0
VERTEX
  8
実線
  5
76C
 10
135.710
 20
217.223
 30
0.000000
  70
    32
  0
VERTEX
  8
実線
  5
76D
 10
135.740
 20
217.231
 30
0.000000
  70
    32
  0
VERTEX
  8
実線
  5
76E
 10
135.770
 20
217.239
 30
0.000000
  70
    32
  0
VERTEX
  8
実線
  5
76F
 10
135.800
 20
217.248
 30
0.000000
  70
    32
  0
VERTEX
  8
実線
  5
770
 10
135.830
 20
217.256
 30
0.000000
  70
    32
  0
VERTEX
  8
実線
  5
771
 10
135.860
 20
217.265
 30
0.000000
  70
    32
  0
VERTEX
  8
実線
  5
772
 10
135.890
 20
217.274
 30
0.000000
  70
    32
  0
VERTEX
  8
実線
  5
773
 10
135.920
 20
217.283
 30
0.000000
  70
    32
  0
VERTEX
  8
実線
  5
774
 10
135.950
 20
217.293
 30
0.000000
  70
    32
  0
VERTEX
  8
実線
  5
775
 10
135.979
 20
217.302
 30
0.000000
  70
    32
  0
VERTEX
  8
実線
  5
776
 10
136.009
 20
217.312
 30
0.000000
  70
    32
  0
VERTEX
  8
実線
  5
777
 10
136.038
 20
217.322
 30
0.000000
  70
    32
  0
VERTEX
  8
実線
  5
778
 10
136.068
 20
217.332
 30
0.000000
  70
    32
  0
VERTEX
  8
実線
  5
779
 10
136.097
 20
217.343
 30
0.000000
  70
    32
  0
VERTEX
  8
実線
  5
77A
 10
136.126
 20
217.353
 30
0.000000
  70
    32
  0
VERTEX
  8
実線
  5
77B
 10
136.156
 20
217.364
 30
0.000000
  70
    32
  0
VERTEX
  8
実線
  5
77C
 10
136.185
 20
217.375
 30
0.000000
  70
    32
  0
VERTEX
  8
実線
  5
77D
 10
136.214
 20
217.386
 30
0.000000
  70
    32
  0
VERTEX
  8
実線
  5
77E
 10
136.243
 20
217.398
 30
0.000000
  70
    32
  0
VERTEX
  8
実線
  5
77F
 10
136.271
 20
217.409
 30
0.000000
  70
    32
  0
VERTEX
  8
実線
  5
780
 10
136.300
 20
217.421
 30
0.000000
  70
    32
  0
VERTEX
  8
実線
  5
781
 10
136.329
 20
217.433
 30
0.000000
  70
    32
  0
VERTEX
  8
実線
  5
782
 10
136.357
 20
217.445
 30
0.000000
  70
    32
  0
VERTEX
  8
実線
  5
783
 10
136.386
 20
217.458
 30
0.000000
  70
    32
  0
VERTEX
  8
実線
  5
784
 10
136.414
 20
217.470
 30
0.000000
  70
    32
  0
VERTEX
  8
実線
  5
785
 10
136.443
 20
217.483
 30
0.000000
  70
    32
  0
VERTEX
  8
実線
  5
786
 10
136.471
 20
217.496
 30
0.000000
  70
    32
  0
VERTEX
  8
実線
  5
787
 10
136.499
 20
217.509
 30
0.000000
  70
    32
  0
VERTEX
  8
実線
  5
788
 10
136.527
 20
217.522
 30
0.000000
  70
    32
  0
VERTEX
  8
実線
  5
789
 10
136.555
 20
217.536
 30
0.000000
  70
    32
  0
VERTEX
  8
実線
  5
78A
 10
136.583
 20
217.550
 30
0.000000
  70
    32
  0
VERTEX
  8
実線
  5
78B
 10
136.610
 20
217.564
 30
0.000000
  70
    32
  0
VERTEX
  8
実線
  5
78C
 10
136.638
 20
217.578
 30
0.000000
  70
    32
  0
VERTEX
  8
実線
  5
78D
 10
136.666
 20
217.592
 30
0.000000
  70
    32
  0
VERTEX
  8
実線
  5
78E
 10
136.693
 20
217.607
 30
0.000000
  70
    32
  0
VERTEX
  8
実線
  5
78F
 10
136.720
 20
217.621
 30
0.000000
  70
    32
  0
VERTEX
  8
実線
  5
790
 10
136.747
 20
217.636
 30
0.000000
  70
    32
  0
VERTEX
  8
実線
  5
791
 10
136.775
 20
217.651
 30
0.000000
  70
    32
  0
VERTEX
  8
実線
  5
792
 10
136.801
 20
217.667
 30
0.000000
  70
    32
  0
VERTEX
  8
実線
  5
793
 10
136.828
 20
217.682
 30
0.000000
  70
    32
  0
VERTEX
  8
実線
  5
794
 10
136.855
 20
217.698
 30
0.000000
  70
    32
  0
VERTEX
  8
実線
  5
795
 10
136.882
 20
217.714
 30
0.000000
  70
    32
  0
VERTEX
  8
実線
  5
796
 10
136.908
 20
217.730
 30
0.000000
  70
    32
  0
VERTEX
  8
実線
  5
797
 10
136.935
 20
217.746
 30
0.000000
  70
    32
  0
VERTEX
  8
実線
  5
798
 10
136.961
 20
217.762
 30
0.000000
  70
    32
  0
VERTEX
  8
実線
  5
799
 10
136.987
 20
217.779
 30
0.000000
  70
    32
  0
VERTEX
  8
実線
  5
79A
 10
137.013
 20
217.796
 30
0.000000
  70
    32
  0
VERTEX
  8
実線
  5
79B
 10
137.039
 20
217.813
 30
0.000000
  70
    32
  0
VERTEX
  8
実線
  5
79C
 10
137.065
 20
217.830
 30
0.000000
  70
    32
  0
VERTEX
  8
実線
  5
79D
 10
137.091
 20
217.848
 30
0.000000
  70
    32
  0
VERTEX
  8
実線
  5
79E
 10
137.116
 20
217.865
 30
0.000000
  70
    32
  0
VERTEX
  8
実線
  5
79F
 10
137.142
 20
217.883
 30
0.000000
  70
    32
  0
VERTEX
  8
実線
  5
7A0
 10
137.167
 20
217.901
 30
0.000000
  70
    32
  0
VERTEX
  8
実線
  5
7A1
 10
137.192
 20
217.919
 30
0.000000
  70
    32
  0
VERTEX
  8
実線
  5
7A2
 10
137.217
 20
217.937
 30
0.000000
  70
    32
  0
VERTEX
  8
実線
  5
7A3
 10
137.242
 20
217.956
 30
0.000000
  70
    32
  0
VERTEX
  8
実線
  5
7A4
 10
137.267
 20
217.974
 30
0.000000
  70
    32
  0
VERTEX
  8
実線
  5
7A5
 10
137.292
 20
217.993
 30
0.000000
  70
    32
  0
VERTEX
  8
実線
  5
7A6
 10
137.316
 20
218.012
 30
0.000000
  70
    32
  0
VERTEX
  8
実線
  5
7A7
 10
137.341
 20
218.032
 30
0.000000
  70
    32
  0
VERTEX
  8
実線
  5
7A8
 10
137.365
 20
218.051
 30
0.000000
  70
    32
  0
VERTEX
  8
実線
  5
7A9
 10
137.389
 20
218.071
 30
0.000000
  70
    32
  0
VERTEX
  8
実線
  5
7AA
 10
137.413
 20
218.090
 30
0.000000
  70
    32
  0
VERTEX
  8
実線
  5
7AB
 10
137.437
 20
218.110
 30
0.000000
  70
    32
  0
VERTEX
  8
実線
  5
7AC
 10
137.461
 20
218.130
 30
0.000000
  70
    32
  0
VERTEX
  8
実線
  5
7AD
 10
137.485
 20
218.151
 30
0.000000
  70
    32
  0
SEQEND
  8
実線
  5
7AE
  0
POLYLINE
  5
55
  8
実線
 62
     7
 66
     1
 10
0.0
 20
0.0
 30
0.0
  0
VERTEX
  5
56
  8
実線
 62
     7
 10
-5.3678068166801056
 20
184.6415646319478
 30
0.0
  0
VERTEX
  5
57
  8
実線
 62
     7
 10
132.57562996098491
 20
227.2662088972167
 30
0.0
  0
SEQEND
  5
58
  8
実線
  0
POLYLINE
  5
59
  8
実線
 62
     7
 66
     1
 10
0.0
 20
0.0
 30
0.0
  0
VERTEX
  5
5A
  8
実線
 62
     7
 10
-1.69498809691715
 20
185.09941812398091
 30
0.0
  0
VERTEX
  5
5B
  8
実線
 62
     7
 10
3.104377589699276
 20
184.44243798153761
 30
0.0
  0
SEQEND
  5
5C
  8
実線
  0
POLYLINE
  5
5D
  8
実線
 62
     7
 66
     1
 10
0.0
 20
0.0
 30
0.0
  0
VERTEX
  5
5E
  8
実線
 62
     7
 10
-4.4238500309986026
 20
184.2198846663733
 30
0.0
  0
VERTEX
  5
5F
  8
実線
 62
     7
 10
-1.784216128848358
 20
185.08649900738851
 30
0.0
  0
SEQEND
  5
60
  8
実線
  0
POLYLINE
  5
61
  8
実線
 62
     7
 66
     1
 10
0.0
 20
0.0
 30
0.0
  0
VERTEX
  5
62
  8
実線
 62
     7
 10
-1.784216128848358
 20
185.08649900738851
 30
0.0
  0
VERTEX
  5
63
  8
実線
 62
     7
 10
-1.784216128848358
 20
180.35345145261289
 30
0.0
  0
SEQEND
  5
64
  8
実線
  0
POLYLINE
  5
65
  8
実線
 62
     7
 66
     1
 10
0.0
 20
0.0
 30
0.0
  0
VERTEX
  5
66
  8
実線
 62
     7
 10
-4.4238500309986026
 20
184.2198846663733
 30
0.0
  0
VERTEX
  5
67
  8
実線
 62
     7
 10
-4.4238500309986026
 20
179.09392371230209
 30
0.0
  0
SEQEND
  5
68
  8
実線
  0
POLYLINE
  5
69
  8
実線
 62
     7
 66
     1
 10
0.0
 20
0.0
 30
0.0
  0
VERTEX
  5
6A
  8
実線
 62
     7
 10
-5.3678068166801056
 20
184.6415646319478
 30
0.0
  0
VERTEX
  5
6B
  8
実線
 62
     7
 10
-4.2054308331438328
 20
184.24055525292101
 30
0.0
  0
SEQEND
  5
6C
  8
実線
  0
POLYLINE
  5
6D
  8
実線
 62
     7
 66
     1
 10
0.0
 20
0.0
 30
0.0
  0
VERTEX
  5
6E
  8
実線
 62
     7
 10
-5.4911413164151339
 20
189.01201564769801
 30
0.0
  0
VERTEX
  5
6F
  8
実線
 62
     7
 10
-5.4911413164151339
 20
184.76197079858849
 30
0.0
  0
SEQEND
  5
70
  8
実線
  0
POLYLINE
  5
71
  8
実線
 62
     7
 66
     1
 10
0.0
 20
0.0
 30
0.0
  0
VERTEX
  5
72
  8
実線
 62
     7
 10
138.06298166986619
 20
223.8298961385378
 30
0.0
  0
VERTEX
  5
73
  8
実線
 62
     7
 10
138.06298166986619
 20
219.7962034286283
 30
0.0
  0
SEQEND
  5
74
  8
実線
  0
POLYLINE
  5
75
  8
実線
 62
     7
 66
     1
 10
0.0
 20
0.0
 30
0.0
  0
VERTEX
  5
76
  8
実線
 62
     7
 10
133.23812225984091
 20
225.21964857409949
 30
0.0
  0
VERTEX
  5
77
  8
実線
 62
     7
 10
138.06298166986619
 20
223.8298961385378
 30
0.0
  0
SEQEND
  5
78
  8
実線
  0
POLYLINE
  5
79
  8
実線
 62
     7
 66
     1
 10
0.0
 20
0.0
 30
0.0
  0
VERTEX
  5
7A
  8
実線
 62
     7
 10
133.20814990934659
 20
225.2782152359849
 30
0.0
  0
VERTEX
  5
7B
  8
実線
 62
     7
 10
133.20814990934659
 20
220.81853618830351
 30
0.0
  0
SEQEND
  5
7C
  8
実線
  0
POLYLINE
  5
7D
  8
実線
 62
     7
 66
     1
 10
0.0
 20
0.0
 30
0.0
  0
VERTEX
  5
7E
  8
実線
 62
     7
 10
130.27430465866649
 20
224.3149659028588
 30
0.0
  0
VERTEX
  5
7F
  8
実線
 62
     7
 10
133.20814990934659
 20
225.2782152359849
 30
0.0
  0
SEQEND
  5
80
  8
実線
  0
POLYLINE
  5
81
  8
実線
 62
     7
 66
     1
 10
0.0
 20
0.0
 30
0.0
  0
VERTEX
  5
82
  8
実線
 62
     7
 10
130.27430465866649
 20
224.3149659028588
 30
0.0
  0
VERTEX
  5
83
  8
実線
 62
     7
 10
130.27430465866649
 20
220.79993266041049
 30
0.0
  0
SEQEND
  5
84
  8
実線
  0
POLYLINE
  5
85
  8
実線
 62
     7
 66
     1
 10
0.0
 20
0.0
 30
0.0
  0
VERTEX
  5
86
  8
実線
 62
     7
 10
138.06298166986619
 20
223.88312289889831
 30
0.0
  0
VERTEX
  5
87
  8
実線
 62
     7
 10
140.564811661698
 20
224.97521888817221
 30
0.0
  0
SEQEND
  5
88
  8
実線
  0
POLYLINE
  5
89
  8
実線
 62
     7
 66
     1
 10
0.0
 20
0.0
 30
0.0
  0
VERTEX
  5
8A
  8
実線
 62
     7
 10
132.7092997539938
 20
227.2662088972167
 30
0.0
  0
VERTEX
  5
8B
  8
実線
 62
     7
 10
140.564811661698
 20
224.93577251884349
 30
0.0
  0
SEQEND
  5
8C
  8
実線
  0
POLYLINE
  5
8D
  8
実線
 62
     7
 66
     1
 10
0.0
 20
0.0
 30
0.0
  0
VERTEX
  5
8E
  8
実線
 62
     7
 10
132.57562996098491
 20
233.3126999722152
 30
0.0
  0
VERTEX
  5
8F
  8
実線
 62
     7
 10
132.57562996098491
 20
227.2662088972167
 30
0.0
  0
SEQEND
  5
90
  8
実線
  0
POLYLINE
  5
91
  8
実線
 62
     7
 66
     1
 10
0.0
 20
0.0
 30
0.0
  0
VERTEX
  5
92
  8
実線
 62
     7
 10
140.75015792107641
 20
230.65084518952611
 30
0.0
  0
VERTEX
  5
93
  8
実線
 62
     7
 10
140.75015792107641
 20
224.93577251884349
 30
0.0
  0
SEQEND
  5
94
  8
実線
  0
POLYLINE
  5
95
  8
実線
 62
     7
 66
     1
 10
0.0
 20
0.0
 30
0.0
  0
VERTEX
  5
96
  8
実線
 62
     7
 10
-5.4911413164151339
 20
189.01201564769801
 30
0.0
  0
VERTEX
  5
97
  8
実線
 62
     7
 10
132.7092997539938
 20
233.3126999722152
 30
0.0
  0
SEQEND
  5
98
  8
実線
  0
POLYLINE
  5
99
  8
実線
 62
     7
 66
     1
 10
0.0
 20
0.0
 30
0.0
  0
VERTEX
  5
9A
  8
実線
 62
     7
 10
132.7092997539938
 20
233.3126999722152
 30
0.0
  0
VERTEX
  5
9B
  8
実線
 62
     7
 10
140.75015792107641
 20
230.65084518952611
 30
0.0
  0
SEQEND
  5
9C
  8
実線
  0
POLYLINE
  5
9D
  8
実線
 62
     7
 66
     1
 10
0.0
 20
0.0
 30
0.0
  0
VERTEX
  5
9E
  8
実線
 62
     7
 10
3.104377589699276
 20
184.46603690117959
 30
0.0
  0
VERTEX
  5
9F
  8
実線
 62
     7
 10
3.104377589699276
 20
182.72006135744459
 30
0.0
  0
SEQEND
  5
A0
  8
実線
  0
ENDSEC
  0
EOF
