  0
SECTION
  2
HEADER
  9
$ACADVER
  1
AC1027
  9
$ACADMAINTVER
 70
    20
  9
$DWGCODEPAGE
  3
ANSI_932
  9
$REQUIREDVERSIONS
160
                 0
  9
$INSBASE
 10
0.0
 20
0.0
 30
0.0
  9
$EXTMIN
 10
11.88362804833468
 20
27.89086634279101
 30
0.0
  9
$EXTMAX
 10
343.5200717623684
 20
299.7818470823813
 30
0.0
  9
$LIMMIN
 10
0.0
 20
0.0
  9
$LIMMAX
 10
420.0
 20
297.0
  9
$ORTHOMODE
 70
     0
  9
$REGENMODE
 70
     1
  9
$FILLMODE
 70
     1
  9
$QTEXTMODE
 70
     0
  9
$MIRRTEXT
 70
     0
  9
$LTSCALE
 40
0.5
  9
$ATTMODE
 70
     1
  9
$TEXTSIZE
 40
2.5
  9
$TRACEWID
 40
1.0
  9
$TEXTSTYLE
  7
黑体
  9
$CLAYER
  8
粗实线
  9
$CELTYPE
  6
ByLayer
  9
$CECOLOR
 62
   256
  9
$CELTSCALE
 40
0.5
  9
$DISPSILH
 70
     0
  9
$DIMSCALE
 40
1.0
  9
$DIMASZ
 40
12.5
  9
$DIMEXO
 40
0.0
  9
$DIMDLI
 40
12.5
  9
$DIMRND
 40
0.0
  9
$DIMDLE
 40
0.0
  9
$DIMEXE
 40
10.0
  9
$DIMTP
 40
0.0
  9
$DIMTM
 40
0.0
  9
$DIMTXT
 40
12.5
  9
$DIMCEN
 40
0.0
  9
$DIMTSZ
 40
0.0
  9
$DIMTOL
 70
     0
  9
$DIMLIM
 70
     0
  9
$DIMTIH
 70
     0
  9
$DIMTOH
 70
     0
  9
$DIMSE1
 70
     0
  9
$DIMSE2
 70
     0
  9
$DIMTAD
 70
     1
  9
$DIMZIN
 70
    12
  9
$DIMBLK
  1

  9
$DIMASO
 70
     1
  9
$DIMSHO
 70
     1
  9
$DIMPOST
  1

  9
$DIMAPOST
  1

  9
$DIMALT
 70
     0
  9
$DIMALTD
 70
     3
  9
$DIMALTF
 40
0.03937007874016
  9
$DIMLFAC
 40
1.0
  9
$DIMTOFL
 70
     1
  9
$DIMTVP
 40
0.0
  9
$DIMTIX
 70
     0
  9
$DIMSOXD
 70
     0
  9
$DIMSAH
 70
     0
  9
$DIMBLK1
  1

  9
$DIMBLK2
  1

  9
$DIMSTYLE
  2
1：5
  9
$DIMCLRD
 70
     6
  9
$DIMCLRE
 70
     6
  9
$DIMCLRT
 70
     6
  9
$DIMTFAC
 40
1.0
  9
$DIMGAP
 40
5.0
  9
$DIMJUST
 70
     0
  9
$DIMSD1
 70
     0
  9
$DIMSD2
 70
     0
  9
$DIMTOLJ
 70
     0
  9
$DIMTZIN
 70
     8
  9
$DIMALTZ
 70
     0
  9
$DIMALTTZ
 70
     0
  9
$DIMUPT
 70
     0
  9
$DIMDEC
 70
     1
  9
$DIMTDEC
 70
     1
  9
$DIMALTU
 70
     2
  9
$DIMALTTD
 70
     3
  9
$DIMTXSTY
  7
黑体
  9
$DIMAUNIT
 70
     0
  9
$DIMADEC
 70
     1
  9
$DIMALTRND
 40
0.0
  9
$DIMAZIN
 70
     3
  9
$DIMDSEP
 70
    46
  9
$DIMATFIT
 70
     3
  9
$DIMFRAC
 70
     0
  9
$DIMLDRBLK
  1

  9
$DIMLUNIT
 70
     2
  9
$DIMLWD
 70
     9
  9
$DIMLWE
 70
     9
  9
$DIMTMOVE
 70
     0
  9
$DIMFXL
 40
1.0
  9
$DIMFXLON
 70
     0
  9
$DIMJOGANG
 40
0.7853981633974483
  9
$DIMTFILL
 70
     0
  9
$DIMTFILLCLR
 70
     0
  9
$DIMARCSYM
 70
     0
  9
$DIMLTYPE
  6

  9
$DIMLTEX1
  6

  9
$DIMLTEX2
  6

  9
$DIMTXTDIRECTION
 70
     0
  9
$LUNITS
 70
     2
  9
$LUPREC
 70
     4
  9
$SKETCHINC
 40
1.0
  9
$FILLETRAD
 40
15.0
  9
$AUNITS
 70
     0
  9
$AUPREC
 70
     0
  9
$MENU
  1
.
  9
$ELEVATION
 40
0.0
  9
$PELEVATION
 40
0.0
  9
$THICKNESS
 40
0.0
  9
$LIMCHECK
 70
     0
  9
$CHAMFERA
 40
0.0
  9
$CHAMFERB
 40
0.0
  9
$CHAMFERC
 40
0.0
  9
$CHAMFERD
 40
0.0
  9
$SKPOLY
 70
     0
  9
$TDCREATE
 40
2457485.840038634
  9
$TDUCREATE
 40
2457485.465038634
  9
$TDUPDATE
 40
2457771.532734201
  9
$TDUUPDATE
 40
2457771.157734201
  9
$TDINDWG
 40
0.7311770949
  9
$TDUSRTIMER
 40
2457771.189227454
  9
$USRTIMER
 70
     1
  9
$ANGBASE
 50
0.0
  9
$ANGDIR
 70
     0
  9
$PDMODE
 70
     0
  9
$PDSIZE
 40
0.0
  9
$PLINEWID
 40
0.0
  9
$SPLFRAME
 70
     0
  9
$SPLINETYPE
 70
     6
  9
$SPLINESEGS
 70
     8
  9
$HANDSEED
  5
243
  9
$SURFTAB1
 70
     6
  9
$SURFTAB2
 70
     6
  9
$SURFTYPE
 70
     6
  9
$SURFU
 70
     6
  9
$SURFV
 70
     6
  9
$UCSBASE
  2

  9
$UCSNAME
  2

  9
$UCSORG
 10
0.0
 20
0.0
 30
0.0
  9
$UCSXDIR
 10
1.0
 20
0.0
 30
0.0
  9
$UCSYDIR
 10
0.0
 20
1.0
 30
0.0
  9
$UCSORTHOREF
  2

  9
$UCSORTHOVIEW
 70
     0
  9
$UCSORGTOP
 10
0.0
 20
0.0
 30
0.0
  9
$UCSORGBOTTOM
 10
0.0
 20
0.0
 30
0.0
  9
$UCSORGLEFT
 10
0.0
 20
0.0
 30
0.0
  9
$UCSORGRIGHT
 10
0.0
 20
0.0
 30
0.0
  9
$UCSORGFRONT
 10
0.0
 20
0.0
 30
0.0
  9
$UCSORGBACK
 10
0.0
 20
0.0
 30
0.0
  9
$PUCSBASE
  2

  9
$PUCSNAME
  2

  9
$PUCSORG
 10
0.0
 20
0.0
 30
0.0
  9
$PUCSXDIR
 10
1.0
 20
0.0
 30
0.0
  9
$PUCSYDIR
 10
0.0
 20
1.0
 30
0.0
  9
$PUCSORTHOREF
  2

  9
$PUCSORTHOVIEW
 70
     0
  9
$PUCSORGTOP
 10
0.0
 20
0.0
 30
0.0
  9
$PUCSORGBOTTOM
 10
0.0
 20
0.0
 30
0.0
  9
$PUCSORGLEFT
 10
0.0
 20
0.0
 30
0.0
  9
$PUCSORGRIGHT
 10
0.0
 20
0.0
 30
0.0
  9
$PUCSORGFRONT
 10
0.0
 20
0.0
 30
0.0
  9
$PUCSORGBACK
 10
0.0
 20
0.0
 30
0.0
  9
$USERI1
 70
     0
  9
$USERI2
 70
     0
  9
$USERI3
 70
     0
  9
$USERI4
 70
     0
  9
$USERI5
 70
     0
  9
$USERR1
 40
0.0
  9
$USERR2
 40
0.0
  9
$USERR3
 40
0.0
  9
$USERR4
 40
0.0
  9
$USERR5
 40
0.0
  9
$WORLDVIEW
 70
     1
  9
$SHADEDGE
 70
     3
  9
$SHADEDIF
 70
    70
  9
$TILEMODE
 70
     1
  9
$MAXACTVP
 70
    48
  9
$PINSBASE
 10
0.0
 20
0.0
 30
0.0
  9
$PLIMCHECK
 70
     0
  9
$PEXTMIN
 10
5.0
 20
4.899999999999494
 30
0.0
  9
$PEXTMAX
 10
282.0000000000003
 20
194.9
 30
0.0
  9
$PLIMMIN
 10
-5.053009033203125
 20
-5.0
  9
$PLIMMAX
 10
292.0
 20
204.888656616211
  9
$UNITMODE
 70
     0
  9
$VISRETAIN
 70
     1
  9
$PLINEGEN
 70
     0
  9
$PSLTSCALE
 70
     1
  9
$TREEDEPTH
 70
  3020
  9
$CMLSTYLE
  2
Standard
  9
$CMLJUST
 70
     0
  9
$CMLSCALE
 40
20.0
  9
$PROXYGRAPHICS
 70
     1
  9
$MEASUREMENT
 70
     1
  9
$CELWEIGHT
370
    -1
  9
$ENDCAPS
280
     0
  9
$JOINSTYLE
280
     0
  9
$LWDISPLAY
290
     0
  9
$INSUNITS
 70
     4
  9
$HYPERLINKBASE
  1

  9
$STYLESHEET
  1

  9
$XEDIT
290
     1
  9
$CEPSNTYPE
380
     0
  9
$PSTYLEMODE
290
     1
  9
$FINGERPRINTGUID
  2
{E8872B50-BB74-4EA4-A587-024F83D50427}
  9
$VERSIONGUID
  2
{793A3A3C-32D3-496C-A3A3-BA81AFAECCD8}
  9
$EXTNAMES
290
     1
  9
$PSVPSCALE
 40
0.0
  9
$OLESTARTUP
290
     0
  9
$SORTENTS
280
   127
  9
$INDEXCTL
280
     0
  9
$HIDETEXT
280
     1
  9
$XCLIPFRAME
280
     2
  9
$HALOGAP
280
     0
  9
$OBSCOLOR
 70
   257
  9
$OBSLTYPE
280
     0
  9
$INTERSECTIONDISPLAY
280
     0
  9
$INTERSECTIONCOLOR
 70
   257
  9
$DIMASSOC
280
     2
  9
$PROJECTNAME
  1

  9
$CAMERADISPLAY
290
     0
  9
$LENSLENGTH
 40
50.0
  9
$CAMERAHEIGHT
 40
0.0
  9
$STEPSPERSEC
 40
2.0
  9
$STEPSIZE
 40
6.0
  9
$3DDWFPREC
 40
2.0
  9
$PSOLWIDTH
 40
0.25
  9
$PSOLHEIGHT
 40
4.0
  9
$LOFTANG1
 40
1.570796326794896
  9
$LOFTANG2
 40
1.570796326794896
  9
$LOFTMAG1
 40
0.0
  9
$LOFTMAG2
 40
0.0
  9
$LOFTPARAM
 70
     7
  9
$LOFTNORMALS
280
     1
  9
$LATITUDE
 40
37.795
  9
$LONGITUDE
 40
-122.394
  9
$NORTHDIRECTION
 40
0.0
  9
$TIMEZONE
 70
 -8000
  9
$LIGHTGLYPHDISPLAY
280
     1
  9
$TILEMODELIGHTSYNCH
280
     1
  9
$CMATERIAL
347
14
  9
$SOLIDHIST
280
     0
  9
$SHOWHIST
280
     1
  9
$DWFFRAME
280
     2
  9
$DGNFRAME
280
     0
  9
$REALWORLDSCALE
290
     1
  9
$INTERFERECOLOR
 62
     1
  9
$INTERFEREOBJVS
345
56
  9
$INTERFEREVPVS
346
57
  9
$CSHADOW
280
     0
  9
$SHADOWPLANELOCATION
 40
0.0
  0
ENDSEC
  0
SECTION
  2
CLASSES
  0
CLASS
  1
ACDBDICTIONARYWDFLT
  2
AcDbDictionaryWithDefault
  3
ObjectDBX Classes
 90
        0
 91
        1
280
     0
281
     0
  0
CLASS
  1
DICTIONARYVAR
  2
AcDbDictionaryVar
  3
ObjectDBX Classes
 90
        0
 91
        9
280
     0
281
     0
  0
CLASS
  1
TABLESTYLE
  2
AcDbTableStyle
  3
ObjectDBX Classes
 90
     4095
 91
        1
280
     0
281
     0
  0
CLASS
  1
MATERIAL
  2
AcDbMaterial
  3
ObjectDBX Classes
 90
     1153
 91
        3
280
     0
281
     0
  0
CLASS
  1
VISUALSTYLE
  2
AcDbVisualStyle
  3
ObjectDBX Classes
 90
     4095
 91
        3
280
     0
281
     0
  0
CLASS
  1
SCALE
  2
AcDbScale
  3
ObjectDBX Classes
 90
     1153
 91
       19
280
     0
281
     0
  0
CLASS
  1
MLEADERSTYLE
  2
AcDbMLeaderStyle
  3
ACDB_MLEADERSTYLE_CLASS
 90
     4095
 91
        0
280
     0
281
     0
  0
CLASS
  1
CELLSTYLEMAP
  2
AcDbCellStyleMap
  3
ObjectDBX Classes
 90
     1152
 91
        1
280
     0
281
     0
  0
CLASS
  1
EXACXREFPANELOBJECT
  2
ExAcXREFPanelObject
  3
EXAC_ESW
 90
     1025
 91
        0
280
     1
281
     0
  0
CLASS
  1
NPOCOLLECTION
  2
AcDbImpNonPersistentObjectsCollection
  3
ObjectDBX Classes
 90
     1153
 91
        0
280
     0
281
     0
  0
CLASS
  1
LAYER_INDEX
  2
AcDbLayerIndex
  3
ObjectDBX Classes
 90
        0
 91
        0
280
     0
281
     0
  0
CLASS
  1
SPATIAL_INDEX
  2
AcDbSpatialIndex
  3
ObjectDBX Classes
 90
        0
 91
        0
280
     0
281
     0
  0
CLASS
  1
IDBUFFER
  2
AcDbIdBuffer
  3
ObjectDBX Classes
 90
        0
 91
        0
280
     0
281
     0
  0
CLASS
  1
ACDBSECTIONVIEWSTYLE
  2
AcDbSectionViewStyle
  3
ObjectDBX Classes
 90
     1025
 91
        0
280
     0
281
     0
  0
CLASS
  1
ACDBDETAILVIEWSTYLE
  2
AcDbDetailViewStyle
  3
ObjectDBX Classes
 90
     1025
 91
        0
280
     0
281
     0
  0
CLASS
  1
ACDBVIEWREPSTANDARD
  2
AcDbViewRepStandard
  3
AcModelDocObj
 90
      129
 91
        0
280
     0
281
     0
  0
CLASS
  1
PLOTSETTINGS
  2
AcDbPlotSettings
  3
ObjectDBX Classes
 90
        0
 91
        0
280
     0
281
     0
  0
CLASS
  1
DIMASSOC
  2
AcDbDimAssoc
  3
"AcDbDimAssoc|Product Desc:     AcDim ARX App For Dimension|Company:          Autodesk, Inc.|WEB Address:      www.autodesk.com"
 90
        0
 91
        0
280
     0
281
     0
  0
CLASS
  1
SORTENTSTABLE
  2
AcDbSortentsTable
  3
ObjectDBX Classes
 90
        0
 91
        4
280
     0
281
     0
  0
CLASS
  1
ACDB_MTEXTOBJECTCONTEXTDATA_CLASS
  2
AcDbMTextObjectContextData
  3
ObjectDBX Classes
 90
     1153
 91
        0
280
     0
281
     0
  0
CLASS
  1
MULTILEADER
  2
AcDbMLeader
  3
ACDB_MLEADER_CLASS
 90
     1025
 91
        0
280
     0
281
     1
  0
CLASS
  1
SUN
  2
AcDbSun
  3
SCENEOE
 90
     1153
 91
        0
280
     0
281
     0
  0
CLASS
  1
RASTERVARIABLES
  2
AcDbRasterVariables
  3
ISM
 90
        0
 91
        0
280
     0
281
     0
  0
ENDSEC
  0
SECTION
  2
TABLES
  0
TABLE
  2
VPORT
  5
36
330
0
100
AcDbSymbolTable
 70
     1
  0
VPORT
  5
37
330
36
100
AcDbSymbolTableRecord
100
AcDbViewportTableRecord
  2
*Active
 70
     0
 10
0.0
 20
0.0
 11
1.0
 21
1.0
 12
148.5633040808194
 22
159.0192123490396
 13
0.0
 23
0.0
 14
10.0
 24
10.0
 15
10.0
 25
10.0
 16
0.0
 26
0.0
 36
1.0
 17
0.0
 27
0.0
 37
0.0
 40
374.4447143377074
 41
2.232941176470588
 42
50.0
 43
0.0
 44
0.0
 50
0.0
 51
0.0
 71
    16
 72
  1000
 73
     1
 74
     3
 75
     0
 76
     0
 77
     0
 78
     0
281
     0
 65
     1
110
0.0
120
0.0
130
0.0
111
1.0
121
0.0
131
0.0
112
0.0
122
1.0
132
0.0
 79
     0
146
0.0
348
38
 60
     3
 61
     5
292
     1
282
     1
141
0.0
142
0.0
 63
   250
421
  3355443
1001
ACAD_NAV_VCDISPLAY
1070
     3
  0
ENDTAB
  0
TABLE
  2
LTYPE
  5
31
330
0
100
AcDbSymbolTable
 70
     1
  0
LTYPE
  5
32
330
31
100
AcDbSymbolTableRecord
100
AcDbLinetypeTableRecord
  2
ByBlock
 70
     0
  3

 72
    65
 73
     0
 40
0.0
  0
LTYPE
  5
33
330
31
100
AcDbSymbolTableRecord
100
AcDbLinetypeTableRecord
  2
ByLayer
 70
     0
  3

 72
    65
 73
     0
 40
0.0
  0
LTYPE
  5
13
330
31
100
AcDbSymbolTableRecord
100
AcDbLinetypeTableRecord
  2
Continuous
 70
     0
  3
Solid line
 72
    65
 73
     0
 40
0.0
  0
ENDTAB
  0
TABLE
  2
LAYER
  5
29
102
{ACAD_XDICTIONARY
360
2A
102
}
330
0
100
AcDbSymbolTable
 70
     2
  0
LAYER
  5
6
330
29
100
AcDbSymbolTableRecord
100
AcDbLayerTableRecord
  2
0
 70
     0
 62
     7
  6
Continuous
370
    -3
390
7
347
A
348
0
  0
LAYER
  5
52
330
29
100
AcDbSymbolTableRecord
100
AcDbLayerTableRecord
  2
粗实线
 70
     0
 62
     7
  6
Continuous
370
    20
390
7
347
A
348
0
1001
AcadStringInfo
1000
MIFCodePage
1070
     5
  0
ENDTAB
  0
TABLE
  2
STYLE
  5
2E
330
0
100
AcDbSymbolTable
 70
     2
  0
STYLE
  5
2F
330
2E
100
AcDbSymbolTableRecord
100
AcDbTextStyleTableRecord
  2
Standard
 70
     0
 40
0.0
 41
1.0
 50
0.0
 71
     0
 42
2.5
  3
arial.ttf
  4

1001
ACAD
1000
Arial
1071
       34
  0
STYLE
  5
3E
330
2E
100
AcDbSymbolTableRecord
100
AcDbTextStyleTableRecord
  2
黑体
 70
     0
 40
0.0
 41
1.0
 50
0.0
 71
     0
 42
2.5
  3
simhei.ttf
  4

1001
ACAD
1000
SimHei
1071
    34353
1001
AcadStringInfo
1000
MIFCodePage
1070
     5
  0
ENDTAB
  0
TABLE
  2
VIEW
  5
34
330
0
100
AcDbSymbolTable
 70
     0
  0
ENDTAB
  0
TABLE
  2
UCS
  5
35
330
0
100
AcDbSymbolTable
 70
     0
  0
ENDTAB
  0
TABLE
  2
APPID
  5
3B
330
0
100
AcDbSymbolTable
 70
     7
  0
APPID
  5
2D
330
3B
100
AcDbSymbolTableRecord
100
AcDbRegAppTableRecord
  2
ACAD
 70
     0
  0
APPID
  5
21
330
3B
100
AcDbSymbolTableRecord
100
AcDbRegAppTableRecord
  2
ACAD_PSEXT
 70
     0
  0
APPID
  5
40
330
3B
100
AcDbSymbolTableRecord
100
AcDbRegAppTableRecord
  2
ACAD_DSTYLE_DIMJAG
 70
     0
  0
APPID
  5
41
330
3B
100
AcDbSymbolTableRecord
100
AcDbRegAppTableRecord
  2
ACAD_DSTYLE_DIMTALN
 70
     0
  0
APPID
  5
3A
330
3B
100
AcDbSymbolTableRecord
100
AcDbRegAppTableRecord
  2
ACAD_NAV_VCDISPLAY
 70
     0
  0
APPID
  5
3F
330
3B
100
AcDbSymbolTableRecord
100
AcDbRegAppTableRecord
  2
ACAD_DSTYLE_DIMBREAK
 70
     0
  0
APPID
  5
1F
330
3B
100
AcDbSymbolTableRecord
100
AcDbRegAppTableRecord
  2
AcadStringInfo
 70
     0
  0
ENDTAB
  0
TABLE
  2
DIMSTYLE
  5
3C
330
0
100
AcDbSymbolTable
 70
     1
100
AcDbDimStyleTable
 71
     1
340
3D
  0
DIMSTYLE
105
3D
330
3C
100
AcDbSymbolTableRecord
100
AcDbDimStyleTableRecord
  2
1：5
 70
     0
 41
12.5
 42
0.0
 43
12.5
 44
10.0
 73
     0
 74
     0
 77
     1
 78
    12
 79
     3
140
12.5
141
0.0
143
0.03937007874016
147
5.0
171
     3
172
     1
176
     6
177
     6
178
     6
179
     1
271
     1
272
     1
274
     3
283
     0
284
     8
340
3E
371
     9
372
     9
1001
ACAD_DSTYLE_DIMBREAK
1070
   391
1040
3.75
1001
ACAD_DSTYLE_DIMJAG
1070
   388
1040
1.5
1001
ACAD_DSTYLE_DIMTALN
1070
   392
1070
     0
1001
AcadStringInfo
1000
MIFCodePage
1070
     5
  0
ENDTAB
  0
TABLE
  2
BLOCK_RECORD
  5
1
330
0
100
AcDbSymbolTable
 70
     0
  0
BLOCK_RECORD
  5
2
102
{ACAD_XDICTIONARY
360
3
102
}
330
1
100
AcDbSymbolTableRecord
100
AcDbBlockTableRecord
  2
*Model_Space
340
1D
 70
     0
280
     1
281
     0
  0
BLOCK_RECORD
  5
22
102
{ACAD_XDICTIONARY
360
23
102
}
330
1
100
AcDbSymbolTableRecord
100
AcDbBlockTableRecord
  2
*Paper_Space
340
27
 70
     0
280
     1
281
     0
  0
ENDTAB
  0
ENDSEC
  0
SECTION
  2
BLOCKS
  0
BLOCK
  5
5
330
2
100
AcDbEntity
  8
0
100
AcDbBlockBegin
  2
*Model_Space
 70
     0
 10
0.0
 20
0.0
 30
0.0
  3
*Model_Space
  1

  0
ENDBLK
  5
1C
330
2
100
AcDbEntity
  8
0
100
AcDbBlockEnd
  0
BLOCK
  5
25
330
22
100
AcDbEntity
 67
     1
  8
0
100
AcDbBlockBegin
  2
*Paper_Space
 70
     0
 10
0.0
 20
0.0
 30
0.0
  3
*Paper_Space
  1

  0
ENDBLK
  5
26
330
22
100
AcDbEntity
 67
     1
  8
0
100
AcDbBlockEnd
  0
ENDSEC
  0
SECTION
  2
ENTITIES
  0
LWPOLYLINE
  5
6B
330
2
100
AcDbEntity
  8
0
  6
Continuous
 62
     7
100
AcDbPolyline
 90
       14
 70
   128
 43
0.0
 10
11.88362804833468
 20
77.06067762125235
 10
12.14847332147019
 20
76.13490207959832
 10
12.78832112735381
 20
75.29710259735452
 10
13.72709864323224
 20
74.58678001542215
 10
14.90241088801212
 20
74.00380098214736
 10
16.21591362823528
 20
73.60353572866507
 10
17.6344972235629
 20
73.37559843797406
 10
19.29946852598004
 20
73.28738799952406
 10
21.19827159501529
 20
73.35152407557962
 10
23.22293437053213
 20
73.55303721282962
 10
25.31430967648612
 20
73.87873917915886
 10
27.44112810353727
 20
74.35261519980577
 10
29.62176753706444
 20
75.04314434260118
 10
31.81485769000847
 20
75.91617445805491
  0
LINE
  5
6C
330
2
100
AcDbEntity
  8
0
  6
Continuous
 62
     7
100
AcDbLine
 10
13.91427215734802
 20
77.07539556637766
 30
0.0
 11
13.88168502418102
 21
77.19602575938825
 31
0.0
  0
LINE
  5
6D
330
2
100
AcDbEntity
  8
0
  6
Continuous
 62
     7
100
AcDbLine
 10
11.88552087453718
 20
77.39078846801476
 30
0.0
 11
11.88436501250453
 21
77.05047347020036
 31
0.0
  0
LINE
  5
6E
330
2
100
AcDbEntity
  8
0
  6
Continuous
 62
     7
100
AcDbLine
 10
33.071087369829
 20
76.9124864146911
 30
0.0
 11
37.9703522420923
 21
71.65535184640475
 31
0.0
  0
LINE
  5
6F
330
2
100
AcDbEntity
  8
0
  6
Continuous
 62
     7
100
AcDbLine
 10
13.88025375246616
 20
77.17973699198002
 30
0.0
 11
13.88981238097221
 21
77.28852016020801
 31
0.0
  0
LINE
  5
70
330
2
100
AcDbEntity
  8
0
  6
Continuous
 62
     7
100
AcDbLine
 10
60.06485962713941
 20
234.6444877922309
 30
0.0
 11
115.5832765219456
 21
274.987713411766
 31
0.0
  0
LINE
  5
71
330
2
100
AcDbEntity
  8
0
  6
Continuous
 62
     7
100
AcDbLine
 10
118.5652540648916
 20
275.6968444753616
 30
0.0
 11
118.8138979899122
 21
275.7812689506568
 31
0.0
  0
LINE
  5
72
330
2
100
AcDbEntity
  8
0
  6
Continuous
 62
     7
100
AcDbLine
 10
118.2935139063229
 20
275.657902646044
 30
0.0
 11
117.7366185947721
 21
275.545917489324
 31
0.0
  0
LINE
  5
73
330
2
100
AcDbEntity
  8
0
  6
Continuous
 62
     7
100
AcDbLine
 10
118.5652540648916
 20
275.6968444753616
 30
0.0
 11
116.1954681226743
 21
275.2652136042511
 31
0.0
  0
LINE
  5
74
330
2
100
AcDbEntity
  8
0
  6
Continuous
 62
     7
100
AcDbLine
 10
123.7709039479723
 20
276.5697415101645
 30
0.0
 11
245.5171736152479
 21
298.7445073797762
 31
0.0
  0
LWPOLYLINE
  5
75
330
2
100
AcDbEntity
  8
0
  6
Continuous
 62
     7
100
AcDbPolyline
 90
        3
 70
   128
 43
0.0
 10
250.7993096383761
 20
299.7818470823812
 10
248.965764526818
 20
299.4609915995038
 10
248.5936385595614
 20
299.4297180173985
  0
LINE
  5
76
330
2
100
AcDbEntity
  8
0
  6
Continuous
 62
     7
100
AcDbLine
 10
40.38677044725591
 20
83.73016792017869
 30
0.0
 11
42.32850729289565
 21
81.64659575999984
 31
0.0
  0
LINE
  5
77
330
2
100
AcDbEntity
  8
0
  6
Continuous
 62
     7
100
AcDbLine
 10
44.14303462448285
 20
79.69952520729764
 30
0.0
 11
45.28603531954831
 21
78.47303335198649
 31
0.0
  0
LINE
  5
78
330
2
100
AcDbEntity
  8
0
  6
Continuous
 62
     7
100
AcDbLine
 10
44.39936585181749
 20
219.9799554989354
 30
0.0
 11
46.25172744047357
 21
193.1167013792701
 31
0.0
  0
LWPOLYLINE
  5
79
330
2
100
AcDbEntity
  8
0
  6
Continuous
 62
     7
100
AcDbPolyline
 90
       14
 70
   128
 43
0.0
 10
13.88981238097221
 20
77.28852016020801
 10
14.06378126038999
 20
77.58585547105326
 10
14.50377543239938
 20
77.98542215483258
 10
15.1802060892951
 20
78.38419279344498
 10
16.13161153213514
 20
78.77040696039784
 10
17.39619684472472
 20
79.1206967022499
 10
18.91650687214769
 20
79.39485519808454
 10
20.58290352532458
 20
79.57537156913805
 10
22.34341501836297
 20
79.67248637120997
 10
24.17193142171072
 20
79.71295081280323
 10
26.07714935760214
 20
79.71697929067113
 10
28.05544112347343
 20
79.6978098051668
 10
30.10137026195299
 20
79.66567895177148
 10
32.23217099782687
 20
79.6296772547621
  0
LINE
  5
7A
330
2
100
AcDbEntity
  8
0
  6
Continuous
 62
     7
100
AcDbLine
 10
46.12659732924111
 20
228.4164997915846
 30
0.0
 11
146.6055212775754
 21
246.7176487259603
 31
0.0
  0
LINE
  5
7B
330
2
100
AcDbEntity
  8
0
  6
Continuous
 62
     7
100
AcDbLine
 10
44.97742728335015
 20
227.9328465844492
 30
0.0
 11
45.59613544456897
 21
228.0455375824008
 31
0.0
  0
LINE
  5
7C
330
2
100
AcDbEntity
  8
0
  6
Continuous
 62
     7
100
AcDbLine
 10
148.1395235767304
 20
31.97886591334987
 30
0.0
 11
144.7101197534029
 21
32.5483611623963
 31
0.0
  0
LINE
  5
7D
330
2
100
AcDbEntity
  8
0
  6
Continuous
 62
     7
100
AcDbLine
 10
67.6421929361195
 20
114.7230303020192
 30
0.0
 11
67.54352038306659
 21
114.890796398934
 31
0.0
  0
LINE
  5
7E
330
2
100
AcDbEntity
  8
0
  6
Continuous
 62
     7
100
AcDbLine
 10
69.24239595633389
 20
116.7926925373531
 30
0.0
 11
69.20951130415779
 21
116.8486108486247
 31
0.0
  0
LINE
  5
7F
330
2
100
AcDbEntity
  8
0
  6
Continuous
 62
     7
100
AcDbLine
 10
66.45243875901178
 20
119.8070753861018
 30
0.0
 11
67.54748973004097
 21
114.8913621961569
 31
0.0
  0
LINE
  5
80
330
2
100
AcDbEntity
  8
0
  6
Continuous
 62
     7
100
AcDbLine
 10
61.42808595587847
 20
138.3844975366937
 30
0.0
 11
64.20070483629934
 21
124.5941276140429
 31
0.0
  0
LINE
  5
81
330
2
100
AcDbEntity
  8
0
  6
Continuous
 62
     7
100
AcDbLine
 10
63.32391092042872
 20
138.7298098939941
 30
0.0
 11
66.09652569344053
 21
124.9394440531202
 31
0.0
  0
LINE
  5
82
330
2
100
AcDbEntity
  8
0
  6
Continuous
 62
     7
100
AcDbLine
 10
40.74362068463686
 20
225.6370265076921
 30
0.0
 11
44.06132100374452
 21
226.2413097272465
 31
0.0
  0
LINE
  5
83
330
2
100
AcDbEntity
  8
0
  6
Continuous
 62
     7
100
AcDbLine
 10
42.17714970550331
 20
217.7665122585731
 30
0.0
 11
44.52253754187403
 21
218.1936992785604
 31
0.0
  0
LINE
  5
84
330
2
100
AcDbEntity
  8
0
  6
Continuous
 62
     7
100
AcDbLine
 10
77.18140291621693
 20
112.2833478862064
 30
0.0
 11
78.28141249362762
 21
111.1127990975139
 31
0.0
  0
LINE
  5
85
330
2
100
AcDbEntity
  8
0
  6
Continuous
 62
     7
100
AcDbLine
 10
67.6421929361195
 20
114.7230303020192
 30
0.0
 11
143.9076723879825
 21
32.88669386309017
 31
0.0
  0
LINE
  5
86
330
2
100
AcDbEntity
  8
0
  6
Continuous
 62
     7
100
AcDbLine
 10
65.77280165432876
 20
120.5363569845303
 30
0.0
 11
69.20951130415779
 21
116.8486108486247
 31
0.0
  0
LINE
  5
87
330
2
100
AcDbEntity
  8
0
  6
Continuous
 62
     7
100
AcDbLine
 10
148.4070060318408
 20
31.86608834646063
 30
0.0
 11
151.8437156816981
 21
28.17834221065027
 31
0.0
  0
LINE
  5
88
330
2
100
AcDbEntity
  8
0
  6
Continuous
 62
     7
100
AcDbLine
 10
78.28141249441159
 20
111.1127990976897
 30
0.0
 11
145.3732566093185
 21
39.12019160648947
 31
0.0
  0
LINE
  5
89
330
2
100
AcDbEntity
  8
0
  6
Continuous
 62
     7
100
AcDbLine
 10
146.4690383463639
 20
37.93899076471234
 30
0.0
 11
145.371302415384
 21
39.11983563510716
 31
0.0
  0
LINE
  5
8A
330
2
100
AcDbEntity
  8
0
  6
Continuous
 62
     7
100
AcDbLine
 10
76.89263632388156
 20
112.8865951539978
 30
0.0
 11
76.66907544248534
 21
116.1287120305596
 31
0.0
  0
LINE
  5
8B
330
2
100
AcDbEntity
  8
0
  6
Continuous
 62
     7
100
AcDbLine
 10
80.65106912005196
 20
118.4731595323737
 30
0.0
 11
80.87463000144728
 21
115.2310426558112
 31
0.0
  0
LINE
  5
8C
330
2
100
AcDbEntity
  8
0
  6
Continuous
 62
     7
100
AcDbLine
 10
250.187118037622
 20
299.5043468898011
 30
0.0
 11
194.668701142813
 21
259.1611212702651
 31
0.0
  0
LINE
  5
8D
330
2
100
AcDbEntity
  8
0
  6
Continuous
 62
     7
100
AcDbLine
 10
164.9516421779081
 20
227.892606793529
 30
0.0
 11
192.1487654235248
 21
232.8462685520663
 31
0.0
  0
LINE
  5
8E
330
2
100
AcDbEntity
  8
0
  6
Continuous
 62
     7
100
AcDbLine
 10
254.8448980914963
 20
241.1120542362455
 30
0.0
 11
255.1163522909937
 21
241.1867820557036
 31
0.0
  0
LINE
  5
8F
330
2
100
AcDbEntity
  8
0
  6
Continuous
 62
     7
100
AcDbLine
 10
43.49022579874236
 20
185.8053048820306
 30
0.0
 11
46.80792611785
 21
186.4095881015846
 31
0.0
  0
LINE
  5
90
330
2
100
AcDbEntity
  8
0
  6
Continuous
 62
     7
100
AcDbLine
 10
193.6428665647968
 20
211.1785666924988
 30
0.0
 11
190.0285462614574
 21
210.5202573519132
 31
0.0
  0
LINE
  5
91
330
2
100
AcDbEntity
  8
0
  6
Continuous
 62
     7
100
AcDbLine
 10
51.13881256472723
 20
176.7215116186255
 30
0.0
 11
66.79158452047431
 21
159.9253736911796
 31
0.0
  0
LINE
  5
92
330
2
100
AcDbEntity
  8
0
  6
Continuous
 62
     7
100
AcDbLine
 10
67.67265864965247
 20
115.213069108913
 30
0.0
 11
69.19935606631407
 21
116.6852645796589
 31
0.0
  0
LINE
  5
93
330
2
100
AcDbEntity
  8
0
  6
Continuous
 62
     7
100
AcDbLine
 10
46.92466483943099
 20
173.917782270154
 30
0.0
 11
52.67498547880132
 21
175.0731280468064
 31
0.0
  0
LINE
  5
94
330
2
100
AcDbEntity
  8
0
  6
Continuous
 62
     7
100
AcDbLine
 10
44.9237548196088
 20
177.9347906329112
 30
0.0
 11
48.24145513868825
 21
178.5390738523702
 31
0.0
  0
LINE
  5
95
330
2
100
AcDbEntity
  8
0
  6
Continuous
 62
     7
100
AcDbLine
 10
49.6951348011753
 20
177.2791678662129
 30
0.0
 11
50.61208003225328
 21
177.4461795197612
 31
0.0
  0
LINE
  5
96
330
2
100
AcDbEntity
  8
0
  6
Continuous
 62
     7
100
AcDbLine
 10
221.8980972840418
 20
205.787299984735
 30
0.0
 11
201.9100830025454
 21
202.5195916414682
 31
0.0
  0
LINE
  5
97
330
2
100
AcDbEntity
  8
0
  6
Continuous
 62
     7
100
AcDbLine
 10
129.6779173013619
 20
150.8154742845191
 30
0.0
 11
132.4505320744065
 21
137.0251084437409
 31
0.0
  0
LINE
  5
98
330
2
100
AcDbEntity
  8
0
  6
Continuous
 62
     7
100
AcDbLine
 10
134.3463687247858
 20
137.3704013983447
 30
0.0
 11
131.5737498443632
 21
151.1607713209964
 31
0.0
  0
LINE
  5
99
330
2
100
AcDbEntity
  8
0
  6
Continuous
 62
     7
100
AcDbLine
 10
133.9578350965748
 20
124.8995741658896
 30
0.0
 11
133.7342742152723
 21
128.1416910424204
 31
0.0
  0
LINE
  5
9A
330
2
100
AcDbEntity
  8
0
  6
Continuous
 62
     7
100
AcDbLine
 10
215.2359054591616
 20
212.3296318311873
 30
0.0
 11
254.8448980914963
 21
241.1120542362455
 31
0.0
  0
LINE
  5
9B
330
2
100
AcDbEntity
  8
0
  6
Continuous
 62
     7
100
AcDbLine
 10
77.48125731373602
 20
167.2281490866573
 30
0.0
 11
77.46802544165529
 21
167.2255512181505
 31
0.0
  0
LINE
  5
9C
330
2
100
AcDbEntity
  8
0
  6
Continuous
 62
     7
100
AcDbLine
 10
79.36385419540236
 20
167.5708559149431
 30
0.0
 11
79.37708606751221
 21
167.5734537835456
 31
0.0
  0
LINE
  5
9D
330
2
100
AcDbEntity
  8
0
  6
Continuous
 62
     7
100
AcDbLine
 10
79.36385419540236
 20
167.5708559149431
 30
0.0
 11
79.37708711856612
 21
167.5734529758415
 31
0.0
  0
LINE
  5
9E
330
2
100
AcDbEntity
  8
0
  6
Continuous
 62
     7
100
AcDbLine
 10
145.7310924484463
 20
179.6591181740709
 30
0.0
 11
145.7178605763655
 21
179.6565203055634
 31
0.0
  0
LINE
  5
9F
330
2
100
AcDbEntity
  8
0
  6
Continuous
 62
     7
100
AcDbLine
 10
145.7310934996258
 20
179.6591173664328
 30
0.0
 11
145.7178605763655
 21
179.6565203055634
 31
0.0
  0
LINE
  5
A0
330
2
100
AcDbEntity
  8
0
  6
Continuous
 62
     7
100
AcDbLine
 10
147.6136893301409
 20
180.0018250024518
 30
0.0
 11
147.6269212022198
 21
180.0044228709591
 31
0.0
  0
LINE
  5
A1
330
2
100
AcDbEntity
  8
0
  6
Continuous
 62
     7
100
AcDbLine
 10
77.4810345417318
 20
167.2282333948874
 30
0.0
 11
147.6266984301219
 21
180.0045071792183
 31
0.0
  0
LINE
  5
A2
330
2
100
AcDbEntity
  8
0
  6
Continuous
 62
     7
100
AcDbLine
 10
210.5522779164348
 20
49.62094173014611
 30
0.0
 11
209.4522684542608
 21
50.79149039624189
 31
0.0
  0
LINE
  5
A3
330
2
100
AcDbEntity
  8
0
  6
Continuous
 62
     7
100
AcDbLine
 10
210.3287170915592
 20
52.86305854642955
 30
0.0
 11
209.2287075733402
 21
54.0336072712953
 31
0.0
  0
LINE
  5
A4
330
2
100
AcDbEntity
  8
0
  6
Continuous
 62
     7
100
AcDbLine
 10
209.4522684530311
 20
50.79149039599315
 30
0.0
 11
142.3604249771378
 21
122.7840972015099
 31
0.0
  0
LINE
  5
A5
330
2
100
AcDbEntity
  8
0
  6
Continuous
 62
     7
100
AcDbLine
 10
142.1368641736862
 20
126.0262139943206
 30
0.0
 11
146.4120183027953
 21
121.4387787070891
 31
0.0
  0
LINE
  5
A6
330
2
100
AcDbEntity
  8
0
  6
Continuous
 62
     7
100
AcDbLine
 10
221.9893795700882
 20
40.95461599498093
 30
0.0
 11
218.5526699202291
 21
44.6423621307922
 31
0.0
  0
LINE
  5
A7
330
2
100
AcDbEntity
  8
0
  6
Continuous
 62
     7
100
AcDbLine
 10
139.3551751926716
 20
129.6248846330218
 30
0.0
 11
135.9184655428143
 21
133.3126307688312
 31
0.0
  0
LINE
  5
A8
330
2
100
AcDbEntity
  8
0
  6
Continuous
 62
     7
100
AcDbLine
 10
220.119988288363
 20
46.76794267736749
 30
0.0
 11
143.8545088365281
 21
128.6042791163904
 31
0.0
  0
LINE
  5
A9
330
2
100
AcDbEntity
  8
0
  6
Continuous
 62
     7
100
AcDbLine
 10
141.2646426576739
 20
123.9652986682495
 30
0.0
 11
142.3623790304154
 21
122.784453322291
 31
0.0
  0
LINE
  5
AA
330
2
100
AcDbEntity
  8
0
  6
Continuous
 62
     7
100
AcDbLine
 10
141.0524876250892
 20
127.1996111079127
 30
0.0
 11
142.1368641695881
 21
126.0262139935978
 31
0.0
  0
LINE
  5
AB
330
2
100
AcDbEntity
  8
0
  6
Continuous
 62
     7
100
AcDbLine
 10
142.1368641695881
 20
126.0262139935978
 30
0.0
 11
142.3604249735781
 21
122.7840972008318
 31
0.0
  0
LINE
  5
AC
330
2
100
AcDbEntity
  8
0
  6
Continuous
 62
     7
100
AcDbLine
 10
219.2981594772427
 20
169.0569154720733
 30
0.0
 11
219.2979942042839
 21
169.0568741702614
 31
0.0
  0
LINE
  5
AD
330
2
100
AcDbEntity
  8
0
  6
Continuous
 62
     7
100
AcDbLine
 10
55.32899493455534
 20
139.173748575839
 30
0.0
 11
55.73411610668791
 21
139.2744815686478
 31
0.0
  0
LWPOLYLINE
  5
AE
330
2
100
AcDbEntity
  8
0
  6
Continuous
 62
     7
100
AcDbPolyline
 90
        4
 70
   128
 43
0.0
 10
217.7981423249603
 20
168.6067937003395
 10
218.0140744479049
 20
168.659480098112
 10
218.4089152909164
 20
168.784261613539
 10
218.8646013568359
 20
168.9345086582348
  0
LINE
  5
AF
330
2
100
AcDbEntity
  8
0
  6
Continuous
 62
     7
100
AcDbLine
 10
219.2979942042839
 20
169.0568741702614
 30
0.0
 11
219.3501580266038
 21
169.0695708024391
 31
0.0
  0
LINE
  5
B0
330
2
100
AcDbEntity
  8
0
  6
Continuous
 62
     7
100
AcDbLine
 10
219.3501580266038
 20
169.0695708024391
 30
0.0
 11
219.4474517743292
 21
169.0914110816759
 31
0.0
  0
LINE
  5
B1
330
2
100
AcDbEntity
  8
0
  6
Continuous
 62
     7
100
AcDbLine
 10
55.73411610265793
 20
139.2744815678
 30
0.0
 11
55.73394300747621
 21
139.2744437021799
 31
0.0
  0
LWPOLYLINE
  5
B2
330
2
100
AcDbEntity
  8
0
  6
Continuous
 62
     7
100
AcDbPolyline
 90
        4
 70
   128
 43
0.0
 10
55.73394300747621
 20
139.2744437021799
 10
55.79629940896302
 20
139.2876368296411
 10
55.96975049614321
 20
139.3207935090618
 10
56.04340482374664
 20
139.333346288583
  0
LWPOLYLINE
  5
B3
330
2
100
AcDbEntity
  8
0
  6
Continuous
 62
     7
100
AcDbPolyline
 90
        4
 70
   128
 43
0.0
 10
54.31593298187181
 20
138.9012695526903
 10
54.51836651803205
 20
138.9428667999891
 10
54.89554052371295
 20
139.0471385516648
 10
55.32899493455534
 20
139.173748575839
  0
LINE
  5
B4
330
2
100
AcDbEntity
  8
0
  6
Continuous
 62
     7
100
AcDbLine
 10
221.3312162974653
 20
169.325547949199
 30
0.0
 11
221.1167292855607
 21
169.2824535412851
 31
0.0
  0
LINE
  5
B5
330
2
100
AcDbEntity
  8
0
  6
Continuous
 62
     7
100
AcDbLine
 10
205.5148181916629
 20
166.1477410234677
 30
0.0
 11
205.0676049512185
 21
166.0578876115455
 31
0.0
  0
LINE
  5
B6
330
2
100
AcDbEntity
  8
0
  6
Continuous
 62
     7
100
AcDbLine
 10
225.398101495768
 20
170.1337598167749
 30
0.0
 11
221.5906864740027
 21
169.3687797155069
 31
0.0
  0
LINE
  5
B7
330
2
100
AcDbEntity
  8
0
  6
Continuous
 62
     7
100
AcDbLine
 10
217.7997748115304
 20
168.6071154443684
 30
0.0
 11
205.5415621396623
 21
166.1442137857676
 31
0.0
  0
LINE
  5
B8
330
2
100
AcDbEntity
  8
0
  6
Continuous
 62
     7
100
AcDbLine
 10
219.1015916393735
 20
169.0326303441295
 30
0.0
 11
219.1660119999833
 21
169.0451658376855
 31
0.0
  0
LINE
  5
B9
330
2
100
AcDbEntity
  8
0
  6
Continuous
 62
     7
100
AcDbLine
 10
61.1506637911707
 20
140.0072161083849
 30
0.0
 11
60.92145915022683
 21
139.9654689628355
 31
0.0
  0
LINE
  5
BA
330
2
100
AcDbEntity
  8
0
  6
Continuous
 62
     7
100
AcDbLine
 10
221.3312162974653
 20
169.325547949199
 30
0.0
 11
221.5922927813317
 21
169.3690991086689
 31
0.0
  0
LINE
  5
BB
330
2
100
AcDbEntity
  8
0
  6
Continuous
 62
     7
100
AcDbLine
 10
58.10863546467044
 20
139.5213244538227
 30
0.0
 11
58.10858592083697
 21
139.5213163533362
 31
0.0
  0
LINE
  5
BC
330
2
100
AcDbEntity
  8
0
  6
Continuous
 62
     7
100
AcDbLine
 10
50.47191814626967
 20
138.2728480136784
 30
0.0
 11
54.31599523178284
 21
138.9012907688206
 31
0.0
  0
LINE
  5
BD
330
2
100
AcDbEntity
  8
0
  6
Continuous
 62
     7
100
AcDbLine
 10
58.10834327010343
 20
139.5212766839158
 30
0.0
 11
60.72700787229586
 21
139.9493848514717
 31
0.0
  0
LWPOLYLINE
  5
BE
330
2
100
AcDbEntity
  8
0
  6
Continuous
 62
     7
100
AcDbPolyline
 90
        3
 70
   128
 43
0.0
 10
56.0434054130119
 20
139.3333463853869
 10
56.09707590695234
 20
139.3419364658655
 10
56.26499482501548
 20
139.3658590148111
  0
LINE
  5
BF
330
2
100
AcDbEntity
  8
0
  6
Continuous
 62
     7
100
AcDbLine
 10
219.4474517743292
 20
169.0914110816759
 30
0.0
 11
219.8653241990123
 21
169.1421530678594
 31
0.0
  0
LINE
  5
C0
330
2
100
AcDbEntity
  8
0
  6
Continuous
 62
     7
100
AcDbLine
 10
221.1162220554907
 20
169.3024205868819
 30
0.0
 11
221.3312162974653
 21
169.325547949199
 31
0.0
  0
LWPOLYLINE
  5
C1
330
2
100
AcDbEntity
  8
0
  6
Continuous
 62
     7
100
AcDbPolyline
 90
        4
 70
   128
 43
0.0
 10
219.8653241990123
 20
169.1421530678594
 10
220.3832373570585
 20
169.188230303303
 10
220.8576949176131
 20
169.2392686558062
 10
221.1183355928879
 20
169.2827729344481
  0
LINE
  5
C2
330
2
100
AcDbEntity
  8
0
  6
Continuous
 62
     7
100
AcDbLine
 10
139.622657647782
 20
129.5121070661332
 30
0.0
 11
143.0520614711058
 21
128.9426118170849
 31
0.0
  0
LINE
  5
C3
330
2
100
AcDbEntity
  8
0
  6
Continuous
 62
     7
100
AcDbLine
 10
198.6296046353745
 20
124.0282697938141
 30
0.0
 11
198.7150253861436
 21
124.0137962639969
 31
0.0
  0
LINE
  5
C4
330
2
100
AcDbEntity
  8
0
  6
Continuous
 62
     7
100
AcDbLine
 10
198.5584199311306
 20
119.954903949708
 30
0.0
 11
198.5934349912695
 21
119.9380086227688
 31
0.0
  0
LINE
  5
C5
330
2
100
AcDbEntity
  8
0
  6
Continuous
 62
     7
100
AcDbLine
 10
146.7306513888051
 20
211.4178503136459
 30
0.0
 11
144.87828980015
 21
238.2811044333107
 31
0.0
  0
LINE
  5
C6
330
2
100
AcDbEntity
  8
0
  6
Continuous
 62
     7
100
AcDbLine
 10
148.5047870358685
 20
179.1493254966583
 30
0.0
 11
151.2155993699816
 21
171.0132424432997
 31
0.0
  0
LINE
  5
C7
330
2
100
AcDbEntity
  8
0
  6
Continuous
 62
     7
100
AcDbLine
 10
218.8646013568359
 20
168.9345086582348
 30
0.0
 11
219.298159489168
 21
169.0569154750865
 31
0.0
  0
LINE
  5
C8
330
2
100
AcDbEntity
  8
0
  6
Continuous
 62
     7
100
AcDbLine
 10
208.9539842769118
 20
163.1515381847032
 30
0.0
 11
208.6036866444301
 21
163.0811569110653
 31
0.0
  0
LINE
  5
C9
330
2
100
AcDbEntity
  8
0
  6
Continuous
 62
     7
100
AcDbLine
 10
228.9341831889815
 20
167.1570291162943
 30
0.0
 11
209.0776438328739
 21
163.1674830852871
 31
0.0
  0
LINE
  5
CA
330
2
100
AcDbEntity
  8
0
  6
Continuous
 62
     7
100
AcDbLine
 10
207.0772194425811
 20
152.6383683411381
 30
0.0
 11
200.2802146856084
 21
151.400367460217
 31
0.0
  0
LINE
  5
CB
330
2
100
AcDbEntity
  8
0
  6
Continuous
 62
     7
100
AcDbLine
 10
193.7815984107436
 20
150.2167148130941
 30
0.0
 11
200.2802146856084
 21
151.400367460217
 31
0.0
  0
LINE
  5
CC
330
2
100
AcDbEntity
  8
0
  6
Continuous
 62
     7
100
AcDbLine
 10
53.96075074434246
 20
135.2875114016174
 30
0.0
 11
61.79330070022206
 21
136.5680032243635
 31
0.0
  0
LINE
  5
CD
330
2
100
AcDbEntity
  8
0
  6
Continuous
 62
     7
100
AcDbLine
 10
56.26499482501548
 20
139.3658590148111
 30
0.0
 11
56.32978896797613
 21
139.3739217728684
 31
0.0
  0
LWPOLYLINE
  5
CE
330
2
100
AcDbEntity
  8
0
  6
Continuous
 62
     7
100
AcDbPolyline
 90
        5
 70
   128
 43
0.0
 10
56.32988151632797
 20
139.3739330193834
 10
56.80744772318029
 20
139.4172776697801
 10
57.35686587584496
 20
139.4490650649087
 10
57.86072062391031
 20
139.4881035237608
 10
58.1086468592148
 20
139.5213262640832
  0
LWPOLYLINE
  5
CF
330
2
100
AcDbEntity
  8
0
  6
Continuous
 62
     7
100
AcDbPolyline
 90
       29
 70
   128
 43
0.0
 10
235.2028402422147
 20
114.9455166170764
 10
235.9362475141334
 20
114.5641864867994
 10
237.5504533797957
 20
113.9067586306512
 10
239.204597094842
 20
113.4172277115972
 10
240.9538685053412
 20
113.0876070160659
 10
242.7751091167774
 20
112.9337929906548
 10
244.6273613082849
 20
112.9543681897732
 10
246.5254420095007
 20
113.1402340024385
 10
248.5073953041428
 20
113.4911769018765
 10
250.5336335123065
 20
113.9897908693874
 10
252.5712098791046
 20
114.608194118641
 10
254.6442456395344
 20
115.3233634020375
 10
256.7882536753968
 20
116.1151331775195
 10
259.0367452911796
 20
116.9719355935688
 10
261.4178472982749
 20
117.8874212179266
 10
263.9357866509345
 20
118.8505321604611
 10
266.5913002323359
 20
119.8527306465896
 10
269.4037063074993
 20
120.8949626677317
 10
272.4212836273946
 20
121.9885315157084
 10
275.7153230447184
 20
123.1505603534308
 10
279.2413100788526
 20
124.355084097132
 10
282.8258610308185
 20
125.5350172233889
 10
286.3026667558315
 20
126.6334258297515
 10
289.6296319612575
 20
127.6399739267046
 10
292.83239809728
 20
128.5756735471768
 10
295.9289301438621
 20
129.4630153357743
 10
298.9247874875691
 20
130.3170296560063
 10
301.8094009002725
 20
131.1460844649914
 10
304.5681724274292
 20
131.9567902632893
  0
LINE
  5
D0
330
2
100
AcDbEntity
  8
0
  6
Continuous
 62
     7
100
AcDbLine
 10
151.3283782574017
 20
170.6348919103541
 30
0.0
 11
198.5584199311306
 21
119.954903949708
 31
0.0
  0
LWPOLYLINE
  5
D1
330
2
100
AcDbEntity
  8
0
  6
Continuous
 62
     7
100
AcDbPolyline
 90
       15
 70
   128
 43
0.0
 10
32.27340888055187
 20
78.27931194216353
 10
30.92950413666313
 20
77.71351130320613
 10
29.30827635462356
 20
77.06030978663057
 10
27.67947517904668
 20
76.49999962492349
 10
25.98222878642629
 20
76.05558877967133
 10
24.24788535824246
 20
75.72268961593841
 10
22.51329116537545
 20
75.48180895519431
 10
20.83462740432787
 20
75.33201821132934
 10
19.27160585211095
 20
75.28776841494437
 10
17.91584814412817
 20
75.35489059411429
 10
16.7716762665641
 20
75.52907089308792
 10
15.76784381166453
 20
75.81428863954352
 10
14.87096488044517
 20
76.23331684154663
 10
14.19718922766788
 20
76.71720073735674
 10
13.91427215734802
 20
77.07539556637766
  0
LINE
  5
D2
330
2
100
AcDbEntity
  8
0
  6
Continuous
 62
     7
100
AcDbLine
 10
31.81485769000847
 20
75.91617445805491
 30
0.0
 11
33.3877865651948
 21
76.57265373948849
 31
0.0
  0
LINE
  5
D3
330
2
100
AcDbEntity
  8
0
  6
Continuous
 62
     7
100
AcDbLine
 10
131.839916295783
 20
127.7948085230246
 30
0.0
 11
133.7342742152723
 21
128.1416910424204
 31
0.0
  0
LINE
  5
D4
330
2
100
AcDbEntity
  8
0
  6
Continuous
 62
     7
100
AcDbLine
 10
133.9578350965748
 20
124.8995741658896
 30
0.0
 11
130.6427086671209
 21
124.2925297441222
 31
0.0
  0
LINE
  5
D5
330
2
100
AcDbEntity
  8
0
  6
Continuous
 62
     7
100
AcDbLine
 10
68.56270976271208
 20
119.9885185571663
 30
0.0
 11
134.9167225097771
 21
132.0741727671134
 31
0.0
  0
LINE
  5
D6
330
2
100
AcDbEntity
  8
0
  6
Continuous
 62
     7
100
AcDbLine
 10
82.54763346025175
 20
118.8176753484249
 30
0.0
 11
80.63488736440286
 21
118.4692893407371
 31
0.0
  0
LINE
  5
D7
330
2
100
AcDbEntity
  8
0
  6
Continuous
 62
     7
100
AcDbLine
 10
130.6427086650747
 20
124.2925297436038
 30
0.0
 11
84.19490579675402
 21
115.8325649612893
 31
0.0
  0
LINE
  5
D8
330
2
100
AcDbEntity
  8
0
  6
Continuous
 62
     7
100
AcDbLine
 10
80.85187512050106
 20
115.2254411333103
 30
0.0
 11
84.19426212586586
 21
115.8332552255342
 31
0.0
  0
LINE
  5
D9
330
2
100
AcDbEntity
  8
0
  6
Continuous
 62
     7
100
AcDbLine
 10
325.1312514021119
 20
135.9217450377157
 30
0.0
 11
326.4116075300135
 21
135.9405640130508
 31
0.0
  0
LWPOLYLINE
  5
DA
330
2
100
AcDbEntity
  8
0
  6
Continuous
 62
     7
100
AcDbPolyline
 90
       12
 70
   128
 43
0.0
 10
326.4116075300135
 20
135.9405640130508
 10
328.945911355564
 20
135.96466092792
 10
331.6642119716034
 20
136.0516537848607
 10
334.2618438249883
 20
136.2886051959465
 10
336.560409586411
 20
136.6715749157024
 10
338.6012055586925
 20
137.1513312903462
 10
340.351428177697
 20
137.704549974093
 10
341.7098487292023
 20
138.3186546137203
 10
342.6782211976333
 20
139.0046912531118
 10
343.2796121147676
 20
139.7880472993797
 10
343.5200717623684
 20
140.6607155392612
 10
343.5182362784635
 20
140.9744145172653
  0
LINE
  5
DB
330
2
100
AcDbEntity
  8
0
  6
Continuous
 62
     7
100
AcDbLine
 10
227.7591778399255
 20
113.3194226769815
 30
0.0
 11
193.3567255700727
 21
150.2348223901035
 31
0.0
  0
LINE
  5
DC
330
2
100
AcDbEntity
  8
0
  6
Continuous
 62
     7
100
AcDbLine
 10
186.3289631981679
 20
157.7759318149916
 30
0.0
 11
151.6177365130315
 21
195.0226605529046
 31
0.0
  0
LINE
  5
DD
330
2
100
AcDbEntity
  8
0
  6
Continuous
 62
     7
100
AcDbLine
 10
222.1880811322826
 20
65.77908098072294
 30
0.0
 11
222.1880190373431
 21
65.77927302116449
 31
0.0
  0
LINE
  5
DE
330
2
100
AcDbEntity
  8
0
  6
Continuous
 62
     7
100
AcDbLine
 10
198.6328740960489
 20
120.132344881235
 30
0.0
 11
198.4312880374054
 21
123.0557792443844
 31
0.0
  0
LINE
  5
DF
330
2
100
AcDbEntity
  8
0
  6
Continuous
 62
     7
100
AcDbLine
 10
195.3228972381221
 20
123.4267673085185
 30
0.0
 11
198.6305839771194
 21
124.0292266628401
 31
0.0
  0
LINE
  5
E0
330
2
100
AcDbEntity
  8
0
  6
Continuous
 62
     7
100
AcDbLine
 10
230.426981344397
 20
124.2401656519896
 30
0.0
 11
229.0051097790638
 21
123.9811871293232
 31
0.0
  0
LINE
  5
E1
330
2
100
AcDbEntity
  8
0
  6
Continuous
 62
     7
100
AcDbLine
 10
236.5780330462913
 20
124.3440611660655
 30
0.0
 11
231.4389306271049
 21
123.4080292593359
 31
0.0
  0
LINE
  5
E2
330
2
100
AcDbEntity
  8
0
  6
Continuous
 62
     7
100
AcDbLine
 10
238.0301757827619
 20
118.1851756151204
 30
0.0
 11
238.9663410450157
 21
117.1806276084835
 31
0.0
  0
LINE
  5
E3
330
2
100
AcDbEntity
  8
0
  6
Continuous
 62
     7
100
AcDbLine
 10
238.63443921203
 20
121.9939228834685
 30
0.0
 11
237.6982739497817
 21
122.9984708901086
 31
0.0
  0
LINE
  5
E4
330
2
100
AcDbEntity
  8
0
  6
Continuous
 62
     7
100
AcDbLine
 10
194.8525758371997
 20
193.6351627507388
 30
0.0
 11
191.6473839966019
 21
240.117384928591
 31
0.0
  0
LINE
  5
E5
330
2
100
AcDbEntity
  8
0
  6
Continuous
 62
     7
100
AcDbLine
 10
210.8410445652225
 20
49.01769440220005
 30
0.0
 11
210.6174836839236
 21
52.25981127873389
 31
0.0
  0
LWPOLYLINE
  5
E6
330
2
100
AcDbEntity
  8
0
  6
Continuous
 62
     7
100
AcDbPolyline
 90
        6
 70
   128
 43
0.0
 10
304.5681724274292
 20
131.9567902632893
 10
307.1862796762034
 20
132.7553484235027
 10
309.6517393644463
 20
133.5499513153358
 10
311.9473834778546
 20
134.3449577973872
 10
314.0832471121357
 20
135.1397221724523
 10
314.4176588376031
 20
135.269993460121
  0
LINE
  5
E7
330
2
100
AcDbEntity
  8
0
  6
Continuous
 62
     7
100
AcDbLine
 10
238.1907531947581
 20
115.4897326357306
 30
0.0
 11
233.0516835923052
 21
114.5537067062644
 31
0.0
  0
LINE
  5
E8
330
2
100
AcDbEntity
  8
0
  6
Continuous
 62
     7
100
AcDbLine
 10
232.3980837480212
 20
113.4182085594457
 30
0.0
 11
230.9762121827844
 21
113.1592300367501
 31
0.0
  0
LINE
  5
E9
330
2
100
AcDbEntity
  8
0
  6
Continuous
 62
     7
100
AcDbLine
 10
207.403569583581
 20
108.5913838994527
 30
0.0
 11
229.2582935108221
 21
112.5719854206117
 31
0.0
  0
LINE
  5
EA
330
2
100
AcDbEntity
  8
0
  6
Continuous
 62
     7
100
AcDbLine
 10
147.3056986312543
 20
246.5995990381591
 30
0.0
 11
182.5274622721263
 21
209.0329505407085
 31
0.0
  0
LINE
  5
EB
330
2
100
AcDbEntity
  8
0
  6
Continuous
 62
     7
100
AcDbLine
 10
222.7168918936313
 20
165.9078602976315
 30
0.0
 11
224.2460782753369
 21
164.266973593571
 31
0.0
  0
LINE
  5
EC
330
2
100
AcDbEntity
  8
0
  6
Continuous
 62
     7
100
AcDbLine
 10
320.8995298463142
 20
138.0582419455768
 30
0.0
 11
320.9185105845372
 21
138.0658337577465
 31
0.0
  0
LWPOLYLINE
  5
ED
330
2
100
AcDbEntity
  8
0
  6
Continuous
 62
     7
100
AcDbPolyline
 90
       30
 70
   128
 43
0.0
 10
313.9700817084214
 20
137.2425541011482
 10
313.7041985880714
 20
137.1378507469257
 10
311.0535134841521
 20
136.1489464848787
 10
308.1571997163501
 20
135.163571035355
 10
305.0188650946511
 20
134.1809707977922
 10
301.6527743129263
 20
133.1832986892757
 10
298.0569061038914
 20
132.1491706793699
 10
294.2335362327995
 20
131.0588906402802
 10
290.2757459318091
 20
129.9153355728667
 10
286.2981344901109
 20
128.7246902943595
 10
282.4066582231535
 20
127.5010830206897
 10
278.6735218295508
 20
126.2742158305907
 10
275.1669561424896
 20
125.077380349824
 10
271.9147799183046
 20
123.9313363262049
 10
268.8715020720465
 20
122.8297157441752
 10
266.0068316139041
 20
121.7691367276625
 10
263.2984148654323
 20
120.7479260998557
 10
260.741687057809
 20
119.7710520040418
 10
258.3324728936677
 20
118.8452888300596
 10
256.0531292674987
 20
117.9761850109366
 10
253.8838480928752
 20
117.1753758142081
 10
251.7904226717292
 20
116.4576487701288
 10
249.7265104530379
 20
115.842414168299
 10
247.7354728611171
 20
115.3747203627222
 10
245.8964623261782
 20
115.0752726955816
 10
244.1924775346997
 20
114.9349320813014
 10
242.6918605029932
 20
114.9370894603828
 10
241.1979843798254
 20
115.0729567158523
 10
239.7102008118818
 20
115.3524696238162
 10
238.6272807289643
 20
115.6670185826849
  0
LWPOLYLINE
  5
EE
330
2
100
AcDbEntity
  8
0
  6
Continuous
 62
     7
100
AcDbPolyline
 90
       13
 70
   128
 43
0.0
 10
52.84427345730546
 20
80.20609547088339
 10
55.89097890086396
 20
80.45797307326322
 10
59.0348721369337
 20
80.73825572281725
 10
62.28091814579055
 20
81.03940083669455
 10
65.6402254616014
 20
81.35423447379436
 10
69.13593776556353
 20
81.67614089513156
 10
72.79840504027925
 20
81.9970795133099
 10
76.65903916855588
 20
82.3061077397565
 10
80.70060451760125
 20
82.59366205777039
 10
84.85425907440367
 20
82.8545677307593
 10
89.04198992280727
 20
83.08591234063351
 10
93.18232826837812
 20
83.28654104731731
 10
96.79568802907672
 20
83.44000094266267
  0
LWPOLYLINE
  5
EF
330
2
100
AcDbEntity
  8
0
  6
Continuous
 62
     7
100
AcDbPolyline
 90
       16
 70
   128
 43
0.0
 10
94.99942414278484
 20
85.36747398535451
 10
92.09686483972292
 20
85.23862714974212
 10
88.7733155648657
 20
85.07475619712954
 10
85.3383735073403
 20
84.88631092369812
 10
81.7634545007113
 20
84.66771206038195
 10
77.99718995570493
 20
84.41035532195611
 10
73.98487515859142
 20
84.10237237111912
 10
69.74459779529116
 20
83.73887742967236
 10
65.44202417217547
 20
83.34446095085992
 10
61.25973162881109
 20
82.95262530648463
 10
57.3275101695035
 20
82.59207580325258
 10
53.61119706994395
 20
82.2736605865648
 10
50.06260030035172
 20
82.00718171951393
 10
46.64892898012567
 20
81.80564240980766
 10
43.37161683518206
 20
81.67407636277403
 10
41.69864901930487
 20
81.63000221499805
  0
LWPOLYLINE
  5
F0
330
2
100
AcDbEntity
  8
0
  6
Continuous
 62
     7
100
AcDbPolyline
 90
        5
 70
   128
 43
0.0
 10
42.07216804551353
 20
79.63784787218354
 10
44.32984642873452
 20
79.70508908783495
 10
47.06112558826862
 20
79.82410378221789
 10
49.89929737891906
 20
79.991589688972
 10
52.84427345730546
 20
80.20609547088339
  0
LINE
  5
F1
330
2
100
AcDbEntity
  8
0
  6
Continuous
 62
     7
100
AcDbLine
 10
237.3961422351622
 20
121.0940972559813
 30
0.0
 11
238.0301757827619
 21
118.1851756151204
 31
0.0
  0
LINE
  5
F2
330
2
100
AcDbEntity
  8
0
  6
Continuous
 62
     7
100
AcDbLine
 10
239.268472759537
 20
119.0850012426385
 30
0.0
 11
238.63443921203
 21
121.9939228834685
 31
0.0
  0
LINE
  5
F3
330
2
100
AcDbEntity
  8
0
  6
Continuous
 62
     7
100
AcDbLine
 10
229.1331633995615
 20
147.8717838328295
 30
0.0
 11
230.7698074871332
 21
124.136900591086
 31
0.0
  0
LINE
  5
F4
330
2
100
AcDbEntity
  8
0
  6
Continuous
 62
     7
100
AcDbLine
 10
224.3702938092247
 20
51.58584899868333
 30
0.0
 11
223.2083871155264
 21
42.01740439443324
 31
0.0
  0
LINE
  5
F5
330
2
100
AcDbEntity
  8
0
  6
Continuous
 62
     7
100
AcDbLine
 10
237.6982739497817
 20
122.9984708901086
 30
0.0
 11
237.3961422351622
 21
121.0940972559813
 31
0.0
  0
LINE
  5
F6
330
2
100
AcDbEntity
  8
0
  6
Continuous
 62
     7
100
AcDbLine
 10
238.9663410450157
 20
117.1806276084835
 30
0.0
 11
239.268472759537
 21
119.0850012426385
 31
0.0
  0
LWPOLYLINE
  5
F7
330
2
100
AcDbEntity
  8
0
  6
Continuous
 62
     7
100
AcDbPolyline
 90
       16
 70
   128
 43
0.0
 10
322.7811345393967
 20
138.9433629290677
 10
324.240732416758
 20
139.6336821504876
 10
325.6513023320094
 20
140.2870473767664
 10
327.0306387885648
 20
140.89710529036
 10
328.417349911886
 20
141.462166551971
 10
329.8363695546214
 20
141.9654169769849
 10
331.3169219393349
 20
142.3800331625421
 10
332.8347704326152
 20
142.6789171125058
 10
334.3270912329972
 20
142.8481262945229
 10
335.7677058185509
 20
142.8891544115368
 10
337.1576437622498
 20
142.8080815656285
 10
338.4653878492991
 20
142.6064464691774
 10
339.6181591879758
 20
142.2986942634788
 10
340.4998607098714
 20
141.9230128922709
 10
341.1279702262892
 20
141.4873801202527
 10
341.450308507614
 20
141.0703559929411
  0
LINE
  5
F8
330
2
100
AcDbEntity
  8
0
  6
Continuous
 62
     7
100
AcDbLine
 10
322.2695053146126
 20
140.914433433086
 30
0.0
 11
320.4501955449541
 21
140.0551711214111
 31
0.0
  0
LINE
  5
F9
330
2
100
AcDbEntity
  8
0
  6
Continuous
 62
     7
100
AcDbLine
 10
320.918427814393
 20
138.0657951986068
 30
0.0
 11
321.153308606059
 21
138.1755039767249
 31
0.0
  0
LINE
  5
FA
330
2
100
AcDbEntity
  8
0
  6
Continuous
 62
     7
100
AcDbLine
 10
321.153308606059
 20
138.1755039767249
 30
0.0
 11
322.7811345393967
 21
138.9433629290677
 31
0.0
  0
LINE
  5
FB
330
2
100
AcDbEntity
  8
0
  6
Continuous
 62
     7
100
AcDbLine
 10
32.23217099782687
 20
79.6296772547621
 30
0.0
 11
33.27641850022793
 21
79.61429508924266
 31
0.0
  0
LWPOLYLINE
  5
FC
330
2
100
AcDbEntity
  8
0
  6
Continuous
 62
     7
100
AcDbPolyline
 90
       13
 70
   128
 43
0.0
 10
31.41145976205735
 20
81.64394832583253
 10
29.24636478618959
 20
81.6802183638938
 10
26.81405456844004
 20
81.71197439381513
 10
24.48084586073583
 20
81.71581031774531
 10
22.25337143441448
 20
81.67055016675773
 10
20.12944445470385
 20
81.54455212403764
 10
18.1529198136559
 20
81.3019437342873
 10
16.39216664735522
 20
80.9324099864375
 10
14.91914055537108
 20
80.45405918063465
 10
13.71211092369504
 20
79.85810743608545
 10
12.734152686593
 20
79.09704308019581
 10
12.13462324877491
 20
78.26912145138703
 10
11.88552087453718
 20
77.39078846801476
  0
LINE
  5
FD
330
2
100
AcDbEntity
  8
0
  6
Continuous
 62
     7
100
AcDbLine
 10
315.039595745704
 20
134.3666952133369
 30
0.0
 11
319.9388606179673
 21
129.1095606450497
 31
0.0
  0
LINE
  5
FE
330
2
100
AcDbEntity
  8
0
  6
Continuous
 62
     7
100
AcDbLine
 10
251.0886351597292
 20
299.5974020437338
 30
0.0
 11
255.116351743749
 21
241.1867899985345
 31
0.0
  0
LINE
  5
FF
330
2
100
AcDbEntity
  8
0
  6
Continuous
 62
     7
100
AcDbLine
 10
220.0895225748574
 20
46.27790387056983
 30
0.0
 11
218.5628251581693
 21
44.80570839972688
 31
0.0
  0
LINE
  5
100
330
2
100
AcDbEntity
  8
0
  6
Continuous
 62
     7
100
AcDbLine
 10
153.7758457919663
 20
37.00471539017144
 30
0.0
 11
157.0909722216383
 21
37.61175981197403
 31
0.0
  0
LINE
  5
101
330
2
100
AcDbEntity
  8
0
  6
Continuous
 62
     7
100
AcDbLine
 10
157.090972223712
 20
37.61175981258953
 30
0.0
 11
203.5387750921309
 21
46.07172459487265
 31
0.0
  0
LINE
  5
102
330
2
100
AcDbEntity
  8
0
  6
Continuous
 62
     7
100
AcDbLine
 10
222.5659625205044
 20
40.66714012709393
 30
0.0
 11
152.4202986320197
 21
27.89086634279101
 31
0.0
  0
LINE
  5
103
330
2
100
AcDbEntity
  8
0
  6
Continuous
 62
     7
100
AcDbLine
 10
206.8818030079565
 20
46.67885081793497
 30
0.0
 11
203.5394187630172
 21
46.0710343306282
 31
0.0
  0
LINE
  5
104
330
2
100
AcDbEntity
  8
0
  6
Continuous
 62
     7
100
AcDbLine
 10
323.9351153788957
 20
139.4891400687734
 30
0.0
 11
325.3921688915288
 21
137.9256552218644
 31
0.0
  0
LINE
  5
105
330
2
100
AcDbEntity
  8
0
  6
Continuous
 62
     7
100
AcDbLine
 10
327.2348340526824
 20
135.9483914957823
 30
0.0
 11
327.2545436953951
 21
135.9272421505369
 31
0.0
  0
LWPOLYLINE
  5
106
330
2
100
AcDbEntity
  8
0
  6
Continuous
 62
     7
100
AcDbPolyline
 90
       15
 70
   128
 43
0.0
 10
341.4874612497623
 20
140.6760612883549
 10
341.2913054194269
 20
140.4461094876421
 10
340.8563234964531
 20
140.132360286736
 10
340.1572162894336
 20
139.7816188899608
 10
339.2104749789396
 20
139.4221565055393
 10
338.079185114897
 20
139.0819997424769
 10
336.8112158377826
 20
138.7693966071324
 10
335.4384300405109
 20
138.4941352931073
 10
333.9587194507477
 20
138.2660226409264
 10
332.3661730433177
 20
138.1021553598566
 10
330.6806344054421
 20
138.0082229859167
 10
328.9152119079809
 20
137.9647069728553
 10
327.0774417719258
 20
137.9469022710375
 10
325.1417030488446
 20
137.9224974780316
 10
324.758426720724
 20
137.9133276312179
  0
LINE
  5
107
330
2
100
AcDbEntity
  8
0
  6
Continuous
 62
     7
100
AcDbLine
 10
341.450308507614
 20
141.0703559929411
 30
0.0
 11
341.5216504742002
 21
140.8520978221859
 31
0.0
  0
LINE
  5
108
330
2
100
AcDbEntity
  8
0
  6
Continuous
 62
     7
100
AcDbLine
 10
248.5936438920544
 20
299.4296324886436
 30
0.0
 11
248.5942877610687
 21
299.4293339639625
 31
0.0
  0
LWPOLYLINE
  5
109
330
2
100
AcDbEntity
  8
0
  6
Continuous
 62
     7
100
AcDbPolyline
 90
       16
 70
   128
 43
0.0
 10
343.5186909305576
 20
140.9683665593388
 10
343.4583304636654
 20
141.3591226912294
 10
343.0599989863076
 20
142.2799127133492
 10
342.2600922638777
 20
143.1509115970505
 10
341.0880093073174
 20
143.8637634571969
 10
339.6718146952171
 20
144.3729224335375
 10
338.116539934601
 20
144.7017057547348
 10
336.4924063384606
 20
144.8651454233707
 10
334.8620857614224
 20
144.8783196084123
 10
333.1652749836794
 20
144.7424317715413
 10
331.3742402626703
 20
144.4432560327068
 10
329.5117129453756
 20
143.9597220571982
 10
327.6645654736112
 20
143.3154527679662
 10
325.8653175592935
 20
142.5723663256603
 10
324.0812019616824
 20
141.7665214740004
 10
322.2695053146126
 20
140.914433433086
  0
LWPOLYLINE
  5
10A
330
2
100
AcDbEntity
  8
0
  6
Continuous
 62
     7
100
AcDbPolyline
 90
        3
 70
   128
 43
0.0
 10
341.5229776180567
 20
140.8365946869473
 10
341.5238701767248
 20
140.7850157474463
 10
341.4874612497623
 20
140.6760612883549
  0
ARC
  5
10B
330
2
100
AcDbEntity
  8
0
  6
Continuous
 62
     7
100
AcDbCircle
 10
31.75271907438764
 20
84.83641302964452
 30
0.0
 40
2.0457980754
100
AcDbArc
 50
217.9059578292524
 51
220.5824055664364
  0
ARC
  5
10C
330
2
100
AcDbEntity
  8
0
  6
Continuous
 62
     7
100
AcDbCircle
 10
32.38870369749657
 20
85.21383126620458
 30
0.0
 40
2.957339471999999
100
AcDbArc
 50
94.55242894336867
 51
97.976586805859
  0
ARC
  5
10D
330
2
100
AcDbEntity
  8
0
  6
Continuous
 62
     7
100
AcDbCircle
 10
32.3827435950643
 20
85.28676876370694
 30
0.0
 40
2.884159026399999
100
AcDbArc
 50
92.01643538871662
 51
94.5494062807068
  0
ARC
  5
10E
330
2
100
AcDbEntity
  8
0
  6
Continuous
 62
     7
100
AcDbCircle
 10
32.46498281170171
 20
85.74448133118083
 30
0.0
 40
2.4228524977
100
AcDbArc
 50
25.57021796707355
 51
26.480495762769
  0
ARC
  5
10F
330
2
100
AcDbEntity
  8
0
  6
Continuous
 62
     7
100
AcDbCircle
 10
32.48484059056045
 20
85.75501769129095
 30
0.0
 40
2.4003800524
100
AcDbArc
 50
26.46673494397467
 51
41.64472776045379
  0
ARC
  5
110
330
2
100
AcDbEntity
  8
0
  6
Continuous
 62
     7
100
AcDbCircle
 10
32.51626435082653
 20
85.78028040886056
 30
0.0
 40
2.3601112456
100
AcDbArc
 50
41.69335607124437
 51
42.97996369578902
  0
ARC
  5
111
330
2
100
AcDbEntity
  8
0
  6
Continuous
 62
     7
100
AcDbCircle
 10
32.40405487314183
 20
85.11295814237701
 30
0.0
 40
3.059367129700001
100
AcDbArc
 50
97.99914739576605
 51
106.7238817809389
  0
ARC
  5
112
330
2
100
AcDbEntity
  8
0
  6
Continuous
 62
     7
100
AcDbCircle
 10
41.1710275612395
 20
75.27157943522206
 30
0.0
 40
4.977037130700001
100
AcDbArc
 50
279.034987197985
 51
280.3228194619808
  0
ARC
  5
113
330
2
100
AcDbEntity
  8
0
  6
Continuous
 62
     7
100
AcDbCircle
 10
37.29912251322185
 20
80.07043465842617
 30
0.0
 40
4.9628614891
100
AcDbArc
 50
98.08583913688378
 51
99.30540021006221
  0
ARC
  5
114
330
2
100
AcDbEntity
  8
0
  6
Continuous
 62
     7
100
AcDbCircle
 10
37.29689918429631
 20
80.08597464102832
 30
0.0
 40
4.9471632723
100
AcDbArc
 50
97.26816339378963
 51
98.08566048646602
  0
ARC
  5
115
330
2
100
AcDbEntity
  8
0
  6
Continuous
 62
     7
100
AcDbCircle
 10
53.60252661007145
 20
137.8731222562675
 30
0.0
 40
2.617668050999999
100
AcDbArc
 50
258.7602680805249
 51
259.0870525495272
  0
ARC
  5
116
330
2
100
AcDbEntity
  8
0
  6
Continuous
 62
     7
100
AcDbCircle
 10
50.30890309633832
 20
139.2738513874501
 30
0.0
 40
1.014190150199999
100
AcDbArc
 50
267.2779686851268
 51
279.2495147984516
  0
ARC
  5
117
330
2
100
AcDbEntity
  8
0
  6
Continuous
 62
     7
100
AcDbCircle
 10
91.68765475523468
 20
146.9007686362897
 30
0.0
 40
29.24747215060002
100
AcDbArc
 50
179.8816014362767
 51
180.5549489837774
  0
ARC
  5
118
330
2
100
AcDbEntity
  8
0
  6
Continuous
 62
     7
100
AcDbCircle
 10
83.07463458510937
 20
128.3299757621273
 30
0.0
 40
17.313338739
100
AcDbArc
 50
191.2934580314729
 51
195.7791931447774
  0
ARC
  5
119
330
2
100
AcDbEntity
  8
0
  6
Continuous
 62
     7
100
AcDbCircle
 10
82.93851125854414
 20
152.0920816116752
 30
0.0
 40
15.8861772322
100
AcDbArc
 50
103.003867168393
 51
109.6903091604771
  0
ARC
  5
11A
330
2
100
AcDbEntity
  8
0
  6
Continuous
 62
     7
100
AcDbCircle
 10
82.91189778474835
 20
152.1827871869791
 30
0.0
 40
15.7918102981
100
AcDbArc
 50
102.9838370308732
 51
109.7101459584767
  0
ARC
  5
11B
330
2
100
AcDbEntity
  8
0
  6
Continuous
 62
     7
100
AcDbCircle
 10
76.66332965111632
 20
126.2749349660726
 30
0.0
 40
10.5770978144
100
AcDbArc
 50
200.85901857008
 51
201.4513446429699
  0
ARC
  5
11C
330
2
100
AcDbEntity
  8
0
  6
Continuous
 62
     7
100
AcDbCircle
 10
108.9703488572268
 20
147.9411528297751
 30
0.0
 40
48.49326161620003
100
AcDbArc
 50
189.4185445544689
 51
191.3657789941771
  0
ARC
  5
11D
330
2
100
AcDbEntity
  8
0
  6
Continuous
 62
     7
100
AcDbCircle
 10
108.492144831589
 20
147.9393919121885
 30
0.0
 40
46.0939542735
100
AcDbArc
 50
186.5046118587747
 51
188.0290656170721
  0
ARC
  5
11E
330
2
100
AcDbEntity
  8
0
  6
Continuous
 62
     7
100
AcDbCircle
 10
106.7968275259864
 20
147.7388923252326
 30
0.0
 40
44.38683751000001
100
AcDbArc
 50
186.1921135147696
 51
186.4953721496751
  0
ARC
  5
11F
330
2
100
AcDbEntity
  8
0
  6
Continuous
 62
     7
100
AcDbCircle
 10
104.9544746929878
 20
147.5434118624018
 30
0.0
 40
42.53414850619999
100
AcDbArc
 50
184.4953129318756
 51
186.1980147072736
  0
ARC
  5
120
330
2
100
AcDbEntity
  8
0
  6
Continuous
 62
     7
100
AcDbCircle
 10
110.6672053248767
 20
148.2512392006531
 30
0.0
 40
48.29125105230001
100
AcDbArc
 50
188.0349834937708
 51
191.3713365872683
  0
ARC
  5
121
330
2
100
AcDbEntity
  8
0
  6
Continuous
 62
     7
100
AcDbCircle
 10
177.3310670308856
 20
160.392092003739
 30
0.0
 40
48.605917478
100
AcDbArc
 50
189.1569783133705
 51
190.34829078137
  0
ARC
  5
122
330
2
100
AcDbEntity
  8
0
  6
Continuous
 62
     7
100
AcDbCircle
 10
179.0964877529731
 20
160.7134986259436
 30
0.0
 40
48.47334543120003
100
AcDbArc
 50
189.7197505915686
 51
191.3657752935714
  0
ARC
  5
123
330
2
100
AcDbEntity
  8
0
  6
Continuous
 62
     7
100
AcDbCircle
 10
177.0719974786079
 20
160.343082613871
 30
0.0
 40
48.34225835770002
100
AcDbArc
 50
190.3463053446705
 51
191.3666484301763
  0
ARC
  5
124
330
2
100
AcDbEntity
  8
0
  6
Continuous
 62
     7
100
AcDbCircle
 10
178.9249137718798
 20
160.6874167833575
 30
0.0
 40
48.29983107250001
100
AcDbArc
 50
188.6120283780701
 51
189.7236168765734
  0
ARC
  5
125
330
2
100
AcDbEntity
  8
0
  6
Continuous
 62
     7
100
AcDbCircle
 10
177.0210534459365
 20
160.3369221464179
 30
0.0
 40
48.29110176200001
100
AcDbArc
 50
188.0349422941747
 51
191.3713853953721
  0
ARC
  5
126
330
2
100
AcDbEntity
  8
0
  6
Continuous
 62
     7
100
AcDbCircle
 10
177.9708114999339
 20
160.5422499239221
 30
0.0
 40
47.3347486316
100
AcDbArc
 50
188.0242809938794
 51
188.6112294365784
  0
ARC
  5
127
330
2
100
AcDbEntity
  8
0
  6
Continuous
 62
     7
100
AcDbCircle
 10
177.2842312117627
 20
160.4449790644046
 30
0.0
 40
46.64131234649999
100
AcDbArc
 50
187.6045956880778
 51
188.0236952128723
  0
ARC
  5
128
330
2
100
AcDbEntity
  8
0
  6
Continuous
 62
     7
100
AcDbCircle
 10
176.667152647884
 20
160.3629766703191
 30
0.0
 40
46.0188091739
100
AcDbArc
 50
187.0364073968758
 51
187.6050693888694
  0
ARC
  5
129
330
2
100
AcDbEntity
  8
0
  6
Continuous
 62
     7
100
AcDbCircle
 10
176.152876455948
 20
160.298880506768
 30
0.0
 40
45.5005544703
100
AcDbArc
 50
186.905964850375
 51
187.0356334917699
  0
ARC
  5
12A
330
2
100
AcDbEntity
  8
0
  6
Continuous
 62
     7
100
AcDbCircle
 10
174.2201235484899
 20
159.9450444188887
 30
0.0
 40
45.4628932093
100
AcDbArc
 50
186.2167093964736
 51
188.0393216330699
  0
ARC
  5
12B
330
2
100
AcDbEntity
  8
0
  6
Continuous
 62
     7
100
AcDbCircle
 10
175.6991257305908
 20
160.2443162495854
 30
0.0
 40
45.0435349689
100
AcDbArc
 50
186.4955863004766
 51
186.9064618108753
  0
ARC
  5
12C
330
2
100
AcDbEntity
  8
0
  6
Continuous
 62
     7
100
AcDbCircle
 10
174.7161148808809
 20
160.1331527884936
 30
0.0
 40
44.05425893909999
100
AcDbArc
 50
185.8620602698725
 51
186.4965680945758
  0
ARC
  5
12D
330
2
100
AcDbEntity
  8
0
  6
Continuous
 62
     7
100
AcDbCircle
 10
173.283834745207
 20
159.9865903850348
 30
0.0
 40
42.6144996959
100
AcDbArc
 50
185.1632702963737
 51
185.8627168001683
  0
ARC
  5
12E
330
2
100
AcDbEntity
  8
0
  6
Continuous
 62
     7
100
AcDbCircle
 10
170.656212530499
 20
159.5679242010903
 30
0.0
 40
41.87910341200001
100
AcDbArc
 50
184.4816848851746
 51
186.2318009210774
  0
ARC
  5
12F
330
2
100
AcDbEntity
  8
0
  6
Continuous
 62
     7
100
AcDbCircle
 10
171.6151133042222
 20
159.8359768162431
 30
0.0
 40
40.93899509609999
100
AcDbArc
 50
184.4739269745736
 51
185.1635120490734
  0
ARC
  5
130
330
2
100
AcDbEntity
  8
0
  6
Continuous
 62
     7
100
AcDbCircle
 10
169.8882697633489
 20
159.7010795177523
 30
0.0
 40
39.20689064000001
100
AcDbArc
 50
183.7222103193742
 51
184.4742439689683
  0
ARC
  5
131
330
2
100
AcDbEntity
  8
0
  6
Continuous
 62
     7
100
AcDbCircle
 10
168.8078219349882
 20
159.6290427585843
 30
0.0
 40
38.12404546180001
100
AcDbArc
 50
183.5507570191746
 51
183.7195907174736
  0
ARC
  5
132
330
2
100
AcDbEntity
  8
0
  6
Continuous
 62
     7
100
AcDbCircle
 10
166.0736610550556
 20
148.5789665485742
 30
0.0
 40
37.97465935310001
100
AcDbArc
 50
143.8102740436628
 51
144.8350787445843
  0
ARC
  5
133
330
2
100
AcDbEntity
  8
0
  6
Continuous
 62
     7
100
AcDbCircle
 10
158.6258792617191
 20
158.9898818925096
 30
0.0
 40
29.83170878560001
100
AcDbArc
 50
180.1232870958698
 51
180.788423644173
  0
ARC
  5
134
330
2
100
AcDbEntity
  8
0
  6
Continuous
 62
     7
100
AcDbCircle
 10
160.4752102040056
 20
159.3355583614856
 30
0.0
 40
29.78520425260001
100
AcDbArc
 50
180.3356165659716
 51
180.5439490552724
  0
ARC
  5
135
330
2
100
AcDbEntity
  8
0
  6
Continuous
 62
     7
100
AcDbCircle
 10
154.2098641933444
 20
159.3725095535774
 30
0.0
 40
21.8856091039
100
AcDbArc
 50
127.4820265779834
 51
128.842823237876
  0
ARC
  5
136
330
2
100
AcDbEntity
  8
0
  6
Continuous
 62
     7
100
AcDbCircle
 10
151.2504223478172
 20
164.3411885670019
 30
0.0
 40
16.0783213131
100
AcDbArc
 50
107.9749309338915
 51
109.6802230590925
  0
ARC
  5
137
330
2
100
AcDbEntity
  8
0
  6
Continuous
 62
     7
100
AcDbCircle
 10
151.1590106347284
 20
164.6288634250702
 30
0.0
 40
15.7764777695
100
AcDbArc
 50
102.9865300668687
 51
107.9815648067604
  0
ARC
  5
138
330
2
100
AcDbEntity
  8
0
  6
Continuous
 62
     7
100
AcDbCircle
 10
143.0152794295081
 20
138.3597977093782
 30
0.0
 40
10.574903014
100
AcDbArc
 50
200.8590371931751
 51
201.4514896032771
  0
ARC
  5
139
330
2
100
AcDbEntity
  8
0
  6
Continuous
 62
     7
100
AcDbCircle
 10
190.8889081254188
 20
185.4515174945072
 30
0.0
 40
25.08349936861393
100
AcDbArc
 50
91.96562584321801
 51
109.52301000249
  0
ARC
  5
13A
330
2
100
AcDbEntity
  8
0
  6
Continuous
 62
     7
100
AcDbCircle
 10
185.998976378989
 20
55.37628610242927
 30
0.0
 40
38.24659967770001
100
AcDbArc
 50
16.06594551897227
 51
17.5115066798807
  0
ARC
  5
13B
330
2
100
AcDbEntity
  8
0
  6
Continuous
 62
     7
100
AcDbCircle
 10
113.7038735252758
 20
79.17478092988644
 30
0.0
 40
97.75217504888402
100
AcDbArc
 50
22.38640637167086
 51
26.22968850213222
  0
ARC
  5
13C
330
2
100
AcDbEntity
  8
0
  6
Continuous
 62
     7
100
AcDbCircle
 10
202.1409987480438
 20
201.1069938015857
 30
0.0
 40
1.431345798999999
100
AcDbArc
 50
99.27741972211618
 51
100.6805099172647
  0
ARC
  5
13D
330
2
100
AcDbEntity
  8
0
  6
Continuous
 62
     7
100
AcDbCircle
 10
208.795227423936
 20
164.5733000586715
 30
0.0
 40
1.4339020622
100
AcDbArc
 50
276.379836142802
 51
281.3495350395702
  0
ARC
  5
13E
330
2
100
AcDbEntity
  8
0
  6
Continuous
 62
     7
100
AcDbCircle
 10
227.426669039809
 20
117.9775280642006
 30
0.0
 40
12.0765559811
100
AcDbArc
 50
4.467531617378275
 51
5.322417280873886
  0
ARC
  5
13F
330
2
100
AcDbEntity
  8
0
  6
Continuous
 62
     7
100
AcDbCircle
 10
227.9398091552102
 20
118.0180521618663
 30
0.0
 40
11.5618183906
100
AcDbArc
 50
3.946113392068203
 51
4.465398936277168
  0
ARC
  5
140
330
2
100
AcDbEntity
  8
0
  6
Continuous
 62
     7
100
AcDbCircle
 10
226.6743655228711
 20
120.5387794449916
 30
0.0
 40
5.561904152599999
100
AcDbArc
 50
28.84397284815882
 51
29.94281450215605
  0
ARC
  5
141
330
2
100
AcDbEntity
  8
0
  6
Continuous
 62
     7
100
AcDbCircle
 10
226.961861270167
 20
120.7034761010002
 30
0.0
 40
5.230576313800001
100
AcDbArc
 50
29.95142102106935
 51
30.20756366965846
  0
ARC
  5
142
330
2
100
AcDbEntity
  8
0
  6
Continuous
 62
     7
100
AcDbCircle
 10
227.1351866873047
 20
115.0930628330784
 30
0.0
 40
3.507879721600001
100
AcDbArc
 50
332.4127622806802
 51
333.5490754503759
  0
ARC
  5
143
330
2
100
AcDbEntity
  8
0
  6
Continuous
 62
     7
100
AcDbCircle
 10
209.9475947340308
 20
152.7417169527124
 30
0.0
 40
18.38438505116155
100
AcDbArc
 50
3.631040763002551
 51
36.95181056906712
  0
ARC
  5
144
330
2
100
AcDbEntity
  8
0
  6
Continuous
 62
     7
100
AcDbCircle
 10
313.5748618951293
 20
142.3898712792736
 30
0.0
 40
2.3983939206
100
AcDbArc
 50
223.0358125778595
 51
239.817480337909
  0
ARC
  5
145
330
2
100
AcDbEntity
  8
0
  6
Continuous
 62
     7
100
AcDbCircle
 10
313.6541674556502
 20
143.053959723356
 30
0.0
 40
3.084770388199999
100
AcDbArc
 50
283.6894090540756
 51
286.7080027126848
  0
ARC
  5
146
330
2
100
AcDbEntity
  8
0
  6
Continuous
 62
     7
100
AcDbCircle
 10
313.6214075386523
 20
142.9964719457919
 30
0.0
 40
3.039505421199999
100
AcDbArc
 50
284.4698806599559
 51
287.6110531258598
  0
ARC
  5
147
330
2
100
AcDbEntity
  8
0
  6
Continuous
 62
     7
100
AcDbCircle
 10
313.6261896199412
 20
142.9783069043114
 30
0.0
 40
3.020721688600001
100
AcDbArc
 50
283.3341791130366
 51
284.468145661211
  0
ARC
  5
148
330
2
100
AcDbEntity
  8
0
  6
Continuous
 62
     7
100
AcDbCircle
 10
314.1428037677123
 20
142.7150720700901
 30
0.0
 40
2.678878287199999
100
AcDbArc
 50
91.34687427318189
 51
95.72349063631049
  0
ARC
  5
149
330
2
100
AcDbEntity
  8
0
  6
Continuous
 62
     7
100
AcDbCircle
 10
314.1406071594502
 20
142.8102402786057
 30
0.0
 40
2.583684740899999
100
AcDbArc
 50
86.87945609221529
 51
91.34778235441167
  0
ARC
  5
14A
330
2
100
AcDbEntity
  8
0
  6
Continuous
 62
     7
100
AcDbCircle
 10
314.1433445713318
 20
142.8724808296815
 30
0.0
 40
2.521387548099999
100
AcDbArc
 50
86.00090409008869
 51
86.86457587936603
  0
ARC
  5
14B
330
2
100
AcDbEntity
  8
0
  6
Continuous
 62
     7
100
AcDbCircle
 10
314.1445163393637
 20
142.8892962550276
 30
0.0
 40
2.5045313458
100
AcDbArc
 50
84.86992135144431
 51
86.00081704210209
  0
ARC
  5
14C
330
2
100
AcDbEntity
  8
0
  6
Continuous
 62
     7
100
AcDbCircle
 10
314.1494470307371
 20
142.9365999738575
 30
0.0
 40
2.456976319199999
100
AcDbArc
 50
78.66896859862642
 51
84.88580610668675
  0
ARC
  5
14D
330
2
100
AcDbEntity
  8
0
  6
Continuous
 62
     7
100
AcDbCircle
 10
314.4948054170509
 20
143.0158959490095
 30
0.0
 40
2.108157665399999
100
AcDbArc
 50
30.01930476138181
 51
33.71427662479172
  0
ARC
  5
14E
330
2
100
AcDbEntity
  8
0
  6
Continuous
 62
     7
100
AcDbCircle
 10
314.517085149917
 20
143.0314925924544
 30
0.0
 40
2.080968175599999
100
AcDbArc
 50
33.69756034021504
 51
47.38024694759427
  0
ARC
  5
14F
330
2
100
AcDbEntity
  8
0
  6
Continuous
 62
     7
100
AcDbCircle
 10
318.9331677325482
 20
137.1828630170987
 30
0.0
 40
4.9891866591
100
AcDbArc
 50
166.6058706575871
 51
167.8215743241734
  0
ARC
  5
150
330
2
100
AcDbEntity
  8
0
  6
Continuous
 62
     7
100
AcDbCircle
 10
318.9081184641036
 20
137.1883021272924
 30
0.0
 40
4.9635536975
100
AcDbArc
 50
167.8219482476743
 51
168.5880494377803
  0
ARC
  5
151
330
2
100
AcDbEntity
  8
0
  6
Continuous
 62
     7
100
AcDbCircle
 10
318.8776215418457
 20
137.1943909293179
 30
0.0
 40
4.932454960799999
100
AcDbArc
 50
168.5872856824925
 51
170.0681992948704
  0
ARC
  5
152
330
2
100
AcDbEntity
  8
0
  6
Continuous
 62
     7
100
AcDbCircle
 10
319.2680107209071
 20
137.522243001104
 30
0.0
 40
4.965291764899999
100
AcDbArc
 50
98.47624160456385
 51
99.26706553267152
  0
ARC
  5
153
330
2
100
AcDbEntity
  8
0
  6
Continuous
 62
     7
100
AcDbCircle
 10
319.2654117718666
 20
137.5399871564639
 30
0.0
 40
4.947358344599999
100
AcDbArc
 50
96.9075293032457
 51
98.4767617689415
  0
ARC
  5
154
330
2
100
AcDbEntity
  8
0
  6
Continuous
 62
     7
100
AcDbCircle
 10
318.8066236000668
 20
138.0736818435487
 30
0.0
 40
2.743377101999999
100
AcDbArc
 50
4.595710493708743
 51
5.856018267387017
  0
ARC
  5
155
330
2
100
AcDbEntity
  8
0
  6
Continuous
 62
     7
100
AcDbCircle
 10
319.4725004729589
 20
138.4975182910107
 30
0.0
 40
3.940760635600001
100
AcDbArc
 50
39.93982231468596
 51
42.97557545965907
  0
ARC
  5
156
330
2
100
AcDbEntity
  8
0
  6
Continuous
 62
     7
100
AcDbCircle
 10
182.7690637022388
 20
240.894791630441
 30
0.0
 40
37.98081236180001
100
AcDbArc
 50
183.4024377851782
 51
183.9459844298758
  0
ARC
  5
157
330
2
100
AcDbEntity
  8
0
  6
Continuous
 62
     7
100
AcDbCircle
 10
127.3846747058996
 20
256.7296088686739
 30
0.0
 40
20.16656148980001
100
AcDbArc
 50
100.3229430023635
 51
101.095599572967
  0
ARC
  5
158
330
2
100
AcDbEntity
  8
0
  6
Continuous
 62
     7
100
AcDbCircle
 10
185.8163630492381
 20
260.7108849517676
 30
0.0
 40
7.933777931000001
100
AcDbArc
 50
183.9358201413694
 51
191.1380179104651
  0
ARC
  5
159
330
2
100
AcDbEntity
  8
0
  6
Continuous
 62
     7
100
AcDbCircle
 10
136.6214528323798
 20
252.22440644257
 30
0.0
 40
3.270192092499999
100
AcDbArc
 50
200.586728589954
 51
204.0094152583578
  0
ARC
  5
15A
330
2
100
AcDbEntity
  8
0
  6
Continuous
 62
     7
100
AcDbCircle
 10
146.6155625331466
 20
245.1770777655052
 30
0.0
 40
1.5810928515
100
AcDbArc
 50
64.11966062255436
 51
67.41638101276514
  0
ARC
  5
15B
330
2
100
AcDbEntity
  8
0
  6
Continuous
 62
     7
100
AcDbCircle
 10
312.0382060069369
 20
202.1386634662513
 30
0.0
 40
117.4827753134
100
AcDbArc
 50
192.5202828707705
 51
192.7117748608671
  0
ARC
  5
15C
330
2
100
AcDbEntity
  8
0
  6
Continuous
 62
     7
100
AcDbCircle
 10
295.8137027340526
 20
200.616174849129
 30
0.0
 40
101.2021920425
100
AcDbArc
 50
183.9554520799735
 51
185.0751435456728
  0
ARC
  5
15D
330
2
100
AcDbEntity
  8
0
  6
Continuous
 62
     7
100
AcDbCircle
 10
278.6901109945029
 20
196.6407395329293
 30
0.0
 40
100.2392879497
100
AcDbArc
 50
184.7346924945736
 51
188.2455778410791
  0
ARC
  5
15E
330
2
100
AcDbEntity
  8
0
  6
Continuous
 62
     7
100
AcDbCircle
 10
270.67307506836
 20
195.9346944412518
 30
0.0
 40
92.1913406092
100
AcDbArc
 50
184.4979376715738
 51
184.7086559200701
  0
ARC
  5
15F
330
2
100
AcDbEntity
  8
0
  6
Continuous
 62
     7
100
AcDbCircle
 10
249.1146141049085
 20
278.9940218742445
 30
0.0
 40
20.075439118
100
AcDbArc
 50
99.5479458380781
 51
100.3229386870934
  0
ARC
  5
160
330
2
100
AcDbEntity
  8
0
  6
Continuous
 62
     7
100
AcDbCircle
 10
240.190603686071
 20
209.1214283864792
 30
0.0
 40
16.8620979771
100
AcDbArc
 50
194.6122187333646
 51
194.859796716874
  0
ARC
  5
161
330
2
100
AcDbEntity
  8
0
  6
Continuous
 62
     7
100
AcDbCircle
 10
333.9818085069674
 20
140.4263357707291
 30
0.0
 40
13.5891711112
100
AcDbArc
 50
183.9451604830735
 51
185.5129465567717
  0
ARC
  5
162
330
2
100
AcDbEntity
  8
0
  6
Continuous
 62
     7
100
AcDbCircle
 10
323.1395359373055
 20
132.7257882324497
 30
0.0
 40
4.977037129400001
100
AcDbArc
 50
279.03498719788
 51
280.3228194621405
  0
ARC
  5
163
330
2
100
AcDbEntity
  8
0
  6
Continuous
 62
     7
100
AcDbCircle
 10
324.0966887561372
 20
131.613579525801
 30
0.0
 40
3.8041362015
100
AcDbArc
 50
267.6645968376845
 51
269.0171377480752
  0
SPLINE
  5
164
330
2
100
AcDbEntity
  8
0
  6
Continuous
 62
     7
100
AcDbSpline
210
0.0
220
0.0
230
1.0
 70
     8
 71
     3
 72
     9
 73
     5
 74
     0
 42
0.000000001
 43
0.0000000001
 40
0.0
 40
0.0
 40
0.0
 40
0.0
 40
0.5211365576000002
 40
1.0
 40
1.0
 40
1.0
 40
1.0
 10
44.25129375347295
 20
226.2164491188209
 30
0.0
 10
44.22021891948133
 20
226.229350095527
 30
0.0
 10
44.15747059512159
 20
226.2477805966282
 30
0.0
 10
44.09167750756568
 20
226.2468409975318
 30
0.0
 10
44.06126140649121
 20
226.2412977055146
 30
0.0
  0
SPLINE
  5
165
330
2
100
AcDbEntity
  8
0
  6
Continuous
 62
     7
100
AcDbSpline
210
0.0
220
0.0
230
1.0
 70
     8
 71
     3
 72
    16
 73
    12
 74
     0
 42
0.000000001
 43
0.0000000001
 40
0.1919160276069215
 40
0.1919160276069215
 40
0.1919160276069215
 40
0.1919160276069215
 40
0.3614058237
 40
0.5141982522000001
 40
0.6470199843
 40
0.7597460203000001
 40
0.8534484611999999
 40
0.8941201404999999
 40
0.9314594653
 40
0.9663730176000001
 40
1.0
 40
1.0
 40
1.0
 40
1.0
 10
44.24677379484236
 20
226.2182975676964
 30
0.0
 10
44.25890546423919
 20
226.3549348194791
 30
0.0
 10
44.28877446994695
 20
226.6141661849605
 30
0.0
 10
44.35574896220259
 20
226.9766457899673
 30
0.0
 10
44.44215624146818
 20
227.2878003840242
 30
0.0
 10
44.54663745697415
 20
227.5424362212238
 30
0.0
 10
44.65325328713332
 20
227.7136065935329
 30
0.0
 10
44.74856138142239
 20
227.8153181040902
 30
0.0
 10
44.82078982717576
 20
227.8719833455898
 30
0.0
 10
44.89697512986913
 20
227.9122523410288
 30
0.0
 10
44.95064985985209
 20
227.9279601824628
 30
0.0
 10
44.97742024815397
 20
227.9328364222774
 30
0.0
  0
SPLINE
  5
166
330
2
100
AcDbEntity
  8
0
  6
Continuous
 62
     7
100
AcDbSpline
210
0.0
220
0.0
230
1.0
 70
     8
 71
     3
 72
    21
 73
    17
 74
     0
 42
0.000000001
 43
0.0000000001
 40
0.0
 40
0.0
 40
0.0
 40
0.0
 40
0.1495157487
 40
0.3037397104
 40
0.4542230374000001
 40
0.593011666
 40
0.6560167742000002
 40
0.7140723520000001
 40
0.7670960337000002
 40
0.8155357964
 40
0.8607139236
 40
0.9049835195999998
 40
0.9277660093999999
 40
0.9512697771
 40
0.9752435604999998
 40
1.0
 40
1.0
 40
1.0
 40
1.0
 10
39.8693768724188
 20
222.8393461241121
 30
0.0
 10
39.88985107740155
 20
222.5424258168055
 30
0.0
 10
39.95555153187615
 20
221.940751588555
 30
0.0
 10
40.11423425730936
 20
221.0499647119309
 30
0.0
 10
40.32729579095394
 20
220.1925567178373
 30
0.0
 10
40.54679373078942
 20
219.5255410627074
 30
0.0
 10
40.74442203820399
 20
219.0472892273765
 30
0.0
 10
40.89517187082583
 20
218.7349983534618
 30
0.0
 10
41.05352998257695
 20
218.4593868632833
 30
0.0
 10
41.22226203902211
 20
218.2204553553843
 30
0.0
 10
41.40867509652706
 20
218.0177777215235
 30
0.0
 10
41.5891378402066
 20
217.8824406764311
 30
0.0
 10
41.75281088791416
 20
217.8054564695512
 30
0.0
 10
41.88758533723011
 20
217.7657905012943
 30
0.0
 10
42.03124563099845
 20
217.7495383717105
 30
0.0
 10
42.12866728229072
 20
217.7576817097065
 30
0.0
 10
42.17714970550331
 20
217.7665122585731
 30
0.0
  0
SPLINE
  5
167
330
2
100
AcDbEntity
  8
0
  6
Continuous
 62
     7
100
AcDbSpline
210
0.0
220
0.0
230
1.0
 70
     8
 71
     3
 72
    19
 73
    15
 74
     0
 42
0.000000001
 43
0.0000000001
 40
0.0
 40
0.0
 40
0.0
 40
0.0
 40
0.0569162829
 40
0.1117788645
 40
0.1651730241
 40
0.2167006339
 40
0.2677207477
 40
0.3194699858
 40
0.3730811247
 40
0.4293497902000001
 40
0.5516684227000001
 40
0.6881482808000002
 40
0.8382619137999999
 40
1.0
 40
1.0
 40
1.0
 40
1.0
 10
40.74362068463686
 20
225.6370265076921
 30
0.0
 10
40.6846640029753
 20
225.626288185948
 30
0.0
 10
40.57084492458034
 20
225.5913123361729
 30
0.0
 10
40.42014923096667
 20
225.5019108579418
 30
0.0
 10
40.29440917034206
 20
225.3886683207438
 30
0.0
 10
40.19305270790209
 20
225.2586137130484
 30
0.0
 10
40.11210312694311
 20
225.1172952530419
 30
0.0
 10
40.04604170973015
 20
224.9661955524894
 30
0.0
 10
39.99214414065773
 20
224.8045835494877
 30
0.0
 10
39.93149204740075
 20
224.5675793121554
 30
0.0
 10
39.87891087206845
 20
224.2393782709646
 30
0.0
 10
39.84671496170085
 20
223.8097083460421
 30
0.0
 10
39.84263938800086
 20
223.3373960473714
 30
0.0
 10
39.85766212909948
 20
223.0092352690162
 30
0.0
 10
39.8693768724188
 20
222.8393461241121
 30
0.0
  0
SPLINE
  5
168
330
2
100
AcDbEntity
  8
0
  6
Continuous
 62
     7
100
AcDbSpline
210
0.0
220
0.0
230
1.0
 70
     8
 71
     3
 72
     9
 73
     5
 74
     0
 42
0.000000001
 43
0.0000000001
 40
0.0
 40
0.0
 40
0.0
 40
0.0
 40
0.5211365576000002
 40
1.0
 40
1.0
 40
1.0
 40
1.0
 10
46.99789886767304
 20
186.3847274931299
 30
0.0
 10
46.96682403358862
 20
186.3976284698651
 30
0.0
 10
46.90407570922706
 20
186.4160589709663
 30
0.0
 10
46.83828262176574
 20
186.4151193718408
 30
0.0
 10
46.80786652069309
 20
186.4095760798232
 30
0.0
  0
SPLINE
  5
169
330
2
100
AcDbEntity
  8
0
  6
Continuous
 62
     7
100
AcDbSpline
210
0.0
220
0.0
230
1.0
 70
     8
 71
     3
 72
     9
 73
     5
 74
     0
 42
0.000000001
 43
0.0000000001
 40
0.0
 40
0.0
 40
0.0
 40
0.0
 40
0.5212248350000001
 40
1.0
 40
1.0
 40
1.0
 40
1.0
 10
48.41083996268388
 20
178.6296718004325
 30
0.0
 10
48.38627791770796
 20
178.6065685552787
 30
0.0
 10
48.33399739874129
 20
178.567059642251
 30
0.0
 10
48.27198679480625
 20
178.5446393644865
 30
0.0
 10
48.24151473584425
 20
178.5390858741316
 30
0.0
  0
SPLINE
  5
16A
330
2
100
AcDbEntity
  8
0
  6
Continuous
 62
     7
100
AcDbSpline
210
0.0
220
0.0
230
1.0
 70
     8
 71
     3
 72
     9
 73
     5
 74
     0
 42
0.000000001
 43
0.0000000001
 40
0.3942414914996987
 40
0.3942414914996987
 40
0.3942414914996987
 40
0.3942414914996987
 40
0.5370621313
 40
1.0
 40
1.0
 40
1.0
 40
1.0
 10
46.99336854646875
 20
186.3865801152467
 30
0.0
 10
46.9983559338362
 20
186.4426336369287
 30
0.0
 10
47.02209586657387
 20
186.6801710612106
 30
0.0
 10
47.05780448227506
 20
186.916582793539
 30
0.0
 10
47.0964065676726
 20
187.0948013411871
 30
0.0
  0
SPLINE
  5
16B
330
2
100
AcDbEntity
  8
0
  6
Continuous
 62
     7
100
AcDbSpline
210
0.0
220
0.0
230
1.0
 70
     8
 71
     3
 72
    21
 73
    17
 74
     0
 42
0.000000001
 43
0.0000000001
 40
0.0
 40
0.0
 40
0.0
 40
0.0
 40
0.1495157487
 40
0.3037397104
 40
0.4542230374000001
 40
0.593011666
 40
0.6560167742000002
 40
0.7140723520000001
 40
0.7670960337000002
 40
0.8155357964
 40
0.8607139236
 40
0.9049835195999998
 40
0.9277660093999999
 40
0.9512697771
 40
0.9752435604999998
 40
1.0
 40
1.0
 40
1.0
 40
1.0
 10
42.61598198652428
 20
183.0076244984502
 30
0.0
 10
42.63645619150702
 20
182.7107041911433
 30
0.0
 10
42.70215664598254
 20
182.1090299628922
 30
0.0
 10
42.86083937141575
 20
181.218243086269
 30
0.0
 10
43.07390090506124
 20
180.3608350921751
 30
0.0
 10
43.29339884489671
 20
179.6938194370454
 30
0.0
 10
43.49102715231038
 20
179.2155676017145
 30
0.0
 10
43.64177698493222
 20
178.903276727799
 30
0.0
 10
43.80013509668333
 20
178.6276652376216
 30
0.0
 10
43.96886715312757
 20
178.3887337297233
 30
0.0
 10
44.15528021063254
 20
178.1860560958616
 30
0.0
 10
44.33574295440665
 20
178.0507190507405
 30
0.0
 10
44.49941600201873
 20
177.9737348438893
 30
0.0
 10
44.63419045143109
 20
177.9340688756028
 30
0.0
 10
44.77785074520034
 20
177.9178167460195
 30
0.0
 10
44.8752723964917
 20
177.925960084015
 30
0.0
 10
44.9237548196088
 20
177.9347906329112
 30
0.0
  0
SPLINE
  5
16C
330
2
100
AcDbEntity
  8
0
  6
Continuous
 62
     7
100
AcDbSpline
210
0.0
220
0.0
230
1.0
 70
     8
 71
     3
 72
    19
 73
    15
 74
     0
 42
0.000000001
 43
0.0000000001
 40
0.0
 40
0.0
 40
0.0
 40
0.0
 40
0.0569162829
 40
0.1117788645
 40
0.1651730241
 40
0.2167006339
 40
0.2677207477
 40
0.3194699858
 40
0.3730811247
 40
0.4293497902000001
 40
0.5516684227000001
 40
0.6881482808000002
 40
0.8382619137999999
 40
1.0
 40
1.0
 40
1.0
 40
1.0
 10
43.49022579874236
 20
185.8053048820306
 30
0.0
 10
43.43126911708077
 20
185.794566560286
 30
0.0
 10
43.31745003878132
 20
185.7595907104814
 30
0.0
 10
43.16675434507397
 20
185.6701892322803
 30
0.0
 10
43.04101428444846
 20
185.5569466950819
 30
0.0
 10
42.93965782200756
 20
185.4268920873865
 30
0.0
 10
42.85870824104859
 20
185.2855736273804
 30
0.0
 10
42.79264682393113
 20
185.1344739267983
 30
0.0
 10
42.73874925485961
 20
184.9728619237962
 30
0.0
 10
42.67809716150622
 20
184.7358576864931
 30
0.0
 10
42.62551598627033
 20
184.407656645274
 30
0.0
 10
42.5933200759009
 20
183.9779867203515
 30
0.0
 10
42.58924450223185
 20
183.5056744217746
 30
0.0
 10
42.60426724320494
 20
183.1775136433556
 30
0.0
 10
42.61598198652428
 20
183.0076244984502
 30
0.0
  0
SPLINE
  5
16D
330
2
100
AcDbEntity
  8
0
  6
Continuous
 62
     7
100
AcDbSpline
210
0.0
220
0.0
230
1.0
 70
     8
 71
     3
 72
    16
 73
    12
 74
     0
 42
0.000000001
 43
0.0000000001
 40
0.0
 40
0.0
 40
0.0
 40
0.0
 40
0.0336224944
 40
0.068531469
 40
0.1058671967
 40
0.1465359878
 40
0.2402350349
 40
0.352960377
 40
0.4857851199
 40
0.6385828701000002
 40
0.8077837731490784
 40
0.8077837731490784
 40
0.8077837731490784
 40
0.8077837731490784
 10
49.69514183646788
 20
177.2791780283542
 30
0.0
 10
49.66836485718613
 20
177.2743005879497
 30
0.0
 10
49.61258497555899
 20
177.2700741120315
 30
0.0
 10
49.52707145593739
 20
177.2808973152318
 30
0.0
 10
49.43948006403298
 20
177.3084738165931
 30
0.0
 10
49.31439638632763
 20
177.3700808407998
 30
0.0
 10
49.15423335986814
 20
177.492729747586
 30
0.0
 10
48.96663234299832
 20
177.6942701200908
 30
0.0
 10
48.77601883429178
 20
177.9551018539164
 30
0.0
 10
48.58561993846802
 20
178.2706343531185
 30
0.0
 10
48.46633345387981
 20
178.5025726845649
 30
0.0
 10
48.40688375356734
 20
178.6259939454012
 30
0.0
  0
SPLINE
  5
16E
330
2
100
AcDbEntity
  8
0
  6
Continuous
 62
     7
100
AcDbSpline
210
0.0
220
0.0
230
1.0
 70
     8
 71
     3
 72
    13
 73
     9
 74
     0
 42
0.000000001
 43
0.0000000001
 40
0.0
 40
0.0
 40
0.0
 40
0.0
 40
0.1206022055
 40
0.2393041801
 40
0.3586424272
 40
0.4791046897
 40
0.7283119242
 40
1.0
 40
1.0
 40
1.0
 40
1.0
 10
46.92466483943099
 20
173.917782270154
 30
0.0
 10
46.78044275992032
 20
173.8888053867481
 30
0.0
 10
46.49891620266408
 20
173.8042355982134
 30
0.0
 10
46.10842960081209
 20
173.6023235652626
 30
0.0
 10
45.75684640506096
 20
173.3393920227238
 30
0.0
 10
45.33370552133601
 20
172.916516634612
 30
0.0
 10
44.89196670136334
 20
172.2629672339585
 30
0.0
 10
44.63036725948494
 20
171.681647869425
 30
0.0
 10
44.51228117666596
 20
171.3720099696754
 30
0.0
  0
SPLINE
  5
16F
330
2
100
AcDbEntity
  8
0
  6
Continuous
 62
     7
100
AcDbSpline
210
0.0
220
0.0
230
1.0
 70
     8
 71
     3
 72
     9
 73
     5
 74
     0
 42
0.000000001
 43
0.0000000001
 40
0.0
 40
0.0
 40
0.0
 40
0.0
 40
0.2512316604
 40
1.0
 40
1.0
 40
1.0
 40
1.0
 10
52.64299218835822
 20
135.4357375292902
 30
0.0
 10
52.67963726158267
 20
135.4218247831625
 30
0.0
 10
52.82652750491434
 20
135.3692196372817
 30
0.0
 10
52.97772248703222
 20
135.3284309032369
 30
0.0
 10
53.09230501832463
 20
135.3056604839196
 30
0.0
  0
SPLINE
  5
170
330
2
100
AcDbEntity
  8
0
  6
Continuous
 62
     7
100
AcDbSpline
210
0.0
220
0.0
230
1.0
 70
     8
 71
     3
 72
     9
 73
     5
 74
     0
 42
0.000000001
 43
0.0000000001
 40
0.0
 40
0.0
 40
0.0
 40
0.0
 40
0.4990738648
 40
1.0
 40
1.0
 40
1.0
 40
1.0
 10
53.10695666566061
 20
135.3027922277247
 30
0.0
 10
53.24699539620723
 20
135.275792342873
 30
0.0
 10
53.53257893846694
 20
135.2443472738855
 30
0.0
 10
53.819479043309
 20
135.2644158250491
 30
0.0
 10
53.96075074437248
 20
135.2875114017124
 30
0.0
  0
SPLINE
  5
171
330
2
100
AcDbEntity
  8
0
  6
Continuous
 62
     7
100
AcDbSpline
210
0.0
220
0.0
230
1.0
 70
     8
 71
     3
 72
    11
 73
     7
 74
     0
 42
0.000000001
 43
0.0000000001
 40
0.0
 40
0.0
 40
0.0
 40
0.0
 40
0.2511636739
 40
0.5017249203000002
 40
0.7509524445999999
 40
1.0
 40
1.0
 40
1.0
 40
1.0
 10
52.64299218835822
 20
135.4357375292902
 30
0.0
 10
52.56062041941913
 20
135.467010969362
 30
0.0
 10
52.40352251675995
 20
135.5514685645867
 30
0.0
 10
52.20914785339211
 20
135.7333900257763
 30
0.0
 10
52.06643770069695
 20
135.9569135553729
 30
0.0
 10
52.00698508748883
 20
136.1227405483723
 30
0.0
 10
51.9849443853409
 20
136.2072809649285
 30
0.0
  0
SPLINE
  5
172
330
2
100
AcDbEntity
  8
0
  6
Continuous
 62
     7
100
AcDbSpline
210
0.0
220
0.0
230
1.0
 70
     8
 71
     3
 72
    10
 73
     6
 74
     0
 42
0.000000001
 43
0.0000000001
 40
0.0
 40
0.0
 40
0.0
 40
0.0
 40
0.5467275265
 40
0.7881318812
 40
1.0
 40
1.0
 40
1.0
 40
1.0
 10
51.9849443853409
 20
136.2072809649285
 30
0.0
 10
51.87774330132106
 20
136.6184667894092
 30
0.0
 10
51.70179064859258
 20
137.2063398613454
 30
0.0
 10
51.42377850831508
 20
137.932415676817
 30
0.0
 10
51.278849702554
 20
138.2538731115821
 30
0.0
 10
51.2052056639095
 20
138.4011569008896
 30
0.0
  0
SPLINE
  5
173
330
2
100
AcDbEntity
  8
0
  6
Continuous
 62
     7
100
AcDbSpline
210
0.0
220
0.0
230
1.0
 70
     8
 71
     3
 72
    11
 73
     7
 74
     0
 42
0.000000001
 43
0.0000000001
 40
0.0
 40
0.0
 40
0.0
 40
0.0
 40
0.2488979423
 40
0.4988575019
 40
0.7492308755
 40
1.0
 40
1.0
 40
1.0
 40
1.0
 10
49.42330657479486
 20
138.7745741422122
 30
0.0
 10
49.46625750588191
 20
138.7014919141793
 30
0.0
 10
49.56961011923886
 20
138.5642849200294
 30
0.0
 10
49.77015044591007
 20
138.4023364237848
 30
0.0
 10
50.00520258934557
 20
138.2949116774807
 30
0.0
 10
50.1754285047964
 20
138.2648579625961
 30
0.0
 10
50.26073865910257
 20
138.2608055603682
 30
0.0
  0
SPLINE
  5
174
330
2
100
AcDbEntity
  8
0
  6
Continuous
 62
     7
100
AcDbSpline
210
0.0
220
0.0
230
1.0
 70
     8
 71
     3
 72
    22
 73
    18
 74
     0
 42
0.000000001
 43
0.0000000001
 40
0.0
 40
0.0
 40
0.0
 40
0.0
 40
0.1724856675
 40
0.3424022311999999
 40
0.5026512999000002
 40
0.5771019689
 40
0.6467841728
 40
0.7110747103000002
 40
0.769469676
 40
0.8216268309
 40
0.867427123
 40
0.9070776157
 40
0.9248357043
 40
0.9414112101
 40
0.9716220121999999
 40
0.9858653510999999
 40
1.0
 40
1.0
 40
1.0
 40
1.0
 10
179.487050812877
 20
182.2647978500927
 30
0.0
 10
179.7878466283873
 20
180.1738353081596
 30
0.0
 10
180.5058498294784
 20
176.0394545716642
 30
0.0
 10
181.9019665486994
 20
170.0405833483828
 30
0.0
 10
183.3167762306584
 20
165.287063494809
 30
0.0
 10
184.5761140021041
 20
161.777470246144
 30
0.0
 10
185.5363234489996
 20
159.4114325856136
 30
0.0
 10
186.5250906667005
 20
157.2718165564216
 30
0.0
 10
187.5325083557545
 20
155.3807223331578
 30
0.0
 10
188.5498717884584
 20
153.7559540311031
 30
0.0
 10
189.5712105149414
 20
152.4121432358738
 30
0.0
 10
190.454604351813
 20
151.5009407361844
 30
0.0
 10
191.1686108851281
 20
150.9403229324955
 30
0.0
 10
191.8382255840624
 20
150.5192764045828
 30
0.0
 10
192.5455197243845
 20
150.238607922153
 30
0.0
 10
193.262151734838
 20
150.1575388307364
 30
0.0
 10
193.6112887686358
 20
150.1856947543244
 30
0.0
 10
193.7815984107436
 20
150.2167148130941
 30
0.0
  0
SPLINE
  5
175
330
2
100
AcDbEntity
  8
0
  6
Continuous
 62
     7
100
AcDbSpline
210
0.0
220
0.0
230
1.0
 70
     8
 71
     3
 72
    19
 73
    15
 74
     0
 42
0.000000001
 43
0.0000000001
 40
0.0
 40
0.0
 40
0.0
 40
0.0
 40
0.0329414275
 40
0.0678417798
 40
0.105760538
 40
0.1474018811
 40
0.1934029049
 40
0.2441512956
 40
0.2998029286
 40
0.3603873704
 40
0.4959398898
 40
0.6493778904000001
 40
0.8183586555999998
 40
1.0
 40
1.0
 40
1.0
 40
1.0
 10
182.5063689204253
 20
209.0929002174471
 30
0.0
 10
182.2872786539283
 20
209.0039120318484
 30
0.0
 10
181.8589875459437
 20
208.7604289020628
 30
0.0
 10
181.294623339032
 20
208.2457271205958
 30
0.0
 10
180.7920188111638
 20
207.5914309480408
 30
0.0
 10
180.3457874498344
 20
206.8057564742799
 30
0.0
 10
179.9512010381804
 20
205.8923825713937
 30
0.0
 10
179.603879992268
 20
204.8538486017187
 30
0.0
 10
179.3035387331456
 20
203.6925388185268
 30
0.0
 10
178.9526009259589
 20
201.9186373148891
 30
0.0
 10
178.6500592803058
 20
199.4240758430569
 30
0.0
 10
178.4881525804339
 20
196.138508987166
 30
0.0
 10
178.5189680366074
 20
192.5185029517543
 30
0.0
 10
178.6634154761996
 20
190.0046661157694
 30
0.0
 10
178.7656692978926
 20
188.7047533723012
 30
0.0
  0
SPLINE
  5
176
330
2
100
AcDbEntity
  8
0
  6
Continuous
 62
     7
100
AcDbSpline
210
0.0
220
0.0
230
1.0
 70
     8
 71
     3
 72
    13
 73
     9
 74
     0
 42
0.000000001
 43
0.0000000001
 40
0.0
 40
0.0
 40
0.0
 40
0.0
 40
0.3414303175
 40
0.6319876625000001
 40
0.7521817429000001
 40
0.8534641365999997
 40
0.9355599393
 40
1.0
 40
1.0
 40
1.0
 40
1.0
 10
207.1821650640923
 20
164.1759510930055
 30
0.0
 10
207.2151015213312
 20
164.0496183747377
 30
0.0
 10
207.2849990477771
 20
163.8180179883049
 30
0.0
 10
207.3943622356819
 20
163.5510793433375
 30
0.0
 10
207.4894156944683
 20
163.3796593477768
 30
0.0
 10
207.5561166293901
 20
163.2842454986619
 30
0.0
 10
207.6214462661992
 20
163.2151374915634
 30
0.0
 10
207.6693087746207
 20
163.1838723019095
 30
0.0
 10
207.6923448856796
 20
163.1751263632436
 30
0.0
  0
SPLINE
  5
177
330
2
100
AcDbEntity
  8
0
  6
Continuous
 62
     7
100
AcDbSpline
210
0.0
220
0.0
230
1.0
 70
     8
 71
     3
 72
     9
 73
     5
 74
     0
 42
0.000000001
 43
0.0000000001
 40
0.0
 40
0.0
 40
0.0
 40
0.0
 40
0.5186707059000001
 40
1.0
 40
1.0
 40
1.0
 40
1.0
 10
207.6923448856796
 20
163.1751263632436
 30
0.0
 10
207.8418982871371
 20
163.1183466022785
 30
0.0
 10
208.144168387309
 20
163.0397537552257
 30
0.0
 10
208.4579056280619
 20
163.0518893595888
 30
0.0
 10
208.6034533583697
 20
163.0811119391274
 30
0.0
  0
SPLINE
  5
178
330
2
100
AcDbEntity
  8
0
  6
Continuous
 62
     7
100
AcDbSpline
210
0.0
220
0.0
230
1.0
 70
     8
 71
     3
 72
    11
 73
     7
 74
     0
 42
0.000000001
 43
0.0000000001
 40
0.0
 40
0.0
 40
0.0
 40
0.0
 40
0.2028847135
 40
0.4414210248
 40
0.7096426005
 40
1.0
 40
1.0
 40
1.0
 40
1.0
 10
206.3418509355051
 20
166.321684267783
 30
0.0
 10
206.4257413645137
 20
166.1897350308325
 30
0.0
 10
206.5876850208661
 20
165.8895871062757
 30
0.0
 10
206.8036688941247
 20
165.3866709145995
 30
0.0
 10
207.0067915353429
 20
164.8064596437063
 30
0.0
 10
207.1257118820577
 20
164.3924857334343
 30
0.0
 10
207.1821650640923
 20
164.1759510930055
 30
0.0
  0
SPLINE
  5
179
330
2
100
AcDbEntity
  8
0
  6
Continuous
 62
     7
100
AcDbSpline
210
0.0
220
0.0
230
1.0
 70
     8
 71
     3
 72
     8
 73
     4
 74
     0
 42
0.000000001
 43
0.0000000001
 40
0.0
 40
0.0
 40
0.0
 40
0.0
 40
1.0
 40
1.0
 40
1.0
 40
1.0
 10
205.5157363291328
 20
166.1422016357956
 30
0.0
 10
205.52438806586
 20
166.141869536746
 30
0.0
 10
205.5331420588991
 20
166.1425356502745
 30
0.0
 10
205.5416304131449
 20
166.1442417211651
 30
0.0
  0
SPLINE
  5
17A
330
2
100
AcDbEntity
  8
0
  6
Continuous
 62
     7
100
AcDbSpline
210
0.0
220
0.0
230
1.0
 70
     8
 71
     3
 72
     9
 73
     5
 74
     0
 42
0.000000001
 43
0.0000000001
 40
0.0
 40
0.0
 40
0.0
 40
0.0
 40
0.501508478
 40
1.0
 40
1.0
 40
1.0
 40
1.0
 10
223.2158558400552
 20
205.6390738571581
 30
0.0
 10
223.3511487989708
 20
205.5877082460311
 30
0.0
 10
223.6018154116755
 20
205.4245940381734
 30
0.0
 10
223.761361833207
 20
205.1741868364938
 30
0.0
 10
223.8161404440434
 20
205.0411804424207
 30
0.0
  0
SPLINE
  5
17B
330
2
100
AcDbEntity
  8
0
  6
Continuous
 62
     7
100
AcDbSpline
210
0.0
220
0.0
230
1.0
 70
     8
 71
     3
 72
     8
 73
     4
 74
     0
 42
0.000000001
 43
0.0000000001
 40
0.0
 40
0.0
 40
0.0
 40
0.0
 40
1.0
 40
1.0
 40
1.0
 40
1.0
 10
223.8161404440434
 20
205.0411804424207
 30
0.0
 10
223.839370934189
 20
204.9847751472448
 30
0.0
 10
223.8585141743461
 20
204.9265590352365
 30
0.0
 10
223.8739036431653
 20
204.8675304214889
 30
0.0
  0
SPLINE
  5
17C
330
2
100
AcDbEntity
  8
0
  6
Continuous
 62
     7
100
AcDbSpline
210
0.0
220
0.0
230
1.0
 70
     8
 71
     3
 72
     9
 73
     5
 74
     0
 42
0.000000001
 43
0.0000000001
 40
0.0
 40
0.0
 40
0.0
 40
0.0
 40
0.5008826002000001
 40
1.0
 40
1.0
 40
1.0
 40
1.0
 10
221.8980972840418
 20
205.787299984735
 30
0.0
 10
222.1185217485581
 20
205.8233357235386
 30
0.0
 10
222.5713091931175
 20
205.8308273047519
 30
0.0
 10
223.0077837656572
 20
205.7180709413265
 30
0.0
 10
223.2158558401498
 20
205.6390738571285
 30
0.0
  0
SPLINE
  5
17D
330
2
100
AcDbEntity
  8
0
  6
Continuous
 62
     7
100
AcDbSpline
210
0.0
220
0.0
230
1.0
 70
     8
 71
     3
 72
    11
 73
     7
 74
     0
 42
0.000000001
 43
0.0000000001
 40
0.0
 40
0.0
 40
0.0
 40
0.0
 40
0.2503999141
 40
0.5007953677
 40
0.7507886866
 40
1.0
 40
1.0
 40
1.0
 40
1.0
 10
225.398101495768
 20
170.1337598167749
 30
0.0
 10
225.4901243637305
 20
170.1522489130439
 30
0.0
 10
225.6699626177997
 20
170.2154525359335
 30
0.0
 10
225.9022258882178
 20
170.3805775506071
 30
0.0
 10
226.0800423472574
 20
170.6026651761838
 30
0.0
 10
226.1540206696263
 20
170.7774292448171
 30
0.0
 10
226.1788898792965
 20
170.8674744364243
 30
0.0
  0
SPLINE
  5
17E
330
2
100
AcDbEntity
  8
0
  6
Continuous
 62
     7
100
AcDbSpline
210
0.0
220
0.0
230
1.0
 70
     8
 71
     3
 72
    15
 73
    11
 74
     0
 42
0.000000001
 43
0.0000000001
 40
0.0
 40
0.0
 40
0.0
 40
0.0
 40
0.6888990736000002
 40
1.0
 40
1.0
 40
1.0
 40
1.189730957802396
 40
1.189730957802396
 40
1.189730957802396
 40
5.524493975644514
 40
5.524493975644514
 40
5.524493975644514
 40
5.524493975644514
 10
226.1788898792965
 20
170.8674744364243
 30
0.0
 10
226.194380521667
 20
170.923562180217
 30
0.0
 10
226.2196839852313
 20
171.0043071685143
 30
0.0
 10
226.2548680539294
 20
171.0815112588261
 30
0.0
 10
226.2684634688631
 20
171.1039978375684
 30
0.0
 10
226.2767548973938
 20
171.1177117154788
 30
0.0
 10
226.286031827103
 20
171.1308558971835
 30
0.0
 10
226.2953087568122
 20
171.1440000788882
 30
0.0
 10
226.5072577834157
 20
171.4443038006067
 30
0.0
 10
226.7192068100191
 20
171.7446075223252
 30
0.0
 10
226.9311558366226
 20
172.0449112440438
 30
0.0
  0
SPLINE
  5
17F
330
2
100
AcDbEntity
  8
0
  6
Continuous
 62
     7
100
AcDbSpline
210
0.0
220
0.0
230
1.0
 70
     8
 71
     3
 72
    13
 73
     9
 74
     0
 42
0.000000001
 43
0.0000000001
 40
0.0
 40
0.0
 40
0.0
 40
0.0
 40
0.2716881479
 40
0.5208953775000002
 40
0.6413573552000002
 40
0.7606954616000002
 40
0.8793982510999999
 40
1.0
 40
1.0
 40
1.0
 40
1.0
 10
231.3465668517474
 20
169.702801416772
 30
0.0
 10
231.228480736514
 20
169.3931634317944
 30
0.0
 10
230.9668816561934
 20
168.8118437050361
 30
0.0
 10
230.5251419686883
 20
168.1582953279167
 30
0.0
 10
230.1020024806476
 20
167.735419373078
 30
0.0
 10
229.7504189727261
 20
167.4724872408244
 30
0.0
 10
229.3599313982577
 20
167.2705765829153
 30
0.0
 10
229.0784047238812
 20
167.1860058902441
 30
0.0
 10
228.9341831889815
 20
167.1570291162943
 30
0.0
  0
SPLINE
  5
180
330
2
100
AcDbEntity
  8
0
  6
Continuous
 62
     7
100
AcDbSpline
210
0.0
220
0.0
230
1.0
 70
     8
 71
     3
 72
     8
 73
     4
 74
     0
 42
0.000000001
 43
0.0000000001
 40
0.0
 40
0.0
 40
0.0
 40
0.0
 40
0.3057602954269123
 40
0.3057602954269123
 40
0.3057602954269123
 40
0.3057602954269123
 10
231.3465668517474
 20
169.702801416772
 30
0.0
 10
231.3642839424491
 20
169.7492580578701
 30
0.0
 10
231.3786909632221
 20
169.7970771029124
 30
0.0
 10
231.3898137115633
 20
169.8456793876315
 30
0.0
  0
SPLINE
  5
181
330
2
100
AcDbEntity
  8
0
  6
Continuous
 62
     7
100
AcDbSpline
210
0.0
220
0.0
230
1.0
 70
     8
 71
     3
 72
    11
 73
     7
 74
     0
 42
0.000000001
 43
0.0000000001
 40
0.0
 40
0.0
 40
0.0
 40
0.0
 40
0.2584946302
 40
0.5102570178
 40
0.7566494939
 40
1.0
 40
1.0
 40
1.0
 40
1.0
 10
36.67101654395628
 20
84.99338692893116
 30
0.0
 10
37.01871748766189
 20
85.03773087909781
 30
0.0
 10
37.71710276159139
 20
85.05246165769156
 30
0.0
 10
38.73010770892871
 20
84.83955702203321
 30
0.0
 10
39.64597054983007
 20
84.40169599021464
 30
0.0
 10
40.16228002585193
 20
83.97109937500635
 30
0.0
 10
40.38722740327375
 20
83.72967293696092
 30
0.0
  0
SPLINE
  5
182
330
2
100
AcDbEntity
  8
0
  6
Continuous
 62
     7
100
AcDbSpline
210
0.0
220
0.0
230
1.0
 70
     8
 71
     3
 72
     9
 73
     5
 74
     0
 42
0.000000001
 43
0.0000000001
 40
0.0
 40
0.0
 40
0.0
 40
0.0
 40
0.5000782522
 40
1.0
 40
1.0
 40
1.0
 40
1.0
 10
31.52369221283971
 20
88.04292210468451
 30
0.0
 10
31.12426589562892
 20
87.89652264731262
 30
0.0
 10
30.37793385284022
 20
87.4393170778635
 30
0.0
 10
29.86231886962378
 20
86.72965368267274
 30
0.0
 10
29.68966159910633
 20
86.34100166175722
 30
0.0
  0
SPLINE
  5
183
330
2
100
AcDbEntity
  8
0
  6
Continuous
 62
     7
100
AcDbSpline
210
0.0
220
0.0
230
1.0
 70
     8
 71
     3
 72
     9
 73
     5
 74
     0
 42
0.000000001
 43
0.0000000001
 40
0.0
 40
0.0
 40
0.0
 40
0.0
 40
0.5096195007
 40
1.0
 40
1.0
 40
1.0
 40
1.0
 10
29.68966159910633
 20
86.34100166175722
 30
0.0
 10
29.56928020587202
 20
86.07002279343396
 30
0.0
 10
29.41073302709355
 20
85.49906503206466
 30
0.0
 10
29.44845165880179
 20
84.90459825920789
 30
0.0
 10
29.51902451436763
 20
84.62814274316542
 30
0.0
  0
SPLINE
  5
184
330
2
100
AcDbEntity
  8
0
  6
Continuous
 62
     7
100
AcDbSpline
210
0.0
220
0.0
230
1.0
 70
     8
 71
     3
 72
     9
 73
     5
 74
     0
 42
0.000000001
 43
0.0000000001
 40
0.0
 40
0.0
 40
0.0
 40
0.0
 40
0.5032120971000002
 40
1.0
 40
1.0
 40
1.0
 40
1.0
 10
29.51902451436763
 20
84.62814274316542
 30
0.0
 10
29.57009170983838
 20
84.4280968786593
 30
0.0
 10
29.72653844984234
 20
84.04214052885164
 30
0.0
 10
29.98839403965121
 20
83.71738240609444
 30
0.0
 10
30.13854305776022
 20
83.57954169478762
 30
0.0
  0
SPLINE
  5
185
330
2
100
AcDbEntity
  8
0
  6
Continuous
 62
     7
100
AcDbSpline
210
0.0
220
0.0
230
1.0
 70
     8
 71
     3
 72
    16
 73
    12
 74
     0
 42
0.000000001
 43
0.0000000001
 40
0.0
 40
0.0
 40
0.0
 40
0.0
 40
0.1197744561
 40
0.2407336583
 40
0.363787454
 40
0.4892436579
 40
0.5529037505
 40
0.6169574936
 40
0.7454022382
 40
0.8734812434999998
 40
1.0
 40
1.0
 40
1.0
 40
1.0
 10
45.28603531954831
 20
78.47303335198649
 30
0.0
 10
45.57234525901185
 20
78.16580973383246
 30
0.0
 10
46.05623349915093
 20
77.45561167531423
 30
0.0
 10
46.43523443386765
 20
76.21919658311049
 30
0.0
 10
46.45066692534146
 20
74.90714073413437
 30
0.0
 10
46.16703434891859
 20
73.83596220392566
 30
0.0
 10
45.78008861097987
 20
73.03487721045597
 30
0.0
 10
45.29012394103118
 20
72.27971212573175
 30
0.0
 10
44.50583608940724
 20
71.45716444930122
 30
0.0
 10
43.35992970402094
 20
70.73259829860695
 30
0.0
 10
42.49930193530599
 20
70.45459086285109
 30
0.0
 10
42.06288303896417
 20
70.37510188420856
 30
0.0
  0
SPLINE
  5
186
330
2
100
AcDbEntity
  8
0
  6
Continuous
 62
     7
100
AcDbSpline
210
0.0
220
0.0
230
1.0
 70
     8
 71
     3
 72
    11
 73
     7
 74
     0
 42
0.000000001
 43
0.0000000001
 40
0.0
 40
0.0
 40
0.0
 40
0.0
 40
0.2551936785
 40
0.506222823
 40
0.7540068298
 40
1.0
 40
1.0
 40
1.0
 40
1.0
 10
41.95260932633118
 20
70.35629424051967
 30
0.0
 10
41.5870683975636
 20
70.29817079250552
 30
0.0
 10
40.84606918236113
 20
70.26339716001939
 30
0.0
 10
39.76179452053202
 20
70.47110666461367
 30
0.0
 10
38.77242530348576
 20
70.9316144815284
 30
0.0
 10
38.2135993926504
 20
71.39433656410915
 30
0.0
 10
37.9703522420923
 20
71.65535184640475
 30
0.0
  0
SPLINE
  5
187
330
2
100
AcDbEntity
  8
0
  6
Continuous
 62
     7
100
AcDbSpline
210
0.0
220
0.0
230
1.0
 70
     8
 71
     3
 72
    11
 73
     7
 74
     0
 42
0.000000001
 43
0.0000000001
 40
0.0
 40
0.0
 40
0.0
 40
0.0
 40
0.2444751617
 40
0.491427544
 40
0.7428245438
 40
1.0
 40
1.0
 40
1.0
 40
1.0
 10
34.24290321435274
 20
87.38926870158001
 30
0.0
 10
34.1221678585498
 20
87.51883130247845
 30
0.0
 10
33.84913103487725
 20
87.75271397963956
 30
0.0
 10
33.36942046991499
 20
88.00558591833601
 30
0.0
 10
32.8380813932863
 20
88.15248853989713
 30
0.0
 10
32.4674437855556
 20
88.17568042837137
 30
0.0
 10
32.28126107908702
 20
88.16914184653388
 30
0.0
  0
SPLINE
  5
188
330
2
100
AcDbEntity
  8
0
  6
Continuous
 62
     7
100
AcDbSpline
210
0.0
220
0.0
230
1.0
 70
     8
 71
     3
 72
     9
 73
     5
 74
     0
 42
0.000000001
 43
0.0000000001
 40
0.0
 40
0.0
 40
0.0
 40
0.0
 40
0.493606267
 40
1.0
 40
1.0
 40
1.0
 40
1.0
 10
33.07063041371475
 20
76.91298139793913
 30
0.0
 10
32.73698145957587
 20
77.27107260796309
 30
0.0
 10
32.19391511492267
 20
78.13170436457902
 30
0.0
 10
31.99652065614464
 20
79.12693604625316
 30
0.0
 10
31.98085891015853
 20
79.62881066360887
 30
0.0
  0
SPLINE
  5
189
330
2
100
AcDbEntity
  8
0
  6
Continuous
 62
     7
100
AcDbSpline
210
0.0
220
0.0
230
1.0
 70
     8
 71
     3
 72
     9
 73
     5
 74
     0
 42
0.000000001
 43
0.0000000001
 40
0.0
 40
0.0
 40
0.0
 40
0.0
 40
0.5114414562
 40
1.0
 40
1.0
 40
1.0
 40
1.0
 10
34.6933689960224
 20
84.60498597950731
 30
0.0
 10
34.83130382342097
 20
84.95963253733021
 30
0.0
 10
34.97678861794248
 20
85.71086950741095
 30
0.0
 10
34.80742732081036
 20
86.4623273011448
 30
0.0
 10
34.65053386807995
 20
86.79022547081101
 30
0.0
  0
SPLINE
  5
18A
330
2
100
AcDbEntity
  8
0
  6
Continuous
 62
     7
100
AcDbSpline
210
0.0
220
0.0
230
1.0
 70
     8
 71
     3
 72
    14
 73
    10
 74
     0
 42
0.000000001
 43
0.0000000001
 40
0.0
 40
0.0
 40
0.0
 40
0.0
 40
0.3947607526
 40
0.5609221379
 40
0.7011574720000002
 40
0.8131415524999997
 40
0.8966011568999999
 40
0.9547095204999999
 40
1.0
 40
1.0
 40
1.0
 40
1.0
 10
41.63826777005761
 20
81.00242120335655
 30
0.0
 10
41.63233519586992
 20
81.08845637511263
 30
0.0
 10
41.62541935249101
 20
81.21083816072019
 30
0.0
 10
41.62313296434331
 20
81.36404723623739
 30
0.0
 10
41.62575427384218
 20
81.45539823157241
 30
0.0
 10
41.63324553331675
 20
81.52860485585188
 30
0.0
 10
41.64614073211214
 20
81.5823818626959
 30
0.0
 10
41.66599131974999
 20
81.6198848548638
 30
0.0
 10
41.68877121548121
 20
81.62974803024827
 30
0.0
 10
41.69866266257031
 20
81.62997981080208
 30
0.0
  0
SPLINE
  5
18B
330
2
100
AcDbEntity
  8
0
  6
Continuous
 62
     7
100
AcDbSpline
210
0.0
220
0.0
230
1.0
 70
     8
 71
     3
 72
    11
 73
     7
 74
     0
 42
0.000000001
 43
0.0000000001
 40
0.0
 40
0.0
 40
0.0
 40
0.0
 40
0.2429959859
 40
0.4890924898
 40
0.7410733937999999
 40
1.0
 40
1.0
 40
1.0
 40
1.0
 10
30.19899453554444
 20
83.50553744470403
 30
0.0
 10
30.3226352037118
 20
83.36118527572102
 30
0.0
 10
30.61359807315785
 20
83.10406576505943
 30
0.0
 10
31.14102899994396
 20
82.84833406925235
 30
0.0
 10
31.72757814055149
 20
82.7318068316406
 30
0.0
 10
32.13094624542465
 20
82.74909034482879
 30
0.0
 10
32.33114147349624
 20
82.77972189989169
 30
0.0
  0
SPLINE
  5
18C
330
2
100
AcDbEntity
  8
0
  6
Continuous
 62
     7
100
AcDbSpline
210
0.0
220
0.0
230
1.0
 70
     8
 71
     3
 72
     9
 73
     5
 74
     0
 42
0.000000001
 43
0.0000000001
 40
0.0
 40
0.0
 40
0.0
 40
0.0
 40
0.4969470917
 40
1.0
 40
1.0
 40
1.0
 40
1.0
 10
32.33114147349624
 20
82.77972189989169
 30
0.0
 10
32.83479324063502
 20
82.85678485989183
 30
0.0
 10
33.81590552254785
 20
83.29773546472235
 30
0.0
 10
34.47809582511127
 20
84.13628588520806
 30
0.0
 10
34.6933689960224
 20
84.60498597950731
 30
0.0
  0
SPLINE
  5
18D
330
2
100
AcDbEntity
  8
0
  6
Continuous
 62
     7
100
AcDbSpline
210
0.0
220
0.0
230
1.0
 70
     8
 71
     3
 72
    14
 73
    10
 74
     0
 42
0.000000001
 43
0.0000000001
 40
0.0
 40
0.0
 40
0.0
 40
0.0
 40
0.0585166429
 40
0.1326906286
 40
0.2309550863
 40
0.3552814371
 40
0.5028073349000001
 40
0.6662925178
 40
1.0
 40
1.0
 40
1.0
 40
1.0
 10
42.07218572819693
 20
79.63782050048782
 30
0.0
 10
42.04288776071461
 20
79.63712881363472
 30
0.0
 10
41.97575576707367
 20
79.65961754885348
 30
0.0
 10
41.89516243463731
 20
79.74602296384137
 30
0.0
 10
41.82551758382214
 20
79.87832610686201
 30
0.0
 10
41.76731928299159
 20
80.05490875373789
 30
0.0
 10
41.72081118244659
 20
80.26813759802529
 30
0.0
 10
41.6726527396413
 20
80.58753839237374
 30
0.0
 10
41.64976470646798
 20
80.83569073012041
 30
0.0
 10
41.63826777005761
 20
81.00242120335655
 30
0.0
  0
SPLINE
  5
18E
330
2
100
AcDbEntity
  8
0
  6
Continuous
 62
     7
100
AcDbSpline
210
0.0
220
0.0
230
1.0
 70
     8
 71
     3
 72
    15
 73
    11
 74
     0
 42
0.000000001
 43
0.0000000001
 40
0.0
 40
0.0
 40
0.0
 40
0.0
 40
0.1163661883
 40
0.2348827608
 40
0.3569795790999999
 40
0.4829655809000001
 40
0.6120278980000001
 40
0.7425362604000001
 40
0.8724706298999999
 40
1.0
 40
1.0
 40
1.0
 40
1.0
 10
40.38722740327375
 20
83.72967293696092
 30
0.0
 10
40.66424189610552
 20
83.43236508184466
 30
0.0
 10
41.13244661966746
 20
82.74019750050138
 30
0.0
 10
41.49310305744893
 20
81.52849058625021
 30
0.0
 10
41.49480306834812
 20
80.23141923182036
 30
0.0
 10
41.14160035169515
 20
78.94708206845234
 30
0.0
 10
40.463358448279
 20
77.76795486656671
 30
0.0
 10
39.51038955200329
 20
76.77846185864995
 30
0.0
 10
38.35302728438546
 20
76.04965033487065
 30
0.0
 10
37.48643684107083
 20
75.7695332243743
 30
0.0
 10
37.04830159616996
 20
75.68973162959628
 30
0.0
  0
SPLINE
  5
18F
330
2
100
AcDbEntity
  8
0
  6
Continuous
 62
     7
100
AcDbSpline
210
0.0
220
0.0
230
1.0
 70
     8
 71
     3
 72
    11
 73
     7
 74
     0
 42
0.000000001
 43
0.0000000001
 40
0.0
 40
0.0
 40
0.0
 40
0.0
 40
0.2591018835
 40
0.5111619579
 40
0.7572778292
 40
1.0
 40
1.0
 40
1.0
 40
1.0
 10
37.04830159616996
 20
75.68973162959628
 30
0.0
 10
36.68031597762457
 20
75.62270703037007
 30
0.0
 10
35.93636636735664
 20
75.57143542662493
 30
0.0
 10
34.84841617305028
 20
75.7589031937873
 30
0.0
 10
33.86258896481468
 20
76.20268597817949
 30
0.0
 10
33.30949261486694
 20
76.65662077244427
 30
0.0
 10
33.07063041371475
 20
76.91298139793913
 30
0.0
  0
SPLINE
  5
190
330
2
100
AcDbEntity
  8
0
  6
Continuous
 62
     7
100
AcDbSpline
210
0.0
220
0.0
230
1.0
 70
     8
 71
     3
 72
     9
 73
     5
 74
     0
 42
0.000000001
 43
0.0000000001
 40
0.0
 40
0.0
 40
0.0
 40
0.0
 40
0.2912075453
 40
1.0
 40
1.0
 40
1.0
 40
1.0
 10
320.6582429152586
 20
138.1962010949144
 30
0.0
 10
320.6682176941358
 20
138.1789157788632
 30
0.0
 10
320.7049350336547
 20
138.1217700459101
 30
0.0
 10
320.7597733066395
 20
138.0710440505006
 30
0.0
 10
320.8061977304933
 20
138.0567517092213
 30
0.0
  0
SPLINE
  5
191
330
2
100
AcDbEntity
  8
0
  6
Continuous
 62
     7
100
AcDbSpline
210
0.0
220
0.0
230
1.0
 70
     8
 71
     3
 72
     9
 73
     5
 74
     0
 42
0.000000001
 43
0.0000000001
 40
0.0
 40
0.0
 40
0.0
 40
0.0
 40
0.2773482153
 40
1.0
 40
1.0
 40
1.0
 40
1.0
 10
320.5018726661838
 20
138.7420874660538
 30
0.0
 10
320.5078747954758
 20
138.7035334167262
 30
0.0
 10
320.5314545362853
 20
138.5649289572602
 30
0.0
 10
320.5632159082015
 20
138.427021104417
 30
0.0
 10
320.5974546485669
 20
138.3312944425572
 30
0.0
  0
SPLINE
  5
192
330
2
100
AcDbEntity
  8
0
  6
Continuous
 62
     7
100
AcDbSpline
210
0.0
220
0.0
230
1.0
 70
     8
 71
     3
 72
    11
 73
     7
 74
     0
 42
0.000000001
 43
0.0000000001
 40
0.0
 40
0.0
 40
0.0
 40
0.0
 40
0.2007394037
 40
0.4247711047000001
 40
0.68840346
 40
1.0
 40
1.0
 40
1.0
 40
1.0
 10
230.9764287871094
 20
113.1592710948519
 30
0.0
 10
230.9279469953726
 20
113.1504154513577
 30
0.0
 10
230.8209711482705
 20
113.1518272008811
 30
0.0
 10
230.6602286090383
 20
113.2109194032903
 30
0.0
 10
230.4965355780114
 20
113.3214374838958
 30
0.0
 10
230.3941266769543
 20
113.4194880050443
 30
0.0
 10
230.3419709373847
 20
113.4754534913775
 30
0.0
  0
SPLINE
  5
193
330
2
100
AcDbEntity
  8
0
  6
Continuous
 62
     7
100
AcDbSpline
210
0.0
220
0.0
230
1.0
 70
     8
 71
     3
 72
    11
 73
     7
 74
     0
 42
0.000000001
 43
0.0000000001
 40
0.0
 40
0.0
 40
0.0
 40
0.0
 40
0.2007394037
 40
0.4247711047000001
 40
0.68840346
 40
1.0
 40
1.0
 40
1.0
 40
1.0
 10
230.4267647399756
 20
124.2401245939163
 30
0.0
 10
230.4752465317124
 20
124.2489802374111
 30
0.0
 10
230.5822223789109
 20
124.2475684878586
 30
0.0
 10
230.7429649180485
 20
124.1884762854783
 30
0.0
 10
230.9066579491009
 20
124.0779582049681
 30
0.0
 10
231.009066850158
 20
123.9799076838201
 30
0.0
 10
231.0612225897967
 20
123.9239421973623
 30
0.0
  0
SPLINE
  5
194
330
2
100
AcDbEntity
  8
0
  6
Continuous
 62
     7
100
AcDbSpline
210
0.0
220
0.0
230
1.0
 70
     8
 71
     3
 72
    14
 73
    10
 74
     0
 42
0.000000001
 43
0.0000000001
 40
0.0
 40
0.0
 40
0.0
 40
0.0
 40
0.2848641183
 40
0.4110086508000001
 40
0.5270429969000002
 40
0.6372943455
 40
0.7496990595000002
 40
0.8711624385
 40
1.0
 40
1.0
 40
1.0
 40
1.0
 10
239.4742169594065
 20
118.8137161004897
 30
0.0
 10
239.4995752080231
 20
118.4459665890645
 30
0.0
 10
239.5122696767212
 20
117.9124611465454
 30
0.0
 10
239.4530857674181
 20
117.2323653002188
 30
0.0
 10
239.3703682382729
 20
116.7829172952818
 30
0.0
 10
239.2337531178673
 20
116.364615287144
 30
0.0
 10
239.0118126704256
 20
115.9733792384911
 30
0.0
 10
238.6646919694886
 20
115.644791387697
 30
0.0
 10
238.3547744095959
 20
115.5196073254378
 30
0.0
 10
238.1907531947581
 20
115.4897326357306
 30
0.0
  0
SPLINE
  5
195
330
2
100
AcDbEntity
  8
0
  6
Continuous
 62
     7
100
AcDbSpline
210
0.0
220
0.0
230
1.0
 70
     8
 71
     3
 72
     9
 73
     5
 74
     0
 42
0.000000001
 43
0.0000000001
 40
0.0
 40
0.0
 40
0.0
 40
0.0
 40
0.2221388467
 40
1.0
 40
1.0
 40
1.0
 40
1.0
 10
320.4103107089722
 20
139.7539980066074
 30
0.0
 10
320.4110001806548
 20
139.7345339479243
 30
0.0
 10
320.4147021412246
 20
139.6469340815515
 30
0.0
 10
320.4201472221757
 20
139.5594167133395
 30
0.0
 10
320.4248388086144
 20
139.4913784482487
 30
0.0
  0
SPLINE
  5
196
330
2
100
AcDbEntity
  8
0
  6
Continuous
 62
     7
100
AcDbSpline
210
0.0
220
0.0
230
1.0
 70
     8
 71
     3
 72
    14
 73
    10
 74
     0
 42
0.000000001
 43
0.0000000001
 40
0.0
 40
0.0
 40
0.0
 40
0.0
 40
0.1318785952
 40
0.2567609951
 40
0.3729197815
 40
0.4849860735
 40
0.5999534953
 40
0.7231252338
 40
1.0
 40
1.0
 40
1.0
 40
1.0
 10
236.5780330462913
 20
124.3440611660655
 30
0.0
 10
236.728298792852
 20
124.3714304460586
 30
0.0
 10
237.0338414550388
 20
124.3703771638224
 30
0.0
 10
237.4450097002973
 20
124.2172642407536
 30
0.0
 10
237.7787559951066
 20
123.9740658485013
 30
0.0
 10
238.044215749509
 20
123.675645065739
 30
0.0
 10
238.2709941435187
 20
123.3383887875632
 30
0.0
 10
238.5522482830093
 20
122.8115905753561
 30
0.0
 10
238.7224273320608
 20
122.3788930812475
 30
0.0
 10
238.8262483247599
 20
122.0754967799844
 30
0.0
  0
SPLINE
  5
197
330
2
100
AcDbEntity
  8
0
  6
Continuous
 62
     7
100
AcDbSpline
210
0.0
220
0.0
230
1.0
 70
     8
 71
     3
 72
     9
 73
     5
 74
     0
 42
0.000000001
 43
0.0000000001
 40
0.0
 40
0.0
 40
0.0
 40
0.0
 40
0.4918108337
 40
1.0
 40
1.0
 40
1.0
 40
1.0
 10
238.8262483247599
 20
122.0754967799844
 30
0.0
 10
238.9880030459153
 20
121.6028006247934
 30
0.0
 10
239.2480290422809
 20
120.617902901756
 30
0.0
 10
239.40330243473
 20
119.6117726253905
 30
0.0
 10
239.4511567262398
 20
119.0977513653981
 30
0.0
  0
SPLINE
  5
198
330
2
100
AcDbEntity
  8
0
  6
Continuous
 62
     7
100
AcDbSpline
210
0.0
220
0.0
230
1.0
 70
     8
 71
     3
 72
    11
 73
     7
 74
     0
 42
0.000000001
 43
0.0000000001
 40
0.0
 40
0.0
 40
0.0
 40
0.0
 40
0.2584161813
 40
0.5101469056
 40
0.7565741592000002
 40
1.0
 40
1.0
 40
1.0
 40
1.0
 10
318.6704063556062
 20
142.4514353282618
 30
0.0
 10
319.0156300208819
 20
142.4932534968714
 30
0.0
 10
319.7085517912455
 20
142.5039275616159
 30
0.0
 10
320.7127220630937
 20
142.2883499499539
 30
0.0
 10
321.6204166707939
 20
141.8513661309057
 30
0.0
 10
322.1324292165082
 20
141.4235471570143
 30
0.0
 10
322.3557357791506
 20
141.1838817356067
 30
0.0
  0
SPLINE
  5
199
330
2
100
AcDbEntity
  8
0
  6
Continuous
 62
     7
100
AcDbSpline
210
0.0
220
0.0
230
1.0
 70
     8
 71
     3
 72
    13
 73
     9
 74
     0
 42
0.000000001
 43
0.0000000001
 40
0.0
 40
0.0
 40
0.0
 40
0.0
 40
0.2569505364
 40
0.5139566895000001
 40
0.6401239603
 40
0.7631876912000001
 40
0.8829561974
 40
1.0
 40
1.0
 40
1.0
 40
1.0
 10
314.5410213579253
 20
140.09942109554
 30
0.0
 10
314.9353106819472
 20
140.2439377200221
 30
0.0
 10
315.6731140922893
 20
140.6937993808378
 30
0.0
 10
316.3122400523389
 20
141.5588328910594
 30
0.0
 10
316.5788892518049
 20
142.3479882266162
 30
0.0
 10
316.642644700436
 20
142.9531870371825
 30
0.0
 10
316.5642988292348
 20
143.5417749635924
 30
0.0
 10
316.4158681904228
 20
143.9049630112771
 30
0.0
 10
316.320168254355
 20
144.0705898641274
 30
0.0
  0
SPLINE
  5
19A
330
2
100
AcDbEntity
  8
0
  6
Continuous
 62
     7
100
AcDbSpline
210
0.0
220
0.0
230
1.0
 70
     8
 71
     3
 72
    11
 73
     7
 74
     0
 42
0.000000001
 43
0.0000000001
 40
0.0
 40
0.0
 40
0.0
 40
0.0
 40
0.2606011445
 40
0.5132778743000001
 40
0.7587771324000001
 40
1.0
 40
1.0
 40
1.0
 40
1.0
 10
311.3713445748363
 20
143.5373572206876
 30
0.0
 10
311.277972247397
 20
143.2972860573447
 30
0.0
 10
311.1517873741905
 20
142.7991132476565
 30
0.0
 10
311.1648808490645
 20
142.0400502533431
 30
0.0
 10
311.3833901070466
 20
141.3321530754333
 30
0.0
 10
311.6592580140532
 20
140.9275114238635
 30
0.0
 10
311.8218103564104
 20
140.7530744986441
 30
0.0
  0
SPLINE
  5
19B
330
2
100
AcDbEntity
  8
0
  6
Continuous
 62
     7
100
AcDbSpline
210
0.0
220
0.0
230
1.0
 70
     8
 71
     3
 72
     9
 73
     5
 74
     0
 42
0.000000001
 43
0.0000000001
 40
0.0
 40
0.0
 40
0.0
 40
0.0
 40
0.5116928691
 40
1.0
 40
1.0
 40
1.0
 40
1.0
 10
314.3228593711374
 20
140.0390194434833
 30
0.0
 10
313.9890670637869
 20
139.9599065087279
 30
0.0
 10
313.3031456686112
 20
139.9158484673744
 30
0.0
 10
312.6481318295209
 20
140.1370873415315
 30
0.0
 10
312.3667405984725
 20
140.3043736147456
 30
0.0
  0
SPLINE
  5
19C
330
2
100
AcDbEntity
  8
0
  6
Continuous
 62
     7
100
AcDbSpline
210
0.0
220
0.0
230
1.0
 70
     8
 71
     3
 72
    11
 73
     7
 74
     0
 42
0.000000001
 43
0.0000000001
 40
0.0
 40
0.0
 40
0.0
 40
0.0
 40
0.2551936785
 40
0.506222823
 40
0.7540068298
 40
1.0
 40
1.0
 40
1.0
 40
1.0
 10
323.9211177023026
 20
127.8105030391368
 30
0.0
 10
323.5555767734404
 20
127.7523795911513
 30
0.0
 10
322.8145775583034
 20
127.7176059585392
 30
0.0
 10
321.7303028963797
 20
127.9253154631633
 30
0.0
 10
320.7409336793607
 20
128.3858232801738
 30
0.0
 10
320.1821077685272
 20
128.8485453627561
 30
0.0
 10
319.9388606179673
 20
129.1095606450497
 30
0.0
  0
SPLINE
  5
19D
330
2
100
AcDbEntity
  8
0
  6
Continuous
 62
     7
100
AcDbSpline
210
0.0
220
0.0
230
1.0
 70
     8
 71
     3
 72
    16
 73
    12
 74
     0
 42
0.000000001
 43
0.0000000001
 40
0.0
 40
0.0
 40
0.0
 40
0.0
 40
0.1197744561
 40
0.2407336583
 40
0.363787454
 40
0.4892436579
 40
0.5529037505
 40
0.6169574936
 40
0.7454022382
 40
0.8734812434999998
 40
1.0
 40
1.0
 40
1.0
 40
1.0
 10
327.2545436953951
 20
135.9272421505369
 30
0.0
 10
327.5408536348877
 20
135.6200185324783
 30
0.0
 10
328.0247418749969
 20
134.9098204738643
 30
0.0
 10
328.4037428097144
 20
133.6734053816601
 30
0.0
 10
328.4191753012164
 20
132.3613495327804
 30
0.0
 10
328.1355427247927
 20
131.2901710025712
 30
0.0
 10
327.7485969868558
 20
130.4890860091013
 30
0.0
 10
327.2586323168762
 20
129.7339209242818
 30
0.0
 10
326.4743444652832
 20
128.9113732479475
 30
0.0
 10
325.3284380798977
 20
128.1868070972536
 30
0.0
 10
324.4678103111801
 20
127.9087996614973
 30
0.0
 10
324.0313914148392
 20
127.8293106828537
 30
0.0
  0
SPLINE
  5
19E
330
2
100
AcDbEntity
  8
0
  6
Continuous
 62
     7
100
AcDbSpline
210
0.0
220
0.0
230
1.0
 70
     8
 71
     3
 72
     9
 73
     5
 74
     0
 42
0.000000001
 43
0.0000000001
 40
0.0
 40
0.0
 40
0.0
 40
0.0
 40
0.4593937068000001
 40
1.0
 40
1.0
 40
1.0
 40
1.0
 10
231.0612225897967
 20
123.9239421973623
 30
0.0
 10
231.1368972759774
 20
123.8427398090834
 30
0.0
 10
231.2871072451817
 20
123.6524690950577
 30
0.0
 10
231.416448827802
 20
123.4480394866284
 30
0.0
 10
231.482169206516
 20
123.3351570722611
 30
0.0
  0
SPLINE
  5
19F
330
2
100
AcDbEntity
  8
0
  6
Continuous
 62
     7
100
AcDbSpline
210
0.0
220
0.0
230
1.0
 70
     8
 71
     3
 72
    13
 73
     9
 74
     0
 42
0.000000001
 43
0.0000000001
 40
0.0
 40
0.0
 40
0.0
 40
0.0
 40
0.3481456455
 40
0.6250737964000001
 40
0.7378197416
 40
0.8353956679000001
 40
0.9210729317
 40
1.0
 40
1.0
 40
1.0
 40
1.0
 10
233.0852572482308
 20
114.7574095216898
 30
0.0
 10
233.0587834712424
 20
114.5756699910257
 30
0.0
 10
232.9963693196514
 20
114.2513399995753
 30
0.0
 10
232.8675752502641
 20
113.8808400967757
 30
0.0
 10
232.7366010317219
 20
113.6586153335183
 30
0.0
 10
232.6348317116972
 20
113.5388506932463
 30
0.0
 10
232.5225882256745
 20
113.4554960610862
 30
0.0
 10
232.4392591493051
 20
113.4257311170827
 30
0.0
 10
232.3983003524408
 20
113.418249617519
 30
0.0
  0
SPLINE
  5
1A0
330
2
100
AcDbEntity
  8
0
  6
Continuous
 62
     7
100
AcDbSpline
210
0.0
220
0.0
230
1.0
 70
     8
 71
     3
 72
     9
 73
     5
 74
     0
 42
0.000000001
 43
0.0000000001
 40
0.0
 40
0.0
 40
0.0
 40
0.0
 40
0.4496596057000001
 40
1.0
 40
1.0
 40
1.0
 40
1.0
 10
230.3419709373847
 20
113.4754534913775
 30
0.0
 10
230.2394211950414
 20
113.5854940402628
 30
0.0
 10
230.0380575658419
 20
113.8548022964371
 30
0.0
 10
229.8715959710753
 20
114.1454693400362
 30
0.0
 10
229.7866438628552
 20
114.3087930581905
 30
0.0
  0
SPLINE
  5
1A1
330
2
100
AcDbEntity
  8
0
  6
Continuous
 62
     7
100
AcDbSpline
210
0.0
220
0.0
230
1.0
 70
     8
 71
     3
 72
     9
 73
     5
 74
     0
 42
0.000000001
 43
0.0000000001
 40
0.0
 40
0.0
 40
0.0
 40
0.0
 40
0.2291655858
 40
1.0
 40
1.0
 40
1.0
 40
1.0
 10
229.7866438628552
 20
114.3087930581905
 30
0.0
 10
229.7439155187767
 20
114.3909399544382
 30
0.0
 10
229.564996284269
 20
114.7533159491752
 30
0.0
 10
229.4127644371838
 20
115.1284539246558
 30
0.0
 10
229.3057648051617
 20
115.420955096049
 30
0.0
  0
SPLINE
  5
1A2
330
2
100
AcDbEntity
  8
0
  6
Continuous
 62
     7
100
AcDbSpline
210
0.0
220
0.0
230
1.0
 70
     8
 71
     3
 72
    11
 73
     7
 74
     0
 42
0.000000001
 43
0.0000000001
 40
0.0
 40
0.0
 40
0.0
 40
0.0
 40
0.2358819254
 40
0.4905741866
 40
0.7500697892
 40
1.0
 40
1.0
 40
1.0
 40
1.0
 10
229.3057648051617
 20
115.420955096049
 30
0.0
 10
229.165964176711
 20
115.8031232098105
 30
0.0
 10
228.9120817487455
 20
116.6115864731268
 30
0.0
 10
228.6118318961762
 20
117.8711574201336
 30
0.0
 10
228.3893003557933
 20
119.1713485253378
 30
0.0
 10
228.2979964738661
 20
120.0463083355648
 30
0.0
 10
228.2700400186131
 20
120.4765724175274
 30
0.0
  0
SPLINE
  5
1A3
330
2
100
AcDbEntity
  8
0
  6
Continuous
 62
     7
100
AcDbSpline
210
0.0
220
0.0
230
1.0
 70
     8
 71
     3
 72
     9
 73
     5
 74
     0
 42
0.000000001
 43
0.0000000001
 40
0.0
 40
0.0
 40
0.0
 40
0.0
 40
0.2586702161
 40
1.0
 40
1.0
 40
1.0
 40
1.0
 10
228.2700400186131
 20
120.4765724175274
 30
0.0
 10
228.2648846712691
 20
120.555915838077
 30
0.0
 10
228.2472101132225
 20
120.8627892812792
 30
0.0
 10
228.2387400987645
 20
121.1702297240008
 30
0.0
 10
228.2387847126629
 20
121.3981016110642
 30
0.0
  0
SPLINE
  5
1A4
330
2
100
AcDbEntity
  8
0
  6
Continuous
 62
     7
100
AcDbSpline
210
0.0
220
0.0
230
1.0
 70
     8
 71
     3
 72
    14
 73
    10
 74
     0
 42
0.000000001
 43
0.0000000001
 40
0.0
 40
0.0
 40
0.0
 40
0.0
 40
0.364403173
 40
0.5191096479999999
 40
0.6534003451000002
 40
0.7667201305
 40
0.8597046659
 40
0.9352611341999999
 40
1.0
 40
1.0
 40
1.0
 40
1.0
 10
228.2387847126629
 20
121.3981016110642
 30
0.0
 10
228.2388519803826
 20
121.7416817595108
 30
0.0
 10
228.2582553672619
 20
122.2321238646614
 30
0.0
 10
228.345059931311
 20
122.8425514156167
 30
0.0
 10
228.4303038168218
 20
123.2127777262296
 30
0.0
 10
228.5377656865858
 20
123.5164391340452
 30
0.0
 10
228.6671963923509
 20
123.7504403434689
 30
0.0
 10
228.8198304890611
 20
123.913568756162
 30
0.0
 10
228.9448471491669
 20
123.9701781145809
 30
0.0
 10
229.0048931747406
 20
123.9811460712208
 30
0.0
  0
SPLINE
  5
1A5
330
2
100
AcDbEntity
  8
0
  6
Continuous
 62
     7
100
AcDbSpline
210
0.0
220
0.0
230
1.0
 70
     8
 71
     3
 72
     9
 73
     5
 74
     0
 42
0.000000001
 43
0.0000000001
 40
0.0
 40
0.0
 40
0.0
 40
0.0
 40
0.2065419454
 40
1.0
 40
1.0
 40
1.0
 40
1.0
 10
320.4501961055994
 20
140.0551710870149
 30
0.0
 10
320.4472814322508
 20
140.0538054715364
 30
0.0
 10
320.4341708990505
 20
140.0449118232145
 30
0.0
 10
320.4273907677907
 20
140.0295074080209
 30
0.0
 10
320.4235354251996
 20
140.0177586237655
 30
0.0
  0
SPLINE
  5
1A6
330
2
100
AcDbEntity
  8
0
  6
Continuous
 62
     7
100
AcDbSpline
210
0.0
220
0.0
230
1.0
 70
     8
 71
     3
 72
     9
 73
     5
 74
     0
 42
0.000000001
 43
0.0000000001
 40
0.0
 40
0.0
 40
0.0
 40
0.0
 40
0.2129630393
 40
1.0
 40
1.0
 40
1.0
 40
1.0
 10
320.4235354251996
 20
140.0177586237655
 30
0.0
 10
320.4223110077655
 20
140.0140273299139
 30
0.0
 10
320.4172784253187
 20
139.9962706546487
 30
0.0
 10
320.4145515016462
 20
139.977944097403
 30
0.0
 10
320.412946418166
 20
139.963520110173
 30
0.0
  0
SPLINE
  5
1A7
330
2
100
AcDbEntity
  8
0
  6
Continuous
 62
     7
100
AcDbSpline
210
0.0
220
0.0
230
1.0
 70
     8
 71
     3
 72
    11
 73
     7
 74
     0
 42
0.000000001
 43
0.0000000001
 40
0.0
 40
0.0
 40
0.0
 40
0.0
 40
0.245624288
 40
0.4931523003000002
 40
0.7442246360000002
 40
1.0
 40
1.0
 40
1.0
 40
1.0
 10
315.0391387896871
 20
134.3671901965544
 30
0.0
 10
314.8637106773458
 20
134.5554697167044
 30
0.0
 10
314.5478614436979
 20
134.9692623964772
 30
0.0
 10
314.2014338369772
 20
135.6729690498164
 30
0.0
 10
313.9911129653628
 20
136.4394867968735
 30
0.0
 10
313.9463561504454
 20
136.9719923019881
 30
0.0
 10
313.9471584476814
 20
137.2399670167037
 30
0.0
  0
SPLINE
  5
1A8
330
2
100
AcDbEntity
  8
0
  6
Continuous
 62
     7
100
AcDbSpline
210
0.0
220
0.0
230
1.0
 70
     8
 71
     3
 72
     9
 73
     5
 74
     0
 42
0.000000001
 43
0.0000000001
 40
0.0
 40
0.0
 40
0.0
 40
0.0
 40
0.2482292519
 40
1.0
 40
1.0
 40
1.0
 40
1.0
 10
313.9471584476814
 20
137.2399670167037
 30
0.0
 10
313.9473588364435
 20
137.3068987184044
 30
0.0
 10
313.9540241733921
 20
137.5764929777954
 30
0.0
 10
313.9841275380859
 20
137.8454515083447
 30
0.0
 10
314.0190855884794
 20
138.0451202225531
 30
0.0
  0
SPLINE
  5
1A9
330
2
100
AcDbEntity
  8
0
  6
Continuous
 62
     7
100
AcDbSpline
210
0.0
220
0.0
230
1.0
 70
     8
 71
     3
 72
     9
 73
     5
 74
     0
 42
0.000000001
 43
0.0000000001
 40
0.0
 40
0.0
 40
0.0
 40
0.0
 40
0.4949725444000002
 40
1.0
 40
1.0
 40
1.0
 40
1.0
 10
315.9261705130339
 20
144.5628015055335
 30
0.0
 10
315.7703939212333
 20
144.762876985701
 30
0.0
 10
315.376194533248
 20
145.1106242983437
 30
0.0
 10
314.8858440410823
 20
145.2947606165471
 30
0.0
 10
314.6321868988926
 20
145.3456858695067
 30
0.0
  0
SPLINE
  5
1AA
330
2
100
AcDbEntity
  8
0
  6
Continuous
 62
     7
100
AcDbSpline
210
0.0
220
0.0
230
1.0
 70
     8
 71
     3
 72
    11
 73
     7
 74
     0
 42
0.000000001
 43
0.0000000001
 40
0.0
 40
0.0
 40
0.0
 40
0.0
 40
0.2453038662
 40
0.4963323804
 40
0.7492609058
 40
1.0
 40
1.0
 40
1.0
 40
1.0
 10
313.8756453890528
 20
145.3805955230489
 30
0.0
 10
313.6119287807833
 20
145.3542161923162
 30
0.0
 10
313.0838536767405
 20
145.221722894345
 30
0.0
 10
312.3707646620824
 20
144.8206901550197
 30
0.0
 10
311.7760264182089
 20
144.2509347979119
 30
0.0
 10
311.484414720253
 20
143.7835374002484
 30
0.0
 10
311.3713445748363
 20
143.5373572206876
 30
0.0
  0
SPLINE
  5
1AB
330
2
100
AcDbEntity
  8
0
  6
Continuous
 62
     7
100
AcDbSpline
210
0.0
220
0.0
230
1.0
 70
     8
 71
     3
 72
     8
 73
     4
 74
     0
 42
0.000000001
 43
0.0000000001
 40
0.0
 40
0.0
 40
0.0
 40
0.0
 40
1.0
 40
1.0
 40
1.0
 40
1.0
 10
320.8995298463142
 20
138.0582419455768
 30
0.0
 10
320.8844542444676
 20
138.05320482145
 30
0.0
 10
320.8684471520901
 20
138.0502938702657
 30
0.0
 10
320.8525541638483
 20
138.0500503168368
 30
0.0
  0
SPLINE
  5
1AC
330
2
100
AcDbEntity
  8
0
  6
Continuous
 62
     7
100
AcDbSpline
210
0.0
220
0.0
230
1.0
 70
     8
 71
     3
 72
     8
 73
     4
 74
     0
 42
0.000000001
 43
0.0000000001
 40
0.0
 40
0.0
 40
0.0
 40
0.0
 40
1.0
 40
1.0
 40
1.0
 40
1.0
 10
320.8525541638483
 20
138.0500503168368
 30
0.0
 10
320.8369432257605
 20
138.0498110857825
 30
0.0
 10
320.8211193750866
 20
138.0521578936866
 30
0.0
 10
320.8061977304933
 20
138.0567517092213
 30
0.0
  0
SPLINE
  5
1AD
330
2
100
AcDbEntity
  8
0
  6
Continuous
 62
     7
100
AcDbSpline
210
0.0
220
0.0
230
1.0
 70
     8
 71
     3
 72
     9
 73
     5
 74
     0
 42
0.000000001
 43
0.0000000001
 40
0.0
 40
0.0
 40
0.0
 40
0.0
 40
0.4893712192000001
 40
1.0
 40
1.0
 40
1.0
 40
1.0
 10
312.3690543805333
 20
140.3166318728545
 30
0.0
 10
312.660860857155
 20
140.146810872493
 30
0.0
 10
313.3363559961072
 20
139.9242894723079
 30
0.0
 10
314.0419198078199
 20
139.9734555563627
 30
0.0
 10
314.3842047557628
 20
140.0568187710093
 30
0.0
  0
SPLINE
  5
1AE
330
2
100
AcDbEntity
  8
0
  6
Continuous
 62
     7
100
AcDbSpline
210
0.0
220
0.0
230
1.0
 70
     8
 71
     3
 72
     9
 73
     5
 74
     0
 42
0.000000001
 43
0.0000000001
 40
0.0
 40
0.0
 40
0.0
 40
0.0
 40
0.2323794938
 40
1.0
 40
1.0
 40
1.0
 40
1.0
 10
320.6582429152586
 20
138.1962010949144
 30
0.0
 10
320.6525030071607
 20
138.2061477941479
 30
0.0
 10
320.6290793595599
 20
138.2496892778172
 30
0.0
 10
320.6102304375453
 20
138.2955751488691
 30
0.0
 10
320.5974546485669
 20
138.3312944425572
 30
0.0
  0
SPLINE
  5
1AF
330
2
100
AcDbEntity
  8
0
  6
Continuous
 62
     7
100
AcDbSpline
210
0.0
220
0.0
230
1.0
 70
     8
 71
     3
 72
     9
 73
     5
 74
     0
 42
0.000000001
 43
0.0000000001
 40
0.0
 40
0.0
 40
0.0
 40
0.0
 40
0.308741338
 40
1.0
 40
1.0
 40
1.0
 40
1.0
 10
320.4103107089722
 20
139.7539980066074
 30
0.0
 10
320.4095470539651
 20
139.775556289795
 30
0.0
 10
320.4077399061243
 20
139.8453550955964
 30
0.0
 10
320.4076048084826
 20
139.9155180516622
 30
0.0
 10
320.412946418166
 20
139.963520110173
 30
0.0
  0
SPLINE
  5
1B0
330
2
100
AcDbEntity
  8
0
  6
Continuous
 62
     7
100
AcDbSpline
210
0.0
220
0.0
230
1.0
 70
     8
 71
     3
 72
    14
 73
    10
 74
     0
 42
0.000000001
 43
0.0000000001
 40
0.0
 40
0.0
 40
0.0
 40
0.0
 40
0.0584928416
 40
0.1325850592
 40
0.2308414091
 40
0.3552949922
 40
0.5029856445
 40
0.6665186484000003
 40
1.0
 40
1.0
 40
1.0
 40
1.0
 10
325.1312679046041
 20
135.9217123811454
 30
0.0
 10
325.1020218649864
 20
135.9211209075272
 30
0.0
 10
325.0350908507062
 20
135.9435287402943
 30
0.0
 10
324.954526398742
 20
136.0296785698356
 30
0.0
 10
324.8850735437845
 20
136.1618798085583
 30
0.0
 10
324.827135850559
 20
136.3384143935236
 30
0.0
 10
324.7809541052557
 20
136.5515670497061
 30
0.0
 10
324.7331946179311
 20
136.8705478804827
 30
0.0
 10
324.7104608371774
 20
137.1182591121489
 30
0.0
 10
324.6989882388007
 20
137.2846366318019
 30
0.0
  0
SPLINE
  5
1B1
330
2
100
AcDbEntity
  8
0
  6
Continuous
 62
     7
100
AcDbSpline
210
0.0
220
0.0
230
1.0
 70
     8
 71
     3
 72
     9
 73
     5
 74
     0
 42
0.000000001
 43
0.0000000001
 40
0.0
 40
0.0
 40
0.0
 40
0.0
 40
0.2377843789
 40
1.0
 40
1.0
 40
1.0
 40
1.0
 10
320.5018726661838
 20
138.7420874660538
 30
0.0
 10
320.4972201029086
 20
138.7719727190187
 30
0.0
 10
320.4789554645831
 20
138.8978580490327
 30
0.0
 10
320.4649291683927
 20
139.02432436915
 30
0.0
 10
320.455493894011
 20
139.1208149995195
 30
0.0
  0
SPLINE
  5
1B2
330
2
100
AcDbEntity
  8
0
  6
Continuous
 62
     7
100
AcDbSpline
210
0.0
220
0.0
230
1.0
 70
     8
 71
     3
 72
    14
 73
    10
 74
     0
 42
0.000000001
 43
0.0000000001
 40
0.0
 40
0.0
 40
0.0
 40
0.0
 40
0.3938819465
 40
0.5601366735
 40
0.7005398411
 40
0.8128634120999999
 40
0.8964662270999998
 40
0.9547940304
 40
1.0
 40
1.0
 40
1.0
 40
1.0
 10
324.6989882388007
 20
137.2846366318019
 30
0.0
 10
324.6930627032998
 20
137.370569728225
 30
0.0
 10
324.6861119865116
 20
137.4929017841439
 30
0.0
 10
324.6837014527773
 20
137.6461377821147
 30
0.0
 10
324.6862006163956
 20
137.7377069324017
 30
0.0
 10
324.6934420654507
 20
137.8111789421343
 30
0.0
 10
324.7063591466613
 20
137.8651350299815
 30
0.0
 10
324.7257856677425
 20
137.9029562030446
 30
0.0
 10
324.7485778673799
 20
137.9130624967006
 30
0.0
 10
324.7584608935704
 20
137.9133046087474
 30
0.0
  0
SPLINE
  5
1B3
330
2
100
AcDbEntity
  8
0
  6
Continuous
 62
     7
100
AcDbSpline
210
0.0
220
0.0
230
1.0
 70
     8
 71
     3
 72
     9
 73
     5
 74
     0
 42
0.000000001
 43
0.0000000001
 40
0.0
 40
0.0
 40
0.0
 40
0.0
 40
0.5311774671000002
 40
1.0
 40
1.0
 40
1.0
 40
1.0
 10
44.39936585181749
 20
219.9799554989354
 30
0.0
 10
44.34563818305831
 20
220.7591230373496
 30
0.0
 10
44.28795749996607
 20
222.2294131489753
 30
0.0
 10
44.33983355574855
 20
223.701142793338
 30
0.0
 10
44.40171121747972
 20
224.3876940241403
 30
0.0
  0
SPLINE
  5
1B4
330
2
100
AcDbEntity
  8
0
  6
Continuous
 62
     7
100
AcDbSpline
210
0.0
220
0.0
230
1.0
 70
     8
 71
     3
 72
    10
 73
     6
 74
     0
 42
0.000000001
 43
0.0000000001
 40
0.0
 40
0.0
 40
0.0
 40
0.0
 40
0.5799685122
 40
0.8100736331999998
 40
1.0
 40
1.0
 40
1.0
 40
1.0
 10
44.40171121747972
 20
224.3876940241403
 30
0.0
 10
44.46254866863364
 20
225.0627038061907
 30
0.0
 10
44.59408017724672
 20
226.0066368332332
 30
0.0
 10
44.94179959199754
 20
227.1244154113869
 30
0.0
 10
45.15703553912863
 20
227.5695462370691
 30
0.0
 10
45.27755223116217
 20
227.7559217675912
 30
0.0
  0
SPLINE
  5
1B5
330
2
100
AcDbEntity
  8
0
  6
Continuous
 62
     7
100
AcDbSpline
210
0.0
220
0.0
230
1.0
 70
     8
 71
     3
 72
     9
 73
     5
 74
     0
 42
0.000000001
 43
0.0000000001
 40
0.0
 40
0.0
 40
0.0
 40
0.0
 40
0.5473587566
 40
1.0
 40
1.0
 40
1.0
 40
1.0
 10
45.27755223116217
 20
227.7559217675912
 30
0.0
 10
45.38636879750356
 20
227.9242033966334
 30
0.0
 10
45.62045348513402
 20
228.2151481683008
 30
0.0
 10
45.96296031061593
 20
228.3866007838669
 30
0.0
 10
46.12598134339623
 20
228.416393315008
 30
0.0
  0
SPLINE
  5
1B6
330
2
100
AcDbEntity
  8
0
  6
Continuous
 62
     7
100
AcDbSpline
210
0.0
220
0.0
230
1.0
 70
     8
 71
     3
 72
    13
 73
     9
 74
     0
 42
0.000000001
 43
0.0000000001
 40
0.0
 40
0.0
 40
0.0
 40
0.0
 40
0.0779085205
 40
0.176431523
 40
0.2931698648999999
 40
0.4244920443
 40
0.7123905810000001
 40
1.0
 40
1.0
 40
1.0
 40
1.0
 10
51.13881256472723
 20
176.7215116186255
 30
0.0
 10
50.83228172525195
 20
177.0504331842694
 30
0.0
 10
50.23869164884581
 20
177.8868666148496
 30
0.0
 10
49.45223603407885
 20
179.3869587678955
 30
0.0
 10
48.69177084113926
 20
181.2397724819781
 30
0.0
 10
47.72391251738645
 20
184.1793716237989
 30
0.0
 10
46.79830470817523
 20
188.1605475148785
 30
0.0
 10
46.3659081426922
 20
191.4608339501669
 30
0.0
 10
46.25172744047357
 20
193.1167013792701
 30
0.0
  0
SPLINE
  5
1B7
330
2
100
AcDbEntity
  8
0
  6
Continuous
 62
     7
100
AcDbSpline
210
0.0
220
0.0
230
1.0
 70
     8
 71
     3
 72
     9
 73
     5
 74
     0
 42
0.000000001
 43
0.0000000001
 40
0.0
 40
0.0
 40
0.0
 40
0.0
 40
0.4912495289
 40
1.0
 40
1.0
 40
1.0
 40
1.0
 10
229.1331633995615
 20
147.8717838328295
 30
0.0
 10
229.064500102937
 20
148.8675503165968
 30
0.0
 10
228.848055567978
 20
150.8896400246094
 30
0.0
 10
228.5029201886828
 20
152.8934439634338
 30
0.0
 10
228.2950743152924
 20
153.9060222067428
 30
0.0
  0
SPLINE
  5
1B8
330
2
100
AcDbEntity
  8
0
  6
Continuous
 62
     7
100
AcDbSpline
210
0.0
220
0.0
230
1.0
 70
     8
 71
     3
 72
     9
 73
     5
 74
     0
 42
0.000000001
 43
0.0000000001
 40
0.0
 40
0.0
 40
0.0
 40
0.0
 40
0.26361702
 40
1.0
 40
1.0
 40
1.0
 40
1.0
 10
224.639317806128
 20
163.7933632954639
 30
0.0
 10
224.6068525079409
 20
163.8366475723706
 30
0.0
 10
224.4818455320128
 20
163.9994262277532
 30
0.0
 10
224.3491209806271
 20
164.1564040730318
 30
0.0
 10
224.2460782753369
 20
164.266973593571
 30
0.0
  0
SPLINE
  5
1B9
330
2
100
AcDbEntity
  8
0
  6
Continuous
 62
     7
100
AcDbSpline
210
0.0
220
0.0
230
1.0
 70
     8
 71
     3
 72
     9
 73
     5
 74
     0
 42
0.000000001
 43
0.0000000001
 40
0.0
 40
0.0
 40
0.0
 40
0.0
 40
0.5212253083000002
 40
1.0
 40
1.0
 40
1.0
 40
1.0
 10
147.2227517691608
 20
246.6369324967995
 30
0.0
 10
147.1217083449191
 20
246.6788956102119
 30
0.0
 10
146.9176752199891
 20
246.7387797611163
 30
0.0
 10
146.7037676838772
 20
246.7356096166895
 30
0.0
 10
146.6049052916987
 20
246.7175422492869
 30
0.0
  0
SPLINE
  5
1BA
330
2
100
AcDbEntity
  8
0
  6
Continuous
 62
     7
100
AcDbSpline
210
0.0
220
0.0
230
1.0
 70
     8
 71
     3
 72
    11
 73
     7
 74
     0
 42
0.000000001
 43
0.0000000001
 40
0.0
 40
0.0
 40
0.0
 40
0.0
 40
0.2113401968
 40
0.4402522497
 40
0.7002128957
 40
1.0
 40
1.0
 40
1.0
 40
1.0
 10
229.2589094965733
 20
112.5720918972183
 30
0.0
 10
229.3542677703317
 20
112.5895188774977
 30
0.0
 10
229.5480846088612
 20
112.6583137730483
 30
0.0
 10
229.8099337780113
 20
112.8501306581606
 30
0.0
 10
230.047805782453
 20
113.1256942629597
 30
0.0
 10
230.1805519695936
 20
113.3467025039183
 30
0.0
 10
230.2442441752228
 20
113.4685685494153
 30
0.0
  0
SPLINE
  5
1BB
330
2
100
AcDbEntity
  8
0
  6
Continuous
 62
     7
100
AcDbSpline
210
0.0
220
0.0
230
1.0
 70
     8
 71
     3
 72
     9
 73
     5
 74
     0
 42
0.000000001
 43
0.0000000001
 40
0.0
 40
0.0
 40
0.0
 40
0.0
 40
0.4953817703000001
 40
1.0
 40
1.0
 40
1.0
 40
1.0
 10
146.7306513888051
 20
211.4178503136459
 30
0.0
 10
146.8281414168559
 20
210.0040338028757
 30
0.0
 10
147.1760397932265
 20
207.1597224687566
 30
0.0
 10
147.7674871651288
 20
204.3564431013874
 30
0.0
 10
148.1334257300223
 20
202.959997013973
 30
0.0
  0
SPLINE
  5
1BC
330
2
100
AcDbEntity
  8
0
  6
Continuous
 62
     7
100
AcDbSpline
210
0.0
220
0.0
230
1.0
 70
     8
 71
     3
 72
    11
 73
     7
 74
     0
 42
0.000000001
 43
0.0000000001
 40
0.0
 40
0.0
 40
0.0
 40
0.0
 40
0.2993953565
 40
0.5717104521000002
 40
0.8075574580999999
 40
1.0
 40
1.0
 40
1.0
 40
1.0
 10
148.1334257300223
 20
202.959997013973
 30
0.0
 10
148.3387831140098
 20
202.1763394745853
 30
0.0
 10
148.772224479766
 20
200.6902789375608
 30
0.0
 10
149.5199319255716
 20
198.6348103015421
 30
0.0
 10
150.3114449986315
 20
196.9101981340814
 30
0.0
 10
150.9120166395751
 20
195.9128924121436
 30
0.0
 10
151.2244576518496
 20
195.496323288668
 30
0.0
  0
SPLINE
  5
1BD
330
2
100
AcDbEntity
  8
0
  6
Continuous
 62
     7
100
AcDbSpline
210
0.0
220
0.0
230
1.0
 70
     8
 71
     3
 72
     9
 73
     5
 74
     0
 42
0.000000001
 43
0.0000000001
 40
0.0
 40
0.0
 40
0.0
 40
0.0
 40
0.263618272
 40
1.0
 40
1.0
 40
1.0
 40
1.0
 10
151.2244576518496
 20
195.496323288668
 30
0.0
 10
151.2569261626413
 20
195.4530339042812
 30
0.0
 10
151.3819450821683
 20
195.2902368918117
 30
0.0
 10
151.5146830198828
 20
195.133241649416
 30
0.0
 10
151.6177365130315
 20
195.0226605529046
 30
0.0
  0
SPLINE
  5
1BE
330
2
100
AcDbEntity
  8
0
  6
Continuous
 62
     7
100
AcDbSpline
210
0.0
220
0.0
230
1.0
 70
     8
 71
     3
 72
    13
 73
     9
 74
     0
 42
0.000000001
 43
0.0000000001
 40
0.0
 40
0.0
 40
0.0
 40
0.0
 40
0.0731288495
 40
0.1544395896
 40
0.2497392582
 40
0.3623396868
 40
0.6438500133
 40
1.0
 40
1.0
 40
1.0
 40
1.0
 10
146.6049052916987
 20
246.7175422492869
 30
0.0
 10
146.4924068846958
 20
246.696982863617
 30
0.0
 10
146.2617502878202
 20
246.6070600985627
 30
0.0
 10
145.9603353108287
 20
246.3509024858536
 30
0.0
 10
145.6933012225271
 20
245.9820849989019
 30
0.0
 10
145.356376625994
 20
245.291983279742
 30
0.0
 10
145.0488275430998
 20
244.1511308792883
 30
0.0
 10
144.920840150502
 20
243.1608495148553
 30
0.0
 10
144.8733507090837
 20
242.6059171935085
 30
0.0
  0
SPLINE
  5
1BF
330
2
100
AcDbEntity
  8
0
  6
Continuous
 62
     7
100
AcDbSpline
210
0.0
220
0.0
230
1.0
 70
     8
 71
     3
 72
     9
 73
     5
 74
     0
 42
0.000000001
 43
0.0000000001
 40
0.0
 40
0.0
 40
0.0
 40
0.0
 40
0.4711309374
 40
1.0
 40
1.0
 40
1.0
 40
1.0
 10
144.8733507090837
 20
242.6059171935085
 30
0.0
 10
144.8202205416837
 20
241.9850708268318
 30
0.0
 10
144.7714756146488
 20
240.6616887074447
 30
0.0
 10
144.8137035829404
 20
239.3389220365047
 30
0.0
 10
144.8551999782939
 20
238.64067424632
 30
0.0
  0
SPLINE
  5
1C0
330
2
100
AcDbEntity
  8
0
  6
Continuous
 62
     7
100
AcDbSpline
210
0.0
220
0.0
230
1.0
 70
     8
 71
     3
 72
    11
 73
     7
 74
     0
 42
0.000000001
 43
0.0000000001
 40
0.0
 40
0.0
 40
0.0
 40
0.0
 40
0.3116841962
 40
0.5753060023
 40
0.7992703171
 40
1.0
 40
1.0
 40
1.0
 40
1.0
 10
227.7591778399255
 20
113.3194226769815
 30
0.0
 10
227.88249827244
 20
113.1870942306973
 30
0.0
 10
228.1245857633948
 20
112.9552800023968
 30
0.0
 10
228.5115269954222
 20
112.6939977483739
 30
0.0
 10
228.891499652138
 20
112.5545151131059
 30
0.0
 10
229.1443156693804
 20
112.5511495678847
 30
0.0
 10
229.2589094965733
 20
112.5720918972183
 30
0.0
  0
SPLINE
  5
1C1
330
2
100
AcDbEntity
  8
0
  6
Continuous
 62
     7
100
AcDbSpline
210
0.0
220
0.0
230
1.0
 70
     8
 71
     3
 72
    10
 73
     6
 74
     0
 42
0.000000001
 43
0.0000000001
 40
0.0
 40
0.0
 40
0.0
 40
0.0
 40
0.3131605886
 40
0.5782883566
 40
1.0
 40
1.0
 40
1.0
 40
1.0
 10
151.8437156816981
 20
28.17834221065027
 30
0.0
 10
151.8910829284741
 20
28.12751499536171
 30
0.0
 10
151.984684954872
 20
28.03852865150543
 30
0.0
 10
152.1671883692051
 20
27.91324393141349
 30
0.0
 10
152.3282797735628
 20
27.87411242417875
 30
0.0
 10
152.4203180074073
 20
27.89091794357955
 30
0.0
  0
SPLINE
  5
1C2
330
2
100
AcDbEntity
  8
0
  6
Continuous
 62
     7
100
AcDbSpline
210
0.0
220
0.0
230
1.0
 70
     8
 71
     3
 72
    12
 73
     8
 74
     0
 42
0.000000001
 43
0.0000000001
 40
0.0
 40
0.0
 40
0.0
 40
0.0
 40
0.1037984117
 40
0.210450817
 40
0.4394577747
 40
0.7000208801000002
 40
1.0
 40
1.0
 40
1.0
 40
1.0
 10
77.46802544165529
 20
167.2255512181505
 30
0.0
 10
76.69096374563743
 20
167.0464997179788
 30
0.0
 10
75.1410908179523
 20
166.5610516964207
 30
0.0
 10
72.09392229580315
 20
165.0834146549577
 30
0.0
 10
68.44248657986828
 20
162.2304524466674
 30
0.0
 10
64.56486001775556
 20
157.524293144033
 30
0.0
 10
62.39226102252814
 20
153.7866405322215
 30
0.0
 10
61.35003002203939
 20
151.7312124704715
 30
0.0
  0
SPLINE
  5
1C3
330
2
100
AcDbEntity
  8
0
  6
Continuous
 62
     7
100
AcDbSpline
210
0.0
220
0.0
230
1.0
 70
     8
 71
     3
 72
    13
 73
     9
 74
     0
 42
0.000000001
 43
0.0000000001
 40
0.0
 40
0.0
 40
0.0
 40
0.0
 40
0.0754399598
 40
0.1681130337
 40
0.2772766775
 40
0.4014489817000002
 40
0.6857881680000001
 40
1.0
 40
1.0
 40
1.0
 40
1.0
 10
61.35003002203939
 20
151.7312124704715
 30
0.0
 10
61.21519514919874
 20
151.4652988860862
 30
0.0
 10
60.98625822510165
 20
150.836999702112
 30
0.0
 10
60.75319673292415
 20
149.7646468061318
 30
0.0
 10
60.60082918618718
 20
148.4835841097342
 30
0.0
 10
60.50679347990716
 20
146.4386077854997
 30
0.0
 10
60.62880759117796
 20
143.5796533346769
 30
0.0
 10
60.92755453191239
 20
141.230503690218
 30
0.0
 10
61.13081290976788
 20
140.0054598854492
 30
0.0
  0
SPLINE
  5
1C4
330
2
100
AcDbEntity
  8
0
  6
Continuous
 62
     7
100
AcDbSpline
210
0.0
220
0.0
230
1.0
 70
     8
 71
     3
 72
    11
 73
     7
 74
     0
 42
0.000000001
 43
0.0000000001
 40
0.0
 40
0.0
 40
0.0
 40
0.0
 40
0.3081714675
 40
0.5892578309000001
 40
0.8243648483999999
 40
1.0
 40
1.0
 40
1.0
 40
1.0
 10
64.20070483629934
 20
124.5941276140429
 30
0.0
 10
64.28956001888218
 20
124.1521823306125
 30
0.0
 10
64.48978846666978
 20
123.3130129557617
 30
0.0
 10
64.86270878526283
 20
122.1638837427188
 30
0.0
 10
65.27200755399007
 20
121.2379683658121
 30
0.0
 10
65.59764396903393
 20
120.724309166399
 30
0.0
 10
65.77280165432876
 20
120.5363569845303
 30
0.0
  0
SPLINE
  5
1C5
330
2
100
AcDbEntity
  8
0
  6
Continuous
 62
     7
100
AcDbSpline
210
0.0
220
0.0
230
1.0
 70
     8
 71
     3
 72
     9
 73
     5
 74
     0
 42
0.000000001
 43
0.0000000001
 40
0.0
 40
0.0
 40
0.0
 40
0.0
 40
0.2159563294
 40
1.0
 40
1.0
 40
1.0
 40
1.0
 10
67.66863040810585
 20
120.8816616814181
 30
0.0
 10
67.63065536160048
 20
120.9224106376157
 30
0.0
 10
67.46374554570502
 20
121.1194252382829
 30
0.0
 10
67.32687969356447
 20
121.3401114017943
 30
0.0
 10
67.22917148004308
 20
121.5171657961712
 30
0.0
  0
SPLINE
  5
1C6
330
2
100
AcDbEntity
  8
0
  6
Continuous
 62
     7
100
AcDbSpline
210
0.0
220
0.0
230
1.0
 70
     8
 71
     3
 72
     9
 73
     5
 74
     0
 42
0.000000001
 43
0.0000000001
 40
0.0
 40
0.0
 40
0.0
 40
0.0
 40
0.2290551889
 40
1.0
 40
1.0
 40
1.0
 40
1.0
 10
67.22917148004308
 20
121.5171657961712
 30
0.0
 10
67.19301721283319
 20
121.5826799597039
 30
0.0
 10
67.04129355983969
 20
121.8720720489007
 30
0.0
 10
66.91103949441092
 20
122.172371149554
 30
0.0
 10
66.81892364972282
 20
122.4067740781788
 30
0.0
  0
SPLINE
  5
1C7
330
2
100
AcDbEntity
  8
0
  6
Continuous
 62
     7
100
AcDbSpline
210
0.0
220
0.0
230
1.0
 70
     8
 71
     3
 72
     9
 73
     5
 74
     0
 42
0.000000001
 43
0.0000000001
 40
0.0
 40
0.0
 40
0.0
 40
0.0
 40
0.2379133826
 40
1.0
 40
1.0
 40
1.0
 40
1.0
 10
66.77946121527384
 20
122.508750833688
 30
0.0
 10
66.7463638468007
 20
122.5955991445387
 30
0.0
 10
66.6119480433199
 20
122.9624260816645
 30
0.0
 10
66.49488665643184
 20
123.3355142645841
 30
0.0
 10
66.41371771147806
 20
123.6219456834274
 30
0.0
  0
SPLINE
  5
1C8
330
2
100
AcDbEntity
  8
0
  6
Continuous
 62
     7
100
AcDbSpline
210
0.0
220
0.0
230
1.0
 70
     8
 71
     3
 72
     9
 73
     5
 74
     0
 42
0.000000001
 43
0.0000000001
 40
0.0
 40
0.0
 40
0.0
 40
0.0
 40
0.2586158533
 40
1.0
 40
1.0
 40
1.0
 40
1.0
 10
62.55117191532554
 20
144.2096898143525
 30
0.0
 10
62.53496143553275
 20
144.4168588312543
 30
0.0
 10
62.47853855728135
 20
145.218390648543
 30
0.0
 10
62.44729240693778
 20
146.021803989164
 30
0.0
 10
62.44155448362743
 20
146.6174912062076
 30
0.0
  0
SPLINE
  5
1C9
330
2
100
AcDbEntity
  8
0
  6
Continuous
 62
     7
100
AcDbSpline
210
0.0
220
0.0
230
1.0
 70
     8
 71
     3
 72
     9
 73
     5
 74
     0
 42
0.000000001
 43
0.0000000001
 40
0.0
 40
0.0
 40
0.0
 40
0.0
 40
0.2634322952
 40
1.0
 40
1.0
 40
1.0
 40
1.0
 10
62.44024505083235
 20
146.9612068790381
 30
0.0
 10
62.44061510014489
 20
147.1357509422101
 30
0.0
 10
62.44815428482434
 20
147.7982721776266
 30
0.0
 10
62.48061109468928
 20
148.4607231573763
 30
0.0
 10
62.52346018790468
 20
148.9468720445491
 30
0.0
  0
SPLINE
  5
1CA
330
2
100
AcDbEntity
  8
0
  6
Continuous
 62
     7
100
AcDbSpline
210
0.0
220
0.0
230
1.0
 70
     8
 71
     3
 72
     9
 73
     5
 74
     0
 42
0.000000001
 43
0.0000000001
 40
0.0
 40
0.0
 40
0.0
 40
0.0
 40
0.25922221
 40
1.0
 40
1.0
 40
1.0
 40
1.0
 10
62.52346018790468
 20
148.9468720445491
 30
0.0
 10
62.53041851022225
 20
149.025818421389
 30
0.0
 10
62.55923759834513
 20
149.3301882523403
 30
0.0
 10
62.59614618332579
 20
149.6338210265687
 30
0.0
 10
62.6289935123541
 20
149.8579055892971
 30
0.0
  0
SPLINE
  5
1CB
330
2
100
AcDbEntity
  8
0
  6
Continuous
 62
     7
100
AcDbSpline
210
0.0
220
0.0
230
1.0
 70
     8
 71
     3
 72
     9
 73
     5
 74
     0
 42
0.000000001
 43
0.0000000001
 40
0.0
 40
0.0
 40
0.0
 40
0.0
 40
0.2622854887
 40
1.0
 40
1.0
 40
1.0
 40
1.0
 10
62.6289935123541
 20
149.8579055892971
 30
0.0
 10
62.64059499560335
 20
149.9370509375314
 30
0.0
 10
62.68747850054388
 20
150.2383985117335
 30
0.0
 10
62.74529468247418
 20
150.5381253605655
 30
0.0
 10
62.79589456793928
 20
150.7573477194605
 30
0.0
  0
SPLINE
  5
1CC
330
2
100
AcDbEntity
  8
0
  6
Continuous
 62
     7
100
AcDbSpline
210
0.0
220
0.0
230
1.0
 70
     8
 71
     3
 72
     9
 73
     5
 74
     0
 42
0.000000001
 43
0.0000000001
 40
0.0
 40
0.0
 40
0.0
 40
0.0
 40
0.2803060023
 40
1.0
 40
1.0
 40
1.0
 40
1.0
 10
62.79589456793928
 20
150.7573477194605
 30
0.0
 10
62.82521924579396
 20
150.884395932585
 30
0.0
 10
62.93966136120343
 20
151.3349437266399
 30
0.0
 10
63.09445744497407
 20
151.7779321668474
 30
0.0
 10
63.24585877572008
 20
152.0765171673891
 30
0.0
  0
SPLINE
  5
1CD
330
2
100
AcDbEntity
  8
0
  6
Continuous
 62
     7
100
AcDbSpline
210
0.0
220
0.0
230
1.0
 70
     8
 71
     3
 72
     9
 73
     5
 74
     0
 42
0.000000001
 43
0.0000000001
 40
0.0
 40
0.0
 40
0.0
 40
0.0
 40
0.2632658878
 40
1.0
 40
1.0
 40
1.0
 40
1.0
 10
63.24585877572008
 20
152.0765171673891
 30
0.0
 10
63.52029513648449
 20
152.6177447807699
 30
0.0
 10
64.59429932506373
 20
154.6571173439342
 30
0.0
 10
65.80049412302287
 20
156.629050130972
 30
0.0
 10
66.77855471519251
 20
158.0172886774598
 30
0.0
  0
SPLINE
  5
1CE
330
2
100
AcDbEntity
  8
0
  6
Continuous
 62
     7
100
AcDbSpline
210
0.0
220
0.0
230
1.0
 70
     8
 71
     3
 72
     9
 73
     5
 74
     0
 42
0.000000001
 43
0.0000000001
 40
0.0
 40
0.0
 40
0.0
 40
0.0
 40
0.2573215909
 40
1.0
 40
1.0
 40
1.0
 40
1.0
 10
66.77855471519251
 20
158.0172886774598
 30
0.0
 10
66.94624337049117
 20
158.2553024129647
 30
0.0
 10
67.60827651870204
 20
159.1728861549404
 30
0.0
 10
68.31287376844375
 20
160.060050148297
 30
0.0
 10
68.86184327601495
 20
160.6962682759554
 30
0.0
  0
SPLINE
  5
1CF
330
2
100
AcDbEntity
  8
0
  6
Continuous
 62
     7
100
AcDbSpline
210
0.0
220
0.0
230
1.0
 70
     8
 71
     3
 72
     9
 73
     5
 74
     0
 42
0.000000001
 43
0.0000000001
 40
0.0
 40
0.0
 40
0.0
 40
0.0
 40
0.2558219469
 40
1.0
 40
1.0
 40
1.0
 40
1.0
 10
68.86184327601495
 20
160.6962682759554
 30
0.0
 10
69.00777613699029
 20
160.8653944846796
 30
0.0
 10
69.58537033536777
 20
161.5202805471745
 30
0.0
 10
70.19216327805224
 20
162.1495872824125
 30
0.0
 10
70.66060314673632
 20
162.5999465536874
 30
0.0
  0
SPLINE
  5
1D0
330
2
100
AcDbEntity
  8
0
  6
Continuous
 62
     7
100
AcDbSpline
210
0.0
220
0.0
230
1.0
 70
     8
 71
     3
 72
     9
 73
     5
 74
     0
 42
0.000000001
 43
0.0000000001
 40
0.0
 40
0.0
 40
0.0
 40
0.0
 40
0.2565532881
 40
1.0
 40
1.0
 40
1.0
 40
1.0
 10
70.66060314673632
 20
162.5999465536874
 30
0.0
 10
70.84642476101453
 20
162.7785959222794
 30
0.0
 10
71.58112522332885
 20
163.4639814446354
 30
0.0
 10
72.35852800368957
 20
164.1040578785756
 30
0.0
 10
72.95970712439339
 20
164.5473983302963
 30
0.0
  0
SPLINE
  5
1D1
330
2
100
AcDbEntity
  8
0
  6
Continuous
 62
     7
100
AcDbSpline
210
0.0
220
0.0
230
1.0
 70
     8
 71
     3
 72
     9
 73
     5
 74
     0
 42
0.000000001
 43
0.0000000001
 40
0.0
 40
0.0
 40
0.0
 40
0.0
 40
0.2543517013
 40
1.0
 40
1.0
 40
1.0
 40
1.0
 10
72.95970712439339
 20
164.5473983302963
 30
0.0
 10
73.11501950473303
 20
164.6619336800918
 30
0.0
 10
73.73180765643883
 20
165.1037855516788
 30
0.0
 10
74.37361749221145
 20
165.5109256926228
 30
0.0
 10
74.86486312729358
 20
165.791502291443
 30
0.0
  0
SPLINE
  5
1D2
330
2
100
AcDbEntity
  8
0
  6
Continuous
 62
     7
100
AcDbSpline
210
0.0
220
0.0
230
1.0
 70
     8
 71
     3
 72
     9
 73
     5
 74
     0
 42
0.000000001
 43
0.0000000001
 40
0.0
 40
0.0
 40
0.0
 40
0.0
 40
0.2542565377
 40
1.0
 40
1.0
 40
1.0
 40
1.0
 10
74.86486312729358
 20
165.791502291443
 30
0.0
 10
75.08466456132281
 20
165.9170426205644
 30
0.0
 10
75.9592317880588
 20
166.3928533248688
 30
0.0
 10
76.87459660442164
 20
166.7943293303165
 30
0.0
 10
77.57346162627981
 20
167.0449060690209
 30
0.0
  0
LINE
  5
1D3
330
2
100
AcDbEntity
  8
0
  6
Continuous
 62
     7
100
AcDbLine
 10
77.57346162627981
 20
167.0449060690209
 30
0.0
 11
77.5858859917762
 21
167.0493550866344
 31
0.0
  0
LINE
  5
1D4
330
2
100
AcDbEntity
  8
0
  6
Continuous
 62
     7
100
AcDbLine
 10
148.4311828112659
 20
179.2811948135543
 30
0.0
 11
148.5047870358685
 21
179.1493254966583
 31
0.0
  0
SPLINE
  5
1D5
330
2
100
AcDbEntity
  8
0
  6
Continuous
 62
     7
100
AcDbSpline
210
0.0
220
0.0
230
1.0
 70
     8
 71
     3
 72
    10
 73
     6
 74
     0
 42
0.000000001
 43
0.0000000001
 40
0.0
 40
0.0
 40
0.0
 40
0.0
 40
0.5755697363000003
 40
0.8238115410999997
 40
1.0
 40
1.0
 40
1.0
 40
1.0
 10
151.2155993699816
 20
171.0132424432997
 30
0.0
 10
151.2208646748459
 20
170.9368841215905
 30
0.0
 10
151.2403711289444
 20
170.8276205257571
 30
0.0
 10
151.2850427426019
 20
170.7026993686961
 30
0.0
 10
151.3124046634912
 20
170.6520323048389
 30
0.0
 10
151.3283782574017
 20
170.6348919103541
 30
0.0
  0
SPLINE
  5
1D6
330
2
100
AcDbEntity
  8
0
  6
Continuous
 62
     7
100
AcDbSpline
210
0.0
220
0.0
230
1.0
 70
     8
 71
     3
 72
     9
 73
     5
 74
     0
 42
0.000000001
 43
0.0000000001
 40
0.0
 40
0.0
 40
0.0
 40
0.0
 40
0.2615593301
 40
1.0
 40
1.0
 40
1.0
 40
1.0
 10
198.7150253861436
 20
124.0137962639969
 30
0.0
 10
198.8748768840159
 20
123.9323177253063
 30
0.0
 10
199.4930268560711
 20
123.6350343493545
 30
0.0
 10
200.1411488256381
 20
123.3977649745079
 30
0.0
 10
200.6309179752134
 20
123.2684991666444
 30
0.0
  0
SPLINE
  5
1D7
330
2
100
AcDbEntity
  8
0
  6
Continuous
 62
     7
100
AcDbSpline
210
0.0
220
0.0
230
1.0
 70
     8
 71
     3
 72
    10
 73
     6
 74
     0
 42
0.000000001
 43
0.0000000001
 40
0.0
 40
0.0
 40
0.0
 40
0.0
 40
0.1694147757
 40
0.3896341454
 40
1.0
 40
1.0
 40
1.0
 40
1.0
 10
200.6309179752134
 20
123.2684991666444
 30
0.0
 10
200.6961228782584
 20
123.2512894986623
 30
0.0
 10
200.8348056790564
 20
123.1723317453982
 30
0.0
 10
201.1146035235397
 20
122.8868038104449
 30
0.0
 10
201.281266677961
 20
122.5954266213832
 30
0.0
 10
201.3904560461942
 20
122.3783799996993
 30
0.0
  0
SPLINE
  5
1D8
330
2
100
AcDbEntity
  8
0
  6
Continuous
 62
     7
100
AcDbSpline
210
0.0
220
0.0
230
1.0
 70
     8
 71
     3
 72
     9
 73
     5
 74
     0
 42
0.000000001
 43
0.0000000001
 40
0.0
 40
0.0
 40
0.0
 40
0.0
 40
0.4785580165
 40
1.0
 40
1.0
 40
1.0
 40
1.0
 10
204.0890945042429
 20
116.4037958963201
 30
0.0
 10
207.4843831554299
 20
108.6887383844355
 30
0.0
 10
214.0334944585702
 20
92.3251349175848
 30
0.0
 10
219.7084959590102
 20
75.64308639002685
 30
0.0
 10
222.4730963302027
 20
66.88458574626293
 30
0.0
  0
SPLINE
  5
1D9
330
2
100
AcDbEntity
  8
0
  6
Continuous
 62
     7
100
AcDbSpline
210
0.0
220
0.0
230
1.0
 70
     8
 71
     3
 72
     9
 73
     5
 74
     0
 42
0.000000001
 43
0.0000000001
 40
0.0
 40
0.0
 40
0.0
 40
0.0
 40
0.2436010131
 40
1.0
 40
1.0
 40
1.0
 40
1.0
 10
222.7518095913765
 20
65.96078598536291
 30
0.0
 10
222.8470261692928
 20
65.63055800721007
 30
0.0
 10
223.2206475324129
 20
64.2700123412219
 30
0.0
 10
223.528899856472
 20
62.89169089821621
 30
0.0
 10
224.4890329804184
 20
55.35334143274257
 30
0.0
  0
SPLINE
  5
1DA
330
2
100
AcDbEntity
  8
0
  6
Continuous
 62
     7
100
AcDbSpline
210
0.0
220
0.0
230
1.0
 70
     8
 71
     3
 72
     9
 73
     5
 74
     0
 42
0.000000001
 43
0.0000000001
 40
0.0
 40
0.0
 40
0.0
 40
0.0
 40
0.5326565465
 40
1.0
 40
1.0
 40
1.0
 40
1.0
 10
224.4890329804184
 20
55.35334143274257
 30
0.0
 10
224.5138785237559
 20
54.68404458373289
 30
0.0
 10
224.5242373844921
 20
53.4258073030594
 30
0.0
 10
224.4411304638561
 20
52.16919756613993
 30
0.0
 10
224.3702938092247
 20
51.58584899868333
 30
0.0
  0
SPLINE
  5
1DB
330
2
100
AcDbEntity
  8
0
  6
Continuous
 62
     7
100
AcDbSpline
210
0.0
220
0.0
230
1.0
 70
     8
 71
     3
 72
    11
 73
     7
 74
     0
 42
0.000000001
 43
0.0000000001
 40
0.0
 40
0.0
 40
0.0
 40
0.0
 40
0.3522174361999999
 40
0.6319586818000002
 40
0.8409018640999999
 40
1.0
 40
1.0
 40
1.0
 40
1.0
 10
223.2083871155264
 20
42.01740439443324
 30
0.0
 10
223.1861880301039
 20
41.83459219395331
 30
0.0
 10
223.1320351159738
 20
41.50758928231517
 30
0.0
 10
222.9973337788688
 20
41.08732392850561
 30
0.0
 10
222.822536826403
 20
40.79070167406142
 30
0.0
 10
222.6478126091315
 20
40.68213342750504
 30
0.0
 10
222.5659818958939
 20
40.66719172788043
 30
0.0
  0
SPLINE
  5
1DC
330
2
100
AcDbEntity
  8
0
  6
Continuous
 62
     7
100
AcDbSpline
210
0.0
220
0.0
230
1.0
 70
     8
 71
     3
 72
    12
 73
     8
 74
     0
 42
0.000000001
 43
0.0000000001
 40
0.0
 40
0.0
 40
0.0
 40
0.0
 40
0.1037984117
 40
0.210450817
 40
0.4394577747
 40
0.7000208801000002
 40
1.0
 40
1.0
 40
1.0
 40
1.0
 10
145.7178605763655
 20
179.6565203055634
 30
0.0
 10
144.9407988803796
 20
179.4774688054883
 30
0.0
 10
143.3909259526881
 20
178.9920207839304
 30
0.0
 10
140.3437574305408
 20
177.5143837424677
 30
0.0
 10
136.6923217145777
 20
174.661421534081
 30
0.0
 10
132.814695152465
 20
169.9552622314468
 30
0.0
 10
130.6420961572366
 20
166.2176096196358
 30
0.0
 10
129.5998651566806
 20
164.1621815580099
 30
0.0
  0
SPLINE
  5
1DD
330
2
100
AcDbEntity
  8
0
  6
Continuous
 62
     7
100
AcDbSpline
210
0.0
220
0.0
230
1.0
 70
     8
 71
     3
 72
    10
 73
     6
 74
     0
 42
0.000000001
 43
0.0000000001
 40
0.0
 40
0.0
 40
0.0
 40
0.0
 40
0.1963154087
 40
0.429172669
 40
1.0
 40
1.0
 40
1.0
 40
1.0
 10
129.5998651566806
 20
164.1621815580099
 30
0.0
 10
129.4952832293129
 20
163.955931093099
 30
0.0
 10
129.3095361813939
 20
163.483300248299
 30
0.0
 10
129.0124040015525
 20
162.3419397607119
 30
0.0
 10
128.9012853162912
 20
161.3970433185789
 30
0.0
 10
128.8529867887591
 20
160.7263729143626
 30
0.0
  0
SPLINE
  5
1DE
330
2
100
AcDbEntity
  8
0
  6
Continuous
 62
     7
100
AcDbSpline
210
0.0
220
0.0
230
1.0
 70
     8
 71
     3
 72
    10
 73
     6
 74
     0
 42
0.000000001
 43
0.0000000001
 40
0.0
 40
0.0
 40
0.0
 40
0.0
 40
0.2200711711
 40
0.4644968903000001
 40
1.0
 40
1.0
 40
1.0
 40
1.0
 10
128.8529867887591
 20
160.7263729143626
 30
0.0
 10
128.8103128879229
 20
160.1338057313414
 30
0.0
 10
128.7743801355991
 20
158.8789804236125
 30
0.0
 10
128.8692016170825
 20
156.1800330596047
 30
0.0
 10
129.1145391898881
 20
154.0841675789599
 30
0.0
 10
129.3445815772938
 20
152.6569496208528
 30
0.0
  0
SPLINE
  5
1DF
330
2
100
AcDbEntity
  8
0
  6
Continuous
 62
     7
100
AcDbSpline
210
0.0
220
0.0
230
1.0
 70
     8
 71
     3
 72
     9
 73
     5
 74
     0
 42
0.000000001
 43
0.0000000001
 40
0.0
 40
0.0
 40
0.0
 40
0.0
 40
0.5223994913000001
 40
1.0
 40
1.0
 40
1.0
 40
1.0
 10
132.4505399710069
 20
137.0250967014569
 30
0.0
 10
132.5382334728147
 20
136.5889293515679
 30
0.0
 10
132.7357207532805
 20
135.7596863555488
 30
0.0
 10
132.9976670314281
 20
134.9478872281006
 30
0.0
 10
133.1435019729215
 20
134.568187224442
 30
0.0
  0
SPLINE
  5
1E0
330
2
100
AcDbEntity
  8
0
  6
Continuous
 62
     7
100
AcDbSpline
210
0.0
220
0.0
230
1.0
 70
     8
 71
     3
 72
    11
 73
     7
 74
     0
 42
0.000000001
 43
0.0000000001
 40
0.0
 40
0.0
 40
0.0
 40
0.0
 40
0.1639082468
 40
0.3741256536
 40
0.6515997599000001
 40
1.0
 40
1.0
 40
1.0
 40
1.0
 10
147.6268996948038
 20
180.0045410056941
 30
0.0
 10
147.6878964762363
 20
180.0155820288569
 30
0.0
 10
147.8360603775036
 20
179.990162036217
 30
0.0
 10
148.0372954875638
 20
179.8408198783578
 30
0.0
 10
148.242366659746
 20
179.5983748746644
 30
0.0
 10
148.3670621432757
 20
179.3963007169538
 30
0.0
 10
148.4311828112659
 20
179.2811948135543
 30
0.0
  0
SPLINE
  5
1E1
330
2
100
AcDbEntity
  8
0
  6
Continuous
 62
     7
100
AcDbSpline
210
0.0
220
0.0
230
1.0
 70
     8
 71
     3
 72
     9
 73
     5
 74
     0
 42
0.000000001
 43
0.0000000001
 40
0.0
 40
0.0
 40
0.0
 40
0.0
 40
0.3297370698
 40
1.0
 40
1.0
 40
1.0
 40
1.0
 10
198.5934624841448
 20
119.9378584700871
 30
0.0
 10
198.6154743606912
 20
119.9421632572484
 30
0.0
 10
198.6385498971467
 20
120.0275993958714
 30
0.0
 10
198.6360104262985
 20
120.0868613016066
 30
0.0
 10
198.6328740960489
 20
120.132344881235
 30
0.0
  0
SPLINE
  5
1E2
330
2
100
AcDbEntity
  8
0
  6
Continuous
 62
     7
100
AcDbSpline
210
0.0
220
0.0
230
1.0
 70
     8
 71
     3
 72
    10
 73
     6
 74
     0
 42
0.000000001
 43
0.0000000001
 40
0.0
 40
0.0
 40
0.0
 40
0.0
 40
0.4217116434000002
 40
0.6868394114000002
 40
1.0
 40
1.0
 40
1.0
 40
1.0
 10
222.5659818958939
 20
40.66719172788043
 30
0.0
 10
222.4739436620766
 20
40.65038620857557
 30
0.0
 10
222.3128522576917
 20
40.68951771571597
 30
0.0
 10
222.1303488432641
 20
40.81480243583633
 30
0.0
 10
222.0367468168642
 20
40.90378877969306
 30
0.0
 10
221.9893795700882
 20
40.95461599498093
 30
0.0
  0
SPLINE
  5
1E3
330
2
100
AcDbEntity
  8
0
  6
Continuous
 62
     7
100
AcDbSpline
210
0.0
220
0.0
230
1.0
 70
     8
 71
     3
 72
    10
 73
     6
 74
     0
 42
0.000000001
 43
0.0000000001
 40
0.0
 40
0.0
 40
0.0
 40
0.0
 40
0.1908557802
 40
0.4236573958000001
 40
1.0
 40
1.0
 40
1.0
 40
1.0
 10
135.9184655428143
 20
133.3126307688312
 30
0.0
 10
135.8278765107115
 20
133.4098369302462
 30
0.0
 10
135.6497182757521
 20
133.6467898821599
 30
0.0
 10
135.3009661490905
 20
134.2501991868443
 30
0.0
 10
135.086371413734
 20
134.7740270548634
 30
0.0
 10
134.9509357275929
 20
135.1517282565103
 30
0.0
  0
SPLINE
  5
1E4
330
2
100
AcDbEntity
  8
0
  6
Continuous
 62
     7
100
AcDbSpline
210
0.0
220
0.0
230
1.0
 70
     8
 71
     3
 72
     9
 73
     5
 74
     0
 42
0.000000001
 43
0.0000000001
 40
0.0
 40
0.0
 40
0.0
 40
0.0
 40
0.2348017486
 40
1.0
 40
1.0
 40
1.0
 40
1.0
 10
134.9509357275929
 20
135.1517282565103
 30
0.0
 10
134.8901554920758
 20
135.3212313516171
 30
0.0
 10
134.6475951697666
 20
136.0489356443677
 30
0.0
 10
134.4620399975956
 20
136.7950790368493
 30
0.0
 10
134.3463687247858
 20
137.3704013983447
 30
0.0
  0
SPLINE
  5
1E5
330
2
100
AcDbEntity
  8
0
  6
Continuous
 62
     7
100
AcDbSpline
210
0.0
220
0.0
230
1.0
 70
     8
 71
     3
 72
    12
 73
     8
 74
     0
 42
0.000000001
 43
0.0000000001
 40
0.0
 40
0.0
 40
0.0
 40
0.0
 40
0.3668277174
 40
0.6628849013
 40
0.7784620683
 40
0.8714768972999998
 40
1.0
 40
1.0
 40
1.0
 40
1.0
 10
198.4312880374054
 20
123.0557792443844
 30
0.0
 10
198.4225758862994
 20
123.1821243004226
 30
0.0
 10
198.4165488635444
 20
123.4112861889345
 30
0.0
 10
198.4389086825395
 20
123.679960494954
 30
0.0
 10
198.4826537900953
 20
123.8500011041308
 30
0.0
 10
198.5260505535098
 20
123.9560242095981
 30
0.0
 10
198.5859176494923
 20
124.0205113863649
 30
0.0
 10
198.6294906839303
 20
124.028892922061
 30
0.0
  0
SPLINE
  5
1E6
330
2
100
AcDbEntity
  8
0
  6
Continuous
 62
     7
100
AcDbSpline
210
0.0
220
0.0
230
1.0
 70
     8
 71
     3
 72
     9
 73
     5
 74
     0
 42
0.000000001
 43
0.0000000001
 40
0.0
 40
0.0
 40
0.0
 40
0.0
 40
0.2569380297
 40
1.0
 40
1.0
 40
1.0
 40
1.0
 10
130.756962239906
 20
157.2679161545816
 30
0.0
 10
130.747488154866
 20
157.4206027782365
 30
0.0
 10
130.7142199938407
 20
158.0150707625675
 30
0.0
 10
130.6955458658194
 20
158.6103934010464
 30
0.0
 10
130.6913482172131
 20
159.052790756737
 30
0.0
  0
SPLINE
  5
1E7
330
2
100
AcDbEntity
  8
0
  6
Continuous
 62
     7
100
AcDbSpline
210
0.0
220
0.0
230
1.0
 70
     8
 71
     3
 72
    11
 73
     7
 74
     0
 42
0.000000001
 43
0.0000000001
 40
0.0
 40
0.0
 40
0.0
 40
0.0
 40
0.3119853501
 40
0.5855571651
 40
0.8157598361999999
 40
1.0
 40
1.0
 40
1.0
 40
1.0
 10
130.6905169396777
 20
159.1610891268733
 30
0.0
 10
130.6872030190807
 20
159.7273676335273
 30
0.0
 10
130.7109030561296
 20
160.7907435387465
 30
0.0
 10
130.8527817516224
 20
162.2666621682483
 30
0.0
 10
131.0942093846861
 20
163.4937199252565
 30
0.0
 10
131.3444554544403
 20
164.2092224665893
 30
0.0
 10
131.4956939104595
 20
164.507486254897
 30
0.0
  0
SPLINE
  5
1E8
330
2
100
AcDbEntity
  8
0
  6
Continuous
 62
     7
100
AcDbSpline
210
0.0
220
0.0
230
1.0
 70
     8
 71
     3
 72
     9
 73
     5
 74
     0
 42
0.000000001
 43
0.0000000001
 40
0.0
 40
0.0
 40
0.0
 40
0.0
 40
0.2631449987
 40
1.0
 40
1.0
 40
1.0
 40
1.0
 10
131.4956939104595
 20
164.507486254897
 30
0.0
 10
131.767764577642
 20
165.0440483833079
 30
0.0
 10
132.8327318455904
 20
167.0669167736773
 30
0.0
 10
134.027628900807
 20
169.0234778429403
 30
0.0
 10
134.9958611852398
 20
170.402015909317
 30
0.0
  0
LINE
  5
1E9
330
2
100
AcDbEntity
  8
0
  6
Continuous
 62
     7
100
AcDbLine
 10
134.9958611852398
 20
170.402015909317
 30
0.0
 11
135.0294659002575
 21
170.4497850100592
 31
0.0
  0
SPLINE
  5
1EA
330
2
100
AcDbEntity
  8
0
  6
Continuous
 62
     7
100
AcDbSpline
210
0.0
220
0.0
230
1.0
 70
     8
 71
     3
 72
     9
 73
     5
 74
     0
 42
0.000000001
 43
0.0000000001
 40
0.0
 40
0.0
 40
0.0
 40
0.0
 40
0.2668629789
 40
1.0
 40
1.0
 40
1.0
 40
1.0
 10
135.4255968770012
 20
171.0015202641025
 30
0.0
 10
135.8154953270623
 20
171.5343745860882
 30
0.0
 10
137.3287121031317
 20
173.4910688877062
 30
0.0
 10
139.070632832012
 20
175.2809728008103
 30
0.0
 10
140.483513967285
 20
176.4185412126101
 30
0.0
  0
SPLINE
  5
1EB
330
2
100
AcDbEntity
  8
0
  6
Continuous
 62
     7
100
AcDbSpline
210
0.0
220
0.0
230
1.0
 70
     8
 71
     3
 72
     9
 73
     5
 74
     0
 42
0.000000001
 43
0.0000000001
 40
0.0
 40
0.0
 40
0.0
 40
0.0
 40
0.5120534826
 40
1.0
 40
1.0
 40
1.0
 40
1.0
 10
140.8921968756986
 20
176.7397091857415
 30
0.0
 10
141.6583778617205
 20
177.3271557907867
 30
0.0
 10
143.2346071289521
 20
178.3754781746229
 30
0.0
 10
144.9572672371669
 20
179.1653619001656
 30
0.0
 10
145.8232967609874
 20
179.4758751564352
 30
0.0
  0
LINE
  5
1EC
330
2
100
AcDbEntity
  8
0
  6
Continuous
 62
     7
100
AcDbLine
 10
145.8232967609874
 20
179.4758751564352
 30
0.0
 11
145.8357217640769
 21
179.4803244021352
 31
0.0
  0
SPLINE
  5
1ED
330
2
100
AcDbEntity
  8
0
  6
Continuous
 62
     7
100
AcDbSpline
210
0.0
220
0.0
230
1.0
 70
     8
 71
     3
 72
    13
 73
     9
 74
     0
 42
0.000000001
 43
0.0000000001
 40
0.0
 40
0.0
 40
0.0
 40
0.0
 40
0.2978453505
 40
0.5855371228
 40
0.7141173656000001
 40
0.8273972556
 40
0.9229176612999999
 40
1.0
 40
1.0
 40
1.0
 40
1.0
 10
153.750769423117
 20
37.00160491739507
 30
0.0
 10
153.0145932022751
 20
36.86751836355075
 30
0.0
 10
151.5453832540079
 20
36.71863584619132
 30
0.0
 10
149.7447350465154
 20
36.78445268010296
 30
0.0
 10
148.4316428439797
 20
37.0094693912274
 30
0.0
 10
147.6141858701121
 20
37.24258535733135
 30
0.0
 10
146.956386955846
 20
37.5368905493574
 30
0.0
 10
146.6010673920409
 20
37.79731761138009
 30
0.0
 10
146.4690383463639
 20
37.93899076471234
 30
0.0
  0
SPLINE
  5
1EE
330
2
100
AcDbEntity
  8
0
  6
Continuous
 62
     7
100
AcDbSpline
210
0.0
220
0.0
230
1.0
 70
     8
 71
     3
 72
     9
 73
     5
 74
     0
 42
0.000000001
 43
0.0000000001
 40
0.0
 40
0.0
 40
0.0
 40
0.0
 40
0.5277798083
 40
1.0
 40
1.0
 40
1.0
 40
1.0
 10
77.17705570232283
 20
112.292438250216
 30
0.0
 10
77.09695927045595
 20
112.3783853732634
 30
0.0
 10
76.96299156594796
 20
112.5608465079169
 30
0.0
 10
76.90006771106164
 20
112.7809004798996
 30
0.0
 10
76.892575597416
 20
112.8857489992706
 30
0.0
  0
SPLINE
  5
1EF
330
2
100
AcDbEntity
  8
0
  6
Continuous
 62
     7
100
AcDbSpline
210
0.0
220
0.0
230
1.0
 70
     8
 71
     3
 72
    12
 73
     8
 74
     0
 42
0.000000001
 43
0.0000000001
 40
0.0
 40
0.0
 40
0.0
 40
0.0
 40
0.3572350475
 40
0.4946054414
 40
0.6493197636
 40
0.8190198323
 40
1.0
 40
1.0
 40
1.0
 40
1.0
 10
210.8411052919528
 20
49.01854055778859
 30
0.0
 10
210.8818606852437
 20
48.44818840671518
 30
0.0
 10
210.0900617944899
 20
47.78519486607
 30
0.0
 10
209.1900264321157
 20
47.34185091066318
 30
0.0
 10
208.4922362720972
 20
47.07316745780484
 30
0.0
 10
207.7165402036298
 20
46.84916858117661
 30
0.0
 10
207.1667992093571
 20
46.73075980038743
 30
0.0
 10
206.8818030079565
 20
46.67885081793497
 30
0.0
  0
SPLINE
  5
1F0
330
2
100
AcDbEntity
  8
0
  6
Continuous
 62
     7
100
AcDbSpline
210
0.0
220
0.0
230
1.0
 70
     8
 71
     3
 72
    13
 73
     9
 74
     0
 42
0.000000001
 43
0.0000000001
 40
0.0
 40
0.0
 40
0.0
 40
0.0
 40
0.297845356
 40
0.5855371317
 40
0.7141173744
 40
0.8273972626999999
 40
0.9229176651999999
 40
1.0
 40
1.0
 40
1.0
 40
1.0
 10
133.9829114655113
 20
124.902684638635
 30
0.0
 10
134.7190877163157
 20
125.0367711979786
 30
0.0
 10
136.1882977203531
 20
125.1856537166277
 30
0.0
 10
137.9889459902479
 20
125.1198368658356
 30
0.0
 10
139.3020382222785
 20
124.8948201265436
 30
0.0
 10
140.119495196599
 20
124.6617041368547
 30
0.0
 10
140.7772940934373
 20
124.3673989189176
 30
0.0
 10
141.1326136318457
 20
124.1069718322999
 30
0.0
 10
141.2646426576739
 20
123.9652986682495
 30
0.0
  0
SPLINE
  5
1F1
330
2
100
AcDbEntity
  8
0
  6
Continuous
 62
     7
100
AcDbSpline
210
0.0
220
0.0
230
1.0
 70
     8
 71
     3
 72
     9
 73
     5
 74
     0
 42
0.000000001
 43
0.0000000001
 40
0.0
 40
0.0
 40
0.0
 40
0.0
 40
0.4721801128
 40
1.0
 40
1.0
 40
1.0
 40
1.0
 10
210.6174620174788
 20
52.2602296314983
 30
0.0
 10
210.6100536523336
 20
52.36675310840815
 30
0.0
 10
210.5462418126899
 20
52.5904058743381
 30
0.0
 10
210.4100952497938
 20
52.77573607266822
 30
0.0
 10
210.3287170915592
 20
52.86305854642955
 30
0.0
  0
SPLINE
  5
1F2
330
2
100
AcDbEntity
  8
0
  6
Continuous
 62
     7
100
AcDbSpline
210
0.0
220
0.0
230
1.0
 70
     8
 71
     3
 72
    12
 73
     8
 74
     0
 42
0.000000001
 43
0.0000000001
 40
0.0
 40
0.0
 40
0.0
 40
0.0
 40
0.3572352337
 40
0.4946057321000001
 40
0.6493201736
 40
0.8190200453
 40
1.0
 40
1.0
 40
1.0
 40
1.0
 10
76.892575597416
 20
112.8857489992706
 30
0.0
 10
76.85182019601416
 20
113.456101198592
 30
0.0
 10
77.64361903685584
 20
114.1190950413493
 30
0.0
 10
78.54365480840079
 20
114.5624387147486
 30
0.0
 10
79.24144496754799
 20
114.8311212731755
 30
0.0
 10
80.01713953961825
 20
115.0551221224714
 30
0.0
 10
80.56687937877541
 20
115.1735322347535
 30
0.0
 10
80.85187512050106
 20
115.2254411333103
 30
0.0
  0
SPLINE
  5
1F3
330
2
100
AcDbEntity
  8
0
  6
Continuous
 62
     7
100
AcDbSpline
210
0.0
220
0.0
230
1.0
 70
     8
 71
     3
 72
    15
 73
    11
 74
     0
 42
0.000000001
 43
0.0000000001
 40
0.0
 40
0.0
 40
0.0
 40
0.0
 40
0.1779530363
 40
0.3448636623
 40
0.4970828584000002
 40
0.6322416943000002
 40
0.7488287220000001
 40
0.8467181414
 40
0.9283606586000001
 40
1.0
 40
1.0
 40
1.0
 40
1.0
 10
80.63488736440286
 20
118.4692893407371
 30
0.0
 10
80.34963246871393
 20
118.4173332401217
 30
0.0
 10
79.7997901294375
 20
118.299171376063
 30
0.0
 10
79.02114021558645
 20
118.0736269335027
 30
0.0
 10
78.32849987892768
 20
117.8097548081389
 30
0.0
 10
77.73869297230522
 20
117.5145679595111
 30
0.0
 10
77.26446326990753
 20
117.1950736206822
 30
0.0
 10
76.9162893451721
 20
116.8560021697515
 30
0.0
 10
76.70191825590428
 20
116.4997820484918
 30
0.0
 10
76.66099877909164
 20
116.2447380254498
 30
0.0
 10
76.66909710892923
 20
116.1282936777948
 30
0.0
  0
SPLINE
  5
1F4
330
2
100
AcDbEntity
  8
0
  6
Continuous
 62
     7
100
AcDbSpline
210
0.0
220
0.0
230
1.0
 70
     8
 71
     3
 72
    13
 73
     9
 74
     0
 42
0.000000001
 43
0.0000000001
 40
0.0
 40
0.0
 40
0.0
 40
0.0
 40
0.0770447146
 40
0.1723837313
 40
0.2855045361
 40
0.4140594370000001
 40
0.7019067630000002
 40
1.0
 40
1.0
 40
1.0
 40
1.0
 10
141.0524876869185
 20
127.1996110407604
 30
0.0
 10
140.9201494882072
 20
127.3416159612902
 30
0.0
 10
140.5649926286896
 20
127.6032153137407
 30
0.0
 10
139.9069995022109
 20
127.8998740994007
 30
0.0
 10
139.0885045174145
 20
128.1348703535495
 30
0.0
 10
137.771922476806
 20
128.3615995823438
 30
0.0
 10
135.9651791226697
 20
128.4280272504102
 30
0.0
 10
134.4908000699033
 20
128.2785612024957
 30
0.0
 10
133.7519251877856
 20
128.1439831166306
 30
0.0
  0
SPLINE
  5
1F5
330
2
100
AcDbEntity
  8
0
  6
Continuous
 62
     7
100
AcDbSpline
210
0.0
220
0.0
230
1.0
 70
     8
 71
     3
 72
     9
 73
     5
 74
     0
 42
0.000000001
 43
0.0000000001
 40
0.0
 40
0.0
 40
0.0
 40
0.0
 40
0.5277798165
 40
1.0
 40
1.0
 40
1.0
 40
1.0
 10
210.5566250982665
 20
49.611851401585
 30
0.0
 10
210.6367215464252
 20
49.52590426115147
 30
0.0
 10
210.7706892872156
 20
49.34344310471283
 30
0.0
 10
210.8336131779469
 20
49.12338909495838
 30
0.0
 10
210.8411052919528
 20
49.01854055778859
 30
0.0
  0
SPLINE
  5
1F6
330
2
100
AcDbEntity
  8
0
  6
Continuous
 62
     7
100
AcDbSpline
210
0.0
220
0.0
230
1.0
 70
     8
 71
     3
 72
     9
 73
     5
 74
     0
 42
0.000000001
 43
0.0000000001
 40
0.0
 40
0.0
 40
0.0
 40
0.0
 40
0.2030855195
 40
1.0
 40
1.0
 40
1.0
 40
1.0
 10
68.5627161288412
 20
119.9885083765875
 30
0.0
 10
68.55390289169918
 20
119.9869025383268
 30
0.0
 10
68.50862015885105
 20
119.9878350288235
 30
0.0
 10
68.47135925438306
 20
120.0202970324706
 30
0.0
 10
67.66862334949564
 20
120.8816692555501
 30
0.0
  0
SPLINE
  5
1F7
330
2
100
AcDbEntity
  8
0
  6
Continuous
 62
     7
100
AcDbSpline
210
0.0
220
0.0
230
1.0
 70
     8
 71
     3
 72
    11
 73
     7
 74
     0
 42
0.000000001
 43
0.0000000001
 40
0.0
 40
0.0
 40
0.0
 40
0.0
 40
0.2108482619
 40
0.4423168672
 40
0.7034431662000002
 40
1.0
 40
1.0
 40
1.0
 40
1.0
 10
77.57349660635918
 20
167.044919647049
 30
0.0
 10
76.17215719518481
 20
166.542477207867
 30
0.0
 10
73.37216275687478
 20
165.0704971547782
 30
0.0
 10
69.61342862665333
 20
161.7721564131441
 30
0.0
 10
66.15987761113045
 20
157.3686411513956
 30
0.0
 10
64.19278514447615
 20
153.9439912100117
 30
0.0
 10
63.24585706290689
 20
152.0765137894454
 30
0.0
  0
SPLINE
  5
1F8
330
2
100
AcDbEntity
  8
0
  6
Continuous
 62
     7
100
AcDbSpline
210
0.0
220
0.0
230
1.0
 70
     8
 71
     3
 72
    13
 73
     9
 74
     0
 42
0.000000001
 43
0.0000000001
 40
0.0
 40
0.0
 40
0.0
 40
0.0
 40
0.3102328318
 40
0.5967419692
 40
0.7225534656
 40
0.8328736828
 40
0.9257040551999999
 40
1.0
 40
1.0
 40
1.0
 40
1.0
 10
63.32391092042872
 20
138.7298098939941
 30
0.0
 10
63.04867411729628
 20
140.0987762015907
 30
0.0
 10
62.631397115656
 20
142.7555694075679
 30
0.0
 10
62.40908898263207
 20
146.0065463497221
 30
0.0
 10
62.46098833893392
 20
148.3598362861441
 30
0.0
 10
62.60296427068169
 20
149.8357651020189
 30
0.0
 10
62.84437370463638
 20
151.0627792493585
 30
0.0
 10
63.09462299993538
 20
151.7782586174046
 30
0.0
 10
63.24585706290689
 20
152.0765137894454
 30
0.0
  0
SPLINE
  5
1F9
330
2
100
AcDbEntity
  8
0
  6
Continuous
 62
     7
100
AcDbSpline
210
0.0
220
0.0
230
1.0
 70
     8
 71
     3
 72
     9
 73
     5
 74
     0
 42
0.000000001
 43
0.0000000001
 40
0.0
 40
0.0
 40
0.0
 40
0.0
 40
0.4932174755
 40
1.0
 40
1.0
 40
1.0
 40
1.0
 10
145.7178605763655
 20
179.6565203055634
 30
0.0
 10
144.9406689868046
 20
179.4774388751818
 30
0.0
 10
143.3908201850372
 20
178.9921260615956
 30
0.0
 10
141.9304718887779
 20
178.2836048677104
 30
0.0
 10
141.2188685054934
 20
177.8771714952395
 30
0.0
  0
SPLINE
  5
1FA
330
2
100
AcDbEntity
  8
0
  6
Continuous
 62
     7
100
AcDbSpline
210
0.0
220
0.0
230
1.0
 70
     8
 71
     3
 72
     9
 73
     5
 74
     0
 42
0.000000001
 43
0.0000000001
 40
0.0
 40
0.0
 40
0.0
 40
0.0
 40
0.2459459446999999
 40
1.0
 40
1.0
 40
1.0
 40
1.0
 10
141.2188685054934
 20
177.8771714952395
 30
0.0
 10
141.0568339432411
 20
177.7846252045235
 30
0.0
 10
140.4037829614862
 20
177.3982897898174
 30
0.0
 10
139.7741562457049
 20
176.9726248967843
 30
0.0
 10
139.313711909097
 20
176.6330700720414
 30
0.0
  0
SPLINE
  5
1FB
330
2
100
AcDbEntity
  8
0
  6
Continuous
 62
     7
100
AcDbSpline
210
0.0
220
0.0
230
1.0
 70
     8
 71
     3
 72
     9
 73
     5
 74
     0
 42
0.000000001
 43
0.0000000001
 40
0.0
 40
0.0
 40
0.0
 40
0.0
 40
0.2438140579
 40
1.0
 40
1.0
 40
1.0
 40
1.0
 10
139.313711909097
 20
176.6330700720414
 30
0.0
 10
139.1165519048445
 20
176.4876743632965
 30
0.0
 10
138.3183784547927
 20
175.8771926770337
 30
0.0
 10
137.5623205301708
 20
175.2121920649667
 30
0.0
 10
137.0146075635566
 20
174.6856194231625
 30
0.0
  0
SPLINE
  5
1FC
330
2
100
AcDbEntity
  8
0
  6
Continuous
 62
     7
100
AcDbSpline
210
0.0
220
0.0
230
1.0
 70
     8
 71
     3
 72
     9
 73
     5
 74
     0
 42
0.000000001
 43
0.0000000001
 40
0.0
 40
0.0
 40
0.0
 40
0.0
 40
0.2443603144
 40
1.0
 40
1.0
 40
1.0
 40
1.0
 10
137.0146075635566
 20
174.6856194231625
 30
0.0
 10
136.8607883845361
 20
174.5377372725224
 30
0.0
 10
136.2388645460742
 20
173.9247260717307
 30
0.0
 10
135.6469027750827
 20
173.281503789203
 30
0.0
 10
135.2158478522961
 20
172.7819400555347
 30
0.0
  0
SPLINE
  5
1FD
330
2
100
AcDbEntity
  8
0
  6
Continuous
 62
     7
100
AcDbSpline
210
0.0
220
0.0
230
1.0
 70
     8
 71
     3
 72
     9
 73
     5
 74
     0
 42
0.000000001
 43
0.0000000001
 40
0.0
 40
0.0
 40
0.0
 40
0.0
 40
0.2428753551
 40
1.0
 40
1.0
 40
1.0
 40
1.0
 10
135.2158478522961
 20
172.7819400555347
 30
0.0
 10
135.0363188748761
 20
172.5738780161718
 30
0.0
 10
134.3085947205982
 20
171.7073593702744
 30
0.0
 10
133.6259590513655
 20
170.803279064638
 30
0.0
 10
133.1325598910116
 20
170.1029577781212
 30
0.0
  0
SPLINE
  5
1FE
330
2
100
AcDbEntity
  8
0
  6
Continuous
 62
     7
100
AcDbSpline
210
0.0
220
0.0
230
1.0
 70
     8
 71
     3
 72
     9
 73
     5
 74
     0
 42
0.000000001
 43
0.0000000001
 40
0.0
 40
0.0
 40
0.0
 40
0.0
 40
0.317386998
 40
1.0
 40
1.0
 40
1.0
 40
1.0
 10
134.8013995536403
 20
132.1316781213909
 30
0.0
 10
134.8108764893004
 20
132.1215089372685
 30
0.0
 10
134.8415332388031
 20
132.0914974731075
 30
0.0
 10
134.8873105111197
 20
132.0688136792007
 30
0.0
 10
134.9167225097771
 20
132.0741727671134
 30
0.0
  0
SPLINE
  5
1FF
330
2
100
AcDbEntity
  8
0
  6
Continuous
 62
     7
100
AcDbSpline
210
0.0
220
0.0
230
1.0
 70
     8
 71
     3
 72
     9
 73
     5
 74
     0
 42
0.000000001
 43
0.0000000001
 40
0.0
 40
0.0
 40
0.0
 40
0.0
 40
0.2540161635
 40
1.0
 40
1.0
 40
1.0
 40
1.0
 10
132.4505320744065
 20
137.0251084437409
 30
0.0
 10
132.4731523220434
 20
136.9126003907563
 30
0.0
 10
132.5663772155094
 20
136.4705395061094
 30
0.0
 10
132.6758304824343
 20
136.0318498973756
 30
0.0
 10
132.7677178089652
 20
135.7075973765195
 30
0.0
  0
SPLINE
  5
200
330
2
100
AcDbEntity
  8
0
  6
Continuous
 62
     7
100
AcDbSpline
210
0.0
220
0.0
230
1.0
 70
     8
 71
     3
 72
     9
 73
     5
 74
     0
 42
0.000000001
 43
0.0000000001
 40
0.0
 40
0.0
 40
0.0
 40
0.0
 40
0.2612372268
 40
1.0
 40
1.0
 40
1.0
 40
1.0
 10
132.7677178089652
 20
135.7075973765195
 30
0.0
 10
132.795542014519
 20
135.6094111615978
 30
0.0
 10
132.905744537431
 20
135.2346321159089
 30
0.0
 10
133.0306900942523
 20
134.8640706675614
 30
0.0
 10
133.1334631694662
 20
134.59439186699
 30
0.0
  0
SPLINE
  5
201
330
2
100
AcDbEntity
  8
0
  6
Continuous
 62
     7
100
AcDbSpline
210
0.0
220
0.0
230
1.0
 70
     8
 71
     3
 72
     9
 73
     5
 74
     0
 42
0.000000001
 43
0.0000000001
 40
0.0
 40
0.0
 40
0.0
 40
0.0
 40
0.2702480182
 40
1.0
 40
1.0
 40
1.0
 40
1.0
 10
133.1729259759086
 20
134.4924145825393
 30
0.0
 10
133.2052150729614
 20
134.4102506273043
 30
0.0
 10
133.3286382509905
 20
134.1078381856146
 30
0.0
 10
133.4679978824842
 20
133.8115248146357
 30
0.0
 10
133.5831773083828
 20
133.6028117418952
 30
0.0
  0
SPLINE
  5
202
330
2
100
AcDbEntity
  8
0
  6
Continuous
 62
     7
100
AcDbSpline
210
0.0
220
0.0
230
1.0
 70
     8
 71
     3
 72
     9
 73
     5
 74
     0
 42
0.000000001
 43
0.0000000001
 40
0.0
 40
0.0
 40
0.0
 40
0.0
 40
0.2840187243
 40
1.0
 40
1.0
 40
1.0
 40
1.0
 10
133.5831773083828
 20
133.6028117418952
 30
0.0
 10
133.6185623288365
 20
133.5386916414934
 30
0.0
 10
133.74792262146
 20
133.31587801103
 30
0.0
 10
133.8967618221195
 20
133.1023956502511
 30
0.0
 10
134.8013995536403
 20
132.1316781213909
 30
0.0
  0
SPLINE
  5
203
330
2
100
AcDbEntity
  8
0
  6
Continuous
 62
     7
100
AcDbSpline
210
0.0
220
0.0
230
1.0
 70
     8
 71
     3
 72
     9
 73
     5
 74
     0
 42
0.000000001
 43
0.0000000001
 40
0.0
 40
0.0
 40
0.0
 40
0.0
 40
0.220181646
 40
1.0
 40
1.0
 40
1.0
 40
1.0
 10
129.5998634438729
 20
164.1621781800651
 30
0.0
 10
129.5535360508002
 20
164.0708139441383
 30
0.0
 10
129.361389107351
 20
163.6465957501386
 30
0.0
 10
129.231505406764
 20
163.1965749480287
 30
0.0
 10
129.1499068954144
 20
162.8430631450578
 30
0.0
  0
SPLINE
  5
204
330
2
100
AcDbEntity
  8
0
  6
Continuous
 62
     7
100
AcDbSpline
210
0.0
220
0.0
230
1.0
 70
     8
 71
     3
 72
     9
 73
     5
 74
     0
 42
0.000000001
 43
0.0000000001
 40
0.0
 40
0.0
 40
0.0
 40
0.0
 40
0.2375359104
 40
1.0
 40
1.0
 40
1.0
 40
1.0
 10
129.1499068954144
 20
162.8430631450578
 30
0.0
 10
129.1334263786757
 20
162.7716640828912
 30
0.0
 10
129.0676578221209
 20
162.4702503316371
 30
0.0
 10
129.0154143899781
 20
162.1659624736071
 30
0.0
 10
128.9814776866878
 20
161.9332143687854
 30
0.0
  0
SPLINE
  5
205
330
2
100
AcDbEntity
  8
0
  6
Continuous
 62
     7
100
AcDbSpline
210
0.0
220
0.0
230
1.0
 70
     8
 71
     3
 72
     9
 73
     5
 74
     0
 42
0.000000001
 43
0.0000000001
 40
0.0
 40
0.0
 40
0.0
 40
0.0
 40
0.240826231
 40
1.0
 40
1.0
 40
1.0
 40
1.0
 10
128.9814776866878
 20
161.9332143687854
 30
0.0
 10
128.9709767382301
 20
161.8611957100245
 30
0.0
 10
128.9297500910252
 20
161.5618026116681
 30
0.0
 10
128.8976107622511
 20
161.26118377089
 30
0.0
 10
128.8774654052795
 20
161.0326396976995
 30
0.0
  0
SPLINE
  5
206
330
2
100
AcDbEntity
  8
0
  6
Continuous
 62
     7
100
AcDbSpline
210
0.0
220
0.0
230
1.0
 70
     8
 71
     3
 72
     9
 73
     5
 74
     0
 42
0.000000001
 43
0.0000000001
 40
0.0
 40
0.0
 40
0.0
 40
0.0
 40
0.2354779414
 40
1.0
 40
1.0
 40
1.0
 40
1.0
 10
128.8774654052795
 20
161.0326396976995
 30
0.0
 10
128.8629298979758
 20
160.8677379756927
 30
0.0
 10
128.810697527977
 20
160.1666219628146
 30
0.0
 10
128.7931126734547
 20
159.463149297401
 30
0.0
 10
128.794239537925
 20
158.9256910928475
 30
0.0
  0
SPLINE
  5
207
330
2
100
AcDbEntity
  8
0
  6
Continuous
 62
     7
100
AcDbSpline
210
0.0
220
0.0
230
1.0
 70
     8
 71
     3
 72
     9
 73
     5
 74
     0
 42
0.000000001
 43
0.0000000001
 40
0.0
 40
0.0
 40
0.0
 40
0.0
 40
0.2414432807
 40
1.0
 40
1.0
 40
1.0
 40
1.0
 10
128.7969948051395
 20
158.5793929787728
 30
0.0
 10
128.7995170515023
 20
158.3953737823876
 30
0.0
 10
128.8168274955787
 20
157.6333113793255
 30
0.0
 10
128.8600565389697
 20
156.8719100217704
 30
0.0
 10
128.9051602162599
 20
156.2954735521516
 30
0.0
  0
SPLINE
  5
208
330
2
100
AcDbEntity
  8
0
  6
Continuous
 62
     7
100
AcDbSpline
210
0.0
220
0.0
230
1.0
 70
     8
 71
     3
 72
     9
 73
     5
 74
     0
 42
0.000000001
 43
0.0000000001
 40
0.0
 40
0.0
 40
0.0
 40
0.0
 40
0.2873847835999999
 40
1.0
 40
1.0
 40
1.0
 40
1.0
 10
245.7846431141497
 20
298.7913587906751
 30
0.0
 10
245.9764114850259
 20
298.8230824924658
 30
0.0
 10
246.6425816915562
 20
298.939905662046
 30
0.0
 10
247.305086167089
 20
299.0791037912782
 30
0.0
 10
247.7724665270016
 20
299.1968423303297
 30
0.0
  0
SPLINE
  5
209
330
2
100
AcDbEntity
  8
0
  6
Continuous
 62
     7
100
AcDbSpline
210
0.0
220
0.0
230
1.0
 70
     8
 71
     3
 72
     9
 73
     5
 74
     0
 42
0.000000001
 43
0.0000000001
 40
0.0
 40
0.0
 40
0.0
 40
0.0
 40
0.3252205373
 40
1.0
 40
1.0
 40
1.0
 40
1.0
 10
247.7724665270016
 20
299.1968423303297
 30
0.0
 10
247.8474697034944
 20
299.2157365013227
 30
0.0
 10
248.0777160435518
 20
299.2753030199096
 30
0.0
 10
248.3065346967342
 20
299.3404668534563
 30
0.0
 10
248.459743517531
 20
299.3882293472225
 30
0.0
  0
SPLINE
  5
20A
330
2
100
AcDbEntity
  8
0
  6
Continuous
 62
     7
100
AcDbSpline
210
0.0
220
0.0
230
1.0
 70
     8
 71
     3
 72
     9
 73
     5
 74
     0
 42
0.000000001
 43
0.0000000001
 40
0.0
 40
0.0
 40
0.0
 40
0.0
 40
0.7209531509
 40
1.0
 40
1.0
 40
1.0
 40
1.0
 10
248.459743517531
 20
299.3882293472225
 30
0.0
 10
248.4918911995719
 20
299.3982513123429
 30
0.0
 10
248.5368514725924
 20
299.4092564950975
 30
0.0
 10
248.5805631119256
 20
299.4290052490787
 30
0.0
 10
248.5935772843968
 20
299.429714195031
 30
0.0
  0
SPLINE
  5
20B
330
2
100
AcDbEntity
  8
0
  6
Continuous
 62
     7
100
AcDbSpline
210
0.0
220
0.0
230
1.0
 70
     8
 71
     3
 72
     9
 73
     5
 74
     0
 42
0.000000001
 43
0.0000000001
 40
0.0
 40
0.0
 40
0.0
 40
0.0
 40
0.2462604627
 40
1.0
 40
1.0
 40
1.0
 40
1.0
 10
194.9637552245512
 20
263.2740605688005
 30
0.0
 10
194.9800912115515
 20
263.0371533830103
 30
0.0
 10
195.0037241918326
 20
262.0725132593943
 30
0.0
 10
194.8596836524484
 20
261.1050037840937
 30
0.0
 10
194.6669474625196
 20
260.4041902683534
 30
0.0
  0
SPLINE
  5
20C
330
2
100
AcDbEntity
  8
0
  6
Continuous
 62
     7
100
AcDbSpline
210
0.0
220
0.0
230
1.0
 70
     8
 71
     3
 72
    11
 73
     7
 74
     0
 42
0.000000001
 43
0.0000000001
 40
0.0
 40
0.0
 40
0.0
 40
0.0
 40
0.2627395649
 40
0.5168655514000001
 40
0.7615256792000002
 40
1.0
 40
1.0
 40
1.0
 40
1.0
 10
190.1219686236909
 20
254.5492668588258
 30
0.0
 10
189.2829410757404
 20
254.0570353348253
 30
0.0
 10
187.4771269885532
 20
253.3257563596267
 30
0.0
 10
184.6164299631236
 20
253.1211135025888
 30
0.0
 10
181.9295534195626
 20
253.8530067940874
 30
0.0
 10
180.4483293517041
 20
254.9405255274241
 30
0.0
 10
179.846465923114
 20
255.5865189540732
 30
0.0
  0
SPLINE
  5
20D
330
2
100
AcDbEntity
  8
0
  6
Continuous
 62
     7
100
AcDbSpline
210
0.0
220
0.0
230
1.0
 70
     8
 71
     3
 72
     9
 73
     5
 74
     0
 42
0.000000001
 43
0.0000000001
 40
0.0
 40
0.0
 40
0.0
 40
0.0
 40
0.5057752689
 40
1.0
 40
1.0
 40
1.0
 40
1.0
 10
140.9326357429127
 20
253.4328767079169
 30
0.0
 10
140.9065907947424
 20
253.8105848534115
 30
0.0
 10
140.7351246187099
 20
254.5553618028462
 30
0.0
 10
140.3194005985479
 20
255.198900742821
 30
0.0
 10
140.0671121878895
 20
255.4694927283394
 30
0.0
  0
SPLINE
  5
20E
330
2
100
AcDbEntity
  8
0
  6
Continuous
 62
     7
100
AcDbSpline
210
0.0
220
0.0
230
1.0
 70
     8
 71
     3
 72
    15
 73
    11
 74
     0
 42
0.000000001
 43
0.0000000001
 40
0.0
 40
0.0
 40
0.0
 40
0.0
 40
0.116625473
 40
0.2360152981
 40
0.3597432595
 40
0.4876559936
 40
0.6180773634000003
 40
0.7484791518
 40
0.8763390137999998
 40
1.0
 40
1.0
 40
1.0
 40
1.0
 10
134.2148442828584
 20
250.0150419000356
 30
0.0
 10
134.4689549685645
 20
249.7424954330645
 30
0.0
 10
135.0876470475359
 20
249.2796042788664
 30
0.0
 10
136.2080725449996
 20
248.9412638019362
 30
0.0
 10
137.4125195902961
 20
248.9778651085644
 30
0.0
 10
138.5834563629068
 20
249.3797207285097
 30
0.0
 10
139.6122185313252
 20
250.1041510421164
 30
0.0
 10
140.4032049078087
 20
251.0827662486013
 30
0.0
 10
140.8814883980521
 20
252.2231929177124
 30
0.0
 10
140.9598161085686
 20
253.0387025490318
 30
0.0
 10
140.9326357429127
 20
253.4328767079169
 30
0.0
  0
SPLINE
  5
20F
330
2
100
AcDbEntity
  8
0
  6
Continuous
 62
     7
100
AcDbSpline
210
0.0
220
0.0
230
1.0
 70
     8
 71
     3
 72
     9
 73
     5
 74
     0
 42
0.000000001
 43
0.0000000001
 40
0.0
 40
0.0
 40
0.0
 40
0.0
 40
0.49418326
 40
1.0
 40
1.0
 40
1.0
 40
1.0
 10
193.0185857422602
 20
267.8538599116659
 30
0.0
 10
193.5855883573094
 20
267.2452833728885
 30
0.0
 10
194.5199004956666
 20
265.7980436644134
 30
0.0
 10
194.9051885519493
 20
264.1234041406792
 30
0.0
 10
194.9637552245512
 20
263.2740605688005
 30
0.0
  0
SPLINE
  5
210
330
2
100
AcDbEntity
  8
0
  6
Continuous
 62
     7
100
AcDbSpline
210
0.0
220
0.0
230
1.0
 70
     8
 71
     3
 72
     9
 73
     5
 74
     0
 42
0.000000001
 43
0.0000000001
 40
0.0
 40
0.0
 40
0.0
 40
0.0
 40
0.2264606649
 40
1.0
 40
1.0
 40
1.0
 40
1.0
 10
118.8138701330972
 20
275.7822601286489
 30
0.0
 10
118.8364087665322
 20
275.7880821928875
 30
0.0
 10
118.9362798108704
 20
275.8124563773408
 30
0.0
 10
119.0371707090435
 20
275.8324519570265
 30
0.0
 10
119.1153953531502
 20
275.8467132993938
 30
0.0
  0
SPLINE
  5
211
330
2
100
AcDbEntity
  8
0
  6
Continuous
 62
     7
100
AcDbSpline
210
0.0
220
0.0
230
1.0
 70
     8
 71
     3
 72
    10
 73
     6
 74
     0
 42
0.000000001
 43
0.0000000001
 40
0.0
 40
0.0
 40
0.0
 40
0.0
 40
0.1907490129
 40
0.4369175613000002
 40
1.0
 40
1.0
 40
1.0
 40
1.0
 10
119.1153953531502
 20
275.8467132993938
 30
0.0
 10
119.3931186697591
 20
275.8973457739985
 30
0.0
 10
120.034365284353
 20
275.9833250154393
 30
0.0
 10
121.5018321616935
 20
276.1725064053553
 30
0.0
 10
122.6863573551381
 20
276.3566474207137
 30
0.0
 10
123.5036884977708
 20
276.5192058422831
 30
0.0
  0
SPLINE
  5
212
330
2
100
AcDbEntity
  8
0
  6
Continuous
 62
     7
100
AcDbSpline
210
0.0
220
0.0
230
1.0
 70
     8
 71
     3
 72
    15
 73
    11
 74
     0
 42
0.000000001
 43
0.0000000001
 40
0.0
 40
0.0
 40
0.0
 40
0.0
 40
0.116625473
 40
0.2360152981
 40
0.3597432595
 40
0.4876559936
 40
0.6180773634000003
 40
0.7484791518
 40
0.8763390137999998
 40
1.0
 40
1.0
 40
1.0
 40
1.0
 10
140.0671121878895
 20
255.4694927283394
 30
0.0
 10
139.8130015023089
 20
255.7420391953774
 30
0.0
 10
139.1943094232138
 20
256.2049303495105
 30
0.0
 10
138.0738839257519
 20
256.5432708264407
 30
0.0
 10
136.8694368804554
 20
256.5066695198134
 30
0.0
 10
135.6985001078465
 20
256.1048138998667
 30
0.0
 10
134.6697379394263
 20
255.3803835862595
 30
0.0
 10
133.878751562941
 20
254.4017683797747
 30
0.0
 10
133.4004680728211
 20
253.2613417107295
 30
0.0
 10
133.322140362181
 20
252.4458320793451
 30
0.0
 10
133.3493207279334
 20
252.0516579204295
 30
0.0
  0
SPLINE
  5
213
330
2
100
AcDbEntity
  8
0
  6
Continuous
 62
     7
100
AcDbSpline
210
0.0
220
0.0
230
1.0
 70
     8
 71
     3
 72
     9
 73
     5
 74
     0
 42
0.000000001
 43
0.0000000001
 40
0.0
 40
0.0
 40
0.0
 40
0.0
 40
0.4958401900000001
 40
1.0
 40
1.0
 40
1.0
 40
1.0
 10
179.846465923114
 20
255.5865189540732
 30
0.0
 10
179.388645709143
 20
256.0779075894684
 30
0.0
 10
178.6033566833612
 20
257.2068723333264
 30
0.0
 10
178.1641202839291
 20
258.5083113256892
 30
0.0
 10
178.0320201867744
 20
259.1782928804992
 30
0.0
  0
SPLINE
  5
214
330
2
100
AcDbEntity
  8
0
  6
Continuous
 62
     7
100
AcDbSpline
210
0.0
220
0.0
230
1.0
 70
     8
 71
     3
 72
    15
 73
    11
 74
     0
 42
0.000000001
 43
0.0000000001
 40
0.0
 40
0.0
 40
0.0
 40
0.0
 40
0.1236713405
 40
0.2515232031
 40
0.3819302066
 40
0.5123507561000002
 40
0.6402614522
 40
0.7639858771
 40
0.8833718669999999
 40
1.0
 40
1.0
 40
1.0
 40
1.0
 10
177.9012964408211
 20
260.1663182969373
 30
0.0
 10
177.8401265197644
 20
261.0534146093792
 30
0.0
 10
178.0163603733126
 20
262.8886345147562
 30
0.0
 10
179.0931350509163
 20
265.4548335440499
 30
0.0
 10
180.8732460419905
 20
267.6569028425138
 30
0.0
 10
183.188666022681
 20
269.286659187655
 30
0.0
 10
185.8238126922006
 20
270.1904265456838
 30
0.0
 10
188.5341720212018
 20
270.2719716596953
 30
0.0
 10
191.0553005688125
 20
269.5098487797618
 30
0.0
 10
192.4469598991563
 20
268.4673986642287
 30
0.0
 10
193.0185857422602
 20
267.8538599116659
 30
0.0
  0
SPLINE
  5
215
330
2
100
AcDbEntity
  8
0
  6
Continuous
 62
     7
100
AcDbSpline
210
0.0
220
0.0
230
1.0
 70
     8
 71
     3
 72
     8
 73
     4
 74
     0
 42
0.000000001
 43
0.0000000001
 40
0.0
 40
0.0
 40
0.0
 40
0.0
 40
1.0
 40
1.0
 40
1.0
 40
1.0
 10
133.3493207279334
 20
252.0516579204295
 30
0.0
 10
133.3722423114559
 20
251.7192453248599
 30
0.0
 10
133.4428986960265
 20
251.386438037704
 30
0.0
 10
133.5600919118478
 20
251.0745257377493
 30
0.0
  0
SPLINE
  5
216
330
2
100
AcDbEntity
  8
0
  6
Continuous
 62
     7
100
AcDbSpline
210
0.0
220
0.0
230
1.0
 70
     8
 71
     3
 72
     8
 73
     4
 74
     0
 42
0.000000001
 43
0.0000000001
 40
0.0
 40
0.0
 40
0.0
 40
0.0
 40
1.0
 40
1.0
 40
1.0
 40
1.0
 10
133.6342023139441
 20
250.8938085839882
 30
0.0
 10
133.7770923715361
 20
250.5731117968089
 30
0.0
 10
133.9754233376879
 20
250.2718328829924
 30
0.0
 10
134.2148442828584
 20
250.0150419000356
 30
0.0
  0
SPLINE
  5
217
330
2
100
AcDbEntity
  8
0
  6
Continuous
 62
     7
100
AcDbSpline
210
0.0
220
0.0
230
1.0
 70
     8
 71
     3
 72
    14
 73
    10
 74
     0
 42
0.000000001
 43
0.0000000001
 40
0.0
 40
0.0
 40
0.0
 40
0.0
 40
0.3624877372999999
 40
0.5159460785
 40
0.6492697216
 40
0.7621965691
 40
0.8557015168999997
 40
0.9328218483
 40
1.0
 40
1.0
 40
1.0
 40
1.0
 10
215.3251225968124
 20
164.3365634283739
 30
0.0
 10
215.2791304109724
 20
162.5232480872053
 30
0.0
 10
215.1105726731366
 20
159.9392718838848
 30
0.0
 10
214.5608892439777
 20
156.7343108916975
 30
0.0
 10
214.0512417746977
 20
154.7967337830778
 30
0.0
 10
213.4273806508991
 20
153.2094538652477
 30
0.0
 10
212.6913428244079
 20
151.9856142518768
 30
0.0
 10
211.8345170674347
 20
151.1343732782143
 30
0.0
 10
211.1493607797493
 20
150.8390644728461
 30
0.0
 10
210.8186481324865
 20
150.7787854107182
 30
0.0
  0
SPLINE
  5
218
330
2
100
AcDbEntity
  8
0
  6
Continuous
 62
     7
100
AcDbSpline
210
0.0
220
0.0
230
1.0
 70
     8
 71
     3
 72
     9
 73
     5
 74
     0
 42
0.000000001
 43
0.0000000001
 40
0.0
 40
0.0
 40
0.0
 40
0.0
 40
0.261258461
 40
1.0
 40
1.0
 40
1.0
 40
1.0
 10
115.5832765219456
 20
274.987713411766
 30
0.0
 10
115.6308302329525
 20
275.0222689736297
 30
0.0
 10
115.8186443430131
 20
275.1461873320382
 30
0.0
 10
116.0326348532398
 20
275.2318484814177
 30
0.0
 10
116.1954681226743
 20
275.2652136042511
 30
0.0
  0
SPLINE
  5
219
330
2
100
AcDbEntity
  8
0
  6
Continuous
 62
     7
100
AcDbSpline
210
0.0
220
0.0
230
1.0
 70
     8
 71
     3
 72
    10
 73
     6
 74
     0
 42
0.000000001
 43
0.0000000001
 40
0.0
 40
0.0
 40
0.0
 40
0.0
 40
0.3110247188
 40
0.5795931585
 40
1.0
 40
1.0
 40
1.0
 40
1.0
 10
57.85782177892816
 20
230.6149188168551
 30
0.0
 10
57.98488971377263
 20
231.0806967284216
 30
0.0
 10
58.2574436177847
 20
231.9419093196575
 30
0.0
 10
58.88588873674326
 20
233.3555931193487
 30
0.0
 10
59.53693218124044
 20
234.2608620108813
 30
0.0
 10
60.06485962713941
 20
234.6444877922309
 30
0.0
  0
SPLINE
  5
21A
330
2
100
AcDbEntity
  8
0
  6
Continuous
 62
     7
100
AcDbSpline
210
0.0
220
0.0
230
1.0
 70
     8
 71
     3
 72
    12
 73
     8
 74
     0
 42
0.000000001
 43
0.0000000001
 40
0.0
 40
0.0
 40
0.0
 40
0.0
 40
0.3418379532
 40
0.6241304657
 40
0.7412498021
 40
0.8422885117999998
 40
1.0
 40
1.0
 40
1.0
 40
1.0
 10
213.1091900842366
 20
204.4093597442293
 30
0.0
 10
213.1368686494552
 20
205.3647048940011
 30
0.0
 10
213.251126733152
 20
207.1082990885407
 30
0.0
 10
213.6017670804085
 20
209.1571454158779
 30
0.0
 10
214.0190068633929
 20
210.4972698543252
 30
0.0
 10
214.4408896925324
 20
211.4560233624957
 30
0.0
 10
214.8791931125834
 20
212.0704218701994
 30
0.0
 10
215.2359054591616
 20
212.3296318311873
 30
0.0
  0
SPLINE
  5
21B
330
2
100
AcDbEntity
  8
0
  6
Continuous
 62
     7
100
AcDbSpline
210
0.0
220
0.0
230
1.0
 70
     8
 71
     3
 72
    10
 73
     6
 74
     0
 42
0.000000001
 43
0.0000000001
 40
0.0
 40
0.0
 40
0.0
 40
0.0
 40
0.1813039919
 40
0.5150670499000001
 40
1.0
 40
1.0
 40
1.0
 40
1.0
 10
251.0881995571908
 20
299.6014612771646
 30
0.0
 10
251.0866232537483
 20
299.6233271175702
 30
0.0
 10
251.0630707607597
 20
299.6850203318354
 30
0.0
 10
250.9538066759305
 20
299.7516053277127
 30
0.0
 10
250.8572704072394
 20
299.7729725469426
 30
0.0
 10
250.7993096383761
 20
299.7818470823813
 30
0.0
  0
SPLINE
  5
21C
330
2
100
AcDbEntity
  8
0
  6
Continuous
 62
     7
100
AcDbSpline
210
0.0
220
0.0
230
1.0
 70
     8
 71
     3
 72
    14
 73
    10
 74
     0
 42
0.000000001
 43
0.0000000001
 40
0.0
 40
0.0
 40
0.0
 40
0.0
 40
0.0646493718
 40
0.1455739136
 40
0.2451039644
 40
0.3635675919
 40
0.5001156846
 40
0.6531499974
 40
1.0
 40
1.0
 40
1.0
 40
1.0
 10
194.668701142813
 20
259.1611212702651
 30
0.0
 10
194.324276121597
 20
258.9108400642481
 30
0.0
 10
193.6750298799598
 20
258.176987074025
 30
0.0
 10
192.9429860710042
 20
256.7295283653875
 30
0.0
 10
192.3447929199937
 20
254.8473559728531
 30
0.0
 10
191.8908303999869
 20
252.5537571981504
 30
0.0
 10
191.5871219778528
 20
249.8812803821051
 30
0.0
 10
191.383346564573
 20
245.6929539064795
 30
0.0
 10
191.4902476717689
 20
242.3962019004161
 30
0.0
 10
191.6473839966019
 20
240.117384928591
 30
0.0
  0
SPLINE
  5
21D
330
2
100
AcDbEntity
  8
0
  6
Continuous
 62
     7
100
AcDbSpline
210
0.0
220
0.0
230
1.0
 70
     8
 71
     3
 72
    17
 73
    13
 74
     0
 42
0.000000001
 43
0.0000000001
 40
0.0
 40
0.0
 40
0.0
 40
0.0
 40
0.0286313138
 40
0.0591416774
 40
0.0930693491
 40
0.1314752031
 40
0.2239611928
 40
0.3389898072
 40
0.4762155956000001
 40
0.6339377310000001
 40
0.8095913799999998
 40
1.0
 40
1.0
 40
1.0
 40
1.0
 10
210.8186481324865
 20
150.7787854107182
 30
0.0
 10
210.6081986051613
 20
150.740426732219
 30
0.0
 10
210.1602683281017
 20
150.7224542090152
 30
0.0
 10
209.4757579973484
 20
150.8765026593946
 30
0.0
 10
208.7749413440688
 20
151.2028454452247
 30
0.0
 10
207.7578383024811
 20
151.9047391894028
 30
0.0
 10
206.4738125733839
 20
153.240210500496
 30
0.0
 10
204.9908369345358
 20
155.3518584555504
 30
0.0
 10
203.5032453002623
 20
158.0349244258156
 30
0.0
 10
202.0427458737195
 20
161.2360940667121
 30
0.0
 10
200.6403375365444
 20
164.8917818162263
 30
0.0
 10
199.7931189877671
 20
167.4935297278707
 30
0.0
 10
199.3822591468159
 20
168.855533337759
 30
0.0
  0
SPLINE
  5
21E
330
2
100
AcDbEntity
  8
0
  6
Continuous
 62
     7
100
AcDbSpline
210
0.0
220
0.0
230
1.0
 70
     8
 71
     3
 72
     9
 73
     5
 74
     0
 42
0.000000001
 43
0.0000000001
 40
0.0
 40
0.0
 40
0.0
 40
0.0
 40
0.2435234144
 40
1.0
 40
1.0
 40
1.0
 40
1.0
 10
199.3822591468159
 20
168.855533337759
 30
0.0
 10
199.2021369922404
 20
169.4526396995261
 30
0.0
 10
198.4862636706384
 20
171.9117224595788
 30
0.0
 10
197.8613315562506
 20
174.397060153336
 30
0.0
 10
197.4350107341488
 20
176.2869685780296
 30
0.0
  0
SPLINE
  5
21F
330
2
100
AcDbEntity
  8
0
  6
Continuous
 62
     7
100
AcDbSpline
210
0.0
220
0.0
230
1.0
 70
     8
 71
     3
 72
     9
 73
     5
 74
     0
 42
0.000000001
 43
0.0000000001
 40
0.0
 40
0.0
 40
0.0
 40
0.0
 40
0.5051392658000001
 40
1.0
 40
1.0
 40
1.0
 40
1.0
 10
197.3492503088964
 20
176.6701351178681
 30
0.0
 10
196.7950348462909
 20
179.1658378370878
 30
0.0
 10
195.8560790911142
 20
184.142695695876
 30
0.0
 10
195.2296768531305
 20
189.1689347440338
 30
0.0
 10
195.0082701994433
 20
191.6636084175466
 30
0.0
  0
SPLINE
  5
220
330
2
100
AcDbEntity
  8
0
  6
Continuous
 62
     7
100
AcDbSpline
210
0.0
220
0.0
230
1.0
 70
     8
 71
     3
 72
     8
 73
     4
 74
     0
 42
0.000000001
 43
0.0000000001
 40
0.0
 40
0.0
 40
0.0
 40
0.0
 40
1.0
 40
1.0
 40
1.0
 40
1.0
 10
250.7993096383761
 20
299.7818470823813
 30
0.0
 10
250.6920124466633
 20
299.7598615016218
 30
0.0
 10
250.5866905110088
 20
299.7251814181764
 30
0.0
 10
250.4869019780199
 20
299.6800338625176
 30
0.0
  0
SPLINE
  5
221
330
2
100
AcDbEntity
  8
0
  6
Continuous
 62
     7
100
AcDbSpline
210
0.0
220
0.0
230
1.0
 70
     8
 71
     3
 72
     8
 73
     4
 74
     0
 42
0.000000001
 43
0.0000000001
 40
0.0
 40
0.0
 40
0.0
 40
0.0
 40
1.0
 40
1.0
 40
1.0
 40
1.0
 10
250.4869019780199
 20
299.6800338625176
 30
0.0
 10
250.3813760532775
 20
299.6322905254574
 30
0.0
 10
250.2808160354507
 20
299.5724338359882
 30
0.0
 10
250.187118037622
 20
299.5043468898011
 30
0.0
  0
SPLINE
  5
222
330
2
100
AcDbEntity
  8
0
  6
Continuous
 62
     7
100
AcDbSpline
210
0.0
220
0.0
230
1.0
 70
     8
 71
     3
 72
     9
 73
     5
 74
     0
 42
0.000000001
 43
0.0000000001
 40
0.0
 40
0.0
 40
0.0
 40
0.0
 40
0.2370970789
 40
1.0
 40
1.0
 40
1.0
 40
1.0
 10
133.1325598910116
 20
170.1029577781212
 30
0.0
 10
132.8177880977127
 20
169.6561767437372
 30
0.0
 10
131.5300338085762
 20
167.7437685076425
 30
0.0
 10
130.3951658340283
 20
165.7306278349895
 30
0.0
 10
129.5998651566806
 20
164.1621815580099
 30
0.0
  0
ELLIPSE
  5
223
330
2
100
AcDbEntity
  8
0
  6
Continuous
 62
     7
100
AcDbEllipse
 10
147.9330488433952
 20
31.77976217223932
 30
0.0
 11
0.5076562034415223
 21
0.0128830835521
 31
0.0
210
0.0
220
0.0
230
0.9999999999999996
 40
0.4197575362000002
 41
0.3559088631
 42
1.1413070264
  0
ELLIPSE
  5
224
330
2
100
AcDbEntity
  8
0
  6
Continuous
 62
     7
100
AcDbEllipse
 10
145.3295439532849
 20
33.14567238566155
 30
0.0
 11
1.522968610229025
 21
0.0386492506858304
 31
0.0
210
0.0
220
0.0
230
1.0
 40
0.4197575362000002
 41
-2.7856837905
 42
-2.0002856271
  0
ELLIPSE
  5
225
330
2
100
AcDbEntity
  8
0
  6
Continuous
 62
     7
100
AcDbEllipse
 10
69.06406450135637
 20
114.9820088247142
 30
0.0
 11
1.522968610229025
 21
0.0386492506858304
 31
0.0
210
0.0
220
0.0
230
1.0
 40
0.4197575362000002
 41
2.712103353299999
 42
3.223545516499998
  0
ELLIPSE
  5
226
330
2
100
AcDbEntity
  8
0
  6
Continuous
 62
     7
100
AcDbEllipse
 10
68.73555411571306
 20
116.7622846744016
 30
0.0
 11
0.5076562034415223
 21
0.0128830835521
 31
0.0
210
0.0
220
0.0
230
0.9999999999999996
 40
0.4197575362000002
 41
-0.4294893003000002
 42
0.0819726712
  0
ELLIPSE
  5
227
330
2
100
AcDbEntity
  8
0
  6
Continuous
 62
     7
100
AcDbEllipse
 10
142.4326372711985
 20
128.345300593726
 30
0.0
 11
1.522968610229025
 21
0.0386492506858304
 31
0.0
210
0.0
220
0.0
230
1.0
 40
0.4197575362000002
 41
0.3559088631
 42
1.1413070265
  0
ELLIPSE
  5
228
330
2
100
AcDbEntity
  8
0
  6
Continuous
 62
     7
100
AcDbEllipse
 10
218.6981167230588
 20
46.50896415479701
 30
0.0
 11
1.522968610229025
 21
0.0386492506858304
 31
0.0
210
0.0
220
0.0
230
1.0
 40
0.4197575362000002
 41
5.8536960069
 42
6.639094170299998
  0
ELLIPSE
  5
229
330
2
100
AcDbEntity
  8
0
  6
Continuous
 62
     7
100
AcDbEllipse
 10
219.026627108673
 20
44.72868830501352
 30
0.0
 11
0.5076562034415223
 21
0.0128830835521
 31
0.0
210
0.0
220
0.0
230
0.9999999999999996
 40
0.4197575362000002
 41
8.995288660499998
 42
9.780686823899999
  0
ELLIPSE
  5
22A
330
2
100
AcDbEntity
  8
0
  6
Continuous
 62
     7
100
AcDbEllipse
 10
139.8291323811154
 20
129.7112108072438
 30
0.0
 11
0.5076562034415223
 21
0.0128830835521
 31
0.0
210
0.0
220
0.0
230
0.9999999999999996
 40
0.4197575362000002
 41
-2.7856837905
 42
-2.000285627199998
  0
LINE
  5
22B
330
2
100
AcDbEntity
  8
粗实线
 48
0.5
100
AcDbLine
 10
116.1954681226744
 20
275.2652136042511
 30
0.0
 11
107.0052095337862
 21
239.5048803702457
 31
0.0
  0
ARC
  5
22C
330
2
100
AcDbEntity
  8
粗实线
 48
0.5
100
AcDbCircle
 10
247.59733797651
 20
188.1082681897811
 30
0.0
 40
47.90613191281039
100
AcDbArc
 50
162.4928558996131
 51
207.4053738001171
  0
ELLIPSE
  5
22D
330
2
100
AcDbEntity
  8
粗实线
 48
0.5
100
AcDbEllipse
 10
228.0318125346457
 20
187.2394377677592
 30
0.0
 11
-3.6159272567607
 21
17.35121974785784
 31
0.0
210
0.0
220
0.0
230
1.0
 40
0.4187763362041382
 41
0.0
 42
6.283185307179585
  0
LINE
  5
22E
330
2
100
AcDbEntity
  8
粗实线
 48
0.5
100
AcDbLine
 10
312.0794247464214
 20
140.5147816460466
 30
0.0
 11
316.5023821997857
 21
135.730602270276
 31
0.0
  0
LINE
  5
22F
330
2
100
AcDbEntity
  8
粗实线
 48
0.5
100
AcDbLine
 10
316.2484044760878
 20
144.1860323010341
 30
0.0
 11
319.4315681737789
 21
141.4267504925556
 31
0.0
  0
LINE
  5
230
330
2
100
AcDbEntity
  8
粗实线
 48
0.5
100
AcDbLine
 10
30.46693017358772
 20
83.24474287943575
 30
0.0
 11
34.82149510394084
 21
77.62658288353121
 31
0.0
  0
LINE
  5
231
330
2
100
AcDbEntity
  8
粗实线
 48
0.5
100
AcDbLine
 10
34.65053386812412
 20
86.7902254707207
 30
0.0
 11
37.8175488523484
 21
82.33793285867433
 31
0.0
  0
LINE
  5
232
330
2
100
AcDbEntity
  8
粗实线
 48
0.5
100
AcDbLine
 10
209.2287075733402
 20
54.0336072712953
 30
0.0
 11
146.4120183027953
 21
121.4387787070891
 31
0.0
  0
LINE
  5
233
330
2
100
AcDbEntity
  8
粗实线
 48
0.5
100
AcDbLine
 10
82.54763346025175
 20
118.8176753484249
 30
0.0
 11
131.839916295783
 21
127.7948085230246
 31
0.0
  0
ARC
  5
234
330
2
100
AcDbEntity
  8
粗实线
 48
0.5
100
AcDbCircle
 10
77.15983880681946
 20
159.621928956798
 30
0.0
 40
34.69765731318724
100
AcDbArc
 50
160.2058464037279
 51
216.9292853770164
  0
ENDSEC
  0
SECTION
  2
OBJECTS
  0
DICTIONARY
  5
9
330
0
100
AcDbDictionary
281
     1
  3
ACAD_COLOR
350
4E
  3
ACAD_GROUP
350
43
  3
ACAD_LAYOUT
350
1E
  3
ACAD_MATERIAL
350
B
  3
ACAD_MLEADERSTYLE
350
51
  3
ACAD_MLINESTYLE
350
44
  3
ACAD_PLOTSETTINGS
350
45
  3
ACAD_PLOTSTYLENAME
350
8
  3
ACAD_SCALELIST
350
4F
  3
ACAD_TABLESTYLE
350
50
  3
ACAD_VISUALSTYLE
350
39
  3
ACDB_RECOMPOSE_DATA
350
242
  3
AcDbVariableDictionary
350
237
  0
DICTIONARY
  5
2A
330
29
100
AcDbDictionary
280
     1
281
     1
  3
ACAD_LAYERSTATES
360
2B
  3
ACLYDICTIONARY
360
2C
  0
DICTIONARY
  5
3
330
2
100
AcDbDictionary
280
     1
281
     1
  3
ACAD_SORTENTS
360
236
  0
DICTIONARY
  5
23
330
22
100
AcDbDictionary
280
     1
281
     1
  3
ACAD_SORTENTS
360
235
  0
DICTIONARY
  5
4E
102
{ACAD_REACTORS
330
9
102
}
330
9
100
AcDbDictionary
281
     1
  0
DICTIONARY
  5
43
102
{ACAD_REACTORS
330
9
102
}
330
9
100
AcDbDictionary
281
     1
  0
DICTIONARY
  5
1E
102
{ACAD_REACTORS
330
9
102
}
330
9
100
AcDbDictionary
281
     1
  3
Model
350
1D
  3
布局3
350
27
1001
AcadStringInfo
1000
MIFCodePage
1070
     5
  0
DICTIONARY
  5
B
102
{ACAD_REACTORS
330
9
102
}
330
9
100
AcDbDictionary
281
     1
  3
ByBlock
350
46
  3
ByLayer
350
14
  3
Global
350
A
  0
DICTIONARY
  5
51
102
{ACAD_REACTORS
330
9
102
}
330
9
100
AcDbDictionary
281
     1
  0
DICTIONARY
  5
44
102
{ACAD_REACTORS
330
9
102
}
330
9
100
AcDbDictionary
281
     1
  3
Standard
350
53
  0
DICTIONARY
  5
45
102
{ACAD_REACTORS
330
9
102
}
330
9
100
AcDbDictionary
281
     1
1001
AcadStringInfo
1000
MIFCodePage
1070
     5
  0
ACDBDICTIONARYWDFLT
  5
8
102
{ACAD_REACTORS
330
9
102
}
330
9
100
AcDbDictionary
281
     1
  3
Normal
350
7
100
AcDbDictionaryWithDefault
340
7
  0
DICTIONARY
  5
4F
102
{ACAD_REACTORS
330
9
102
}
330
9
100
AcDbDictionary
281
     1
  3
*A1
350
58
  3
A0
350
59
  3
A1
350
5A
  3
A2
350
5B
  3
A3
350
5C
  3
A4
350
5D
  3
A5
350
5E
  3
A6
350
5F
  3
A7
350
60
  3
A8
350
61
  3
A9
350
62
  3
B0
350
63
  3
B1
350
64
  3
B2
350
65
  3
B3
350
66
  3
B4
350
67
  3
B5
350
68
  3
B6
350
69
  3
B7
350
6A
  0
DICTIONARY
  5
50
102
{ACAD_REACTORS
330
9
102
}
330
9
100
AcDbDictionary
281
     1
  3
Standard
350
54
  0
DICTIONARY
  5
39
102
{ACAD_REACTORS
330
9
102
}
330
9
100
AcDbDictionary
281
     1
  3
2dWireframe
350
38
  3
Realistic
350
56
  3
Wireframe
350
57
  0
XRECORD
  5
242
102
{ACAD_REACTORS
330
9
102
}
330
9
100
AcDbXrecord
280
     1
 90
        1
330
54
  0
DICTIONARY
  5
237
102
{ACAD_REACTORS
330
9
102
}
330
9
100
AcDbDictionary
281
     1
  3
CANNOSCALE
350
23D
  3
CMLEADERSTYLE
350
239
  3
CTABLESTYLE
350
238
  3
CVIEWDETAILSTYLE
350
23A
  3
CVIEWSECTIONSTYLE
350
23B
  3
LAYEREVAL
350
23F
  3
LAYERNOTIFY
350
240
  3
LIGHTINGUNITS
350
23E
  3
MSLTSCALE
350
23C
  0
DICTIONARY
  5
2B
102
{ACAD_REACTORS
330
2A
102
}
330
2A
100
AcDbDictionary
281
     1
  0
DICTIONARY
  5
2C
102
{ACAD_REACTORS
330
2A
102
}
330
2A
100
AcDbDictionary
281
     1
1001
ACAD
1000
<AllUsed
  0
SORTENTSTABLE
  5
236
102
{ACAD_REACTORS
330
3
102
}
330
3
100
AcDbSortentsTable
330
2
  0
SORTENTSTABLE
  5
235
102
{ACAD_REACTORS
330
23
102
}
330
23
100
AcDbSortentsTable
330
22
  0
LAYOUT
  5
1D
102
{ACAD_XDICTIONARY
360
20
102
}
102
{ACAD_REACTORS
330
1E
102
}
330
1E
100
AcDbPlotSettings
  1

  2
none_device
  4
ISO_A4_(210.00_x_297.00_MM)
  6

 40
7.5
 41
20.0
 42
7.5
 43
20.0
 44
210.0
 45
297.0
 46
11.54999923706054
 47
-13.65000009536743
 48
0.0
 49
0.0
140
0.0
141
0.0
142
1.0
143
8.704084754739808
 70
 11952
 72
     1
 73
     0
 74
     0
  7

 75
     0
147
0.1148885871608098
 76
     0
 77
     2
 78
   300
148
0.0
149
0.0
100
AcDbLayout
  1
Model
 70
     1
 71
     0
 10
0.0
 20
0.0
 11
12.0
 21
9.0
 12
0.0
 22
0.0
 32
0.0
 14
4481.471318350177
 24
-3535.630252803612
 34
0.0
 15
24959.29873815779
 25
454.717472976647
 35
0.0
146
0.0
 13
0.0
 23
0.0
 33
0.0
 16
1.0
 26
0.0
 36
0.0
 17
0.0
 27
1.0
 37
0.0
 76
     0
330
2
331
37
1001
ACAD_PSEXT
1000
None
1000
None
1000
Not applicable
1000
The layout will not be plotted unless a new plotter configuration name is selected.
1070
     0
  0
LAYOUT
  5
27
102
{ACAD_XDICTIONARY
360
28
102
}
102
{ACAD_REACTORS
330
1E
102
}
330
1E
100
AcDbPlotSettings
  1

  2
TOSHIBA e-STUDIO PS3.pc3
  4
A4
  6

 40
5.0
 41
5.0
 42
4.888656616210936
 43
5.053009033203125
 44
209.8886566162109
 45
297.0530090332031
 46
0.0
 47
0.0
 48
0.0
 49
0.0
140
0.0
141
0.0
142
1.0
143
1.0
 70
   688
 72
     1
 73
     1
 74
     5
  7
monochrome.ctb
 75
    16
147
1.0
 76
     0
 77
     2
 78
   300
148
0.0
149
0.0
100
AcDbLayout
  1
布局3
 70
     1
 71
     1
 10
-5.053009033203125
 20
-5.0
 11
292.0
 21
204.888656616211
 12
0.0
 22
0.0
 32
0.0
 14
5.0
 24
4.899999999999494
 34
0.0
 15
282.0000000000003
 25
194.9
 35
0.0
146
0.0
 13
0.0
 23
0.0
 33
0.0
 16
1.0
 26
0.0
 36
0.0
 17
0.0
 27
1.0
 37
0.0
 76
     0
330
22
1001
ACAD_PSEXT
1000
TOSHIBA e-STUDIO PS3.pc3
1000
TOSHIBA e-STUDIO PS3
1000
192.168.1.14_1
1000

1070
     0
1001
AcadStringInfo
1000
MIFCodePage
1070
     5
  0
MATERIAL
  5
46
102
{ACAD_XDICTIONARY
360
47
102
}
102
{ACAD_REACTORS
330
B
102
}
330
B
100
AcDbMaterial
  1
ByBlock
 72
     0
 43
0.0008202099737533
 43
0.0
 43
0.0
 43
0.0
 43
0.0
 43
0.0008202099737533
 43
0.0
 43
0.0
 43
0.0
 43
0.0
 43
1.0
 43
0.0
 43
0.0
 43
0.0
 43
0.0
 43
1.0
 77
     0
 47
0.0008202099737533
 47
0.0
 47
0.0
 47
0.0
 47
0.0
 47
0.0008202099737533
 47
0.0
 47
0.0
 47
0.0
 47
0.0
 47
1.0
 47
0.0
 47
0.0
 47
0.0
 47
0.0
 47
1.0
171
     0
 49
0.0008202099737533
 49
0.0
 49
0.0
 49
0.0
 49
0.0
 49
0.0008202099737533
 49
0.0
 49
0.0
 49
0.0
 49
0.0
 49
1.0
 49
0.0
 49
0.0
 49
0.0
 49
0.0
 49
1.0
175
     0
142
0.0008202099737533
142
0.0
142
0.0
142
0.0
142
0.0
142
0.0008202099737533
142
0.0
142
0.0
142
0.0
142
0.0
142
1.0
142
0.0
142
0.0
142
0.0
142
0.0
142
1.0
179
     0
144
0.0008202099737533
144
0.0
144
0.0
144
0.0
144
0.0
144
0.0008202099737533
144
0.0
144
0.0
144
0.0
144
0.0
144
1.0
144
0.0
144
0.0
144
0.0
144
0.0
144
1.0
147
0.0008202099737533
147
0.0
147
0.0
147
0.0
147
0.0
147
0.0008202099737533
147
0.0
147
0.0
147
0.0
147
0.0
147
1.0
147
0.0
147
0.0
147
0.0
147
0.0
147
1.0
  0
MATERIAL
  5
14
102
{ACAD_XDICTIONARY
360
15
102
}
102
{ACAD_REACTORS
330
B
102
}
330
B
100
AcDbMaterial
  1
ByLayer
 72
     0
 43
0.0008202099737533
 43
0.0
 43
0.0
 43
0.0
 43
0.0
 43
0.0008202099737533
 43
0.0
 43
0.0
 43
0.0
 43
0.0
 43
1.0
 43
0.0
 43
0.0
 43
0.0
 43
0.0
 43
1.0
 77
     0
 47
0.0008202099737533
 47
0.0
 47
0.0
 47
0.0
 47
0.0
 47
0.0008202099737533
 47
0.0
 47
0.0
 47
0.0
 47
0.0
 47
1.0
 47
0.0
 47
0.0
 47
0.0
 47
0.0
 47
1.0
171
     0
 49
0.0008202099737533
 49
0.0
 49
0.0
 49
0.0
 49
0.0
 49
0.0008202099737533
 49
0.0
 49
0.0
 49
0.0
 49
0.0
 49
1.0
 49
0.0
 49
0.0
 49
0.0
 49
0.0
 49
1.0
175
     0
142
0.0008202099737533
142
0.0
142
0.0
142
0.0
142
0.0
142
0.0008202099737533
142
0.0
142
0.0
142
0.0
142
0.0
142
1.0
142
0.0
142
0.0
142
0.0
142
0.0
142
1.0
179
     0
144
0.0008202099737533
144
0.0
144
0.0
144
0.0
144
0.0
144
0.0008202099737533
144
0.0
144
0.0
144
0.0
144
0.0
144
1.0
144
0.0
144
0.0
144
0.0
144
0.0
144
1.0
147
0.0008202099737533
147
0.0
147
0.0
147
0.0
147
0.0
147
0.0008202099737533
147
0.0
147
0.0
147
0.0
147
0.0
147
1.0
147
0.0
147
0.0
147
0.0
147
0.0
147
1.0
  0
MATERIAL
  5
A
102
{ACAD_XDICTIONARY
360
C
102
}
102
{ACAD_REACTORS
330
B
102
}
330
B
100
AcDbMaterial
  1
Global
 72
     0
 43
0.0008202099737533
 43
0.0
 43
0.0
 43
0.0
 43
0.0
 43
0.0008202099737533
 43
0.0
 43
0.0
 43
0.0
 43
0.0
 43
1.0
 43
0.0
 43
0.0
 43
0.0
 43
0.0
 43
1.0
 77
     0
 47
0.0008202099737533
 47
0.0
 47
0.0
 47
0.0
 47
0.0
 47
0.0008202099737533
 47
0.0
 47
0.0
 47
0.0
 47
0.0
 47
1.0
 47
0.0
 47
0.0
 47
0.0
 47
0.0
 47
1.0
171
     0
 49
0.0008202099737533
 49
0.0
 49
0.0
 49
0.0
 49
0.0
 49
0.0008202099737533
 49
0.0
 49
0.0
 49
0.0
 49
0.0
 49
1.0
 49
0.0
 49
0.0
 49
0.0
 49
0.0
 49
1.0
175
     0
142
0.0008202099737533
142
0.0
142
0.0
142
0.0
142
0.0
142
0.0008202099737533
142
0.0
142
0.0
142
0.0
142
0.0
142
1.0
142
0.0
142
0.0
142
0.0
142
0.0
142
1.0
179
     0
144
0.0008202099737533
144
0.0
144
0.0
144
0.0
144
0.0
144
0.0008202099737533
144
0.0
144
0.0
144
0.0
144
0.0
144
1.0
144
0.0
144
0.0
144
0.0
144
0.0
144
1.0
147
0.0008202099737533
147
0.0
147
0.0
147
0.0
147
0.0
147
0.0008202099737533
147
0.0
147
0.0
147
0.0
147
0.0
147
1.0
147
0.0
147
0.0
147
0.0
147
0.0
147
1.0
  0
MLINESTYLE
  5
53
102
{ACAD_REACTORS
330
44
102
}
330
44
100
AcDbMlineStyle
  2
STANDARD
 70
     0
  3

 62
   256
 51
90.0
 52
90.0
 71
     2
 49
0.5
 62
   256
  6
BYLAYER
 49
-0.5
 62
   256
  6
BYLAYER
  0
ACDBPLACEHOLDER
  5
7
102
{ACAD_REACTORS
330
8
102
}
330
8
  0
SCALE
  5
58
102
{ACAD_REACTORS
330
4F
102
}
330
4F
100
AcDbScale
 70
     0
300
1:1_XREF_XREF
140
1.0
141
1.0
290
     0
  0
SCALE
  5
59
102
{ACAD_REACTORS
330
4F
102
}
330
4F
100
AcDbScale
 70
     0
300
1:1
140
1.0
141
1.0
290
     1
  0
SCALE
  5
5A
102
{ACAD_REACTORS
330
4F
102
}
330
4F
100
AcDbScale
 70
     0
300
1:3
140
1.0
141
3.0
290
     0
  0
SCALE
  5
5B
102
{ACAD_REACTORS
330
4F
102
}
330
4F
100
AcDbScale
 70
     0
300
1:2
140
1.0
141
2.0
290
     0
  0
SCALE
  5
5C
102
{ACAD_REACTORS
330
4F
102
}
330
4F
100
AcDbScale
 70
     0
300
1:4
140
1.0
141
4.0
290
     0
  0
SCALE
  5
5D
102
{ACAD_REACTORS
330
4F
102
}
330
4F
100
AcDbScale
 70
     0
300
1:5
140
1.0
141
5.0
290
     0
  0
SCALE
  5
5E
102
{ACAD_REACTORS
330
4F
102
}
330
4F
100
AcDbScale
 70
     0
300
1:8
140
1.0
141
8.0
290
     0
  0
SCALE
  5
5F
102
{ACAD_REACTORS
330
4F
102
}
330
4F
100
AcDbScale
 70
     0
300
1:10
140
1.0
141
10.0
290
     0
  0
SCALE
  5
60
102
{ACAD_REACTORS
330
4F
102
}
330
4F
100
AcDbScale
 70
     0
300
1:16
140
1.0
141
16.0
290
     0
  0
SCALE
  5
61
102
{ACAD_REACTORS
330
4F
102
}
330
4F
100
AcDbScale
 70
     0
300
1:20
140
1.0
141
20.0
290
     0
  0
SCALE
  5
62
102
{ACAD_REACTORS
330
4F
102
}
330
4F
100
AcDbScale
 70
     0
300
1:30
140
1.0
141
30.0
290
     0
  0
SCALE
  5
63
102
{ACAD_REACTORS
330
4F
102
}
330
4F
100
AcDbScale
 70
     0
300
1:40
140
1.0
141
40.0
290
     0
  0
SCALE
  5
64
102
{ACAD_REACTORS
330
4F
102
}
330
4F
100
AcDbScale
 70
     0
300
1:50
140
1.0
141
50.0
290
     0
  0
SCALE
  5
65
102
{ACAD_REACTORS
330
4F
102
}
330
4F
100
AcDbScale
 70
     0
300
1:100
140
1.0
141
100.0
290
     0
  0
SCALE
  5
66
102
{ACAD_REACTORS
330
4F
102
}
330
4F
100
AcDbScale
 70
     0
300
2:1
140
2.0
141
1.0
290
     0
  0
SCALE
  5
67
102
{ACAD_REACTORS
330
4F
102
}
330
4F
100
AcDbScale
 70
     0
300
4:1
140
4.0
141
1.0
290
     0
  0
SCALE
  5
68
102
{ACAD_REACTORS
330
4F
102
}
330
4F
100
AcDbScale
 70
     0
300
8:1
140
8.0
141
1.0
290
     0
  0
SCALE
  5
69
102
{ACAD_REACTORS
330
4F
102
}
330
4F
100
AcDbScale
 70
     0
300
10:1
140
10.0
141
1.0
290
     0
  0
SCALE
  5
6A
102
{ACAD_REACTORS
330
4F
102
}
330
4F
100
AcDbScale
 70
     0
300
100:1
140
100.0
141
1.0
290
     0
  0
TABLESTYLE
  5
54
102
{ACAD_XDICTIONARY
360
55
102
}
102
{ACAD_REACTORS
330
50
102
}
330
50
100
AcDbTableStyle
280
     0
  3
Standard
 70
     0
 71
     0
 40
1.5
 41
1.5
280
     0
281
     0
  7
Standard
140
4.5
170
     2
 62
     0
 63
     7
283
     0
 90
      512
 91
        0
  1

274
    -2
284
     1
 64
     0
275
    -2
285
     1
 65
     0
276
    -2
286
     1
 66
     0
277
    -2
287
     1
 67
     0
278
    -2
288
     1
 68
     0
279
    -2
289
     1
 69
     0
  7
Standard
140
6.0
170
     5
 62
     0
 63
     7
283
     0
 90
      512
 91
        0
  1

274
    -2
284
     1
 64
     0
275
    -2
285
     1
 65
     0
276
    -2
286
     1
 66
     0
277
    -2
287
     1
 67
     0
278
    -2
288
     1
 68
     0
279
    -2
289
     1
 69
     0
  7
Standard
140
4.5
170
     5
 62
     0
 63
     7
283
     0
 90
      512
 91
        0
  1

274
    -2
284
     1
 64
     0
275
    -2
285
     1
 65
     0
276
    -2
286
     1
 66
     0
277
    -2
287
     1
 67
     0
278
    -2
288
     1
 68
     0
279
    -2
289
     1
 69
     0
  0
VISUALSTYLE
  5
38
102
{ACAD_REACTORS
330
39
102
}
330
39
100
AcDbVisualStyle
  2
2dWireframe
 70
     4
177
     3
291
     0
 70
    58
 90
        0
176
     1
 90
        2
176
     1
 90
        0
176
     1
 90
        0
176
     1
 40
0.6
176
     1
 40
30.0
176
     1
 62
     7
420
 16777215
176
     1
 90
        1
176
     1
 90
        4
176
     1
 62
     7
176
     1
 62
   257
176
     1
 90
        1
176
     1
 90
        1
176
     1
 40
1.0
176
     1
 90
        0
176
     1
 62
   257
176
     1
 40
1.0
176
     1
 90
        1
176
     1
 90
        6
176
     1
 90
        2
176
     1
 62
     7
176
     1
 90
        5
176
     1
 90
        0
176
     1
 90
        0
176
     1
290
     0
176
     1
 90
        1
176
     1
 40
0.0
176
     1
 90
        0
176
     1
290
     1
176
     1
290
     1
176
     1
290
     0
176
     1
290
     0
176
     1
290
     0
176
     1
290
     0
176
     1
290
     0
176
     1
290
     0
176
     1
290
     0
176
     1
 90
       50
176
     1
 40
0.0
176
     1
 40
1.0
176
     1
 90
        0
176
     1
 62
    18
176
     1
 90
       50
176
     1
 90
        3
176
     1
 62
     5
420
      255
176
     1
290
     0
176
     1
 90
       50
176
     1
 90
       50
176
     1
 90
       50
176
     1
290
     0
176
     1
 90
       50
176
     1
 62
   256
176
     0
 40
1.0
176
     0
 90
        2
176
     1
  1
strokes_ogs.tif
176
     1
290
     0
176
     1
 40
1.0
176
     1
 40
1.0
176
     1
  0
VISUALSTYLE
  5
56
102
{ACAD_REACTORS
330
39
102
}
330
39
100
AcDbVisualStyle
  2
Realistic
 70
     8
177
     3
291
     0
 70
    58
 90
        2
176
     1
 90
        3
176
     1
 90
        0
176
     1
 90
        2
176
     1
 40
0.6
176
     1
 40
30.0
176
     1
 62
     7
420
 16777215
176
     1
 90
        0
176
     1
 90
        0
176
     1
 62
     7
176
     1
 62
   257
176
     1
 90
        1
176
     1
 90
        1
176
     1
 40
1.0
176
     1
 90
        8
176
     1
 62
   257
176
     1
 40
1.0
176
     1
 90
        1
176
     1
 90
        6
176
     1
 90
        2
176
     1
 62
     7
176
     1
 90
        3
176
     1
 90
        0
176
     1
 90
        0
176
     1
290
     0
176
     1
 90
       13
176
     1
 40
0.0
176
     1
 90
        0
176
     1
290
     0
176
     1
290
     1
176
     1
290
     1
176
     1
290
     0
176
     1
290
     0
176
     1
290
     0
176
     1
290
     0
176
     1
290
     0
176
     1
290
     0
176
     1
 90
       50
176
     1
 40
0.0
176
     1
 40
1.0
176
     1
 90
        0
176
     1
 62
    18
176
     1
 90
       50
176
     1
 90
        3
176
     1
 62
     5
420
      255
176
     1
290
     0
176
     1
 90
       50
176
     1
 90
       50
176
     1
 90
       50
176
     1
290
     0
176
     1
 90
       50
176
     1
 62
   256
176
     0
 40
1.0
176
     0
 90
        2
176
     1
  1
strokes_ogs.tif
176
     1
290
     0
176
     1
 40
1.0
176
     1
 40
1.0
176
     1
  0
VISUALSTYLE
  5
57
102
{ACAD_REACTORS
330
39
102
}
330
39
100
AcDbVisualStyle
  2
Wireframe
 70
     5
177
     3
291
     0
 70
    58
 90
        0
176
     1
 90
        2
176
     1
 90
        0
176
     1
 90
        0
176
     1
 40
0.6
176
     1
 40
30.0
176
     1
 62
     7
420
 16777215
176
     1
 90
        1
176
     1
 90
        4
176
     1
 62
     7
176
     1
 62
   257
176
     1
 90
        1
176
     1
 90
        1
176
     1
 40
1.0
176
     1
 90
        0
176
     1
 62
   257
176
     1
 40
1.0
176
     1
 90
        1
176
     1
 90
        6
176
     1
 90
        2
176
     1
 62
     7
176
     1
 90
        3
176
     1
 90
        0
176
     1
 90
        0
176
     1
290
     0
176
     1
 90
        1
176
     1
 40
0.0
176
     1
 90
        0
176
     1
290
     0
176
     1
290
     1
176
     1
290
     1
176
     1
290
     0
176
     1
290
     0
176
     1
290
     0
176
     1
290
     0
176
     1
290
     0
176
     1
290
     0
176
     1
 90
       50
176
     1
 40
0.0
176
     1
 40
1.0
176
     1
 90
        0
176
     1
 62
    18
176
     1
 90
       50
176
     1
 90
        3
176
     1
 62
     5
420
      255
176
     1
290
     0
176
     1
 90
       50
176
     1
 90
       50
176
     1
 90
       50
176
     1
290
     0
176
     1
 90
       50
176
     1
 62
   256
176
     0
 40
1.0
176
     0
 90
        2
176
     1
  1
strokes_ogs.tif
176
     1
290
     0
176
     1
 40
1.0
176
     1
 40
1.0
176
     1
  0
DICTIONARYVAR
  5
23D
102
{ACAD_REACTORS
330
237
102
}
330
237
100
DictionaryVariables
280
     0
  1
1:1
  0
DICTIONARYVAR
  5
239
102
{ACAD_REACTORS
330
237
102
}
330
237
100
DictionaryVariables
280
     0
  1
STANDARD
  0
DICTIONARYVAR
  5
238
102
{ACAD_REACTORS
330
237
102
}
330
237
100
DictionaryVariables
280
     0
  1
STANDARD
  0
DICTIONARYVAR
  5
23A
102
{ACAD_REACTORS
330
237
102
}
330
237
100
DictionaryVariables
280
     0
  1

  0
DICTIONARYVAR
  5
23B
102
{ACAD_REACTORS
330
237
102
}
330
237
100
DictionaryVariables
280
     0
  1

  0
DICTIONARYVAR
  5
23F
102
{ACAD_REACTORS
330
237
102
}
330
237
100
DictionaryVariables
280
     0
  1
1
  0
DICTIONARYVAR
  5
240
102
{ACAD_REACTORS
330
237
102
}
330
237
100
DictionaryVariables
280
     0
  1
15
  0
DICTIONARYVAR
  5
23E
102
{ACAD_REACTORS
330
237
102
}
330
237
100
DictionaryVariables
280
     0
  1
0
  0
DICTIONARYVAR
  5
23C
102
{ACAD_REACTORS
330
237
102
}
330
237
100
DictionaryVariables
280
     0
  1
0
  0
DICTIONARY
  5
20
330
1D
100
AcDbDictionary
280
     1
281
     1
  0
DICTIONARY
  5
28
330
27
100
AcDbDictionary
280
     1
281
     1
  0
DICTIONARY
  5
47
330
46
100
AcDbDictionary
280
     1
281
     1
  3
BUMPTILE
360
48
  3
DIFFUSETILE
360
49
  3
OPACITYTILE
360
4A
  3
REFLECTIONTILE
360
4B
  3
REFRACTIONTILE
360
4C
  3
SPECULARTILE
360
4D
  0
DICTIONARY
  5
15
330
14
100
AcDbDictionary
280
     1
281
     1
  3
BUMPTILE
360
16
  3
DIFFUSETILE
360
17
  3
OPACITYTILE
360
18
  3
REFLECTIONTILE
360
19
  3
REFRACTIONTILE
360
1A
  3
SPECULARTILE
360
1B
  0
DICTIONARY
  5
C
330
A
100
AcDbDictionary
280
     1
281
     1
  3
BUMPTILE
360
D
  3
DIFFUSETILE
360
E
  3
OPACITYTILE
360
F
  3
REFLECTIONTILE
360
10
  3
REFRACTIONTILE
360
11
  3
SPECULARTILE
360
12
  0
DICTIONARY
  5
55
330
54
100
AcDbDictionary
280
     1
281
     1
  3
ACAD_ROUNDTRIP_2008_TABLESTYLE_CELLSTYLEMAP
360
241
  0
XRECORD
  5
48
102
{ACAD_REACTORS
330
47
102
}
330
47
100
AcDbXrecord
280
     1
270
     1
271
     1
  0
XRECORD
  5
49
102
{ACAD_REACTORS
330
47
102
}
330
47
100
AcDbXrecord
280
     1
270
     1
271
     1
  0
XRECORD
  5
4A
102
{ACAD_REACTORS
330
47
102
}
330
47
100
AcDbXrecord
280
     1
270
     1
271
     1
  0
XRECORD
  5
4B
102
{ACAD_REACTORS
330
47
102
}
330
47
100
AcDbXrecord
280
     1
270
     1
271
     1
  0
XRECORD
  5
4C
102
{ACAD_REACTORS
330
47
102
}
330
47
100
AcDbXrecord
280
     1
270
     1
271
     1
  0
XRECORD
  5
4D
102
{ACAD_REACTORS
330
47
102
}
330
47
100
AcDbXrecord
280
     1
270
     1
271
     1
  0
XRECORD
  5
16
102
{ACAD_REACTORS
330
15
102
}
330
15
100
AcDbXrecord
280
     1
270
     1
271
     1
  0
XRECORD
  5
17
102
{ACAD_REACTORS
330
15
102
}
330
15
100
AcDbXrecord
280
     1
270
     1
271
     1
  0
XRECORD
  5
18
102
{ACAD_REACTORS
330
15
102
}
330
15
100
AcDbXrecord
280
     1
270
     1
271
     1
  0
XRECORD
  5
19
102
{ACAD_REACTORS
330
15
102
}
330
15
100
AcDbXrecord
280
     1
270
     1
271
     1
  0
XRECORD
  5
1A
102
{ACAD_REACTORS
330
15
102
}
330
15
100
AcDbXrecord
280
     1
270
     1
271
     1
  0
XRECORD
  5
1B
102
{ACAD_REACTORS
330
15
102
}
330
15
100
AcDbXrecord
280
     1
270
     1
271
     1
  0
XRECORD
  5
D
102
{ACAD_REACTORS
330
C
102
}
330
C
100
AcDbXrecord
280
     1
270
     1
271
     1
  0
XRECORD
  5
E
102
{ACAD_REACTORS
330
C
102
}
330
C
100
AcDbXrecord
280
     1
270
     1
271
     1
  0
XRECORD
  5
F
102
{ACAD_REACTORS
330
C
102
}
330
C
100
AcDbXrecord
280
     1
270
     1
271
     1
  0
XRECORD
  5
10
102
{ACAD_REACTORS
330
C
102
}
330
C
100
AcDbXrecord
280
     1
270
     1
271
     1
  0
XRECORD
  5
11
102
{ACAD_REACTORS
330
C
102
}
330
C
100
AcDbXrecord
280
     1
270
     1
271
     1
  0
XRECORD
  5
12
102
{ACAD_REACTORS
330
C
102
}
330
C
100
AcDbXrecord
280
     1
270
     1
271
     1
  0
CELLSTYLEMAP
  5
241
102
{ACAD_REACTORS
330
55
102
}
330
55
100
AcDbCellStyleMap
 90
        3
300
CELLSTYLE
  1
TABLEFORMAT_BEGIN
 90
        5
170
     1
 91
        0
 92
    32768
 62
   257
 93
        1
300
CONTENTFORMAT
  1
CONTENTFORMAT_BEGIN
 90
        0
 91
        0
 92
      512
 93
        0
300

 40
0.0
140
1.0
 94
        5
 62
     0
340
2F
144
6.0
309
CONTENTFORMAT_END
171
     1
301
MARGIN
  1
CELLMARGIN_BEGIN
 40
1.5
 40
1.5
 40
1.5
 40
1.5
 40
0.18
 40
0.18
309
CELLMARGIN_END
 94
        6
 95
        1
302
GRIDFORMAT
  1
GRIDFORMAT_BEGIN
 90
        0
 91
        1
 62
     0
 92
       -2
340
0
 93
        0
 40
1.125
309
GRIDFORMAT_END
 95
        2
302
GRIDFORMAT
  1
GRIDFORMAT_BEGIN
 90
        0
 91
        1
 62
     0
 92
       -2
340
0
 93
        0
 40
1.125
309
GRIDFORMAT_END
 95
        4
302
GRIDFORMAT
  1
GRIDFORMAT_BEGIN
 90
        0
 91
        1
 62
     0
 92
       -2
340
0
 93
        0
 40
1.125
309
GRIDFORMAT_END
 95
        8
302
GRIDFORMAT
  1
GRIDFORMAT_BEGIN
 90
        0
 91
        1
 62
     0
 92
       -2
340
0
 93
        0
 40
1.125
309
GRIDFORMAT_END
 95
       16
302
GRIDFORMAT
  1
GRIDFORMAT_BEGIN
 90
        0
 91
        1
 62
     0
 92
       -2
340
0
 93
        0
 40
1.125
309
GRIDFORMAT_END
 95
       32
302
GRIDFORMAT
  1
GRIDFORMAT_BEGIN
 90
        0
 91
        1
 62
     0
 92
       -2
340
0
 93
        0
 40
1.125
309
GRIDFORMAT_END
309
TABLEFORMAT_END
  1
CELLSTYLE_BEGIN
 90
        1
 91
        1
300
_TITLE
309
CELLSTYLE_END
300
CELLSTYLE
  1
TABLEFORMAT_BEGIN
 90
        5
170
     1
 91
        0
 92
        0
 62
   257
 93
        1
300
CONTENTFORMAT
  1
CONTENTFORMAT_BEGIN
 90
        0
 91
        0
 92
      512
 93
        0
300

 40
0.0
140
1.0
 94
        5
 62
     0
340
2F
144
4.5
309
CONTENTFORMAT_END
171
     1
301
MARGIN
  1
CELLMARGIN_BEGIN
 40
1.5
 40
1.5
 40
1.5
 40
1.5
 40
0.18
 40
0.18
309
CELLMARGIN_END
 94
        6
 95
        1
302
GRIDFORMAT
  1
GRIDFORMAT_BEGIN
 90
        0
 91
        1
 62
     0
 92
       -2
340
0
 93
        0
 40
1.125
309
GRIDFORMAT_END
 95
        2
302
GRIDFORMAT
  1
GRIDFORMAT_BEGIN
 90
        0
 91
        1
 62
     0
 92
       -2
340
0
 93
        0
 40
1.125
309
GRIDFORMAT_END
 95
        4
302
GRIDFORMAT
  1
GRIDFORMAT_BEGIN
 90
        0
 91
        1
 62
     0
 92
       -2
340
0
 93
        0
 40
1.125
309
GRIDFORMAT_END
 95
        8
302
GRIDFORMAT
  1
GRIDFORMAT_BEGIN
 90
        0
 91
        1
 62
     0
 92
       -2
340
0
 93
        0
 40
1.125
309
GRIDFORMAT_END
 95
       16
302
GRIDFORMAT
  1
GRIDFORMAT_BEGIN
 90
        0
 91
        1
 62
     0
 92
       -2
340
0
 93
        0
 40
1.125
309
GRIDFORMAT_END
 95
       32
302
GRIDFORMAT
  1
GRIDFORMAT_BEGIN
 90
        0
 91
        1
 62
     0
 92
       -2
340
0
 93
        0
 40
1.125
309
GRIDFORMAT_END
309
TABLEFORMAT_END
  1
CELLSTYLE_BEGIN
 90
        2
 91
        1
300
_HEADER
309
CELLSTYLE_END
300
CELLSTYLE
  1
TABLEFORMAT_BEGIN
 90
        5
170
     1
 91
        0
 92
        0
 62
   257
 93
        1
300
CONTENTFORMAT
  1
CONTENTFORMAT_BEGIN
 90
        0
 91
        0
 92
      512
 93
        0
300

 40
0.0
140
1.0
 94
        2
 62
     0
340
2F
144
4.5
309
CONTENTFORMAT_END
171
     1
301
MARGIN
  1
CELLMARGIN_BEGIN
 40
1.5
 40
1.5
 40
1.5
 40
1.5
 40
0.18
 40
0.18
309
CELLMARGIN_END
 94
        6
 95
        1
302
GRIDFORMAT
  1
GRIDFORMAT_BEGIN
 90
        0
 91
        1
 62
     0
 92
       -2
340
0
 93
        0
 40
1.125
309
GRIDFORMAT_END
 95
        2
302
GRIDFORMAT
  1
GRIDFORMAT_BEGIN
 90
        0
 91
        1
 62
     0
 92
       -2
340
0
 93
        0
 40
1.125
309
GRIDFORMAT_END
 95
        4
302
GRIDFORMAT
  1
GRIDFORMAT_BEGIN
 90
        0
 91
        1
 62
     0
 92
       -2
340
0
 93
        0
 40
1.125
309
GRIDFORMAT_END
 95
        8
302
GRIDFORMAT
  1
GRIDFORMAT_BEGIN
 90
        0
 91
        1
 62
     0
 92
       -2
340
0
 93
        0
 40
1.125
309
GRIDFORMAT_END
 95
       16
302
GRIDFORMAT
  1
GRIDFORMAT_BEGIN
 90
        0
 91
        1
 62
     0
 92
       -2
340
0
 93
        0
 40
1.125
309
GRIDFORMAT_END
 95
       32
302
GRIDFORMAT
  1
GRIDFORMAT_BEGIN
 90
        0
 91
        1
 62
     0
 92
       -2
340
0
 93
        0
 40
1.125
309
GRIDFORMAT_END
309
TABLEFORMAT_END
  1
CELLSTYLE_BEGIN
 90
        3
 91
        2
300
_DATA
309
CELLSTYLE_END
  0
ENDSEC
  0
SECTION
  2
ACDSDATA
 70
     2
 71
     7
  0
ACDSSCHEMA
 90
        0
  1
AcDb_Thumbnail_Schema
  2
AcDbDs::ID
280
    10
 91
        8
  2
Thumbnail_Data
280
    15
 91
        0
101
ACDSRECORD
 95
        0
 90
        1
  2
AcDbDs::TreatedAsObjectData
280
     1
291
     1
101
ACDSRECORD
 95
        0
 90
        2
  2
AcDbDs::Legacy
280
     1
291
     1
101
ACDSRECORD
  1
AcDbDs::ID
 90
        3
  2
AcDs:Indexable
280
     1
291
     1
101
ACDSRECORD
  1
AcDbDs::ID
 90
        4
  2
AcDbDs::HandleAttribute
280
     7
282
     1
  0
ACDSSCHEMA
 90
        1
  1
AcDbDs::TreatedAsObjectDataSchema
  2
AcDbDs::TreatedAsObjectData
280
     1
 91
        0
  0
ACDSSCHEMA
 90
        2
  1
AcDbDs::LegacySchema
  2
AcDbDs::Legacy
280
     1
 91
        0
  0
ACDSSCHEMA
 90
        3
  1
AcDbDs::IndexedPropertySchema
  2
AcDs:Indexable
280
     1
 91
        0
  0
ACDSSCHEMA
 90
        4
  1
AcDbDs::HandleAttributeSchema
  2
AcDbDs::HandleAttribute
280
     7
 91
        1
284
     1
  0
ACDSRECORD
 90
        0
  2
AcDbDs::ID
280
    10
320
1D
  2
Thumbnail_Data
280
    15
 94
     2733
310
89504E470D0A1A0A0000000D4948445200000100000000530802000000FF7D4EDC00000A744944415478DAED9D4B6C13D71AC7FF63C7CF38B6431287D80E763C8402A510AA969B7B814B69116D454129AD44AB6E587037AD2A2155F74A5D54AABAAD2A655354A98B9B6EFB502316558B80F68A059B1252686B829830CE8334
310
761CEC38F1731E7761700EB13389133B09F8FB2DA2C9DFE79CF93CF39D39E73B8F3140100441AC0C1DD492C7C073450A00A8A6F9BFAC524C5F5FDF92677C5082AAAEC05A822008822008822008822008822008822008822008822008822008822008822008822008822008822008A21C3870EB5E02519BE8368211010456EC
310
C43AE80A251044B9D46D042378F0A770EA2AAE8E60A4E4D3DD04530E391972F1A7AFE2D5294C5DC335BA97C48AFA0E1BA30208104A7EB4033B8EE3B8030E05CA47F868052510C4466F013470C0318EF1694C3BE1E4C0A9F45E17E2C98307BFEE251014041304550082A01860AD2A9FAE031D007CF001C820338631BA25C45A
310
A25FC77373E00EE3B008B11DED01040630D08AD60412DAB9DAD1EE81A7031D16584EE0443DEA9D703E8B67EFE08E0489EE28F1D874818C3076A0E3088E1CC2A1633896463A8B6C031AB473196098C1CC311CE3C1BBE00A20E085F7088EE49B1182786C5A0009D21CE6FEC49F02845FF1EB38C69348B6A16D0E730A94925902
310
080C63D80C33801FF16312490B2C3398B1C176099732C8D01D251E3F160C622E36A66980A11DEDCB2981201E832ED0628C63DC0D77B1BE055B46314AF78C78C22B403E1870C0C18A36D8968C8F09E249A80000A6306587DD00C3432B3B8EE0481861BA614465D9106B81F63CB7A7A5AE2512892CD00FE60E860C2100DB675F
310
B318C2BC696147DF061BCCE83476DE1FBCBFD82AA136B48910573CC3D0B9B573AF63EFE0F5415991AB7A111C70E8A11FC2D00C66C82F6BAB02CC35CD45EE440441280E069EC2538940A2CE95FD26F88D2449C5B16FCA9D529A94A43B298C0BC5413307EE1DBCF3093E59B16D8AAA0CC407A42D9224496363559CA7DB877D0D
310
6820EFAFC50AA0110C3C83675C49D7FFCC778BBDDF0D7700813FF007009817E66D46F3C7F87810839770699566A8AA2A8AA2C964E279FEFEFDFBD3D3D3D5F8B24104B7600B7924C5008F701EE7774FEF0E47836EF7C2712109924ED3FE5FF0CB1DDCF90B7F55C4924C26230882A2283CCF5B2C968A7FD3041269A4C923A905
310
788426DDB31F35F61927BB735B465A61B13DFA690EB9463496CC388BD9010CA0D2DB8563B1582C1673BBDD6D6D6DC3C3C3E4405401AA85C160906539AA0CD4EBEA0D5E63E73DEE128498C994C964F6637F273A2388DCC2AD14524D682ACECE818B20A2426D456BC56DBB77EF1E804020904EA7F3C70455800AB363C78E4C26
310
3334343433310358F760F75EC7DEE4E66426934988090B2CB398D5C86E85F5244E5EC5D56E745769B7E4F0F0B0C562E1793E168B45A35172268A012A49341A0D870B03FF89EFF17D341E35C886898989610C8B106FE2A6567644BFC497BFE3F7925BE92B452A9512044196659EE7CD6633F913B5002B243FC6B240349BCD9B
310
366D7AF85F0380949AF27ABD08E1B674DB0DF7566CBD25DFF2289E6C2EBB58C969A4BDF0AE781EC039E334F08670389C4824960C0CCC667328149265991C8B2883975F7E79257D24EC38833300789E2FAE3C8548E0537CBA1ADBF2CBEC5C2E17CFF37AFDD28B677D3E9FD7EB5DCDB9088A01964510C12CB2DA6954A85FE08B
310
D59F2B1C0E87C361BFDF0F4014458D94A150C86834961518D8616F40C30426C81D2906280FED38D88C0A77CA45511C1919E179DEE5726924CB66B382204892C4F3BCD56A5DB258175C2770A2E458164115408B494C2EDA7787F36B7C7D00072A7B46455104414826933CCF3B1C0E8D94F1785C100487C3D1D1D1A1D3695DE7
310
36B479E0B1C34EEE58A31540DB9396EE42D8ED1CC715777E7EC00F25F71554A0E5999D1504C16030F03C6F341A35524E4C4C88A2E8F3F95A5A5A345A2A09D24EEC2477ACD118201E8F57BE4CC4873054D54D92535353535353EDEDED3A9D2E140AE59B9D26342D78BD85AAAA77EFDEDDBE7D7BF172D73C1771F1322E37A271
310
C11608825A8065313333A3AA251643DFC3BD38E2D5367E7474746C6C8CE7F95657EBBB78378144C921D75C2EB758097AE84FE3F41A984A6CD00A508D16C006DB4B78E9693CBD06F6CBB22C084273BCF93BFEBB5443AADCEC5E7865C81404D72E2B9B0728A0310F80550FAE2F3F7B61C6C0E7F39534B282E7229EA816A0AAAC
310
81571DC5D14E74E68FC3E1B0D168D41EF621A80254068FC7C3F3BCCFE72B1E05CAC3817B1ECF57D5060B2C12A417F08219660B2C001445511425FF1179D80667438C0265B3D9EEEEEEB9B939499282C1E03273F9FDFE5DBB76058341655C318C18167BD2DFC44D1E7C02892AEDA94F21A542F5C2CB834FD7A5A7A429BD5EBF
310
6BDBAE2EB56B541D0D1B1E9CD4E57215EFF9B4C29A4492BCB0D62BC0952B57366FDE0CE0E0C183CBAF007ABD3E180C0A82A0B1DA9903F736DE3E8FF355B5FF67FCEC877F14A3822434A1C92FF9DB67DB27E549EE19AEB01BC16E2F31CFD58636FA611BAA0028EC37AFEC76DB9DD85987BAABB8BA065FE11AAEE5C731A3880A
310
9C70217C01007E01E001C64B06C11CB857F0CAE7F89CBC90628007943521A0D7EB1B1A167D93AE038EC338BC0DDB44886B60F90DDC0821943F4EA7D379C36C365B20F0701CB668D1860A557B2D13512B2D4081B226046459D658A36F855581328C75D8B63B3939E9F3F9128966BDBED1A3F373E0011C683C50ECED63185BCD
310
5E05E249A3AC0901EDE1FF4237A322FB01CAC5EFF73FDC3CE000D0D2D2B26FD33EEDC25FC48B3DE8211FA8E916C0A03394D10592F46EEBD26BDD7EC36F6BFF94154571EBD6ADAAAA36E79A1D0647EC7ECC366D2BAE4B7EF80BC739E45248D961A77763D52EAF5B5EAFF6B3796D5A806596731AA7E9A653103C4F32554383E2
310
1C382BACE48254016A1415EA4FF889AE0355000030C1947F859B19E6E5BCCB4DBFAE3FEEB47AEA516F8491FCAFA683600F3CF5A8CFBFB7673FF62B50FCF01FC2A1EBB89E7FAB21803AD4295038703AE872985F52FF16DE0A21F4984EA36EC2A60FF1E16DDCBE8CCBE482B58B19E6AFF09509A682B21BBB17A4791FEF77A1EB
310
0DBCF1013E58F05135DE7958327835C1B4CAA7B51D7636086E40C367F8EC0CCED0FAE79A6E01D2487F8B6FD95D8B377063419A38E22698228814EF7FD7D8115F415AD072144743080D61A864149B6FA000C890F5D0172F6ED341770AA7F23F86995712489CC3B928A24E38C905D77B288258AA02441059AC1FFF26DE9CC6B4
310
15D68BB8781CC7ADB09EC3B972CB216AB405782CD0F0DA6634471071C22941CA227B01170A3F6A5656390441100441100441100441100441100441100441AC3BDC7FFE5D38CE6FF82FF9666200AAA9282F00A0BB28FDBFAECC2F0BD7412D7DECDF53522F3ECB72E8EBEB7BE4FF932A00FCA5BEA79A1EFCEDC57BAA09CEFFCE
310
0270FEF34DE0C1FAE37E46EF63F44146EF3F38AFC718BD87D19DDCBC2E327A17A3C70ECCEB3D8CDECBE86719DDCF94D3CBE85D4CFA7E461FDCCFD8CFE8A799F431463FCBA477EA98EBC3E85D8CDEC7E83D8CDEFF0FC67E46EF61F45E461719BD9FD1637F67EC67F45E468F31BA9F29C7A967AE0F93BE8BD107BB19FB19FD34
310
93FE2CA39F65D2F732BA93D1FB19BD8FD10719BDFF6F8CFD8CDEC3E8CE3AE6FA307A17A3C7F631F6337A2FA3FF1F2E17E49F83FAA6F10000000049454E44AE426082
  0
ACDSRECORD
 90
        0
  2
AcDbDs::ID
280
    10
320
27
  2
Thumbnail_Data
280
    15
 94
     3517
310
89504E470D0A1A0A0000000D4948445200000100000000540802000000E2787E6400000D844944415478DAED9D5B701BD779C7BFB3078B1B011024481DDEC08B8858A04849142591BA50322346B6DAF4C2A469DAE685B45ED24CEC194F3BD369E24B7CC9C5B16347E317A3ED4C45D1D3E9D49EC9C8A323352F91EDB825259A
310
9464C6B2C6224401BC4A202002200002582C4E1F4053AB0B6DC129648EF4FD1E7680FF7E67CFC733DF9F67CF7277492510DF12CF5F7C1EAE8A23AFBCF4CE0F32475E79E99DF7B26C0E629DC47315629DC4730D627B882700B13DC4330FB1DDC41384D86EE209416C17F15C87D82EE25980D84EE209436C27F14420D6413C51
310
887510CF22C4DA892706B176E289436C07F12420B683789620B69D7892103B42D824F062CAD60BFE6BC2A680DB286B14FC35C2A681DB287309FE1A6133C0AD947D4DF057099B056EA5EC21C15F256C0EB885B20D82FF8AB0ABC02D94B905FF1561D7801751D624F82B8405801751B651F057089B076EA6AC59F097090B0237
310
53D622F8CB8485809B28DB24F82F09BB0EDC44D966C17F49D8027023655B047F89B030702365AD82BF445804B881B2AD82FF82B0287003656D82FF82B045E07ACAB609FE73C262C0F5946D17FCE784C581CB94ED10FC67842580CB94B50BFE33C29680EB28EB10FCA784A58053CA7609FE226169E094B2DD82BF4898025CA2
310
6C8FE02F1096012E51D629F80B84A9C009657B057F9EB02C7042D93EC19F274C0007CA1E16FC39C2003850D625F8738411E082B2AF0BFE13C224E082B2FD82FF84300A3C4B59B7E0CF12A6039EA5EC1B823F4B980C5CA5EC80E0CF10A607AE52F688E0CF1066009EA1EC51C19F26CC083C43D941C19F26CC045CA1EC4F047F
310
8A30337085B23F15FC29C28A80A729FBA6E03F26CC023C4DD99F09FE63C2ACC05394FDB9E03F22CC063C45D95F089EA2AC47F02AA9B34B0C2C51F62DC12BA5CEAF8B8125CABE2D78A5D4B95F0C2428FB2BC12BA4CE6E3190A0EC3B8257489DDF100371CAFE5A7026751E100371CABE2B38933A1F110331CAFE46F07552E7A3
310
622046D9DF0ABE4EEA3C28067ED0DF40FAFBFB0141F2C1D3DBFBF7478FF6F5F5F5F7F71FECEBFE6DFFEFDED9F4BBBFFC43F763BE4347EAFF3DA7E7B6FFF04F2FBEF6F233B9CFB956DFBD72E8AD869B6272DBDBDBE6FABA3DF2E91DCE9F7E38A53D666F6FEFD1CFF259ED68BDDFEF3BFA2FFDFF78F1D9579B5ED0B64503200F
310
34120E0182064010340082A00110040D8020680004410320081A0041D0000882064010340082A00110040D8020680004410320081A0041D0000882064010340082A00110040D80206B15DD57D26B2C166B6F6F5F9B23924AA5CE9D3B67B3D9B03870062814B22C171515A90ED5D6660B9584E4263959934C5627F54DFA05C7
310
42C9F69205C7C2ADE28E92B0232C37C96A83BA54BDA4DFA80F9584AC5BADE1B2B0EC5E168BB614AD88D008D986AC568C57C645A3C8AECF46CBA3962D965049C8DA6A4D542644A3A01B684E349418CC66B3AAAA581938031496FAFAFA0BC90BD94BD9D0D950F5E66A66603E9F2FA6C6CACBCBE7AFCD5FF75FAF6DAD0D4E0713
310
8944717DB161C130323CE2743A45449416957ABD5ED6C8E824252A8149302BE6D054C8E9745EFCF0A2DBED9E7E7FBABEB67EECDDB10D1B36C4037177977BA36B2300B86BDCCB7D3B00009A5C4D3789360000AFCB5B3C5F8C65810628380B0B0B299A7AF38D37ABAAAA868787B76EDD7AE9D2A5DADADAF7DF7FDF68349ACDE6
310
D1D1D1F2F2F275EBD60D0F0F2F2D2D3DF4D0432323236EB79B521A080486878733994C71717122913873E68CC562B972E54A341AF57ABDB158ACAAAA2A93C98C8F8FEB74BAAEAEAEBC120B87C3581668808263341A2B1C15AFBFFEFA5A1B11A3D18865816B000441031492C5C5C5B539226B3631E4BE32407575F5DA1C9135
310
9B18725F19C0EFF717B60301A00288B59718828B6000A8ABABF3433EA57619400F5009F03F00BB009600ECAB440E039402CC01FC01A005A00A2008B01EE03A80FBAE12C3B24003149CE9E96968C873AE7A0BE011801A8029003F40F72A91A5002E0017C05E8D680488DE7562089E02159AB2B2B2FC1A34C0E9E6D3B069B9B8
310
C7D431F0027801DE0208ACDA28994CFEF63FC7E6FE7B0E3E019800F85F80EC17F4E37038B02CD00005271E8FE715AF28CA85990B2B5F67D49994390566804580D42A6D7E0F33EFCD78CF7F3AA41F0237402300FBE29F3891486059A0010ADFB1945FD78B8B8B4D4D4D2B5FBBBABA4EFEFE24D8015C00C655D7C19154E4D08F
310
BEE9DEEB063B401B40FCFF3F31040DF065D0EBF579AF577437562C2693C964378119601CE04E470A8542DE6A6FABABD5546CCA643200004980D305490CC14570DE44A3D1552FE3AC7E16944A2D9FEE18260D4421900268BEF5B43E1A8D06BC0187C3E172B96666669213C9CD9B3703005080CABB4B0C4103141AC6D8144CE5
310
D5E4ECD9B3AAAA06C7E52235FAE8C4A35396296805B804B0FEA6B0C1D9C1836D07E7E7E7BD5E6F7575B5C9645ADE6104D87857896159E02950C1999ACAAFFA09903247D9BE7DFBF4A3C56D3BF7C201000B80132076EB1A20914E78BD5E59965D2ED78DEA2F586208CE005F869A9A9A69C8E38A7B0994B435B4F9DEF335FC9D
310
2D129A8DD4C0F794EF8117A01B80DC147960FB016BDA0A4180E06D475101B25FE0FA9A9A1A2C0B3440C1090402509B4F8393B0A17403EC06B0037801FE03200E70F00E81D65AEB1F9B1882062834369B2D78875FD1ABD30A207F76FB4323C03F034C142431ABD58A65810628388AA2E4D7A00A6002C00BF01E402B801D60A9
310
20892D5F3345D0000525EF3A2B06D80A40015C2B1E4203207F2C5FD955208BC5925F030A406F56E4B591188206F8120483C1B539226B3631E4BE3280D3E95C9B23B2661343EE2B03F87CBEB539226B3631E4BE5A04D7D6D64EC2E4DDC72793C97BF0A88A52A7D4D6D66259E00C5070E6E6E6F28ACF3DAAEBF7FB3FE799DD95
310
1800989F9FAFA8A870B95C131313A3A3A3E974DAE5720180CBE5B2A5671787FE2DFEE1D1C5C17F4D7FFC9BE4F9FF4A8CBCE9A03197CB25CBF2ECEC2C9605CE0005A7A4A42400010048A7D38AA2C8B2FCF9F7214B92C418CB3D46B3DAFD6AF1783C17B312B0B0B070E9D225C6D8DCDCDCC68D1B85109393937321A5687D97DE
310
56AEC6831915A2E11001E1BB1A0E66C6C9D74849490996051AA0E0AC5C6E3F79F2E4E0E0607373736B6B2B63ECDAB56B151515B79778369B9D9A9ACACD1BB22CAF36ABC8B29CDB06834183C12049525B5B9BAAAA131313A15028180C7EF0C107C160D0E1702493494248341ACD64322693C962F133C6F6AEDF8B6FC64503DC
310
0B128904942E2F06BC5EEF850B178686865A5A5A1445B1DBED76BBDDE9741A8DC69696969535C0D1A3476D361BA534F76AF53367CE4C4D4DF9FDFE279E7822377B70CE2F5FBEBC65CB9613274E54565646A3D14F3FFDB4A5A5657474B4A3A3E38D37DED8B16307634CAFD75BADD6AAAAAAE3C78FEFDAB52B1A8D46A3518BC5
310
927B29223E12F940417B7A7AEE7DAFAAAA7674742CCA8BA5503A3E3EEEF3F95455B5582C841049929C4EE7E9D3A76D365B757575696969AE492412894422C96472DDBA75C78F1F0F0683838383841045518686864E9C38B169D3A6A6A626A7D3994AA5B66FDF6E3018721DD96CB6C6C6C64C26B36DDBB6783CEE76BBEBEAEA
310
EAEBEB25496A6868686A6A2A2B2B6B69699165B9A1A18196D332A96C6C6CEC4BDC478DE00C9007B3B3B32B373598CD669D4E373F3FBF67CF1EB7DB5D5A5ADADEDE6E369B6FB92F4D51944422D1D9D9D9DDDDEDF7FBF7EDDB975BF28642A1B1B1B1DC3A410841C8F2EDD1E5E5E5B22C2B8A3231315153536332992449D2EBF5
310
7ABD5E519448242284906539E731B3D93C3D3DED6A71E122180D702F686C6CBC0C970160E7CE9DDBB66D339BCDE9745A92A4DCF9FD1DFF418BD96CBEE3D97F301814E20EAF800B04027EBFFFE1871F5655B5AEAEEEDD77DF6D6C6C1C1D1D1542BCFDF6DB8F3FFE787373B3CFE79B9D9D2D2B2B339BCD0D0D0D293955DB587B
310
EAD429AC8C0704D2DFDF7FEF7B4DA552FBF7EF37B94C4B777D4B6746C9E8645D2693A1941242725F6FD7455664B359AAA3AAAA4A4422D272A4769B6B0500B9CF5ACAA1DC3FE63F75EA145E0B7A40F86AFE0EA0AAAA2CCBD7CE5E2B09958447C2C669A37251512E2AC66963F46CB42C5C163D1B5D114D33A6E8D96845BC62F1
310
DCA2E5AA855C26E94FD2D680353C12B607ED4B1F2F19A78D3A9F4EB9A8D802B6C8D98823EC583CB7A89FD44B57A4F427E9D285D2F048B82C5296FC38A99FD293CB24FE51DC1176C43E8AD983F6D485943421E927F5F18FE2C5F3C5E323E3B9C50382334001C964324B4B4B6B76508A8A8AF0ED40B8062864AF3A1D3E78853C
310
B8A7400882064010340082A00110040D8020680004410320081A0041D0000882064010340082A00110040D8020680004410320081A0041D0000882064010340082A0019002D2D7D7B7B2F5F4F6AE6C1FF31DBA65AF76DBFBFD1B9F1FFBDCBD87FA7A6FD99B530E3DF7EB95BE566B7BFBF6F6F8A77E736B0C00C0B70500C055
310
F1436158DE1E861F0A03D88FC400C0BEEF3BF0D97FE83AA6D1FB35FA798D7E6CEF0D3DACD17B34BA9DDCD07D1ABD55A3873B6FE83D1AFDB0467F52A3D76B8E7358A3B76AE28F69F4F37B34F96BF43E4D7C58A33FA989B74B9AF1D1E8AD1ABD5FA3F768F463BB35F96BF41E8D7E58A3FB34FA318D1EDEA5C95FA31FD6E8618D
310
5EAF398E9D6AC64713DFAAD1CFEFD4E4AFD1FB34F14F6AF42735F18735BA5DA31FD3E8FD1AFDBC463FD6A1C95FA3F76874BB4E333E1ABD55A387DB35F96BF4C31AFDFF00A9D222C530523F4D0000000049454E44AE426082
  0
ENDSEC
  0
EOF
