  0
SECTION
  2
HEADER
  9
$ACADVER
  1
AC1027
  9
$ACADMAINTVER
 70
    20
  9
$DWGCODEPAGE
  3
ANSI_932
  9
$REQUIREDVERSIONS
160
                 0
  9
$INSBASE
 10
0.0
 20
0.0
 30
0.0
  9
$EXTMIN
 10
1.365384825317254
 20
3.047539562229821
 30
0.0
  9
$EXTMAX
 10
51.90250737262912
 20
35.64994796271839
 30
0.0
  9
$LIMMIN
 10
0.0
 20
0.0
  9
$LIMMAX
 10
420.0
 20
297.0
  9
$ORTHOMODE
 70
     0
  9
$REGENMODE
 70
     1
  9
$FILLMODE
 70
     1
  9
$QTEXTMODE
 70
     0
  9
$MIRRTEXT
 70
     0
  9
$LTSCALE
 40
0.5
  9
$ATTMODE
 70
     1
  9
$TEXTSIZE
 40
2.5
  9
$TRACEWID
 40
1.0
  9
$TEXTSTYLE
  7
黑体
  9
$CLAYER
  8
粗实线
  9
$CELTYPE
  6
ByLayer
  9
$CECOLOR
 62
   256
  9
$CELTSCALE
 40
0.5
  9
$DISPSILH
 70
     0
  9
$DIMSCALE
 40
1.0
  9
$DIMASZ
 40
12.5
  9
$DIMEXO
 40
0.0
  9
$DIMDLI
 40
12.5
  9
$DIMRND
 40
0.0
  9
$DIMDLE
 40
0.0
  9
$DIMEXE
 40
10.0
  9
$DIMTP
 40
0.0
  9
$DIMTM
 40
0.0
  9
$DIMTXT
 40
12.5
  9
$DIMCEN
 40
0.0
  9
$DIMTSZ
 40
0.0
  9
$DIMTOL
 70
     0
  9
$DIMLIM
 70
     0
  9
$DIMTIH
 70
     0
  9
$DIMTOH
 70
     0
  9
$DIMSE1
 70
     0
  9
$DIMSE2
 70
     0
  9
$DIMTAD
 70
     1
  9
$DIMZIN
 70
    12
  9
$DIMBLK
  1

  9
$DIMASO
 70
     1
  9
$DIMSHO
 70
     1
  9
$DIMPOST
  1

  9
$DIMAPOST
  1

  9
$DIMALT
 70
     0
  9
$DIMALTD
 70
     3
  9
$DIMALTF
 40
0.03937007874016
  9
$DIMLFAC
 40
1.0
  9
$DIMTOFL
 70
     1
  9
$DIMTVP
 40
0.0
  9
$DIMTIX
 70
     0
  9
$DIMSOXD
 70
     0
  9
$DIMSAH
 70
     0
  9
$DIMBLK1
  1

  9
$DIMBLK2
  1

  9
$DIMSTYLE
  2
1：5
  9
$DIMCLRD
 70
     6
  9
$DIMCLRE
 70
     6
  9
$DIMCLRT
 70
     6
  9
$DIMTFAC
 40
1.0
  9
$DIMGAP
 40
5.0
  9
$DIMJUST
 70
     0
  9
$DIMSD1
 70
     0
  9
$DIMSD2
 70
     0
  9
$DIMTOLJ
 70
     0
  9
$DIMTZIN
 70
     8
  9
$DIMALTZ
 70
     0
  9
$DIMALTTZ
 70
     0
  9
$DIMUPT
 70
     0
  9
$DIMDEC
 70
     1
  9
$DIMTDEC
 70
     1
  9
$DIMALTU
 70
     2
  9
$DIMALTTD
 70
     3
  9
$DIMTXSTY
  7
黑体
  9
$DIMAUNIT
 70
     0
  9
$DIMADEC
 70
     1
  9
$DIMALTRND
 40
0.0
  9
$DIMAZIN
 70
     3
  9
$DIMDSEP
 70
    46
  9
$DIMATFIT
 70
     3
  9
$DIMFRAC
 70
     0
  9
$DIMLDRBLK
  1

  9
$DIMLUNIT
 70
     2
  9
$DIMLWD
 70
     9
  9
$DIMLWE
 70
     9
  9
$DIMTMOVE
 70
     0
  9
$DIMFXL
 40
1.0
  9
$DIMFXLON
 70
     0
  9
$DIMJOGANG
 40
0.7853981633974483
  9
$DIMTFILL
 70
     0
  9
$DIMTFILLCLR
 70
     0
  9
$DIMARCSYM
 70
     0
  9
$DIMLTYPE
  6

  9
$DIMLTEX1
  6

  9
$DIMLTEX2
  6

  9
$DIMTXTDIRECTION
 70
     0
  9
$LUNITS
 70
     2
  9
$LUPREC
 70
     4
  9
$SKETCHINC
 40
1.0
  9
$FILLETRAD
 40
15.0
  9
$AUNITS
 70
     0
  9
$AUPREC
 70
     0
  9
$MENU
  1
.
  9
$ELEVATION
 40
0.0
  9
$PELEVATION
 40
0.0
  9
$THICKNESS
 40
0.0
  9
$LIMCHECK
 70
     0
  9
$CHAMFERA
 40
0.0
  9
$CHAMFERB
 40
0.0
  9
$CHAMFERC
 40
0.0
  9
$CHAMFERD
 40
0.0
  9
$SKPOLY
 70
     0
  9
$TDCREATE
 40
2457485.840038634
  9
$TDUCREATE
 40
2457485.465038634
  9
$TDUPDATE
 40
2457771.532734201
  9
$TDUUPDATE
 40
2457771.157734201
  9
$TDINDWG
 40
0.7367356134
  9
$TDUSRTIMER
 40
2457771.194785717
  9
$USRTIMER
 70
     1
  9
$ANGBASE
 50
0.0
  9
$ANGDIR
 70
     0
  9
$PDMODE
 70
     0
  9
$PDSIZE
 40
0.0
  9
$PLINEWID
 40
0.0
  9
$SPLFRAME
 70
     0
  9
$SPLINETYPE
 70
     6
  9
$SPLINESEGS
 70
     8
  9
$HANDSEED
  5
26A
  9
$SURFTAB1
 70
     6
  9
$SURFTAB2
 70
     6
  9
$SURFTYPE
 70
     6
  9
$SURFU
 70
     6
  9
$SURFV
 70
     6
  9
$UCSBASE
  2

  9
$UCSNAME
  2

  9
$UCSORG
 10
0.0
 20
0.0
 30
0.0
  9
$UCSXDIR
 10
1.0
 20
0.0
 30
0.0
  9
$UCSYDIR
 10
0.0
 20
1.0
 30
0.0
  9
$UCSORTHOREF
  2

  9
$UCSORTHOVIEW
 70
     0
  9
$UCSORGTOP
 10
0.0
 20
0.0
 30
0.0
  9
$UCSORGBOTTOM
 10
0.0
 20
0.0
 30
0.0
  9
$UCSORGLEFT
 10
0.0
 20
0.0
 30
0.0
  9
$UCSORGRIGHT
 10
0.0
 20
0.0
 30
0.0
  9
$UCSORGFRONT
 10
0.0
 20
0.0
 30
0.0
  9
$UCSORGBACK
 10
0.0
 20
0.0
 30
0.0
  9
$PUCSBASE
  2

  9
$PUCSNAME
  2

  9
$PUCSORG
 10
0.0
 20
0.0
 30
0.0
  9
$PUCSXDIR
 10
1.0
 20
0.0
 30
0.0
  9
$PUCSYDIR
 10
0.0
 20
1.0
 30
0.0
  9
$PUCSORTHOREF
  2

  9
$PUCSORTHOVIEW
 70
     0
  9
$PUCSORGTOP
 10
0.0
 20
0.0
 30
0.0
  9
$PUCSORGBOTTOM
 10
0.0
 20
0.0
 30
0.0
  9
$PUCSORGLEFT
 10
0.0
 20
0.0
 30
0.0
  9
$PUCSORGRIGHT
 10
0.0
 20
0.0
 30
0.0
  9
$PUCSORGFRONT
 10
0.0
 20
0.0
 30
0.0
  9
$PUCSORGBACK
 10
0.0
 20
0.0
 30
0.0
  9
$USERI1
 70
     0
  9
$USERI2
 70
     0
  9
$USERI3
 70
     0
  9
$USERI4
 70
     0
  9
$USERI5
 70
     0
  9
$USERR1
 40
0.0
  9
$USERR2
 40
0.0
  9
$USERR3
 40
0.0
  9
$USERR4
 40
0.0
  9
$USERR5
 40
0.0
  9
$WORLDVIEW
 70
     1
  9
$SHADEDGE
 70
     3
  9
$SHADEDIF
 70
    70
  9
$TILEMODE
 70
     1
  9
$MAXACTVP
 70
    48
  9
$PINSBASE
 10
0.0
 20
0.0
 30
0.0
  9
$PLIMCHECK
 70
     0
  9
$PEXTMIN
 10
5.0
 20
4.899999999999494
 30
0.0
  9
$PEXTMAX
 10
282.0000000000003
 20
194.9
 30
0.0
  9
$PLIMMIN
 10
-5.053009033203125
 20
-5.0
  9
$PLIMMAX
 10
292.0
 20
204.888656616211
  9
$UNITMODE
 70
     0
  9
$VISRETAIN
 70
     1
  9
$PLINEGEN
 70
     0
  9
$PSLTSCALE
 70
     1
  9
$TREEDEPTH
 70
  3020
  9
$CMLSTYLE
  2
Standard
  9
$CMLJUST
 70
     0
  9
$CMLSCALE
 40
20.0
  9
$PROXYGRAPHICS
 70
     1
  9
$MEASUREMENT
 70
     1
  9
$CELWEIGHT
370
    -1
  9
$ENDCAPS
280
     0
  9
$JOINSTYLE
280
     0
  9
$LWDISPLAY
290
     0
  9
$INSUNITS
 70
     4
  9
$HYPERLINKBASE
  1

  9
$STYLESHEET
  1

  9
$XEDIT
290
     1
  9
$CEPSNTYPE
380
     0
  9
$PSTYLEMODE
290
     1
  9
$FINGERPRINTGUID
  2
{8A58B497-1971-4D9A-921B-50069940912B}
  9
$VERSIONGUID
  2
{63B092E5-C13A-4EDE-B81D-BED2CD24D8B5}
  9
$EXTNAMES
290
     1
  9
$PSVPSCALE
 40
0.0
  9
$OLESTARTUP
290
     0
  9
$SORTENTS
280
   127
  9
$INDEXCTL
280
     0
  9
$HIDETEXT
280
     1
  9
$XCLIPFRAME
280
     2
  9
$HALOGAP
280
     0
  9
$OBSCOLOR
 70
   257
  9
$OBSLTYPE
280
     0
  9
$INTERSECTIONDISPLAY
280
     0
  9
$INTERSECTIONCOLOR
 70
   257
  9
$DIMASSOC
280
     2
  9
$PROJECTNAME
  1

  9
$CAMERADISPLAY
290
     0
  9
$LENSLENGTH
 40
50.0
  9
$CAMERAHEIGHT
 40
0.0
  9
$STEPSPERSEC
 40
2.0
  9
$STEPSIZE
 40
6.0
  9
$3DDWFPREC
 40
2.0
  9
$PSOLWIDTH
 40
0.25
  9
$PSOLHEIGHT
 40
4.0
  9
$LOFTANG1
 40
1.570796326794896
  9
$LOFTANG2
 40
1.570796326794896
  9
$LOFTMAG1
 40
0.0
  9
$LOFTMAG2
 40
0.0
  9
$LOFTPARAM
 70
     7
  9
$LOFTNORMALS
280
     1
  9
$LATITUDE
 40
37.795
  9
$LONGITUDE
 40
-122.394
  9
$NORTHDIRECTION
 40
0.0
  9
$TIMEZONE
 70
 -8000
  9
$LIGHTGLYPHDISPLAY
280
     1
  9
$TILEMODELIGHTSYNCH
280
     1
  9
$CMATERIAL
347
3C
  9
$SOLIDHIST
280
     0
  9
$SHOWHIST
280
     1
  9
$DWFFRAME
280
     2
  9
$DGNFRAME
280
     0
  9
$REALWORLDSCALE
290
     1
  9
$INTERFERECOLOR
 62
     1
  9
$INTERFEREOBJVS
345
54
  9
$INTERFEREVPVS
346
55
  9
$CSHADOW
280
     0
  9
$SHADOWPLANELOCATION
 40
0.0
  0
ENDSEC
  0
SECTION
  2
CLASSES
  0
CLASS
  1
ACDBDICTIONARYWDFLT
  2
AcDbDictionaryWithDefault
  3
ObjectDBX Classes
 90
        0
 91
        1
280
     0
281
     0
  0
CLASS
  1
DICTIONARYVAR
  2
AcDbDictionaryVar
  3
ObjectDBX Classes
 90
        0
 91
        9
280
     0
281
     0
  0
CLASS
  1
TABLESTYLE
  2
AcDbTableStyle
  3
ObjectDBX Classes
 90
     4095
 91
        1
280
     0
281
     0
  0
CLASS
  1
MATERIAL
  2
AcDbMaterial
  3
ObjectDBX Classes
 90
     1153
 91
        3
280
     0
281
     0
  0
CLASS
  1
VISUALSTYLE
  2
AcDbVisualStyle
  3
ObjectDBX Classes
 90
     4095
 91
        3
280
     0
281
     0
  0
CLASS
  1
SCALE
  2
AcDbScale
  3
ObjectDBX Classes
 90
     1153
 91
       19
280
     0
281
     0
  0
CLASS
  1
MLEADERSTYLE
  2
AcDbMLeaderStyle
  3
ACDB_MLEADERSTYLE_CLASS
 90
     4095
 91
        0
280
     0
281
     0
  0
CLASS
  1
CELLSTYLEMAP
  2
AcDbCellStyleMap
  3
ObjectDBX Classes
 90
     1152
 91
        1
280
     0
281
     0
  0
CLASS
  1
EXACXREFPANELOBJECT
  2
ExAcXREFPanelObject
  3
EXAC_ESW
 90
     1025
 91
        0
280
     1
281
     0
  0
CLASS
  1
NPOCOLLECTION
  2
AcDbImpNonPersistentObjectsCollection
  3
ObjectDBX Classes
 90
     1153
 91
        0
280
     0
281
     0
  0
CLASS
  1
LAYER_INDEX
  2
AcDbLayerIndex
  3
ObjectDBX Classes
 90
        0
 91
        0
280
     0
281
     0
  0
CLASS
  1
SPATIAL_INDEX
  2
AcDbSpatialIndex
  3
ObjectDBX Classes
 90
        0
 91
        0
280
     0
281
     0
  0
CLASS
  1
IDBUFFER
  2
AcDbIdBuffer
  3
ObjectDBX Classes
 90
        0
 91
        0
280
     0
281
     0
  0
CLASS
  1
ACDBSECTIONVIEWSTYLE
  2
AcDbSectionViewStyle
  3
ObjectDBX Classes
 90
     1025
 91
        0
280
     0
281
     0
  0
CLASS
  1
ACDBDETAILVIEWSTYLE
  2
AcDbDetailViewStyle
  3
ObjectDBX Classes
 90
     1025
 91
        0
280
     0
281
     0
  0
CLASS
  1
ACDBVIEWREPSTANDARD
  2
AcDbViewRepStandard
  3
AcModelDocObj
 90
      129
 91
        0
280
     1
281
     0
  0
CLASS
  1
PLOTSETTINGS
  2
AcDbPlotSettings
  3
ObjectDBX Classes
 90
        0
 91
        0
280
     0
281
     0
  0
CLASS
  1
DIMASSOC
  2
AcDbDimAssoc
  3
"AcDbDimAssoc|Product Desc:     AcDim ARX App For Dimension|Company:          Autodesk, Inc.|WEB Address:      www.autodesk.com"
 90
        0
 91
        0
280
     0
281
     0
  0
CLASS
  1
SORTENTSTABLE
  2
AcDbSortentsTable
  3
ObjectDBX Classes
 90
        0
 91
        1
280
     0
281
     0
  0
CLASS
  1
ACDB_MTEXTOBJECTCONTEXTDATA_CLASS
  2
AcDbMTextObjectContextData
  3
ObjectDBX Classes
 90
     1153
 91
        0
280
     0
281
     0
  0
CLASS
  1
MULTILEADER
  2
AcDbMLeader
  3
ACDB_MLEADER_CLASS
 90
     1025
 91
        0
280
     0
281
     1
  0
CLASS
  1
SUN
  2
AcDbSun
  3
SCENEOE
 90
     1153
 91
        0
280
     1
281
     0
  0
CLASS
  1
RASTERVARIABLES
  2
AcDbRasterVariables
  3
ISM
 90
        0
 91
        0
280
     1
281
     0
  0
ENDSEC
  0
SECTION
  2
TABLES
  0
TABLE
  2
VPORT
  5
2C
330
0
100
AcDbSymbolTable
 70
     1
  0
VPORT
  5
2D
330
2C
100
AcDbSymbolTableRecord
100
AcDbViewportTableRecord
  2
*Active
 70
     0
 10
0.0
 20
0.0
 11
1.0
 21
1.0
 12
39.00617004531229
 22
16.48022296743147
 13
0.0
 23
0.0
 14
10.0
 24
10.0
 15
10.0
 25
10.0
 16
0.0
 26
0.0
 36
1.0
 17
0.0
 27
0.0
 37
0.0
 40
70.96646255154337
 41
2.232941176470588
 42
50.0
 43
0.0
 44
0.0
 50
0.0
 51
0.0
 71
    16
 72
  1000
 73
     1
 74
     3
 75
     0
 76
     0
 77
     0
 78
     0
281
     0
 65
     1
110
0.0
120
0.0
130
0.0
111
1.0
121
0.0
131
0.0
112
0.0
122
1.0
132
0.0
 79
     0
146
0.0
348
2E
 60
     3
 61
     5
292
     1
282
     1
141
0.0
142
0.0
 63
   250
421
  3355443
1001
ACAD_NAV_VCDISPLAY
1070
     3
  0
ENDTAB
  0
TABLE
  2
LTYPE
  5
27
330
0
100
AcDbSymbolTable
 70
     1
  0
LTYPE
  5
28
330
27
100
AcDbSymbolTableRecord
100
AcDbLinetypeTableRecord
  2
ByBlock
 70
     0
  3

 72
    65
 73
     0
 40
0.0
  0
LTYPE
  5
29
330
27
100
AcDbSymbolTableRecord
100
AcDbLinetypeTableRecord
  2
ByLayer
 70
     0
  3

 72
    65
 73
     0
 40
0.0
  0
LTYPE
  5
11
330
27
100
AcDbSymbolTableRecord
100
AcDbLinetypeTableRecord
  2
Continuous
 70
     0
  3
Solid line
 72
    65
 73
     0
 40
0.0
  0
ENDTAB
  0
TABLE
  2
LAYER
  5
1F
102
{ACAD_XDICTIONARY
360
20
102
}
330
0
100
AcDbSymbolTable
 70
     2
  0
LAYER
  5
4
330
1F
100
AcDbSymbolTableRecord
100
AcDbLayerTableRecord
  2
0
 70
     0
 62
     7
  6
Continuous
370
    -3
390
5
347
8
348
0
  0
LAYER
  5
50
330
1F
100
AcDbSymbolTableRecord
100
AcDbLayerTableRecord
  2
粗实线
 70
     0
 62
     7
  6
Continuous
370
    20
390
5
347
8
348
0
1001
AcadStringInfo
1000
MIFCodePage
1070
     5
  0
ENDTAB
  0
TABLE
  2
STYLE
  5
24
330
0
100
AcDbSymbolTable
 70
     2
  0
STYLE
  5
25
330
24
100
AcDbSymbolTableRecord
100
AcDbTextStyleTableRecord
  2
Standard
 70
     0
 40
0.0
 41
1.0
 50
0.0
 71
     0
 42
2.5
  3
arial.ttf
  4

1001
ACAD
1000
Arial
1071
       34
  0
STYLE
  5
34
330
24
100
AcDbSymbolTableRecord
100
AcDbTextStyleTableRecord
  2
黑体
 70
     0
 40
0.0
 41
1.0
 50
0.0
 71
     0
 42
2.5
  3
simhei.ttf
  4

1001
ACAD
1000
SimHei
1071
    34353
1001
AcadStringInfo
1000
MIFCodePage
1070
     5
  0
ENDTAB
  0
TABLE
  2
VIEW
  5
2A
330
0
100
AcDbSymbolTable
 70
     0
  0
ENDTAB
  0
TABLE
  2
UCS
  5
2B
330
0
100
AcDbSymbolTable
 70
     0
  0
ENDTAB
  0
TABLE
  2
APPID
  5
31
330
0
100
AcDbSymbolTable
 70
     7
  0
APPID
  5
23
330
31
100
AcDbSymbolTableRecord
100
AcDbRegAppTableRecord
  2
ACAD
 70
     0
  0
APPID
  5
17
330
31
100
AcDbSymbolTableRecord
100
AcDbRegAppTableRecord
  2
ACAD_PSEXT
 70
     0
  0
APPID
  5
36
330
31
100
AcDbSymbolTableRecord
100
AcDbRegAppTableRecord
  2
ACAD_DSTYLE_DIMJAG
 70
     0
  0
APPID
  5
37
330
31
100
AcDbSymbolTableRecord
100
AcDbRegAppTableRecord
  2
ACAD_DSTYLE_DIMTALN
 70
     0
  0
APPID
  5
30
330
31
100
AcDbSymbolTableRecord
100
AcDbRegAppTableRecord
  2
ACAD_NAV_VCDISPLAY
 70
     0
  0
APPID
  5
35
330
31
100
AcDbSymbolTableRecord
100
AcDbRegAppTableRecord
  2
ACAD_DSTYLE_DIMBREAK
 70
     0
  0
APPID
  5
15
330
31
100
AcDbSymbolTableRecord
100
AcDbRegAppTableRecord
  2
AcadStringInfo
 70
     0
  0
ENDTAB
  0
TABLE
  2
DIMSTYLE
  5
32
330
0
100
AcDbSymbolTable
 70
     1
100
AcDbDimStyleTable
 71
     1
340
33
  0
DIMSTYLE
105
33
330
32
100
AcDbSymbolTableRecord
100
AcDbDimStyleTableRecord
  2
1：5
 70
     0
 41
12.5
 42
0.0
 43
12.5
 44
10.0
 73
     0
 74
     0
 77
     1
 78
    12
 79
     3
140
12.5
141
0.0
143
0.03937007874016
147
5.0
171
     3
172
     1
176
     6
177
     6
178
     6
179
     1
271
     1
272
     1
274
     3
283
     0
284
     8
340
34
371
     9
372
     9
1001
ACAD_DSTYLE_DIMBREAK
1070
   391
1040
3.75
1001
ACAD_DSTYLE_DIMJAG
1070
   388
1040
1.5
1001
ACAD_DSTYLE_DIMTALN
1070
   392
1070
     0
1001
AcadStringInfo
1000
MIFCodePage
1070
     5
  0
ENDTAB
  0
TABLE
  2
BLOCK_RECORD
  5
1
330
0
100
AcDbSymbolTable
 70
     0
  0
BLOCK_RECORD
  5
2
330
1
100
AcDbSymbolTableRecord
100
AcDbBlockTableRecord
  2
*Model_Space
340
13
 70
     0
280
     1
281
     0
  0
BLOCK_RECORD
  5
18
102
{ACAD_XDICTIONARY
360
19
102
}
330
1
100
AcDbSymbolTableRecord
100
AcDbBlockTableRecord
  2
*Paper_Space
340
1D
 70
     0
280
     1
281
     0
  0
ENDTAB
  0
ENDSEC
  0
SECTION
  2
BLOCKS
  0
BLOCK
  5
3
330
2
100
AcDbEntity
  8
0
100
AcDbBlockBegin
  2
*Model_Space
 70
     0
 10
0.0
 20
0.0
 30
0.0
  3
*Model_Space
  1

  0
ENDBLK
  5
12
330
2
100
AcDbEntity
  8
0
100
AcDbBlockEnd
  0
BLOCK
  5
1B
330
18
100
AcDbEntity
 67
     1
  8
0
100
AcDbBlockBegin
  2
*Paper_Space
 70
     0
 10
0.0
 20
0.0
 30
0.0
  3
*Paper_Space
  1

  0
ENDBLK
  5
1C
330
18
100
AcDbEntity
 67
     1
  8
0
100
AcDbBlockEnd
  0
ENDSEC
  0
SECTION
  2
ENTITIES
  0
LINE
  5
69
330
2
100
AcDbEntity
  8
0
  6
Continuous
 62
     7
100
AcDbLine
 10
1.386084502897011
 20
19.36038024411144
 30
0.0
 11
1.365384825317254
 21
17.79579261790252
 31
0.0
  0
LINE
  5
6A
330
2
100
AcDbEntity
  8
0
  6
Continuous
 62
     7
100
AcDbLine
 10
1.552066639290083
 20
17.79349648814184
 30
0.0
 11
1.572766316869941
 21
19.35808411436184
 31
0.0
  0
LWPOLYLINE
  5
6B
330
2
100
AcDbEntity
  8
0
  6
Continuous
 62
     7
100
AcDbPolyline
 90
       15
 70
     0
 43
0.0
 10
1.401388360797734
 20
15.52549089985043
 10
1.394554567953386
 20
15.48969316764954
 10
1.404536629743989
 20
15.40407386482403
 10
1.4471200474558
 20
15.32342176265902
 10
1.51920115842491
 20
15.24624735055614
 10
1.626940318451219
 20
15.16578770363212
 10
1.756330316589119
 20
15.09284673814494
 10
1.896652294293371
 20
15.03248334172074
 10
2.04178282584159
 20
14.98639401363984
 10
2.19185039494359
 20
14.95407569800613
 10
2.347390042500681
 20
14.93685110485223
 10
2.503204497097894
 20
14.93779020316944
 10
2.657058627192978
 20
14.96125443773602
 10
2.79791417087501
 20
15.00632997456744
 10
2.909425301432766
 20
15.03921645278094
  0
LINE
  5
6C
330
2
100
AcDbEntity
  8
0
  6
Continuous
 62
     7
100
AcDbLine
 10
2.1173187501058
 20
16.72041144171414
 30
0.0
 11
2.118541620256066
 21
16.72519233144984
 31
0.0
  0
LINE
  5
6D
330
2
100
AcDbEntity
  8
0
  6
Continuous
 62
     7
100
AcDbLine
 10
2.031375347404609
 20
16.55523439798912
 30
0.0
 11
2.035055928983203
 21
16.56955316616564
 31
0.0
  0
LINE
  5
6E
330
2
100
AcDbEntity
  8
0
  6
Continuous
 62
     7
100
AcDbLine
 10
1.411151273035015
 20
15.55196021723722
 30
0.0
 11
1.400997382323087
 21
15.52412466446452
 31
0.0
  0
LINE
  5
6F
330
2
100
AcDbEntity
  8
0
  6
Continuous
 62
     7
100
AcDbLine
 10
3.178844853835623
 20
16.12718689163815
 30
0.0
 11
3.277439111995648
 21
16.47318606117863
 31
0.0
  0
LINE
  5
70
330
2
100
AcDbEntity
  8
0
  6
Continuous
 62
     7
100
AcDbLine
 10
3.589310234534181
 20
16.58963347047204
 30
0.0
 11
3.490715976385363
 21
16.24363430093152
 31
0.0
  0
LINE
  5
71
330
2
100
AcDbEntity
  8
0
  6
Continuous
 62
     7
100
AcDbLine
 10
2.035055928983203
 20
16.56955316616564
 30
0.0
 11
2.1173187501058
 21
16.72041144171414
 31
0.0
  0
LINE
  5
72
330
2
100
AcDbEntity
  8
0
  6
Continuous
 62
     7
100
AcDbLine
 10
2.975655501902567
 20
14.94786185562412
 30
0.0
 11
2.909425301429227
 21
15.0392164527799
 31
0.0
  0
LINE
  5
73
330
2
100
AcDbEntity
  8
0
  6
Continuous
 62
     7
100
AcDbLine
 10
1.629754994013734
 20
15.44989147544992
 30
0.0
 11
1.620512398583225
 21
15.46434335674673
 31
0.0
  0
LINE
  5
74
330
2
100
AcDbEntity
  8
0
  6
Continuous
 62
     7
100
AcDbLine
 10
8.085928934636534
 20
17.71313356118993
 30
0.0
 11
8.106629325369162
 21
19.27772055674123
 31
0.0
  0
LINE
  5
75
330
2
100
AcDbEntity
  8
0
  6
Continuous
 62
     7
100
AcDbLine
 10
8.032766772669367
 20
22.39473593780243
 30
0.0
 11
9.587161364549221
 21
27.84960976112274
 31
0.0
  0
LINE
  5
76
330
2
100
AcDbEntity
  8
0
  6
Continuous
 62
     7
100
AcDbLine
 10
10.26629173234898
 20
29.46443182460963
 30
0.0
 11
7.912356831274621
 21
21.53791210103184
 31
0.0
  0
LINE
  5
77
330
2
100
AcDbEntity
  8
0
  6
Continuous
 62
     7
100
AcDbLine
 10
9.019338004512087
 20
17.70165291241973
 30
0.0
 11
9.040038395244716
 21
19.26623990795992
 31
0.0
  0
LINE
  5
78
330
2
100
AcDbEntity
  8
0
  6
Continuous
 62
     7
100
AcDbLine
 10
8.71780676787071
 20
16.17934266772073
 30
0.0
 11
8.816401026019629
 21
16.52534183726124
 31
0.0
  0
LINE
  5
79
330
2
100
AcDbEntity
  8
0
  6
Continuous
 62
     7
100
AcDbLine
 10
9.232875999065839
 20
17.15123704467654
 30
0.0
 11
9.149078111435192
 21
16.85716312929353
 31
0.0
  0
LINE
  5
7A
330
2
100
AcDbEntity
  8
0
  6
Continuous
 62
     7
100
AcDbLine
 10
9.666710295445327
 20
16.22554446252234
 30
0.0
 11
9.568116037285305
 21
15.87954529298183
 31
0.0
  0
LINE
  5
7B
330
2
100
AcDbEntity
  8
0
  6
Continuous
 62
     7
100
AcDbLine
 10
15.5388232975855
 20
3.953649760081434
 30
0.0
 11
15.1330599887527
 21
4.110510609170038
 31
0.0
  0
LINE
  5
7C
330
2
100
AcDbEntity
  8
0
  6
Continuous
 62
     7
100
AcDbLine
 10
3.25673129959207
 20
15.95717338584984
 30
0.0
 11
3.443196954052024
 21
15.78052681766364
 31
0.0
  0
LINE
  5
7D
330
2
100
AcDbEntity
  8
0
  6
Continuous
 62
     7
100
AcDbLine
 10
2.059674186771396
 20
16.50763239301042
 30
0.0
 11
15.02642497488607
 21
4.173440163567534
 31
0.0
  0
LINE
  5
7E
330
2
100
AcDbEntity
  8
0
  6
Continuous
 62
     7
100
AcDbLine
 10
1.524799054913785
 20
17.29686066781732
 30
0.0
 11
2.109112664183839
 21
16.74105169942882
 31
0.0
  0
LINE
  5
7F
330
2
100
AcDbEntity
  8
0
  6
Continuous
 62
     7
100
AcDbLine
 10
15.57436830221138
 20
3.932673241941532
 30
0.0
 11
16.15868191147032
 21
3.376864273553035
 31
0.0
  0
LINE
  5
80
330
2
100
AcDbEntity
  8
0
  6
Continuous
 62
     7
100
AcDbLine
 10
3.443196954174077
 20
15.78052681766364
 30
0.0
 11
14.8502348502217
 21
4.929959819234943
 31
0.0
  0
LINE
  5
81
330
2
100
AcDbEntity
  8
0
  6
Continuous
 62
     7
100
AcDbLine
 10
15.03684762937633
 20
4.752054526266834
 30
0.0
 11
14.85004244708413
 21
4.929962158881828
 31
0.0
  0
LINE
  5
82
330
2
100
AcDbEntity
  8
0
  6
Continuous
 62
     7
100
AcDbLine
 10
1.611971092716676
 20
15.45785567506704
 30
0.0
 11
1.623535515495718
 21
15.46663961220382
 31
0.0
  0
LINE
  5
83
330
2
100
AcDbEntity
  8
0
  6
Continuous
 62
     7
100
AcDbLine
 10
16.29270503613276
 20
3.316190777616531
 30
0.0
 11
23.01325153940022
 21
3.233528964896041
 31
0.0
  0
LINE
  5
84
330
2
100
AcDbEntity
  8
0
  6
Continuous
 62
     7
100
AcDbLine
 10
23.94666060928688
 20
3.222048316125841
 30
0.0
 11
30.48052409847159
 21
3.141683774734425
 31
0.0
  0
LINE
  5
85
330
2
100
AcDbEntity
  8
0
  6
Continuous
 62
     7
100
AcDbLine
 10
31.41393316835835
 20
3.130203125953122
 30
0.0
 11
38.13447727141717
 21
3.047543596369428
 31
0.0
  0
LINE
  5
86
330
2
100
AcDbEntity
  8
0
  6
Continuous
 62
     7
100
AcDbLine
 10
15.88547046199364
 20
4.453534676013537
 30
0.0
 11
16.21172606040191
 21
4.449932627201321
 31
0.0
  0
LINE
  5
87
330
2
100
AcDbEntity
  8
0
  6
Continuous
 62
     7
100
AcDbLine
 10
16.2117260606017
 20
4.449932627223531
 30
0.0
 11
20.78543034563407
 21
4.393677450178728
 31
0.0
  0
LINE
  5
88
330
2
100
AcDbEntity
  8
0
  6
Continuous
 62
     7
100
AcDbLine
 10
21.11471886622871
 20
4.389401803594122
 30
0.0
 11
20.7855397591888
 21
4.393573405394326
 31
0.0
  0
LINE
  5
89
330
2
100
AcDbEntity
  8
0
  6
Continuous
 62
     7
100
AcDbLine
 10
21.34654593978487
 20
4.675703948804629
 30
0.0
 11
21.16008026578902
 21
4.852350535494545
 31
0.0
  0
LINE
  5
8A
330
2
100
AcDbEntity
  8
0
  6
Continuous
 62
     7
100
AcDbLine
 10
21.44514019793378
 20
5.021703118356223
 30
0.0
 11
21.25867451313759
 21
5.198349715258133
 31
0.0
  0
LINE
  5
8B
330
2
100
AcDbEntity
  8
0
  6
Continuous
 62
     7
100
AcDbLine
 10
21.16008026571128
 20
4.852350535494545
 30
0.0
 11
9.753042261016956
 21
15.70291763727534
 31
0.0
  0
LINE
  5
8C
330
2
100
AcDbEntity
  8
0
  6
Continuous
 62
     7
100
AcDbLine
 10
22.87922841474879
 20
3.294202460832543
 30
0.0
 11
22.74682100983811
 21
3.420150619421943
 31
0.0
  0
LINE
  5
8D
330
2
100
AcDbEntity
  8
0
  6
Continuous
 62
     7
100
AcDbLine
 10
8.377750562872281
 20
17.08825297964423
 30
0.0
 11
8.245343157972712
 21
17.21420113823363
 31
0.0
  0
LINE
  5
8E
330
2
100
AcDbEntity
  8
0
  6
Continuous
 62
     7
100
AcDbLine
 10
22.65309558337269
 20
3.760608794137139
 30
0.0
 11
22.25062417047103
 21
4.143446395836829
 31
0.0
  0
LINE
  5
8F
330
2
100
AcDbEntity
  8
0
  6
Continuous
 62
     7
100
AcDbLine
 10
8.986626554417497
 20
16.76038482556134
 30
0.0
 11
8.58415514152694
 21
17.14322242726103
 31
0.0
  0
LINE
  5
90
330
2
100
AcDbEntity
  8
0
  6
Continuous
 62
     7
100
AcDbLine
 10
21.25867451313759
 20
5.198349715258133
 30
0.0
 11
20.57153987551989
 21
5.851963781445844
 31
0.0
  0
LINE
  5
91
330
2
100
AcDbEntity
  8
0
  6
Continuous
 62
     7
100
AcDbLine
 10
9.851636532419206
 20
16.04891679421734
 30
0.0
 11
10.57850362372208
 21
15.35750854739784
 31
0.0
  0
LINE
  5
92
330
2
100
AcDbEntity
  8
0
  6
Continuous
 62
     7
100
AcDbLine
 10
23.81263748462444
 20
3.282721812062345
 30
0.0
 11
23.68023007972477
 21
3.408669970651745
 31
0.0
  0
LINE
  5
93
330
2
100
AcDbEntity
  8
0
  6
Continuous
 62
     7
100
AcDbLine
 10
9.311159632759039
 20
17.07677233087403
 30
0.0
 11
9.178752227859373
 21
17.20272048946343
 31
0.0
  0
LINE
  5
94
330
2
100
AcDbEntity
  8
0
  6
Continuous
 62
     7
100
AcDbLine
 10
23.58650465325947
 20
3.749128145366941
 30
0.0
 11
23.1840332403577
 21
4.13196574706663
 31
0.0
  0
LINE
  5
95
330
2
100
AcDbEntity
  8
0
  6
Continuous
 62
     7
100
AcDbLine
 10
9.566429580896491
 20
15.88082283602662
 30
0.0
 11
9.753234687986207
 21
15.70291527506213
 31
0.0
  0
LINE
  5
96
330
2
100
AcDbEntity
  8
0
  6
Continuous
 62
     7
100
AcDbLine
 10
9.666710295445327
 20
16.22554446252234
 30
0.0
 11
9.851636532519151
 21
16.04891679421734
 31
0.0
  0
LINE
  5
97
330
2
100
AcDbEntity
  8
0
  6
Continuous
 62
     7
100
AcDbLine
 10
15.5532014937079
 20
17.62128837101724
 30
0.0
 11
15.57390188444053
 21
19.18587536656853
 31
0.0
  0
LINE
  5
98
330
2
100
AcDbEntity
  8
0
  6
Continuous
 62
     7
100
AcDbLine
 10
16.48661056359466
 20
17.60980772224703
 30
0.0
 11
16.50731095432719
 21
19.17439471779833
 31
0.0
  0
LINE
  5
99
330
2
100
AcDbEntity
  8
0
  6
Continuous
 62
     7
100
AcDbLine
 10
16.70014855813721
 20
17.05939185450382
 30
0.0
 11
16.61635067050656
 21
16.76531793912084
 31
0.0
  0
LINE
  5
9A
330
2
100
AcDbEntity
  8
0
  6
Continuous
 62
     7
100
AcDbLine
 10
8.423517553413372
 20
17.08152140603394
 30
0.0
 11
8.538388150985849
 21
17.14995400087132
 31
0.0
  0
LWPOLYLINE
  5
9B
330
2
100
AcDbEntity
  8
0
  6
Continuous
 62
     7
100
AcDbPolyline
 90
       12
 70
     0
 43
0.0
 10
1.623535515495718
 20
15.46663961220382
 10
1.6581032775091
 20
15.48051041750273
 10
1.716742188633748
 20
15.49103944991963
 10
1.800864861054376
 20
15.49339672471852
 10
1.905562950695213
 20
15.48521362032533
 10
2.024686716541901
 20
15.46643377176143
 10
2.152538479088534
 20
15.43867668280194
 10
2.286479839463828
 20
15.40359728692343
 10
2.424859304158966
 20
15.36454823925923
 10
2.566581548261794
 20
15.32463375111294
 10
2.714184882642982
 20
15.28528368142763
 10
2.798907585255079
 20
15.26499023293433
  0
LWPOLYLINE
  5
9C
330
2
100
AcDbEntity
  8
0
  6
Continuous
 62
     7
100
AcDbPolyline
 90
       11
 70
     0
 43
0.0
 10
2.829082107594738
 20
15.48632045640354
 10
2.686411693788365
 20
15.52206048145822
 10
2.471266540668763
 20
15.58216850789692
 10
2.265921749365918
 20
15.63903865755354
 10
2.071324872489972
 20
15.68356418599942
 10
1.892997225143508
 20
15.70984960949753
 10
1.738578443132209
 20
15.71491068313554
 10
1.616339358533828
 20
15.69896483927454
 10
1.524892485511911
 20
15.66570421178484
 10
1.456731956447533
 20
15.61665551736593
 10
1.411151273035015
 20
15.55196021723722
  0
LINE
  5
9D
330
2
100
AcDbEntity
  8
0
  6
Continuous
 62
     7
100
AcDbLine
 10
30.34650097382026
 20
3.202357270670928
 30
0.0
 11
30.21409356892059
 21
3.328305429260328
 31
0.0
  0
LINE
  5
9E
330
2
100
AcDbEntity
  8
0
  6
Continuous
 62
     7
100
AcDbLine
 10
15.84502312195485
 20
16.99640778947153
 30
0.0
 11
15.71261571704408
 21
17.12235594806093
 31
0.0
  0
LINE
  5
9F
330
2
100
AcDbEntity
  8
0
  6
Continuous
 62
     7
100
AcDbLine
 10
30.12036814244417
 20
3.668763603964444
 30
0.0
 11
29.71789672954241
 21
4.051601205664136
 31
0.0
  0
LINE
  5
A0
330
2
100
AcDbEntity
  8
0
  6
Continuous
 62
     7
100
AcDbLine
 10
16.45389911349997
 20
16.66853963539973
 30
0.0
 11
16.05142770059831
 21
17.05137723708834
 31
0.0
  0
LINE
  5
A1
330
2
100
AcDbEntity
  8
0
  6
Continuous
 62
     7
100
AcDbLine
 10
17.31890909150168
 20
15.95707160404462
 30
0.0
 11
18.04577618279355
 21
15.26566335722512
 31
0.0
  0
LINE
  5
A2
330
2
100
AcDbEntity
  8
0
  6
Continuous
 62
     7
100
AcDbLine
 10
31.27991004370692
 20
3.190876621889625
 30
0.0
 11
31.14750263879625
 21
3.316824780490131
 31
0.0
  0
LINE
  5
A3
330
2
100
AcDbEntity
  8
0
  6
Continuous
 62
     7
100
AcDbLine
 10
16.77843219183041
 20
16.98492714070134
 30
0.0
 11
16.64602478693084
 21
17.11087529929073
 31
0.0
  0
LINE
  5
A4
330
2
100
AcDbEntity
  8
0
  6
Continuous
 62
     7
100
AcDbLine
 10
31.05377721233083
 20
3.657282955194246
 30
0.0
 11
30.65130579942918
 21
4.040120556893937
 31
0.0
  0
LINE
  5
A5
330
2
100
AcDbEntity
  8
0
  6
Continuous
 62
     7
100
AcDbLine
 10
17.1339828545167
 20
16.13369927234964
 30
0.0
 11
17.31890909159052
 21
15.95707160404462
 31
0.0
  0
LINE
  5
A6
330
2
100
AcDbEntity
  8
0
  6
Continuous
 62
     7
100
AcDbLine
 10
15.89079011248484
 20
16.98967621586124
 30
0.0
 11
16.00566071006832
 21
17.05810881069863
 31
0.0
  0
LWPOLYLINE
  5
A7
330
2
100
AcDbEntity
  8
0
  6
Continuous
 62
     7
100
AcDbPolyline
 90
       13
 70
     0
 43
0.0
 10
2.801865452660221
 20
15.23899234826513
 10
2.728194048986815
 20
15.21716769783984
 10
2.624884155349283
 20
15.18220955205652
 10
2.520528364622502
 20
15.16235774107252
 10
2.404792984365083
 20
15.15684338538143
 10
2.283008762670695
 20
15.16525720562782
 10
2.161942404405455
 20
15.18574332102804
 10
2.043792360140196
 20
15.21672046822823
 10
1.926909364169481
 20
15.25907359279702
 10
1.81745771001821
 20
15.31106109968392
 10
1.728425934847615
 20
15.36484726530053
 10
1.666115647674075
 20
15.41268997393464
 10
1.629754994013734
 20
15.44989147544992
  0
LWPOLYLINE
  5
A8
330
2
100
AcDbEntity
  8
0
  6
Continuous
 62
     7
100
AcDbPolyline
 90
        8
 70
   128
 43
0.0
 10
47.0857112222389
 20
15.27102140661233
 10
47.02911274685842
 20
15.25939377308514
 10
46.94532376764365
 20
15.25403609192935
 10
46.83940440369959
 20
15.25829878446985
 10
46.71986170302935
 20
15.27229369727033
 10
46.59087926060568
 20
15.29534673340253
 10
46.45284082305304
 20
15.32508170531033
 10
46.30830791611541
 20
15.35555084790143
  0
LINE
  5
A9
330
2
100
AcDbEntity
  8
0
  6
Continuous
 62
     7
100
AcDbLine
 10
36.02028597776275
 20
12.88119362878793
 30
0.0
 11
36.66218107957905
 21
12.87329851350624
 31
0.0
  0
LINE
  5
AA
330
2
100
AcDbEntity
  8
0
  6
Continuous
 62
     7
100
AcDbLine
 10
35.98785089645613
 20
12.91204642562962
 30
0.0
 11
36.32225334171816
 21
12.90793337687334
 31
0.0
  0
LINE
  5
AB
330
2
100
AcDbEntity
  8
0
  6
Continuous
 62
     7
100
AcDbLine
 10
3.806346581011939
 20
14.84616812764764
 30
0.0
 11
3.010217020754213
 21
14.92464645590693
 31
0.0
  0
LINE
  5
AC
330
2
100
AcDbEntity
  8
0
  6
Continuous
 62
     7
100
AcDbLine
 10
22.68236109412271
 20
3.695968185972826
 30
0.0
 11
22.71755549909921
 21
3.484791227586231
 31
0.0
  0
LINE
  5
AD
330
2
100
AcDbEntity
  8
0
  6
Continuous
 62
     7
100
AcDbLine
 10
23.65096456898587
 20
3.473310578816033
 30
0.0
 11
23.61577016399836
 21
3.684487537202627
 31
0.0
  0
LINE
  5
AE
330
2
100
AcDbEntity
  8
0
  6
Continuous
 62
     7
100
AcDbLine
 10
23.02047405277937
 20
17.52944318085565
 30
0.0
 11
23.0411744435119
 21
19.09403017639584
 31
0.0
  0
LINE
  5
AF
330
2
100
AcDbEntity
  8
0
  6
Continuous
 62
     7
100
AcDbLine
 10
23.20715706061277
 20
17.52714543664434
 30
0.0
 11
23.22785673818143
 21
19.09173306286434
 31
0.0
  0
LINE
  5
B0
330
2
100
AcDbEntity
  8
0
  6
Continuous
 62
     7
100
AcDbLine
 10
45.26201196181302
 20
14.96289130809382
 30
0.0
 11
46.08798820809703
 21
15.04003796648934
 31
0.0
  0
LINE
  5
B1
330
2
100
AcDbEntity
  8
0
  6
Continuous
 62
     7
100
AcDbLine
 10
44.94634702186727
 20
15.60451857618952
 30
0.0
 11
45.77232326813997
 21
15.68166523459612
 31
0.0
  0
LWPOLYLINE
  5
B2
330
2
100
AcDbEntity
  8
0
  6
Continuous
 62
     7
100
AcDbPolyline
 90
       31
 70
   128
 43
0.0
 10
44.81721432713511
 20
15.43555528744404
 10
44.5980866934268
 20
15.41641650220943
 10
44.29357795847539
 20
15.39009313840073
 10
43.97270959720385
 20
15.35938254396984
 10
43.6378407062766
 20
15.32200201199754
 10
43.29102989540102
 20
15.27793438481422
 10
42.92968091556939
 20
15.22681568441783
 10
42.54551456019788
 20
15.16708414482653
 10
42.12225627447672
 20
15.09510002979773
 10
41.67743909843742
 20
15.01247085036682
 10
41.28624480130921
 20
14.93402873308253
 10
40.93535648938309
 20
14.85919349655144
 10
40.60711994983217
 20
14.78532234451523
 10
40.30135224384521
 20
14.71297612919364
 10
40.02063711614686
 20
14.64324314808864
 10
39.76261202464378
 20
14.57585350075973
 10
39.52566306308057
 20
14.51119305822744
 10
39.30682102654478
 20
14.45037666401002
 10
39.10365704029828
 20
14.39556325558673
 10
38.91235231619648
 20
14.34974922908424
 10
38.73481814275957
 20
14.31743823543232
 10
38.56819561648618
 20
14.30052154299174
 10
38.40053291394165
 20
14.29859295908393
 10
38.22852025632855
 20
14.31255501912564
 10
38.05700082196523
 20
14.34305115255443
 10
37.8878631775609
 20
14.38857375611604
 10
37.71545921868522
 20
14.45045829445342
 10
37.54043387456337
 20
14.52810948111563
 10
37.3685280672151
 20
14.61817218199524
 10
37.20184918327805
 20
14.71731528582683
 10
37.06610597756288
 20
14.80670265785574
  0
LINE
  5
B3
330
2
100
AcDbEntity
  8
0
  6
Continuous
 62
     7
100
AcDbLine
 10
36.82587609622566
 20
14.66439705490674
 30
0.0
 11
36.31250110778085
 21
14.67071141172924
 31
0.0
  0
LINE
  5
B4
330
2
100
AcDbEntity
  8
0
  6
Continuous
 62
     7
100
AcDbLine
 10
2.902831446199665
 20
15.57959763152453
 30
0.0
 11
3.050618366056066
 21
15.56502956246514
 31
0.0
  0
LINE
  5
B5
330
2
100
AcDbEntity
  8
0
  6
Continuous
 62
     7
100
AcDbLine
 10
38.00045414676584
 20
3.108217092305933
 30
0.0
 11
37.41614053749588
 21
3.664026060694431
 31
0.0
  0
LINE
  5
B6
330
2
100
AcDbEntity
  8
0
  6
Continuous
 62
     7
100
AcDbLine
 10
23.95088489946825
 20
16.47240451818172
 30
0.0
 11
23.36657129020931
 21
17.02821348657024
 31
0.0
  0
LINE
  5
B7
330
2
100
AcDbEntity
  8
0
  6
Continuous
 62
     7
100
AcDbLine
 10
37.46557901490823
 20
3.89744536711283
 30
0.0
 11
24.49882822679356
 21
16.23163759655574
 31
0.0
  0
LINE
  5
B8
330
2
100
AcDbEntity
  8
0
  6
Continuous
 62
     7
100
AcDbLine
 10
21.42443237597321
 20
4.505690452096122
 30
0.0
 11
21.52302663412212
 21
4.851689621636636
 31
0.0
  0
LINE
  5
B9
330
2
100
AcDbEntity
  8
0
  6
Continuous
 62
     7
100
AcDbLine
 10
22.3139715621463
 20
4.839069700423721
 30
0.0
 11
22.20085176563138
 21
4.442095714447741
 31
0.0
  0
LINE
  5
BA
330
2
100
AcDbEntity
  8
0
  6
Continuous
 62
     7
100
AcDbLine
 10
8.71780676787071
 20
16.17934266772073
 30
0.0
 11
8.391551169429128
 21
16.18294471653292
 31
0.0
  0
LINE
  5
BB
330
2
100
AcDbEntity
  8
0
  6
Continuous
 62
     7
100
AcDbLine
 10
23.56451437754742
 20
16.34370977048634
 30
0.0
 11
23.75094614417347
 21
16.34165145692693
 31
0.0
  0
LINE
  5
BC
330
2
100
AcDbEntity
  8
0
  6
Continuous
 62
     7
100
AcDbLine
 10
16.09724181847605
 20
16.43555496065904
 30
0.0
 11
16.283673585091
 21
16.43349664708852
 31
0.0
  0
LINE
  5
BD
330
2
100
AcDbEntity
  8
0
  6
Continuous
 62
     7
100
AcDbLine
 10
8.62996925940458
 20
16.52740015082063
 30
0.0
 11
8.816401026019629
 21
16.52534183726124
 31
0.0
  0
LINE
  5
BE
330
2
100
AcDbEntity
  8
0
  6
Continuous
 62
     7
100
AcDbLine
 10
36.83952772734045
 20
15.77431310262084
 30
0.0
 11
36.32615273890653
 21
15.78062745944333
 31
0.0
  0
LINE
  5
BF
330
2
100
AcDbEntity
  8
0
  6
Continuous
 62
     7
100
AcDbLine
 10
8.391551169240445
 20
16.18294471651074
 30
0.0
 11
3.817846884196863
 21
16.23919989355554
 31
0.0
  0
LINE
  5
C0
330
2
100
AcDbEntity
  8
0
  6
Continuous
 62
     7
100
AcDbLine
 10
22.05051461514732
 20
16.36215545332822
 30
0.0
 11
20.20442923510508
 21
16.38486174420834
 31
0.0
  0
LINE
  5
C1
330
2
100
AcDbEntity
  8
0
  6
Continuous
 62
     7
100
AcDbLine
 10
14.58324205607595
 20
16.45400064350093
 30
0.0
 11
12.7371566760226
 21
16.47670693438104
 31
0.0
  0
LINE
  5
C2
330
2
100
AcDbEntity
  8
0
  6
Continuous
 62
     7
100
AcDbLine
 10
1.870691698620099
 20
17.15648282184833
 30
0.0
 11
8.404555187804806
 21
17.07611828045694
 31
0.0
  0
LINE
  5
C3
330
2
100
AcDbEntity
  8
0
  6
Continuous
 62
     7
100
AcDbLine
 10
9.337964257691467
 20
17.06463763168674
 30
0.0
 11
15.87182774688728
 21
16.98427309028424
 31
0.0
  0
LINE
  5
C4
330
2
100
AcDbEntity
  8
0
  6
Continuous
 62
     7
100
AcDbLine
 10
16.80523681676294
 20
16.97279244151404
 30
0.0
 11
23.3248686860134
 21
16.89260294472502
 31
0.0
  0
LINE
  5
C5
330
2
100
AcDbEntity
  8
0
  6
Continuous
 62
     7
100
AcDbLine
 10
3.488558800620404
 20
16.24347516620332
 30
0.0
 11
3.817737470642238
 21
16.23930393833994
 31
0.0
  0
LINE
  5
C6
330
2
100
AcDbEntity
  8
0
  6
Continuous
 62
     7
100
AcDbLine
 10
36.6620222836228
 20
12.87326106200632
 30
0.0
 11
36.68623486318433
 21
12.86691840299214
 31
0.0
  0
LINE
  5
C7
330
2
100
AcDbEntity
  8
0
  6
Continuous
 62
     7
100
AcDbLine
 10
23.98642990409413
 20
16.45142800004182
 30
0.0
 11
24.39219321291583
 21
16.29456715096432
 31
0.0
  0
LINE
  5
C8
330
2
100
AcDbEntity
  8
0
  6
Continuous
 62
     7
100
AcDbLine
 10
36.46727863860635
 20
12.45600666452034
 30
0.0
 11
36.47537302642724
 21
12.45237654772643
 31
0.0
  0
LINE
  5
C9
330
2
100
AcDbEntity
  8
0
  6
Continuous
 62
     7
100
AcDbLine
 10
28.51860587434448
 20
20.45116945647353
 30
0.0
 11
28.42970289728023
 21
20.13918012962423
 31
0.0
  0
LINE
  5
CA
330
2
100
AcDbEntity
  8
0
  6
Continuous
 62
     7
100
AcDbLine
 10
38.17337368459094
 20
18.77240245804164
 30
0.0
 11
36.21133224973109
 21
18.75581289081504
 31
0.0
  0
LINE
  5
CB
330
2
100
AcDbEntity
  8
0
  6
Continuous
 62
     7
100
AcDbLine
 10
34.99992396740115
 20
17.66048894207302
 30
0.0
 11
35.00352538523378
 21
17.66044729377412
 31
0.0
  0
LINE
  5
CC
330
2
100
AcDbEntity
  8
0
  6
Continuous
 62
     7
100
AcDbLine
 10
36.05642301655096
 20
17.62740508933163
 30
0.0
 11
35.683059388594
 21
17.63199734884192
 31
0.0
  0
LINE
  5
CD
330
2
100
AcDbEntity
  8
0
  6
Continuous
 62
     7
100
AcDbLine
 10
35.683059388594
 20
17.63199734884192
 30
0.0
 11
35.07283684384987
 21
17.65959206793384
 31
0.0
  0
LINE
  5
CE
330
2
100
AcDbEntity
  8
0
  6
Continuous
 62
     7
100
AcDbLine
 10
34.36590905825986
 20
17.66828706553253
 30
0.0
 11
34.99709390660593
 21
17.66052368311943
 31
0.0
  0
LINE
  5
CF
330
2
100
AcDbEntity
  8
0
  6
Continuous
 62
     7
100
AcDbLine
 10
46.04205376412132
 20
15.17069972337324
 30
0.0
 11
46.19038312244067
 21
15.15122291707582
 31
0.0
  0
LWPOLYLINE
  5
D0
330
2
100
AcDbEntity
  8
0
  6
Continuous
 62
     7
100
AcDbPolyline
 90
        3
 70
   128
 43
0.0
 10
46.30830791611541
 20
15.35555084790143
 10
46.15852364081379
 20
15.38047514394504
 10
46.03312796435587
 20
15.39446978779254
  0
LWPOLYLINE
  5
D1
330
2
100
AcDbEntity
  8
0
  6
Continuous
 62
     7
100
AcDbPolyline
 90
       10
 70
   128
 43
0.0
 10
46.19038312244067
 20
15.15122291707582
 10
46.38612805712091
 20
15.11243606887194
 10
46.5707603730766
 20
15.07297237123943
 10
46.7415096672179
 20
15.04527157638503
 10
46.89780389863559
 20
15.03269437310034
 10
47.03181506484642
 20
15.03633768885983
 10
47.13696393120375
 20
15.05474564609843
 10
47.21834084942722
 20
15.08660237944314
 10
47.2808031253154
 20
15.13349424433943
 10
47.3219216301729
 20
15.19529237095284
  0
LINE
  5
D2
330
2
100
AcDbEntity
  8
0
  6
Continuous
 62
     7
100
AcDbLine
 10
30.14963365319408
 20
3.604122995800131
 30
0.0
 11
30.18482805817058
 21
3.392946037424641
 31
0.0
  0
LINE
  5
D3
330
2
100
AcDbEntity
  8
0
  6
Continuous
 62
     7
100
AcDbLine
 10
31.11823712805734
 20
3.381465388654443
 30
0.0
 11
31.08304272308084
 21
3.592642347029933
 31
0.0
  0
LINE
  5
D4
330
2
100
AcDbEntity
  8
0
  6
Continuous
 62
     7
100
AcDbLine
 10
30.34707489828796
 20
19.48040691405024
 30
0.0
 11
30.5019283539793
 21
20.00185250298264
 31
0.0
  0
LINE
  5
D5
330
2
100
AcDbEntity
  8
0
  6
Continuous
 62
     7
100
AcDbLine
 10
30.5019283539793
 20
20.00185250298264
 30
0.0
 11
32.89627930727829
 21
28.06446716910894
 31
0.0
  0
LINE
  5
D6
330
2
100
AcDbEntity
  8
0
  6
Continuous
 62
     7
100
AcDbLine
 10
32.89627930727829
 20
28.06446716910894
 30
0.0
 11
33.22815485149298
 21
29.18200786483164
 31
0.0
  0
LINE
  5
D7
330
2
100
AcDbEntity
  8
0
  6
Continuous
 62
     7
100
AcDbLine
 10
27.115135799572
 20
21.30172373745353
 30
0.0
 11
20.5812723103873
 21
21.38208827884495
 31
0.0
  0
LINE
  5
D8
330
2
100
AcDbEntity
  8
0
  6
Continuous
 62
     7
100
AcDbLine
 10
19.64786324050064
 20
21.39356892762622
 30
0.0
 11
13.11399975130482
 21
21.47393346901764
 31
0.0
  0
LINE
  5
D9
330
2
100
AcDbEntity
  8
0
  6
Continuous
 62
     7
100
AcDbLine
 10
12.18059068142927
 20
21.48541411778784
 30
0.0
 11
5.646727192233454
 21
21.56577865919034
 31
0.0
  0
LWPOLYLINE
  5
DA
330
2
100
AcDbEntity
  8
0
  6
Continuous
 62
     7
100
AcDbPolyline
 90
       32
 70
   128
 43
0.0
 10
36.87130400161358
 20
14.67124210264043
 10
37.04279631819986
 20
14.55537272520323
 10
37.23554241334336
 20
14.43824046921983
 10
37.43442477700944
 20
14.33280208428203
 10
37.63649394253891
 20
14.24290572499434
 10
37.83462769165775
 20
14.17283383271752
 10
38.02837492793578
 20
14.12205741823703
 10
38.22494592418296
 20
14.08944755177932
 10
38.42302964765546
 20
14.07576645590333
 10
38.61958407822903
 20
14.08148874837173
 10
38.81867271450492
 20
14.10579977229023
 10
39.03329311431429
 20
14.14940055501864
 10
39.25909581154392
 20
14.20707688095862
 10
39.49880561857596
 20
14.27323463575764
 10
39.75878572859246
 20
14.34487743120324
 10
40.0448964738277
 20
14.42032685834002
 10
40.35819365141707
 20
14.49834823003553
 10
40.70008135277467
 20
14.57891973534472
 10
41.07973495650397
 20
14.66340748957373
 10
41.49647723744147
 20
14.75039794381973
 10
41.90456336693944
 20
14.82972825858413
 10
42.26985499808439
 20
14.89563927359214
 10
42.5987672606137
 20
14.95082679675953
 10
42.90475584837543
 20
14.99862579279444
 10
43.1947978988705
 20
15.04068676468614
 10
43.47384320159863
 20
15.07801014839724
 10
43.74529173980687
 20
15.11112058412902
 10
44.0090891944684
 20
15.13995484880122
 10
44.26415736963639
 20
15.16454061602363
 10
44.50930049890746
 20
15.18605362341503
 10
44.74492749936636
 20
15.20615802030473
 10
44.87161236240281
 20
15.21758028619402
  0
LINE
  5
DB
330
2
100
AcDbEntity
  8
0
  6
Continuous
 62
     7
100
AcDbLine
 10
28.43716875801283
 20
20.09438273184204
 30
0.0
 11
36.46727863860635
 21
12.45600666452034
 31
0.0
  0
LINE
  5
DC
330
2
100
AcDbEntity
  8
0
  6
Continuous
 62
     7
100
AcDbLine
 10
35.66895395500268
 20
13.76730543570442
 30
0.0
 11
36.35178829286919
 21
13.11778188722664
 31
0.0
  0
LINE
  5
DD
330
2
100
AcDbEntity
  8
0
  6
Continuous
 62
     7
100
AcDbLine
 10
35.57243279928747
 20
13.87073116570073
 30
0.0
 11
30.46900735401101
 21
18.72519559548054
 31
0.0
  0
LINE
  5
DE
330
2
100
AcDbEntity
  8
0
  6
Continuous
 62
     7
100
AcDbLine
 10
34.63492526437934
 20
22.06753744781844
 30
0.0
 11
36.18931985625911
 21
27.52241127113873
 31
0.0
  0
LINE
  5
DF
330
2
100
AcDbEntity
  8
0
  6
Continuous
 62
     7
100
AcDbLine
 10
29.78124412122878
 20
4.747224510251028
 30
0.0
 11
29.66812432470285
 21
4.350250524275021
 31
0.0
  0
LINE
  5
E0
330
2
100
AcDbEntity
  8
0
  6
Continuous
 62
     7
100
AcDbLine
 10
23.53407900459732
 20
3.798996307320228
 30
0.0
 11
23.19436139657408
 21
3.341737571849924
 31
0.0
  0
LINE
  5
E1
330
2
100
AcDbEntity
  8
0
  6
Continuous
 62
     7
100
AcDbLine
 10
39.21004093701144
 20
23.92359543750175
 30
0.0
 11
49.89211556588165
 21
24.94177097140643
 31
0.0
  0
LINE
  5
E2
330
2
100
AcDbEntity
  8
0
  6
Continuous
 62
     7
100
AcDbLine
 10
49.89211556588165
 20
24.94177097140643
 30
0.0
 11
49.96224793437725
 21
24.94463743431863
 31
0.0
  0
LINE
  5
E3
330
2
100
AcDbEntity
  8
0
  6
Continuous
 62
     7
100
AcDbLine
 10
7.581416556254471
 20
23.50728590652563
 30
0.0
 11
8.351649433140439
 21
23.51379842448864
 31
0.0
  0
LINE
  5
E4
330
2
100
AcDbEntity
  8
0
  6
Continuous
 62
     7
100
AcDbLine
 10
38.22697517835311
 20
23.13035481994284
 30
0.0
 11
36.265935330515
 21
23.19519709840164
 31
0.0
  0
LINE
  5
E5
330
2
100
AcDbEntity
  8
0
  6
Continuous
 62
     7
100
AcDbLine
 10
36.74780970322983
 20
15.00688151237755
 30
0.0
 11
36.9335056698591
 21
14.83024437436283
 31
0.0
  0
LINE
  5
E6
330
2
100
AcDbEntity
  8
0
  6
Continuous
 62
     7
100
AcDbLine
 10
37.1042759343091
 20
15.42953251538935
 30
0.0
 11
36.91857996769094
 21
15.60616965340403
 31
0.0
  0
LINE
  5
E7
330
2
100
AcDbEntity
  8
0
  6
Continuous
 62
     7
100
AcDbLine
 10
36.91857996769094
 20
15.60616965340403
 30
0.0
 11
36.74034685215131
 21
15.39484415189813
 31
0.0
  0
LWPOLYLINE
  5
E8
330
2
100
AcDbEntity
  8
0
  6
Continuous
 62
     7
100
AcDbPolyline
 90
       17
 70
   128
 43
0.0
 10
45.7959633488179
 20
15.36903902879662
 10
45.81047703746772
 20
15.37445328808433
 10
45.91353108601754
 20
15.42116624173764
 10
45.99863145479649
 20
15.47068771511543
 10
46.07208478263069
 20
15.51691014297442
 10
46.13972423118607
 20
15.55231300750494
 10
46.21809996668527
 20
15.57667077529943
 10
46.31040405478957
 20
15.58902287912004
 10
46.41335502818448
 20
15.58823379708084
 10
46.52447131526968
 20
15.57444662445444
 10
46.64308577797384
 20
15.54798448326204
 10
46.76385305460914
 20
15.51039879905843
 10
46.87395764297252
 20
15.46607164972374
 10
46.96533481485428
 20
15.41852146190932
 10
47.03606430838275
 20
15.37005800003872
 10
47.08483665833377
 20
15.32370736305052
 10
47.11077009489352
 20
15.28600602276324
  0
LINE
  5
E9
330
2
100
AcDbEntity
  8
0
  6
Continuous
 62
     7
100
AcDbLine
 10
34.44781884500356
 20
24.32778335179494
 30
0.0
 11
34.90272745101133
 21
24.32218811376715
 31
0.0
  0
LINE
  5
EA
330
2
100
AcDbEntity
  8
0
  6
Continuous
 62
     7
100
AcDbLine
 10
49.84999798975088
 20
24.61740368391924
 30
0.0
 11
46.8731833111019
 21
24.65401760259442
 31
0.0
  0
LINE
  5
EB
330
2
100
AcDbEntity
  8
0
  6
Continuous
 62
     7
100
AcDbLine
 10
36.74034685215131
 20
15.39484415189813
 30
0.0
 11
36.74780970322983
 21
15.00688151237755
 31
0.0
  0
LINE
  5
EC
330
2
100
AcDbEntity
  8
0
  6
Continuous
 62
     7
100
AcDbLine
 10
37.11173878539874
 20
15.04156987586873
 30
0.0
 11
37.1042759343091
 21
15.42953251538935
 31
0.0
  0
LINE
  5
ED
330
2
100
AcDbEntity
  8
0
  6
Continuous
 62
     7
100
AcDbLine
 10
37.13611836456021
 20
18.35024884972613
 30
0.0
 11
36.44800171371637
 21
15.83108748380842
 31
0.0
  0
LINE
  5
EE
330
2
100
AcDbEntity
  8
0
  6
Continuous
 62
     7
100
AcDbLine
 10
36.15456258863621
 20
14.75682121480464
 30
0.0
 11
35.98097944135633
 21
14.12134181192633
 31
0.0
  0
LINE
  5
EF
330
2
100
AcDbEntity
  8
0
  6
Continuous
 62
     7
100
AcDbLine
 10
38.7008034640316
 20
23.31980829034044
 30
0.0
 11
38.62629435988143
 21
23.05833172323058
 31
0.0
  0
LINE
  5
F0
330
2
100
AcDbEntity
  8
0
  6
Continuous
 62
     7
100
AcDbLine
 10
36.49164637215845
 20
12.47052341007685
 30
0.0
 11
36.5805493492117
 21
12.78251273692614
 31
0.0
  0
LINE
  5
F1
330
2
100
AcDbEntity
  8
0
  6
Continuous
 62
     7
100
AcDbLine
 10
36.9335056698591
 20
14.83024437436283
 30
0.0
 11
37.11173878539874
 21
15.04156987586873
 31
0.0
  0
LINE
  5
F2
330
2
100
AcDbEntity
  8
0
  6
Continuous
 62
     7
100
AcDbLine
 10
47.11235862293071
 20
15.28222916046174
 30
0.0
 11
47.0857112222389
 21
15.27102140661233
 31
0.0
  0
LINE
  5
F3
330
2
100
AcDbEntity
  8
0
  6
Continuous
 62
     7
100
AcDbLine
 10
51.51909613216171
 20
30.64933398931224
 30
0.0
 11
37.71703227517622
 21
29.33377271260043
 31
0.0
  0
LINE
  5
F4
330
2
100
AcDbEntity
  8
0
  6
Continuous
 62
     7
100
AcDbLine
 10
9.801126381630696
 20
27.89805786689812
 30
0.0
 11
9.579281355812559
 21
27.90078649350683
 31
0.0
  0
LINE
  5
F5
330
2
100
AcDbEntity
  8
0
  6
Continuous
 62
     7
100
AcDbLine
 10
44.88321503982233
 20
15.20572193662492
 30
0.0
 11
45.18502731236869
 21
14.98621545960594
 31
0.0
  0
LINE
  5
F6
330
2
100
AcDbEntity
  8
0
  6
Continuous
 62
     7
100
AcDbLine
 10
46.12368271081964
 20
15.45878974034454
 30
0.0
 11
46.05690422612738
 21
15.50735738072122
 31
0.0
  0
LINE
  5
F7
330
2
100
AcDbEntity
  8
0
  6
Continuous
 62
     7
100
AcDbLine
 10
45.86270934819451
 20
15.64859429315274
 30
0.0
 11
45.8493079175956
 21
15.65834108308403
 31
0.0
  0
LINE
  5
F8
330
2
100
AcDbEntity
  8
0
  6
Continuous
 62
     7
100
AcDbLine
 10
31.00135156366869
 20
3.707151117147533
 30
0.0
 11
30.66163395564556
 21
3.249892381677231
 31
0.0
  0
LINE
  5
F9
330
2
100
AcDbEntity
  8
0
  6
Continuous
 62
     7
100
AcDbLine
 10
51.58922798617233
 20
30.65220057389155
 30
0.0
 11
51.51909613216171
 21
30.64933398931224
 31
0.0
  0
LINE
  5
FA
330
2
100
AcDbEntity
  8
0
  6
Continuous
 62
     7
100
AcDbLine
 10
9.971506989804687
 20
29.00604619567192
 30
0.0
 11
9.592932986938343
 21
29.01070254122095
 31
0.0
  0
LINE
  5
FB
330
2
100
AcDbEntity
  8
0
  6
Continuous
 62
     7
100
AcDbLine
 10
10.32021317464239
 20
29.52323807124234
 30
0.0
 11
33.2820762937975
 21
29.24081411147543
 31
0.0
  0
LINE
  5
FC
330
2
100
AcDbEntity
  8
0
  6
Continuous
 62
     7
100
AcDbLine
 10
28.20469281978196
 20
29.97362200652784
 30
0.0
 11
26.33787468001964
 21
29.99658330407934
 31
0.0
  0
LINE
  5
FD
330
2
100
AcDbEntity
  8
0
  6
Continuous
 62
     7
100
AcDbLine
 10
26.15559360966458
 20
30.83610187914534
 30
0.0
 11
31.05725917428346
 21
30.77581287772944
 31
0.0
  0
LINE
  5
FE
330
2
100
AcDbEntity
  8
0
  6
Continuous
 62
     7
100
AcDbLine
 10
46.36263202491689
 20
30.58756142861844
 30
0.0
 11
49.98237814539358
 21
30.54303964798763
 31
0.0
  0
LINE
  5
FF
330
2
100
AcDbEntity
  8
0
  6
Continuous
 62
     7
100
AcDbLine
 10
25.29034754600709
 20
30.97570271806583
 30
0.0
 11
24.98688576604145
 21
30.97943520603053
 31
0.0
  0
LINE
  5
100
330
2
100
AcDbEntity
  8
0
  6
Continuous
 62
     7
100
AcDbLine
 10
33.30888091873003
 20
29.22867941228814
 30
0.0
 11
34.40346377091038
 21
28.18749372664614
 31
0.0
  0
LINE
  5
101
330
2
100
AcDbEntity
  8
0
  6
Continuous
 62
     7
100
AcDbLine
 10
34.40346377091038
 20
28.18749372664614
 30
0.0
 11
35.95758695901987
 21
26.70918551639403
 31
0.0
  0
LINE
  5
102
330
2
100
AcDbEntity
  8
0
  6
Continuous
 62
     7
100
AcDbLine
 10
11.11487378347755
 20
29.66097120259553
 30
0.0
 11
24.91693764046305
 21
30.97653247929623
 31
0.0
  0
LINE
  5
103
330
2
100
AcDbEntity
  8
0
  6
Continuous
 62
     7
100
AcDbLine
 10
25.36043312243053
 20
30.97480680436524
 30
0.0
 11
25.29030126841991
 21
30.97194021978594
 31
0.0
  0
LINE
  5
104
330
2
100
AcDbEntity
  8
0
  6
Continuous
 62
     7
100
AcDbLine
 10
24.91693764046305
 20
30.97653247929623
 30
0.0
 11
24.98706949447357
 21
30.97939906387554
 31
0.0
  0
LINE
  5
105
330
2
100
AcDbEntity
  8
0
  6
Continuous
 62
     7
100
AcDbLine
 10
37.49019727268532
 20
3.835524593957636
 30
0.0
 11
37.40793445157382
 21
3.684666318409134
 31
0.0
  0
LINE
  5
106
330
2
100
AcDbEntity
  8
0
  6
Continuous
 62
     7
100
AcDbLine
 10
39.00523948382647
 20
4.084020271724341
 30
0.0
 11
38.31558692014423
 21
3.155751922759723
 31
0.0
  0
LINE
  5
107
330
2
100
AcDbEntity
  8
0
  6
Continuous
 62
     7
100
AcDbLine
 10
44.82980469861603
 20
15.48325628488672
 30
0.0
 11
44.81853678339938
 21
15.44371352265353
 31
0.0
  0
LWPOLYLINE
  5
108
330
2
100
AcDbEntity
  8
0
  6
Continuous
 62
     7
100
AcDbPolyline
 90
        3
 70
   128
 43
0.0
 10
47.11077009489352
 20
15.28600602276324
 10
47.11547322009383
 20
15.27275394218692
 10
47.11612008386018
 20
15.27789179290432
  0
LWPOLYLINE
  5
109
330
2
100
AcDbEntity
  8
0
  6
Continuous
 62
     7
100
AcDbPolyline
 90
       17
 70
   128
 43
0.0
 10
47.32963740044585
 20
15.21707312413043
 10
47.33722148177284
 20
15.26314874145803
 10
47.32572454772636
 20
15.34517226985734
 10
47.28781501406309
 20
15.42273150103374
 10
47.22259264994825
 20
15.50103557898443
 10
47.12297583484647
 20
15.58135263923783
 10
47.00123038235515
 20
15.65134136906034
 10
46.86530425004979
 20
15.70973867435482
 10
46.72029690549126
 20
15.75701382504834
 10
46.57198750481657
 20
15.79143656831453
 10
46.42538444747915
 20
15.80984895800513
 10
46.284599206169
 20
15.80979669230092
 10
46.15001885160515
 20
15.78874520298503
 10
46.02504677079433
 20
15.74409268835243
 10
45.92074167358982
 20
15.68416108872143
 10
45.82818791036611
 20
15.62743682765242
 10
45.74138750615762
 20
15.58578598616424
  0
LINE
  5
10A
330
2
100
AcDbEntity
  8
0
  6
Continuous
 62
     7
100
AcDbLine
 10
51.90008436167387
 20
30.46475713416234
 30
0.0
 11
50.27359269194107
 21
24.75687132483773
 31
0.0
  0
LINE
  5
10B
330
2
100
AcDbEntity
  8
0
  6
Continuous
 62
     7
100
AcDbLine
 10
47.3219216301729
 20
15.19529237095284
 30
0.0
 11
47.33000481108974
 21
15.21836199354865
 31
0.0
  0
ARC
  5
10C
330
2
100
AcDbEntity
  8
0
  6
Continuous
 62
     7
100
AcDbCircle
 10
5.90365247124977
 20
12.79809012023873
 30
0.0
 40
8.8615299097788
100
AcDbArc
 50
115.1796976198842
 51
116.3077344252207
  0
ARC
  5
10D
330
2
100
AcDbEntity
  8
0
  6
Continuous
 62
     7
100
AcDbCircle
 10
13.48039151883436
 20
12.86395459366823
 30
0.0
 40
8.683875393949199
100
AcDbArc
 50
111.920564733698
 51
116.3189247955222
  0
ARC
  5
10E
330
2
100
AcDbEntity
  8
0
  6
Continuous
 62
     7
100
AcDbCircle
 10
13.32937175718907
 20
13.22464639506953
 30
0.0
 40
8.292883746923701
100
AcDbArc
 50
111.0605448919144
 51
111.8829268330837
  0
ARC
  5
10F
330
2
100
AcDbEntity
  8
0
  6
Continuous
 62
     7
100
AcDbCircle
 10
5.699742697981354
 20
13.77678237828654
 30
0.0
 40
7.8047120425107
100
AcDbArc
 50
104.2073693464173
 51
108.6306494912185
  0
ARC
  5
110
330
2
100
AcDbEntity
  8
0
  6
Continuous
 62
     7
100
AcDbCircle
 10
5.619291585791851
 20
14.08321114012252
 30
0.0
 40
7.4879110088514
100
AcDbArc
 50
100.4240686135966
 51
104.1860746870981
  0
ARC
  5
111
330
2
100
AcDbEntity
  8
0
  6
Continuous
 62
     7
100
AcDbCircle
 10
5.577741777724622
 20
14.30245186480433
 30
0.0
 40
7.264771127240699
100
AcDbArc
 50
95.69967814258545
 51
100.4146334651889
  0
ARC
  5
112
330
2
100
AcDbEntity
  8
0
  6
Continuous
 62
     7
100
AcDbCircle
 10
13.03225820535186
 20
14.28985395130613
 30
0.0
 40
7.184540100833999
100
AcDbArc
 50
89.35087002981957
 51
100.7303978402031
  0
ARC
  5
113
330
2
100
AcDbEntity
  8
0
  6
Continuous
 62
     7
100
AcDbCircle
 10
5.561937021401528
 20
14.44462196302704
 30
0.0
 40
7.1217344450361
100
AcDbArc
 50
91.86714852087666
 51
95.68674857470128
  0
ARC
  5
114
330
2
100
AcDbEntity
  8
0
  6
Continuous
 62
     7
100
AcDbCircle
 10
12.09313653808089
 20
14.40184044452544
 30
0.0
 40
7.084108738517098
100
AcDbArc
 50
85.49593285802203
 51
89.29546055620649
  0
ARC
  5
115
330
2
100
AcDbEntity
  8
0
  6
Continuous
 62
     7
100
AcDbCircle
 10
5.559748197782806
 20
14.49129577258583
 30
0.0
 40
7.075014131305798
100
AcDbArc
 50
90.80962809387544
 51
91.86174750550664
  0
ARC
  5
116
330
2
100
AcDbEntity
  8
0
  6
Continuous
 62
     7
100
AcDbCircle
 10
5.559682461207358
 20
14.49518016667013
 30
0.0
 40
7.071129196163099
100
AcDbArc
 50
89.2972593607214
 51
90.80954023771672
  0
ARC
  5
117
330
2
100
AcDbEntity
  8
0
  6
Continuous
 62
     7
100
AcDbCircle
 10
4.213582198662075
 20
19.32332085981443
 30
0.0
 40
2.6410446806865
100
AcDbArc
 50
172.4952139764014
 51
179.2458115905967
  0
ARC
  5
118
330
2
100
AcDbEntity
  8
0
  6
Continuous
 62
     7
100
AcDbCircle
 10
4.042098988105328
 20
19.34410200841942
 30
0.0
 40
2.4683168498736
100
AcDbArc
 50
168.7145188223004
 51
172.4535680772007
  0
ARC
  5
119
330
2
100
AcDbEntity
  8
0
  6
Continuous
 62
     7
100
AcDbCircle
 10
3.871116016053705
 20
19.37747162061534
 30
0.0
 40
2.2941097202736
100
AcDbArc
 50
165.2119190322012
 51
168.6961226383048
  0
ARC
  5
11A
330
2
100
AcDbEntity
  8
0
  6
Continuous
 62
     7
100
AcDbCircle
 10
3.286713048220621
 20
19.56941535684325
 30
0.0
 40
1.6781785046703
100
AcDbArc
 50
155.9752091607006
 51
157.2970035193996
  0
ARC
  5
11B
330
2
100
AcDbEntity
  8
0
  6
Continuous
 62
     7
100
AcDbCircle
 10
2.549652981929219
 20
17.77920858389272
 30
0.0
 40
0.9976886564561999
100
AcDbArc
 50
179.1794388044008
 51
187.9421589836909
  0
ARC
  5
11C
330
2
100
AcDbEntity
  8
0
  6
Continuous
 62
     7
100
AcDbCircle
 10
2.528025367737071
 20
20.07704069111993
 30
0.0
 40
0.7588088214768
100
AcDbArc
 50
130.1089843086002
 51
133.6270168648164
  0
ARC
  5
11D
330
2
100
AcDbEntity
  8
0
  6
Continuous
 62
     7
100
AcDbCircle
 10
2.297982658930052
 20
17.72629988223383
 30
0.0
 40
0.7400438952534003
100
AcDbArc
 50
197.1709972001
 51
198.1897247461981
  0
ARC
  5
11E
330
2
100
AcDbEntity
  8
0
  6
Continuous
 62
     7
100
AcDbCircle
 10
3.156602950347758
 20
15.38840634215214
 30
0.0
 40
0.3416730915822
100
AcDbArc
 50
163.3076551034001
 51
164.0964962785964
  0
ARC
  5
11F
330
2
100
AcDbEntity
  8
0
  6
Continuous
 62
     7
100
AcDbCircle
 10
8.404947296448098
 20
17.10864725580893
 30
0.0
 40
0.0325323823749
100
AcDbArc
 50
269.3398673522493
 51
275.4773652397402
  0
ARC
  5
120
330
2
100
AcDbEntity
  8
0
  6
Continuous
 62
     7
100
AcDbCircle
 10
20.94766407790573
 20
12.77210940349554
 30
0.0
 40
8.683875393938098
100
AcDbArc
 50
111.920564733698
 51
116.3189247955222
  0
ARC
  5
121
330
2
100
AcDbEntity
  8
0
  6
Continuous
 62
     7
100
AcDbCircle
 10
20.79664431619391
 20
13.13280120506333
 30
0.0
 40
8.292883746746101
100
AcDbArc
 50
111.0605448919144
 51
111.8829268330837
  0
ARC
  5
122
330
2
100
AcDbEntity
  8
0
  6
Continuous
 62
     7
100
AcDbCircle
 10
20.49953076442333
 20
14.19800876113344
 30
0.0
 40
7.184540100833999
100
AcDbArc
 50
89.35087002981957
 51
100.7303978402031
  0
ARC
  5
123
330
2
100
AcDbEntity
  8
0
  6
Continuous
 62
     7
100
AcDbCircle
 10
19.56040909715236
 20
14.30999525435274
 30
0.0
 40
7.084108738505999
100
AcDbArc
 50
85.49593285802203
 51
89.29546055620649
  0
ARC
  5
124
330
2
100
AcDbEntity
  8
0
  6
Continuous
 62
     7
100
AcDbCircle
 10
25.48665285608409
 20
19.08401459167284
 30
0.0
 40
2.4441488900922
100
AcDbArc
 50
168.7352329650096
 51
172.4721337426051
  0
ARC
  5
125
330
2
100
AcDbEntity
  8
0
  6
Continuous
 62
     7
100
AcDbCircle
 10
25.30802706022905
 20
19.12070456803643
 30
0.0
 40
2.261797455127799
100
AcDbArc
 50
165.1864277034056
 51
168.7628404190033
  0
ARC
  5
126
330
2
100
AcDbEntity
  8
0
  6
Continuous
 62
     7
100
AcDbCircle
 10
25.37231284968946
 20
19.15039836104213
 30
0.0
 40
2.135288562722399
100
AcDbArc
 50
163.7172360535976
 51
165.1714197611011
  0
ARC
  5
127
330
2
100
AcDbEntity
  8
0
  6
Continuous
 62
     7
100
AcDbCircle
 10
25.26676099840936
 20
19.18145653035024
 30
0.0
 40
2.025262415450399
100
AcDbArc
 50
160.6972571930025
 51
163.723403485301
  0
ARC
  5
128
330
2
100
AcDbEntity
  8
0
  6
Continuous
 62
     7
100
AcDbCircle
 10
25.07466590429082
 20
19.24828369721152
 30
0.0
 40
1.821875612987699
100
AcDbArc
 50
156.7849231802852
 51
160.6837849713057
  0
ARC
  5
129
330
2
100
AcDbEntity
  8
0
  6
Continuous
 62
     7
100
AcDbCircle
 10
24.77904710090893
 20
19.29514220894992
 30
0.0
 40
1.7041966217868
100
AcDbArc
 50
156.4484576203057
 51
157.7579639718983
  0
ARC
  5
12A
330
2
100
AcDbEntity
  8
0
  6
Continuous
 62
     7
100
AcDbCircle
 10
23.68202353601777
 20
14.71218348394344
 30
0.0
 40
1.6317313822752
100
AcDbArc
 50
69.82260930890489
 51
70.57955566810609
  0
ARC
  5
12B
330
2
100
AcDbEntity
  8
0
  6
Continuous
 62
     7
100
AcDbCircle
 10
23.71823051611658
 20
14.80668077563764
 30
0.0
 40
1.5305453003778
100
AcDbArc
 50
65.99792087410214
 51
69.87465063651075
  0
ARC
  5
12C
330
2
100
AcDbEntity
  8
0
  6
Continuous
 62
     7
100
AcDbCircle
 10
24.5991157944823
 20
19.47865464420743
 30
0.0
 40
1.292860225719899
100
AcDbArc
 50
146.7860304992075
 51
150.3086672741016
  0
ARC
  5
12D
330
2
100
AcDbEntity
  8
0
  6
Continuous
 62
     7
100
AcDbCircle
 10
15.87221985551947
 20
17.01680206563624
 30
0.0
 40
0.0325323823749
100
AcDbArc
 50
269.3398673524056
 51
275.4773652399501
  0
ARC
  5
12E
330
2
100
AcDbEntity
  8
0
  6
Continuous
 62
     7
100
AcDbCircle
 10
14.22392870299094
 20
26.52839032886364
 30
0.0
 40
4.8213309509919
100
AcDbArc
 50
163.5375287376966
 51
164.0954110705983
  0
ARC
  5
12F
330
2
100
AcDbEntity
  8
0
  6
Continuous
 62
     7
100
AcDbCircle
 10
27.55874276989509
 20
12.53173932097763
 30
0.0
 40
8.861529629304
100
AcDbArc
 50
115.1796937381835
 51
116.3077344370186
  0
ARC
  5
130
330
2
100
AcDbEntity
  8
0
  6
Continuous
 62
     7
100
AcDbCircle
 10
27.15043354615904
 20
13.57286759918453
 30
0.0
 40
7.742064072236098
100
AcDbArc
 50
104.1894919432878
 51
108.6485834048201
  0
ARC
  5
131
330
2
100
AcDbEntity
  8
0
  6
Continuous
 62
     7
100
AcDbCircle
 10
27.07911948403993
 20
13.85850300454674
 30
0.0
 40
7.447662176273099
100
AcDbArc
 50
100.4139127864746
 51
104.1962572397122
  0
ARC
  5
132
330
2
100
AcDbEntity
  8
0
  6
Continuous
 62
     7
100
AcDbCircle
 10
27.04169446004857
 20
14.06986342542054
 30
0.0
 40
7.233018630510598
100
AcDbArc
 50
95.68930980398359
 51
100.424975345112
  0
ARC
  5
133
330
2
100
AcDbEntity
  8
0
  6
Continuous
 62
     7
100
AcDbCircle
 10
27.21058587359679
 20
14.17095175778753
 30
0.0
 40
7.129171462862697
100
AcDbArc
 50
83.2346295702842
 51
84.73595921709275
  0
ARC
  5
134
330
2
100
AcDbEntity
  8
0
  6
Continuous
 62
     7
100
AcDbCircle
 10
27.03033909538007
 20
14.18059998454734
 30
0.0
 40
7.121701853915401
100
AcDbArc
 50
91.86710448187858
 51
95.68672196571531
  0
ARC
  5
135
330
2
100
AcDbEntity
  8
0
  6
Continuous
 62
     7
100
AcDbCircle
 10
27.21414205874077
 20
14.21072421014514
 30
0.0
 40
7.089240488152799
100
AcDbArc
 50
84.73508827249094
 51
89.29395603250261
  0
ARC
  5
136
330
2
100
AcDbEntity
  8
0
  6
Continuous
 62
     7
100
AcDbCircle
 10
27.02809834472925
 20
14.22888055681285
 30
0.0
 40
7.073373939150898
100
AcDbArc
 50
89.29776678558459
 51
91.86170557670983
  0
ARC
  5
137
330
2
100
AcDbEntity
  8
0
  6
Continuous
 62
     7
100
AcDbCircle
 10
27.21477288251894
 20
14.22882911513935
 30
0.0
 40
7.071129196196399
100
AcDbArc
 50
89.2972593607214
 51
90.80954023771672
  0
ARC
  5
138
330
2
100
AcDbEntity
  8
0
  6
Continuous
 62
     7
100
AcDbCircle
 10
25.88031758427496
 20
19.05670298120003
 30
0.0
 40
2.652692150757299
100
AcDbArc
 50
175.2860637200052
 51
179.2433595534939
  0
ARC
  5
139
330
2
100
AcDbEntity
  8
0
  6
Continuous
 62
     7
100
AcDbCircle
 10
25.661169785896
 20
19.06077420608873
 30
0.0
 40
2.620206395242199
100
AcDbArc
 50
172.4682654101967
 51
179.272775646105
  0
ARC
  5
13A
330
2
100
AcDbEntity
  8
0
  6
Continuous
 62
     7
100
AcDbCircle
 10
25.79328037377641
 20
19.06430423890013
 30
0.0
 40
2.565324706434299
100
AcDbArc
 50
170.7608252888966
 51
175.2955056655939
  0
ARC
  5
13B
330
2
100
AcDbEntity
  8
0
  6
Continuous
 62
     7
100
AcDbCircle
 10
20.39312089823026
 20
15.91683736430987
 30
0.0
 40
9.387780039898274
100
AcDbArc
 50
30.33200987815704
 51
33.95260702469228
  0
ARC
  5
13C
330
2
100
AcDbEntity
  8
0
  6
Continuous
 62
     7
100
AcDbCircle
 10
37.37558829295544
 20
5.116362354943423
 30
0.0
 40
1.9390983362577
100
AcDbArc
 50
340.9241441608068
 51
341.1829596137126
  0
ARC
  5
13D
330
2
100
AcDbEntity
  8
0
  6
Continuous
 62
     7
100
AcDbCircle
 10
38.13631135998164
 20
3.213409361417021
 30
0.0
 40
0.1658697991872
100
AcDbArc
 50
269.402337608348
 51
282.3686701754736
  0
ARC
  5
13E
330
2
100
AcDbEntity
  8
0
  6
Continuous
 62
     7
100
AcDbCircle
 10
36.40473587962633
 20
15.19980023613084
 30
0.0
 40
0.7766443596408
100
AcDbArc
 50
344.1025767788125
 51
345.9759619006955
  0
ARC
  5
13F
330
2
100
AcDbEntity
  8
0
  6
Continuous
 62
     7
100
AcDbCircle
 10
36.60968732693356
 20
15.34399388703084
 30
0.0
 40
0.5695911632643
100
AcDbArc
 50
152.2885915614947
 51
153.5903345011013
  0
ARC
  5
140
330
2
100
AcDbEntity
  8
0
  6
Continuous
 62
     7
100
AcDbCircle
 10
34.13670104104492
 20
10.9571396330454
 30
0.0
 40
3.455818809994498
100
AcDbArc
 50
18.77176145672685
 51
27.85994442219854
  0
ARC
  5
141
330
2
100
AcDbEntity
  8
0
  6
Continuous
 62
     7
100
AcDbCircle
 10
36.47484265532923
 20
12.82669345446143
 30
0.0
 40
0.0488981572512
100
AcDbArc
 50
89.37486779748267
 51
97.17879941725335
  0
ARC
  5
142
330
2
100
AcDbEntity
  8
0
  6
Continuous
 62
     7
100
AcDbCircle
 10
38.31200552712211
 20
15.93603634055333
 30
0.0
 40
3.473127577040998
100
AcDbArc
 50
242.0889726793879
 51
246.2524404007218
  0
ARC
  5
143
330
2
100
AcDbEntity
  8
0
  6
Continuous
 62
     7
100
AcDbCircle
 10
38.23308209677711
 20
15.76096007211773
 30
0.0
 40
3.281092641692399
100
AcDbArc
 50
246.2827606183189
 51
249.2684475845846
  0
ARC
  5
144
330
2
100
AcDbEntity
  8
0
  6
Continuous
 62
     7
100
AcDbCircle
 10
37.6356425017986
 20
21.12293935981674
 30
0.0
 40
5.039687953347299
100
AcDbArc
 50
165.4588656624049
 51
165.650384950998
  0
ARC
  5
145
330
2
100
AcDbEntity
  8
0
  6
Continuous
 62
     7
100
AcDbCircle
 10
39.51038545934392
 20
25.80021299128524
 30
0.0
 40
6.257257166102098
100
AcDbArc
 50
151.7880866657113
 51
153.0551491995052
  0
ARC
  5
146
330
2
100
AcDbEntity
  8
0
  6
Continuous
 62
     7
100
AcDbCircle
 10
40.53682514199405
 20
30.40518634542594
 30
0.0
 40
5.153510126804397
100
AcDbArc
 50
43.19127235931401
 51
46.43294096060414
  0
ARC
  5
147
330
2
100
AcDbEntity
  8
0
  6
Continuous
 62
     7
100
AcDbCircle
 10
39.33840367900046
 20
29.14514371964452
 30
0.0
 40
2.8964564261847
100
AcDbArc
 50
40.65470159280611
 51
46.4302400010891
  0
ARC
  5
148
330
2
100
AcDbEntity
  8
0
  6
Continuous
 62
     7
100
AcDbCircle
 10
37.87864039704006
 20
28.13728200952522
 30
0.0
 40
1.212389392437899
100
AcDbArc
 50
114.6340029128784
 51
116.1672680990769
  0
ARC
  5
149
330
2
100
AcDbEntity
  8
0
  6
Continuous
 62
     7
100
AcDbCircle
 10
46.31657181033776
 20
31.23095730773274
 30
0.0
 40
0.6340020273804
100
AcDbArc
 50
215.7270297147151
 51
226.4196573464341
  0
SPLINE
  5
14A
330
2
100
AcDbEntity
  8
0
  6
Continuous
 62
     7
100
AcDbSpline
210
0.0
220
0.0
230
1.0
 70
     8
 71
     3
 72
    12
 73
     8
 74
     0
 42
0.000000001
 43
0.0000000001
 40
0.0
 40
0.0
 40
0.0
 40
0.0
 40
0.0937384167
 40
0.1951795446
 40
0.3060113643
 40
0.4269192586
 40
0.4688009231426511
 40
0.4688009231426511
 40
0.4688009231426511
 40
0.4688009231426511
 10
10.19103457839103
 20
29.21237995007724
 30
0.0
 10
10.17152066710237
 20
29.20596935251405
 30
0.0
 10
10.13242299819701
 20
29.18763631573554
 30
0.0
 10
10.0784869384912
 20
29.14719093479124
 30
0.0
 10
10.02816442872935
 20
29.09388251660454
 30
0.0
 10
9.993536511866567
 20
29.0447307231973
 30
0.0
 10
9.975315746191082
 20
29.01403717578137
 30
0.0
 10
9.970778116229713
 20
29.00605516059608
 30
0.0
  0
SPLINE
  5
14B
330
2
100
AcDbEntity
  8
0
  6
Continuous
 62
     7
100
AcDbSpline
210
0.0
220
0.0
230
1.0
 70
     8
 71
     3
 72
    15
 73
    11
 74
     0
 42
0.000000001
 43
0.0000000001
 40
0.0
 40
0.0
 40
0.0
 40
0.0
 40
0.1488645988
 40
0.2905031569
 40
0.4242100419
 40
0.5500850016
 40
0.6689141503
 40
0.7822333463
 40
0.8919505419
 40
1.0
 40
1.0
 40
1.0
 40
1.0
 10
9.293979945720741
 20
28.69805896876103
 30
0.0
 10
9.300280681577849
 20
28.72017029059463
 30
0.0
 10
9.314466598105642
 20
28.76281589299285
 30
0.0
 10
9.341205526944431
 20
28.82275489293835
 30
0.0
 10
9.372706129376547
 20
28.87629282055254
 30
0.0
 10
9.408773927396836
 20
28.92252744002994
 30
0.0
 10
9.449287956013627
 20
28.96054082225184
 30
0.0
 10
9.494062810150929
 20
28.98918910252794
 30
0.0
 10
9.54242337032616
 20
29.00707366586214
 30
0.0
 10
9.576246460956467
 20
29.01090778043184
 30
0.0
 10
9.592932986938343
 20
29.01070254122095
 30
0.0
  0
SPLINE
  5
14C
330
2
100
AcDbEntity
  8
0
  6
Continuous
 62
     7
100
AcDbSpline
210
0.0
220
0.0
230
1.0
 70
     8
 71
     3
 72
    19
 73
    15
 74
     0
 42
0.000000001
 43
0.0000000001
 40
0.0
 40
0.0
 40
0.0
 40
0.0
 40
0.0481320644
 40
0.0968570279
 40
0.1469031885
 40
0.1989716755
 40
0.2536983083
 40
0.3114929248
 40
0.3725166195
 40
0.4366773000000002
 40
0.5729029916
 40
0.7160425008
 40
0.8603845532999997
 40
1.0
 40
1.0
 40
1.0
 40
1.0
 10
9.579281355812559
 20
27.90078649350683
 30
0.0
 10
9.5641100342206
 20
27.90097309616185
 30
0.0
 10
9.533516246565991
 20
27.90484395788094
 30
0.0
 10
9.489653073202019
 20
27.92068374715824
 30
0.0
 10
9.448784569326383
 20
27.94553742613404
 30
0.0
 10
9.411517010190426
 20
27.97835254673213
 30
0.0
 10
9.378027549063453
 20
28.01819555690572
 30
0.0
 10
9.348406868272313
 20
28.06434042060655
 30
0.0
 10
9.322751235109011
 20
28.11611673476424
 30
0.0
 10
9.293470902828703
 20
28.19325474234143
 30
0.0
 10
9.268562372836603
 20
28.29916653616314
 30
0.0
 10
9.25727670186008
 20
28.43267839239473
 30
0.0
 10
9.264488701252643
 20
28.56752270667893
 30
0.0
 10
9.281919068359904
 20
28.65573344567425
 30
0.0
 10
9.293979945720741
 20
28.69805896876103
 30
0.0
  0
SPLINE
  5
14D
330
2
100
AcDbEntity
  8
0
  6
Continuous
 62
     7
100
AcDbSpline
210
0.0
220
0.0
230
1.0
 70
     8
 71
     3
 72
    13
 73
     9
 74
     0
 42
0.000000001
 43
0.0000000001
 40
0.0
 40
0.0
 40
0.0
 40
0.0
 40
0.3373203074
 40
0.6170318075
 40
0.7326713357
 40
0.8327987251000001
 40
0.9201278743999999
 40
1.0
 40
1.0
 40
1.0
 40
1.0
 10
2.829327662305266
 20
15.48654597406014
 30
0.0
 10
2.833397542628766
 20
15.50011673084124
 30
0.0
 10
2.842352262167787
 20
15.52451606932344
 30
0.0
 10
2.857759135061527
 20
15.55149063234772
 30
0.0
 10
2.871737995208491
 20
15.56702154800783
 30
0.0
 10
2.881915874530008
 20
15.57482577616763
 30
0.0
 10
2.892355737494471
 20
15.57933969832703
 30
0.0
 10
2.899518200128901
 20
15.57992736337374
 30
0.0
 10
2.902856530601173
 20
15.57959600841592
 30
0.0
  0
SPLINE
  5
14E
330
2
100
AcDbEntity
  8
0
  6
Continuous
 62
     7
100
AcDbSpline
210
0.0
220
0.0
230
1.0
 70
     8
 71
     3
 72
     8
 73
     4
 74
     0
 42
0.000000001
 43
0.0000000001
 40
0.7919945886972027
 40
0.7919945886972027
 40
0.7919945886972027
 40
0.7919945886972027
 40
1.0
 40
1.0
 40
1.0
 40
1.0
 10
2.801100052913104
 20
15.238765603815
 30
0.0
 10
2.799950790212646
 20
15.24735827713483
 30
0.0
 10
2.799099155745897
 20
15.25598980520131
 30
0.0
 10
2.798478934612622
 20
15.26461431183172
 30
0.0
  0
SPLINE
  5
14F
330
2
100
AcDbEntity
  8
0
  6
Continuous
 62
     7
100
AcDbSpline
210
0.0
220
0.0
230
1.0
 70
     8
 71
     3
 72
     9
 73
     5
 74
     0
 42
0.000000001
 43
0.0000000001
 40
0.0
 40
0.0
 40
0.0
 40
0.0
 40
0.5441404072
 40
1.0
 40
1.0
 40
1.0
 40
1.0
 10
2.975655501902567
 20
14.94786185562412
 30
0.0
 10
2.980190314450611
 20
14.94160676397712
 30
0.0
 10
2.989982837702799
 20
14.93089484480784
 30
0.0
 10
3.003773181821229
 20
14.92528166379653
 30
0.0
 10
3.010214496236788
 20
14.92464684724853
 30
0.0
  0
SPLINE
  5
150
330
2
100
AcDbEntity
  8
0
  6
Continuous
 62
     7
100
AcDbSpline
210
0.0
220
0.0
230
1.0
 70
     8
 71
     3
 72
    11
 73
     7
 74
     0
 42
0.000000001
 43
0.0000000001
 40
0.0
 40
0.0
 40
0.0
 40
0.0
 40
0.2215433569
 40
0.4740286865
 40
0.7408950162000001
 40
1.0
 40
1.0
 40
1.0
 40
1.0
 10
44.88321503982233
 20
15.20572193662492
 30
0.0
 10
44.86772464955175
 20
15.21698801591274
 30
0.0
 10
44.84030648819193
 20
15.24902754377994
 30
0.0
 10
44.8156696079006
 20
15.30895781264303
 30
0.0
 10
44.80670773972836
 20
15.37635838029623
 30
0.0
 10
44.81239773895574
 20
15.42216962832443
 30
0.0
 10
44.81853678339938
 20
15.44371352265353
 30
0.0
  0
SPLINE
  5
151
330
2
100
AcDbEntity
  8
0
  6
Continuous
 62
     7
100
AcDbSpline
210
0.0
220
0.0
230
1.0
 70
     8
 71
     3
 72
     9
 73
     5
 74
     0
 42
0.000000001
 43
0.0000000001
 40
0.0
 40
0.0
 40
0.0
 40
0.0
 40
0.5188750461
 40
1.0
 40
1.0
 40
1.0
 40
1.0
 10
45.18502731236869
 20
14.98621545960594
 30
0.0
 10
45.19647581071017
 20
14.97788902702883
 30
0.0
 10
45.22107519988614
 20
14.96481584262173
 30
0.0
 10
45.24899346145603
 20
14.96166866448352
 30
0.0
 10
45.26206226018653
 20
14.96289564299905
 30
0.0
  0
SPLINE
  5
152
330
2
100
AcDbEntity
  8
0
  6
Continuous
 62
     7
100
AcDbSpline
210
0.0
220
0.0
230
1.0
 70
     8
 71
     3
 72
    11
 73
     7
 74
     0
 42
0.000000001
 43
0.0000000001
 40
0.0
 40
0.0
 40
0.0
 40
0.0
 40
0.2879511231
 40
0.5483949694
 40
0.7825056655
 40
1.0
 40
1.0
 40
1.0
 40
1.0
 10
44.82980469861603
 20
15.48325628488672
 30
0.0
 10
44.83448557742937
 20
15.49968300399112
 30
0.0
 10
44.84643418845802
 20
15.53025309872904
 30
0.0
 10
44.87331644992047
 20
15.56873640260334
 30
0.0
 10
44.90712418053727
 20
15.59528874801234
 30
0.0
 10
44.93351073037451
 20
15.60331851477443
 30
0.0
 10
44.94635601189044
 20
15.60451928710013
 30
0.0
  0
SPLINE
  5
153
330
2
100
AcDbEntity
  8
0
  6
Continuous
 62
     7
100
AcDbSpline
210
0.0
220
0.0
230
1.0
 70
     8
 71
     3
 72
    14
 73
    10
 74
     0
 42
0.000000001
 43
0.0000000001
 40
0.0
 40
0.0
 40
0.0
 40
0.0
 40
0.2758284569
 40
0.4052013576000002
 40
0.5293117766
 40
0.6494043027
 40
0.7672000923000001
 40
0.8834793251
 40
1.0
 40
1.0
 40
1.0
 40
1.0
 10
37.15167641127325
 20
14.98706494631333
 30
0.0
 10
37.13927768567644
 20
14.94355380398813
 30
0.0
 10
37.11535273500954
 20
14.88085835694894
 30
0.0
 10
37.07053013439978
 20
14.80628227863353
 30
0.0
 10
37.03205819139766
 20
14.75830459937184
 30
0.0
 10
36.98786457028996
 20
14.71821335566914
 30
0.0
 10
36.93800542272427
 20
14.68765470677393
 30
0.0
 10
36.88338385031733
 20
14.66827547671374
 30
0.0
 10
36.84498714268239
 20
14.66416199482434
 30
0.0
 10
36.82587609622566
 20
14.66439705490674
 30
0.0
  0
SPLINE
  5
154
330
2
100
AcDbEntity
  8
0
  6
Continuous
 62
     7
100
AcDbSpline
210
0.0
220
0.0
230
1.0
 70
     8
 71
     3
 72
    16
 73
    12
 74
     0
 42
0.000000001
 43
0.0000000001
 40
0.0
 40
0.0
 40
0.0
 40
0.0
 40
0.0538827549
 40
0.1075504323
 40
0.2162567813
 40
0.3302043955
 40
0.4528113723
 40
0.5844839759
 40
0.7226374054000001
 40
0.8627757606000001
 40
1.0
 40
1.0
 40
1.0
 40
1.0
 10
36.83952772734045
 20
15.77431310262084
 30
0.0
 10
36.85618756495971
 20
15.77410819165914
 30
0.0
 10
36.88950585838108
 20
15.77022546785843
 30
0.0
 10
36.95333604089344
 20
15.74904466631754
 30
0.0
 10
37.02517131277
 20
15.69941836929054
 30
0.0
 10
37.09152570341397
 20
15.61434362678182
 30
0.0
 10
37.1402427395789
 20
15.51062497011654
 30
0.0
 10
37.17183302878976
 20
15.39292560850642
 30
0.0
 10
37.18610671934484
 20
15.26652844793513
 30
0.0
 10
37.18275978865899
 20
15.13770944733924
 30
0.0
 10
37.16851946306146
 20
15.05276188887472
 30
0.0
 10
37.15823168932215
 20
15.01159681926173
 30
0.0
  0
SPLINE
  5
155
330
2
100
AcDbEntity
  8
0
  6
Continuous
 62
     7
100
AcDbSpline
210
0.0
220
0.0
230
1.0
 70
     8
 71
     3
 72
    11
 73
     7
 74
     0
 42
0.000000001
 43
0.0000000001
 40
0.0
 40
0.0
 40
0.0
 40
0.0
 40
0.2123841635
 40
0.4519312355
 40
0.7160790166
 40
1.0
 40
1.0
 40
1.0
 40
1.0
 10
36.17847798312932
 20
14.73138490766574
 30
0.0
 10
36.16000334946731
 20
14.74895829105804
 30
0.0
 10
36.12547403971886
 20
14.79145928223443
 30
0.0
 10
36.08438786767358
 20
14.86736854526393
 30
0.0
 10
36.05216971347815
 20
14.95658320966224
 30
0.0
 10
36.03775463140085
 20
15.02096569743864
 30
0.0
 10
36.03215042939059
 20
15.05458794848723
 30
0.0
  0
SPLINE
  5
156
330
2
100
AcDbEntity
  8
0
  6
Continuous
 62
     7
100
AcDbSpline
210
0.0
220
0.0
230
1.0
 70
     8
 71
     3
 72
    11
 73
     7
 74
     0
 42
0.000000001
 43
0.0000000001
 40
0.0
 40
0.0
 40
0.0
 40
0.0
 40
0.2579365975
 40
0.5186714693
 40
0.7697424897000002
 40
1.0
 40
1.0
 40
1.0
 40
1.0
 10
36.03215042939059
 20
15.05458794848723
 30
0.0
 10
36.02431002399961
 20
15.10162623835644
 30
0.0
 10
36.01580647085372
 20
15.19753684071414
 30
0.0
 10
36.02305497711409
 20
15.34011186197513
 30
0.0
 10
36.04951661784074
 20
15.47520181090104
 30
0.0
 10
36.0806030827026
 20
15.55921448327633
 30
0.0
 10
36.09954055441897
 20
15.59734021866594
 30
0.0
  0
SPLINE
  5
157
330
2
100
AcDbEntity
  8
0
  6
Continuous
 62
     7
100
AcDbSpline
210
0.0
220
0.0
230
1.0
 70
     8
 71
     3
 72
     9
 73
     5
 74
     0
 42
0.000000001
 43
0.0000000001
 40
0.0
 40
0.0
 40
0.0
 40
0.0
 40
0.2630885311
 40
1.0
 40
1.0
 40
1.0
 40
1.0
 10
36.10542767130919
 20
15.60886421940742
 30
0.0
 10
36.10946592311503
 20
15.61655077839863
 30
0.0
 10
36.12549239830848
 20
15.64539727773503
 30
0.0
 10
36.14433263270377
 20
15.67275218008372
 30
0.0
 10
36.1600122156368
 20
15.69134348350373
 30
0.0
  0
SPLINE
  5
158
330
2
100
AcDbEntity
  8
0
  6
Continuous
 62
     7
100
AcDbSpline
210
0.0
220
0.0
230
1.0
 70
     8
 71
     3
 72
     9
 73
     5
 74
     0
 42
0.000000001
 43
0.0000000001
 40
0.0
 40
0.0
 40
0.0
 40
0.0
 40
0.2572855377
 40
1.0
 40
1.0
 40
1.0
 40
1.0
 10
36.1600122156368
 20
15.69134348350373
 30
0.0
 10
36.16248162424521
 20
15.69427146474714
 30
0.0
 10
36.17225634326387
 20
15.70550050149234
 30
0.0
 10
36.18275426448982
 20
15.71610749645753
 30
0.0
 10
36.19096055427437
 20
15.72351789233273
 30
0.0
  0
SPLINE
  5
159
330
2
100
AcDbEntity
  8
0
  6
Continuous
 62
     7
100
AcDbSpline
210
0.0
220
0.0
230
1.0
 70
     8
 71
     3
 72
    10
 73
     6
 74
     0
 42
0.000000001
 43
0.0000000001
 40
0.0
 40
0.0
 40
0.0
 40
0.0
 40
0.525648122
 40
0.7665223853000001
 40
1.0
 40
1.0
 40
1.0
 40
1.0
 10
36.19096055427437
 20
15.72351789233273
 30
0.0
 10
36.21042997801732
 20
15.74109905767974
 30
0.0
 10
36.24279222132365
 20
15.76329443091113
 30
0.0
 10
36.29063578032891
 20
15.77844523219943
 30
0.0
 10
36.31441520677701
 20
15.78076673396274
 30
0.0
 10
36.32606620497157
 20
15.78062888622623
 30
0.0
  0
SPLINE
  5
15A
330
2
100
AcDbEntity
  8
0
  6
Continuous
 62
     7
100
AcDbSpline
210
0.0
220
0.0
230
1.0
 70
     8
 71
     3
 72
    10
 73
     6
 74
     0
 42
0.000000001
 43
0.0000000001
 40
0.0
 40
0.0
 40
0.0
 40
0.0
 40
0.2334164771
 40
0.4743476044
 40
1.0
 40
1.0
 40
1.0
 40
1.0
 10
36.31258764172692
 20
14.67070998494634
 30
0.0
 10
36.30089704024191
 20
14.67084830123605
 30
0.0
 10
36.27709018382891
 20
14.67373568129902
 30
0.0
 10
36.22946290841264
 20
14.69013834540473
 30
0.0
 10
36.19755489847371
 20
14.71323862376963
 30
0.0
 10
36.17847798312932
 20
14.73138490766574
 30
0.0
  0
SPLINE
  5
15B
330
2
100
AcDbEntity
  8
0
  6
Continuous
 62
     7
100
AcDbSpline
210
0.0
220
0.0
230
1.0
 70
     8
 71
     3
 72
     9
 73
     5
 74
     0
 42
0.000000001
 43
0.0000000001
 40
0.0
 40
0.0
 40
0.0
 40
0.0
 40
0.5189277631
 40
1.0
 40
1.0
 40
1.0
 40
1.0
 10
45.8493079175956
 20
15.65834108308403
 30
0.0
 10
45.83786636251467
 20
15.66666246586042
 30
0.0
 10
45.81328744645646
 20
15.67972962312294
 30
0.0
 10
45.78539086608365
 20
15.68288665951522
 30
0.0
 10
45.77233225816335
 20
15.68166594550673
 30
0.0
  0
SPLINE
  5
15C
330
2
100
AcDbEntity
  8
0
  6
Continuous
 62
     7
100
AcDbSpline
210
0.0
220
0.0
230
1.0
 70
     8
 71
     3
 72
     9
 73
     5
 74
     0
 42
0.000000001
 43
0.0000000001
 40
0.0
 40
0.0
 40
0.0
 40
0.0
 40
0.2307531887
 40
1.0
 40
1.0
 40
1.0
 40
1.0
 10
46.12368271081964
 20
15.45878974034454
 30
0.0
 10
46.13024839353142
 20
15.45401455386653
 30
0.0
 10
46.15699687669508
 20
15.43097726834574
 30
0.0
 10
46.17660574857242
 20
15.40044704215494
 30
0.0
 10
46.18784220782113
 20
15.37582562242072
 30
0.0
  0
SPLINE
  5
15D
330
2
100
AcDbEntity
  8
0
  6
Continuous
 62
     7
100
AcDbSpline
210
0.0
220
0.0
230
1.0
 70
     8
 71
     3
 72
    11
 73
     7
 74
     0
 42
0.000000001
 43
0.0000000001
 40
0.0
 40
0.0
 40
0.0
 40
0.0
 40
0.2857545797
 40
0.5450375838000002
 40
0.7800078089
 40
1.0
 40
1.0
 40
1.0
 40
1.0
 10
46.20052917065859
 20
15.14852129605673
 30
0.0
 10
46.19545728401109
 20
15.13368572309123
 30
0.0
 10
46.18309359822853
 20
15.10617507750834
 30
0.0
 10
46.15678817717021
 20
15.07183520184712
 30
0.0
 10
46.12465298500749
 20
15.04831733184742
 30
0.0
 10
46.10005604313768
 20
15.04117058102992
 30
0.0
 10
46.08803850645926
 20
15.04004230140562
 30
0.0
  0
SPLINE
  5
15E
330
2
100
AcDbEntity
  8
0
  6
Continuous
 62
     7
100
AcDbSpline
210
0.0
220
0.0
230
1.0
 70
     8
 71
     3
 72
    13
 73
     9
 74
     0
 42
0.000000001
 43
0.0000000001
 40
0.0
 40
0.0
 40
0.0
 40
0.0
 40
0.0977303965
 40
0.2037412904
 40
0.3204076375
 40
0.4477707917
 40
0.7239884837
 40
1.0
 40
1.0
 40
1.0
 40
1.0
 10
46.04205382887881
 20
15.17070030388103
 30
0.0
 10
46.0355286404767
 20
15.17135102172294
 30
0.0
 10
46.02210222629753
 20
15.17516317306674
 30
0.0
 10
46.00388940932321
 20
15.18704560389714
 30
0.0
 10
45.98779308451589
 20
15.20442959012062
 30
0.0
 10
45.96979513853352
 20
15.23457793184484
 30
0.0
 10
45.95773755758401
 20
15.27950420811954
 30
0.0
 10
45.96028245391813
 20
15.31743842112322
 30
0.0
 10
45.96535776995508
 20
15.33524934810083
 30
0.0
  0
SPLINE
  5
15F
330
2
100
AcDbEntity
  8
0
  6
Continuous
 62
     7
100
AcDbSpline
210
0.0
220
0.0
230
1.0
 70
     8
 71
     3
 72
    13
 73
     9
 74
     0
 42
0.000000001
 43
0.0000000001
 40
0.0
 40
0.0
 40
0.0
 40
0.0
 40
0.0975010386
 40
0.1985257918
 40
0.3100118586
 40
0.4345674871
 40
0.7141367671
 40
1.0
 40
1.0
 40
1.0
 40
1.0
 10
45.79596207482659
 20
15.36904496037024
 30
0.0
 10
45.78916269123854
 20
15.36655772111033
 30
0.0
 10
45.77403515160987
 20
15.36441003855383
 30
0.0
 10
45.7514076589525
 20
15.37106253859463
 30
0.0
 10
45.73089975890316
 20
15.38609315669752
 30
0.0
 10
45.70703984107146
 20
15.41649779469114
 30
0.0
 10
45.69003004271883
 20
15.46632515783965
 30
0.0
 10
45.69167726794482
 20
15.50965054502813
 30
0.0
 10
45.69749445249285
 20
15.53006492879843
 30
0.0
  0
SPLINE
  5
160
330
2
100
AcDbEntity
  8
0
  6
Continuous
 62
     7
100
AcDbSpline
210
0.0
220
0.0
230
1.0
 70
     8
 71
     3
 72
    11
 73
     7
 74
     0
 42
0.000000001
 43
0.0000000001
 40
0.0
 40
0.0
 40
0.0
 40
0.0
 40
0.2910978964
 40
0.5497404071
 40
0.7805525844
 40
1.0
 40
1.0
 40
1.0
 40
1.0
 10
45.96535776995508
 20
15.33524934810083
 30
0.0
 10
45.96794593850668
 20
15.34433206939884
 30
0.0
 10
45.97477587619896
 20
15.36104826656872
 30
0.0
 10
45.99078922257886
 20
15.38121562426793
 30
0.0
 10
46.01102411999288
 20
15.39333623604564
 30
0.0
 10
46.02603518062842
 20
15.39508736340984
 30
0.0
 10
46.03312792506179
 20
15.39446867176524
 30
0.0
  0
SPLINE
  5
161
330
2
100
AcDbEntity
  8
0
  6
Continuous
 62
     7
100
AcDbSpline
210
0.0
220
0.0
230
1.0
 70
     8
 71
     3
 72
     9
 73
     5
 74
     0
 42
0.000000001
 43
0.0000000001
 40
0.0
 40
0.0
 40
0.0
 40
0.0
 40
0.5430425149
 40
1.0
 40
1.0
 40
1.0
 40
1.0
 10
45.69749445249285
 20
15.53006492879843
 30
0.0
 10
45.70110571036464
 20
15.54273800172862
 30
0.0
 10
45.7113321529852
 20
15.56545173885503
 30
0.0
 10
45.73107787335476
 20
15.58170116000155
 30
0.0
 10
45.74138857221275
 20
15.58578118330523
 30
0.0
  0
SPLINE
  5
162
330
2
100
AcDbEntity
  8
0
  6
Continuous
 62
     7
100
AcDbSpline
210
0.0
220
0.0
230
1.0
 70
     8
 71
     3
 72
    12
 73
     8
 74
     0
 42
0.000000001
 43
0.0000000001
 40
0.0
 40
0.0
 40
0.0
 40
0.0
 40
0.2999790938
 40
0.4403650862
 40
0.5721286724
 40
0.8055008878
 40
1.0
 40
1.0
 40
1.0
 40
1.0
 10
35.85868092910078
 20
18.94693817773375
 30
0.0
 10
35.86016909670988
 20
18.93193423416293
 30
0.0
 10
35.86402893752775
 20
18.90999989266074
 30
0.0
 10
35.87284146321403
 20
18.88258486311053
 30
0.0
 10
35.88305903318304
 20
18.85928525191134
 30
0.0
 10
35.89848759162489
 20
18.83541799376064
 30
0.0
 10
35.9158693408766
 20
18.82162937029763
 30
0.0
 10
35.92479314341911
 20
18.81763757246902
 30
0.0
  0
SPLINE
  5
163
330
2
100
AcDbEntity
  8
0
  6
Continuous
 62
     7
100
AcDbSpline
210
0.0
220
0.0
230
1.0
 70
     8
 71
     3
 72
     9
 73
     5
 74
     0
 42
0.000000001
 43
0.0000000001
 40
0.0
 40
0.0
 40
0.0
 40
0.0
 40
0.5075612125
 40
1.0
 40
1.0
 40
1.0
 40
1.0
 10
35.92479314341911
 20
18.81763757246902
 30
0.0
 10
35.97033693272936
 20
18.79726491200034
 30
0.0
 10
36.0642818540577
 20
18.76572124442093
 30
0.0
 10
36.16297332893716
 20
18.75540308773944
 30
0.0
 10
36.21137776266165
 20
18.75581515241783
 30
0.0
  0
SPLINE
  5
164
330
2
100
AcDbEntity
  8
0
  6
Continuous
 62
     7
100
AcDbSpline
210
0.0
220
0.0
230
1.0
 70
     8
 71
     3
 72
    11
 73
     7
 74
     0
 42
0.000000001
 43
0.0000000001
 40
0.1544225252349225
 40
0.1544225252349225
 40
0.1544225252349225
 40
0.1544225252349225
 40
0.2589711635
 40
0.5104144871999999
 40
0.756558246
 40
1.0
 40
1.0
 40
1.0
 40
1.0
 10
38.54143213769559
 20
18.87239026167256
 30
0.0
 10
38.52751008238615
 20
18.86475029568362
 30
0.0
 10
38.47942267426521
 20
18.83996986853251
 30
0.0
 10
38.39436619738648
 20
18.80577082944624
 30
0.0
 10
38.2846945940935
 20
18.77912730888143
 30
0.0
 10
38.21031920821803
 20
18.77271484198943
 30
0.0
 10
38.17337368459094
 20
18.77240245804164
 30
0.0
  0
SPLINE
  5
165
330
2
100
AcDbEntity
  8
0
  6
Continuous
 62
     7
100
AcDbSpline
210
0.0
220
0.0
230
1.0
 70
     8
 71
     3
 72
     9
 73
     5
 74
     0
 42
0.000000001
 43
0.0000000001
 40
0.0
 40
0.0
 40
0.0
 40
0.0
 40
0.4952615034
 40
1.0
 40
1.0
 40
1.0
 40
1.0
 10
38.22697517835311
 20
23.13035481994284
 30
0.0
 10
38.27526233561599
 20
23.12875819286813
 30
0.0
 10
38.37267063245771
 20
23.11554843688043
 30
0.0
 10
38.46550925828925
 20
23.08355471577173
 30
0.0
 10
38.51045544850783
 20
23.06344937350614
 30
0.0
  0
SPLINE
  5
166
330
2
100
AcDbEntity
  8
0
  6
Continuous
 62
     7
100
AcDbSpline
210
0.0
220
0.0
230
1.0
 70
     8
 71
     3
 72
    10
 73
     6
 74
     0
 42
0.000000001
 43
0.0000000001
 40
0.0
 40
0.0
 40
0.0
 40
0.0
 40
0.2500740922
 40
0.5000710437000002
 40
0.6066048426470391
 40
0.6066048426470391
 40
0.6066048426470391
 40
0.6066048426470391
 10
38.51045544850783
 20
23.06344937350614
 30
0.0
 10
38.52032861263838
 20
23.05903290699354
 30
0.0
 10
38.53892896911849
 20
23.04735839036303
 30
0.0
 10
38.55670699260185
 20
23.02763958027233
 30
0.0
 10
38.5647177583186
 20
23.01439236532199
 30
0.0
 10
38.56688668573674
 20
23.01031326660455
 30
0.0
  0
LINE
  5
167
330
2
100
AcDbEntity
  8
0
  6
Continuous
 62
     7
100
AcDbLine
 10
35.0538617261617
 20
17.66011385044014
 30
0.0
 11
35.03335589798293
 21
17.66019533723844
 31
0.0
  0
LINE
  5
168
330
2
100
AcDbEntity
  8
0
  6
Continuous
 62
     7
100
AcDbLine
 10
35.03335589798293
 20
17.66019533723844
 30
0.0
 11
35.01284775589809
 21
17.66035212226312
 31
0.0
  0
LINE
  5
169
330
2
100
AcDbEntity
  8
0
  6
Continuous
 62
     7
100
AcDbLine
 10
35.01284775589809
 20
17.66035212226312
 30
0.0
 11
34.99992399516217
 21
17.66048959043512
 31
0.0
  0
LINE
  5
16A
330
2
100
AcDbEntity
  8
0
  6
Continuous
 62
     7
100
AcDbLine
 10
34.99992399516217
 20
17.66048959043512
 30
0.0
 11
34.99888543236462
 21
17.66050193500043
 31
0.0
  0
LINE
  5
16B
330
2
100
AcDbEntity
  8
0
  6
Continuous
 62
     7
100
AcDbLine
 10
34.99888543236462
 20
17.66050193500043
 30
0.0
 11
34.99709418681431
 21
17.66052367966734
 31
0.0
  0
SPLINE
  5
16C
330
2
100
AcDbEntity
  8
0
  6
Continuous
 62
     7
100
AcDbSpline
210
0.0
220
0.0
230
1.0
 70
     8
 71
     3
 72
     9
 73
     5
 74
     0
 42
0.000000001
 43
0.0000000001
 40
0.0
 40
0.0
 40
0.0
 40
0.0
 40
0.2557298723
 40
1.0
 40
1.0
 40
1.0
 40
1.0
 10
35.06288864330856
 20
17.66034960996683
 30
0.0
 10
35.0628905966755
 20
17.66026196646473
 30
0.0
 10
35.06235872859825
 20
17.66028693154134
 30
0.0
 10
35.06213041066688
 20
17.66021883979012
 30
0.0
 10
35.06187563640728
 20
17.66020520407282
 30
0.0
  0
SPLINE
  5
16D
330
2
100
AcDbEntity
  8
0
  6
Continuous
 62
     7
100
AcDbSpline
210
0.0
220
0.0
230
1.0
 70
     8
 71
     3
 72
     9
 73
     5
 74
     0
 42
0.000000001
 43
0.0000000001
 40
0.0
 40
0.0
 40
0.0
 40
0.0
 40
0.1595092381
 40
1.0
 40
1.0
 40
1.0
 40
1.0
 10
35.06187563640728
 20
17.66020520407282
 30
0.0
 10
35.06145009547422
 20
17.66018242878204
 30
0.0
 10
35.05877926758667
 20
17.66010213113784
 30
0.0
 10
35.0561072029483
 20
17.66010902586955
 30
0.0
 10
35.0538617261617
 20
17.66011385044014
 30
0.0
  0
LINE
  5
16E
330
2
100
AcDbEntity
  8
0
  6
Continuous
 62
     7
100
AcDbLine
 10
32.75318535223718
 20
22.37196572055712
 30
0.0
 11
32.75201992636306
 21
22.36740121860594
 31
0.0
  0
SPLINE
  5
16F
330
2
100
AcDbEntity
  8
0
  6
Continuous
 62
     7
100
AcDbSpline
210
0.0
220
0.0
230
1.0
 70
     8
 71
     3
 72
    23
 73
    19
 74
     0
 42
0.000000001
 43
0.0000000001
 40
0.0
 40
0.0
 40
0.0
 40
0.0
 40
0.0716829081
 40
0.1452266562
 40
0.2198645592
 40
0.2948020005
 40
0.3692299275
 40
0.442357643
 40
0.5134359853000002
 40
0.5817861146
 40
0.6468295587
 40
0.7081229059
 40
0.7653979478000002
 40
0.8186081277999999
 40
0.8679780022999999
 40
0.914045635
 40
0.9576728419
 40
1.0
 40
1.0
 40
1.0
 40
1.0
 10
32.75201992636306
 20
22.36740121860594
 30
0.0
 10
32.71958620277498
 20
22.24012402093042
 30
0.0
 10
32.66384417412373
 20
21.97963448036574
 30
0.0
 10
32.60782957890071
 20
21.58037896617953
 30
0.0
 10
32.57888228672471
 20
21.17226435857694
 30
0.0
 10
32.57743475249687
 20
20.76151748311043
 30
0.0
 10
32.60351309833537
 20
20.35436122162464
 30
0.0
 10
32.65672870366117
 20
19.95697232212194
 30
0.0
 10
32.7363007927204
 20
19.57535005977742
 30
0.0
 10
32.84107662936977
 20
19.21521952222823
 30
0.0
 10
32.96957694448121
 20
18.88193312581132
 30
0.0
 10
33.12005736925867
 20
18.58039194388074
 30
0.0
 10
33.29058758729536
 20
18.31499993281614
 30
0.0
 10
33.47914694381292
 20
18.08968671697073
 30
0.0
 10
33.68363622885612
 20
17.90803280209914
 30
0.0
 10
33.9018171472939
 20
17.77350563442864
 30
0.0
 10
34.13055055849814
 20
17.68957351540824
 30
0.0
 10
34.2883588059178
 20
17.66924091013313
 30
0.0
 10
34.36590905825986
 20
17.66828706553253
 30
0.0
  0
SPLINE
  5
170
330
2
100
AcDbEntity
  8
0
  6
Continuous
 62
     7
100
AcDbSpline
210
0.0
220
0.0
230
1.0
 70
     8
 71
     3
 72
    17
 73
    13
 74
     0
 42
0.000000001
 43
0.0000000001
 40
0.0
 40
0.0
 40
0.0
 40
0.0
 40
0.048508745
 40
0.0975118866
 40
0.147503902
 40
0.1989224688
 40
0.3073659365
 40
0.4252750360000002
 40
0.5537709591
 40
0.6929673264
 40
0.8421496309
 40
1.0
 40
1.0
 40
1.0
 40
1.0
 10
34.44781884500356
 20
24.32778335179494
 30
0.0
 10
34.40328847408276
 20
24.32833106186995
 30
0.0
 10
34.31359162676106
 20
24.32349679411013
 30
0.0
 10
34.18012224096107
 20
24.29860718976234
 30
0.0
 10
34.0482934219186
 20
24.25631663072094
 30
0.0
 10
33.87276960998566
 20
24.17595125520894
 30
0.0
 10
33.66044905633903
 20
24.03114311627875
 30
0.0
 10
33.42888835802983
 20
23.79993081694404
 30
0.0
 10
33.21888819938774
 20
23.51348397582983
 30
0.0
 10
33.03369801176198
 20
23.17753612888314
 30
0.0
 10
32.87630599577204
 20
22.79855872825164
 30
0.0
 10
32.79377248515433
 20
22.52855245280363
 30
0.0
 10
32.75738766909164
 20
22.38827901947304
 30
0.0
  0
LINE
  5
171
330
2
100
AcDbEntity
  8
0
  6
Continuous
 62
     7
100
AcDbLine
 10
34.99857830998327
 20
17.66050556934023
 30
0.0
 11
34.99991062228184
 21
17.66048905975525
 31
0.0
  0
LINE
  5
172
330
2
100
AcDbEntity
  8
0
  6
Continuous
 62
     7
100
AcDbLine
 10
35.00352538523378
 20
17.66044729377412
 30
0.0
 11
35.00802174727097
 21
17.66039823470455
 31
0.0
  0
LINE
  5
173
330
2
100
AcDbEntity
  8
0
  6
Continuous
 62
     7
100
AcDbLine
 10
35.00802174727097
 20
17.66039823470455
 30
0.0
 11
35.01656533124592
 21
17.66031499032113
 31
0.0
  0
LINE
  5
174
330
2
100
AcDbEntity
  8
0
  6
Continuous
 62
     7
100
AcDbLine
 10
35.01656533124592
 20
17.66031499032113
 30
0.0
 11
35.02402938452109
 21
17.66025295800442
 31
0.0
  0
LINE
  5
175
330
2
100
AcDbEntity
  8
0
  6
Continuous
 62
     7
100
AcDbLine
 10
35.02402938452109
 20
17.66025295800442
 30
0.0
 11
35.03147703840103
 21
17.66020099913754
 31
0.0
  0
LINE
  5
176
330
2
100
AcDbEntity
  8
0
  6
Continuous
 62
     7
100
AcDbLine
 10
35.03147703840103
 20
17.66020099913754
 30
0.0
 11
35.03523669939879
 21
17.66017853920882
 31
0.0
  0
LINE
  5
177
330
2
100
AcDbEntity
  8
0
  6
Continuous
 62
     7
100
AcDbLine
 10
35.03523669939879
 20
17.66017853920882
 30
0.0
 11
35.0445381370504
 21
17.66013383928683
 31
0.0
  0
LINE
  5
178
330
2
100
AcDbEntity
  8
0
  6
Continuous
 62
     7
100
AcDbLine
 10
35.0445381370504
 20
17.66013383928683
 30
0.0
 11
35.05384058555686
 21
17.66010461038945
 31
0.0
  0
SPLINE
  5
179
330
2
100
AcDbEntity
  8
0
  6
Continuous
 62
     7
100
AcDbSpline
210
0.0
220
0.0
230
1.0
 70
     8
 71
     3
 72
    11
 73
     7
 74
     0
 42
0.000000001
 43
0.0000000001
 40
0.0
 40
0.0
 40
0.0
 40
0.0
 40
0.3097168774
 40
0.5782705534
 40
0.8038052754999998
 40
1.0
 40
1.0
 40
1.0
 40
1.0
 10
10.26629173234898
 20
29.46443182460963
 30
0.0
 10
10.26878461242914
 20
29.47282622122133
 30
0.0
 10
10.27471801005882
 20
29.48818207153314
 30
0.0
 10
10.28731888886648
 20
29.50735473573264
 30
0.0
 10
10.30260277923249
 20
29.52013675387523
 30
0.0
 10
10.31466682226894
 20
29.52330624117083
 30
0.0
 10
10.32021348666336
 20
29.52323828195362
 30
0.0
  0
SPLINE
  5
17A
330
2
100
AcDbEntity
  8
0
  6
Continuous
 62
     7
100
AcDbSpline
210
0.0
220
0.0
230
1.0
 70
     8
 71
     3
 72
     9
 73
     5
 74
     0
 42
0.000000001
 43
0.0000000001
 40
0.0
 40
0.0
 40
0.0
 40
0.0
 40
0.5267811766000002
 40
1.0
 40
1.0
 40
1.0
 40
1.0
 10
33.30888091873003
 20
29.22867941228814
 30
0.0
 10
33.30506950126272
 20
29.23230489690775
 30
0.0
 10
33.29683389983027
 20
29.23831216604755
 30
0.0
 10
33.28680171582315
 20
29.24075642886022
 30
0.0
 10
33.28207660581848
 20
29.24081432217563
 30
0.0
  0
SPLINE
  5
17B
330
2
100
AcDbEntity
  8
0
  6
Continuous
 62
     7
100
AcDbSpline
210
0.0
220
0.0
230
1.0
 70
     8
 71
     3
 72
    13
 73
     9
 74
     0
 42
0.000000001
 43
0.0000000001
 40
0.0
 40
0.0
 40
0.0
 40
0.0
 40
0.0956341512
 40
0.1955932694
 40
0.3033787612999999
 40
0.4212738642
 40
0.6899413829000001
 40
1.0
 40
1.0
 40
1.0
 40
1.0
 10
35.70643053262224
 20
13.81005854557644
 30
0.0
 10
35.72055184956973
 20
13.80988536198894
 30
0.0
 10
35.74960621336698
 20
13.81338163160843
 30
0.0
 10
35.79171978251987
 20
13.82978991806393
 30
0.0
 10
35.8319277451868
 20
13.85676792404183
 30
0.0
 10
35.88427552289767
 20
13.90812233293823
 30
0.0
 10
35.9396635822725
 20
13.99633851370853
 30
0.0
 10
35.96891467899539
 20
14.07717330763224
 30
0.0
 10
35.98097944135633
 20
14.12134181192633
 30
0.0
  0
SPLINE
  5
17C
330
2
100
AcDbEntity
  8
0
  6
Continuous
 62
     7
100
AcDbSpline
210
0.0
220
0.0
230
1.0
 70
     8
 71
     3
 72
    13
 73
     9
 74
     0
 42
0.000000001
 43
0.0000000001
 40
0.0
 40
0.0
 40
0.0
 40
0.0
 40
0.267439592
 40
0.5413935088000002
 40
0.6716506794
 40
0.7928658205
 40
0.9026930973999998
 40
1.0
 40
1.0
 40
1.0
 40
1.0
 10
30.34707489828796
 20
19.48040691405024
 30
0.0
 10
30.32688590049493
 20
19.41242351779794
 30
0.0
 10
30.30373747542495
 20
19.26931244212792
 30
0.0
 10
30.31189204958803
 20
19.09000900483702
 30
0.0
 10
30.34172417282505
 20
18.95360504730173
 30
0.0
 10
30.37403183283611
 20
18.86307055342073
 30
0.0
 10
30.41540437170553
 20
18.78605897236823
 30
0.0
 10
30.45031142224637
 20
18.74297948135964
 30
0.0
 10
30.46900735401101
 20
18.72519559548054
 30
0.0
  0
SPLINE
  5
17D
330
2
100
AcDbEntity
  8
0
  6
Continuous
 62
     7
100
AcDbSpline
210
0.0
220
0.0
230
1.0
 70
     8
 71
     3
 72
     9
 73
     5
 74
     0
 42
0.000000001
 43
0.0000000001
 40
0.0
 40
0.0
 40
0.0
 40
0.0
 40
0.5270809003
 40
1.0
 40
1.0
 40
1.0
 40
1.0
 10
35.57243279928747
 20
13.87073116570073
 30
0.0
 10
35.59149872695243
 20
13.85259533347582
 30
0.0
 10
35.63265627856874
 20
13.82252939077013
 30
0.0
 10
35.68282242943489
 20
13.81034807492393
 30
0.0
 10
35.70643053262224
 20
13.81005854557644
 30
0.0
  0
SPLINE
  5
17E
330
2
100
AcDbEntity
  8
0
  6
Continuous
 62
     7
100
AcDbSpline
210
0.0
220
0.0
230
1.0
 70
     8
 71
     3
 72
    11
 73
     7
 74
     0
 42
0.000000001
 43
0.0000000001
 40
0.0
 40
0.0
 40
0.0
 40
0.0
 40
0.1961947245
 40
0.4217294466
 40
0.6902831226
 40
1.0
 40
1.0
 40
1.0
 40
1.0
 10
33.28207660581848
 20
29.24081432217563
 30
0.0
 10
33.27652994141294
 20
29.24088228139284
 30
0.0
 10
33.26446589838759
 20
29.23771279409724
 30
0.0
 10
33.24918200802159
 20
29.22493077595463
 30
0.0
 10
33.23658112921393
 20
29.20575811175512
 30
0.0
 10
33.23064773158424
 20
29.19040226145445
 30
0.0
 10
33.22815485149298
 20
29.18200786483164
 30
0.0
  0
SPLINE
  5
17F
330
2
100
AcDbEntity
  8
0
  6
Continuous
 62
     7
100
AcDbSpline
210
0.0
220
0.0
230
1.0
 70
     8
 71
     3
 72
    13
 73
     9
 74
     0
 42
0.000000001
 43
0.0000000001
 40
0.0
 40
0.0
 40
0.0
 40
0.0
 40
0.0826354645
 40
0.1717078836
 40
0.272123244
 40
0.3867753611
 40
0.6629207429
 40
1.0
 40
1.0
 40
1.0
 40
1.0
 10
21.42442481153414
 20
4.505726867089133
 30
0.0
 10
21.42178253998388
 20
4.496447753724223
 30
0.0
 10
21.41312546026273
 20
4.477947605258036
 30
0.0
 10
21.39159514445264
 20
4.454101541025533
 30
0.0
 10
21.36213848171264
 20
4.433830686948535
 30
0.0
 10
21.30965266698793
 20
4.410159890661543
 30
0.0
 10
21.22579307455722
 20
4.392131399754529
 30
0.0
 10
21.15407107940168
 20
4.388917784619835
 30
0.0
 10
21.11471886622871
 20
4.389401803594122
 30
0.0
  0
SPLINE
  5
180
330
2
100
AcDbEntity
  8
0
  6
Continuous
 62
     7
100
AcDbSpline
210
0.0
220
0.0
230
1.0
 70
     8
 71
     3
 72
    12
 73
     8
 74
     0
 42
0.000000001
 43
0.0000000001
 40
0.0
 40
0.0
 40
0.0
 40
0.0
 40
0.2532896228
 40
0.5273249699
 40
0.7867764386000001
 40
0.9008932577999999
 40
1.0
 40
1.0
 40
1.0
 40
1.0
 10
15.88291814668607
 20
4.453751361044928
 30
0.0
 10
15.80589106432811
 20
4.45469876814502
 30
0.0
 10
15.64568634570069
 20
4.474174484100542
 30
0.0
 10
15.41426550137533
 20
4.537171069566531
 30
0.0
 10
15.23243487514751
 20
4.615558758666833
 30
0.0
 10
15.10973099990498
 20
4.690836295410523
 30
0.0
 10
15.05868678598095
 20
4.731280751869132
 30
0.0
 10
15.03684762937633
 20
4.752054526266834
 30
0.0
  0
SPLINE
  5
181
330
2
100
AcDbEntity
  8
0
  6
Continuous
 62
     7
100
AcDbSpline
210
0.0
220
0.0
230
1.0
 70
     8
 71
     3
 72
    11
 73
     7
 74
     0
 42
0.000000001
 43
0.0000000001
 40
0.0
 40
0.0
 40
0.0
 40
0.0
 40
0.3140502272
 40
0.5793884319
 40
0.8023891139999999
 40
1.0
 40
1.0
 40
1.0
 40
1.0
 10
3.255739906011403
 20
15.95844239927722
 30
0.0
 10
3.241036002589039
 20
15.97242900041993
 30
0.0
 10
3.215434711251683
 20
15.99997691303184
 30
0.0
 10
3.187330500439288
 20
16.04400644160744
 30
0.0
 10
3.173643596543767
 20
16.08688947221753
 30
0.0
 10
3.175355287639318
 20
16.11486928134503
 30
0.0
 10
3.178852414245415
 20
16.12715047782173
 30
0.0
  0
SPLINE
  5
182
330
2
100
AcDbEntity
  8
0
  6
Continuous
 62
     7
100
AcDbSpline
210
0.0
220
0.0
230
1.0
 70
     8
 71
     3
 72
    11
 73
     7
 74
     0
 42
0.000000001
 43
0.0000000001
 40
0.0
 40
0.0
 40
0.0
 40
0.0
 40
0.1974280931
 40
0.4205604377000002
 40
0.6860917423
 40
1.0
 40
1.0
 40
1.0
 40
1.0
 10
21.52302409630695
 20
4.85172442684103
 30
0.0
 10
21.52654733884871
 20
4.864095888684241
 30
0.0
 10
21.5282091769804
 20
4.892322253098537
 30
0.0
 10
21.51422555124819
 20
4.935510134452724
 30
0.0
 10
21.48578869047434
 20
4.979844306935024
 30
0.0
 10
21.45995931534912
 20
5.007606923716743
 30
0.0
 10
21.44514019793378
 20
5.021703118356223
 30
0.0
  0
SPLINE
  5
183
330
2
100
AcDbEntity
  8
0
  6
Continuous
 62
     7
100
AcDbSpline
210
0.0
220
0.0
230
1.0
 70
     8
 71
     3
 72
     8
 73
     4
 74
     0
 42
0.000000001
 43
0.0000000001
 40
0.0
 40
0.0
 40
0.0
 40
0.0
 40
1.0
 40
1.0
 40
1.0
 40
1.0
 10
3.755365093343196
 20
16.58749176832914
 30
0.0
 10
3.699500308903973
 20
16.58820783058343
 30
0.0
 10
3.643633669354946
 20
16.58877778644592
 30
0.0
 10
3.587769428249471
 20
16.58953505153394
 30
0.0
  0
SPLINE
  5
184
330
2
100
AcDbEntity
  8
0
  6
Continuous
 62
     7
100
AcDbSpline
210
0.0
220
0.0
230
1.0
 70
     8
 71
     3
 72
    13
 73
     9
 74
     0
 42
0.000000001
 43
0.0000000001
 40
0.0
 40
0.0
 40
0.0
 40
0.0
 40
0.336991893
 40
0.6132300853000002
 40
0.7279136803
 40
0.8283315724999999
 40
0.9173921068
 40
1.0
 40
1.0
 40
1.0
 40
1.0
 10
3.587769428249471
 20
16.58953505153394
 30
0.0
 10
3.548357693280103
 20
16.59001980256434
 30
0.0
 10
3.476510365338373
 20
16.58679536911433
 30
0.0
 10
3.392487638327827
 20
16.56880015510824
 30
0.0
 10
3.339872559618703
 20
16.54513026383754
 30
0.0
 10
3.310347937128716
 20
16.52484090939054
 30
0.0
 10
3.288767949384713
 20
16.50096914095463
 30
0.0
 10
3.280088005705896
 20
16.48244363099752
 30
0.0
 10
3.277441649810823
 20
16.47315125597424
 30
0.0
  0
SPLINE
  5
185
330
2
100
AcDbEntity
  8
0
  6
Continuous
 62
     7
100
AcDbSpline
210
0.0
220
0.0
230
1.0
 70
     8
 71
     3
 72
    13
 73
     9
 74
     0
 42
0.000000001
 43
0.0000000001
 40
0.0
 40
0.0
 40
0.0
 40
0.0
 40
0.0826353605
 40
0.1717076693
 40
0.2721229073
 40
0.3867748083
 40
0.6629199707
 40
1.0
 40
1.0
 40
1.0
 40
1.0
 10
3.178852414245415
 20
16.12715047782173
 30
0.0
 10
3.181494683919752
 20
16.13642959082033
 30
0.0
 10
3.190151760832564
 20
16.15492974025224
 30
0.0
 10
3.211682092660006
 20
16.17877578947753
 30
0.0
 10
3.241138752624983
 20
16.19904662136562
 30
0.0
 10
3.293624523027386
 20
16.22271751028214
 30
0.0
 10
3.377484295022806
 20
16.24074602489874
 30
0.0
 10
3.449206451305937
 20
16.24395918682043
 30
0.0
 10
3.488558800620404
 20
16.24347516620332
 30
0.0
  0
SPLINE
  5
186
330
2
100
AcDbEntity
  8
0
  6
Continuous
 62
     7
100
AcDbSpline
210
0.0
220
0.0
230
1.0
 70
     8
 71
     3
 72
    12
 73
     8
 74
     0
 42
0.000000001
 43
0.0000000001
 40
0.0
 40
0.0
 40
0.0
 40
0.0
 40
0.2532896194
 40
0.5273249634
 40
0.7867764325
 40
0.9008932539999999
 40
1.0
 40
1.0
 40
1.0
 40
1.0
 10
8.720359083167274
 20
16.17912598268934
 30
0.0
 10
8.797386162206167
 20
16.17817857562254
 30
0.0
 10
8.957590874129243
 20
16.15870286115444
 30
0.0
 10
9.189011710362743
 20
16.09570628001743
 30
0.0
 10
9.370842332128297
 20
16.01731859594542
 30
0.0
 10
9.493546207448467
 20
15.94204106368613
 30
0.0
 10
9.544590422948786
 20
15.90159660942534
 30
0.0
 10
9.566429580896491
 20
15.88082283602662
 30
0.0
  0
SPLINE
  5
187
330
2
100
AcDbEntity
  8
0
  6
Continuous
 62
     7
100
AcDbSpline
210
0.0
220
0.0
230
1.0
 70
     8
 71
     3
 72
    11
 73
     7
 74
     0
 42
0.000000001
 43
0.0000000001
 40
0.0
 40
0.0
 40
0.0
 40
0.0
 40
0.3140502276
 40
0.5793884345000002
 40
0.8023891239000001
 40
1.0
 40
1.0
 40
1.0
 40
1.0
 10
21.34753733887126
 20
4.674434930060336
 30
0.0
 10
21.36224124071743
 20
4.660448330427241
 30
0.0
 10
21.38784252850272
 20
4.632900419458133
 30
0.0
 10
21.41594673243309
 20
4.588870893091425
 30
0.0
 10
21.42963363595124
 20
4.545987867076735
 30
0.0
 10
21.42792193976085
 20
4.518008060990633
 30
0.0
 10
21.42442481153414
 20
4.505726867089133
 30
0.0
  0
SPLINE
  5
188
330
2
100
AcDbEntity
  8
0
  6
Continuous
 62
     7
100
AcDbSpline
210
0.0
220
0.0
230
1.0
 70
     8
 71
     3
 72
    12
 73
     8
 74
     0
 42
0.000000001
 43
0.0000000001
 40
0.0
 40
0.0
 40
0.0
 40
0.0
 40
0.0990646281
 40
0.2130503463
 40
0.4724179497
 40
0.746577188
 40
1.0
 40
1.0
 40
1.0
 40
1.0
 10
9.666710295867112
 20
16.22554446208942
 30
0.0
 10
9.644811560445408
 20
16.24637490658253
 30
0.0
 10
9.593698341972707
 20
16.28696869977714
 30
0.0
 10
9.470804201774452
 20
16.36265736531384
 30
0.0
 10
9.288484019215305
 20
16.44144654846265
 30
0.0
 10
9.056292182531796
 20
16.50470884848144
 30
0.0
 10
8.895502400719912
 20
16.52425154666544
 30
0.0
 10
8.818191720577026
 20
16.52520244192944
 30
0.0
  0
SPLINE
  5
189
330
2
100
AcDbEntity
  8
0
  6
Continuous
 62
     7
100
AcDbSpline
210
0.0
220
0.0
230
1.0
 70
     8
 71
     3
 72
    12
 73
     8
 74
     0
 42
0.000000001
 43
0.0000000001
 40
0.0
 40
0.0
 40
0.0
 40
0.0
 40
0.0990646281
 40
0.2130503463
 40
0.4724179497
 40
0.746577188
 40
1.0
 40
1.0
 40
1.0
 40
1.0
 10
17.13398285494959
 20
16.13369927191673
 30
0.0
 10
17.11208411951678
 20
16.15452971640983
 30
0.0
 10
17.06097090104408
 20
16.19512350960444
 30
0.0
 10
16.93807676084592
 20
16.27081217514114
 30
0.0
 10
16.75575657828667
 20
16.34960135828993
 30
0.0
 10
16.52356474160316
 20
16.41286365830874
 30
0.0
 10
16.36277495979127
 20
16.43240635649274
 30
0.0
 10
16.2854642796595
 20
16.43335725175674
 30
0.0
  0
SPLINE
  5
18A
330
2
100
AcDbEntity
  8
0
  6
Continuous
 62
     7
100
AcDbSpline
210
0.0
220
0.0
230
1.0
 70
     8
 71
     3
 72
     9
 73
     5
 74
     0
 42
0.000000001
 43
0.0000000001
 40
0.0
 40
0.0
 40
0.0
 40
0.0
 40
0.5269487775
 40
1.0
 40
1.0
 40
1.0
 40
1.0
 10
16.15868191147032
 20
3.376864273553035
 30
0.0
 10
16.17775857181421
 20
3.358718232214121
 30
0.0
 10
16.21896038617902
 20
3.328638306993826
 30
0.0
 10
16.2691748766682
 20
3.316473462093526
 30
0.0
 10
16.29280893890378
 20
3.31619576749943
 30
0.0
  0
SPLINE
  5
18B
330
2
100
AcDbEntity
  8
0
  6
Continuous
 62
     7
100
AcDbSpline
210
0.0
220
0.0
230
1.0
 70
     8
 71
     3
 72
    10
 73
     6
 74
     0
 42
0.000000001
 43
0.0000000001
 40
0.0
 40
0.0
 40
0.0
 40
0.0
 40
0.4483994356000001
 40
0.7115417298000001
 40
1.0
 40
1.0
 40
1.0
 40
1.0
 10
1.976291494818458
 20
20.74180135005715
 30
0.0
 10
1.885627551516428
 20
20.69698062213953
 30
0.0
 10
1.761905013034656
 20
20.58511573813374
 30
0.0
 10
1.635499595606184
 20
20.39847463452082
 30
0.0
 10
1.580233949295744
 20
20.28636594760643
 30
0.0
 10
1.554849383760116
 20
20.22645965715204
 30
0.0
  0
SPLINE
  5
18C
330
2
100
AcDbEntity
  8
0
  6
Continuous
 62
     7
100
AcDbSpline
210
0.0
220
0.0
230
1.0
 70
     8
 71
     3
 72
     9
 73
     5
 74
     0
 42
0.000000001
 43
0.0000000001
 40
0.0
 40
0.0
 40
0.0
 40
0.0
 40
0.4813715292000002
 40
1.0
 40
1.0
 40
1.0
 40
1.0
 10
1.554849383760116
 20
20.22645965715204
 30
0.0
 10
1.499361195680866
 20
20.09551034044914
 30
0.0
 10
1.417103437590076
 20
19.80920094015655
 30
0.0
 10
1.388111549587932
 20
19.51359481295243
 30
0.0
 10
1.386084502897011
 20
19.36038024411144
 30
0.0
  0
SPLINE
  5
18D
330
2
100
AcDbEntity
  8
0
  6
Continuous
 62
     7
100
AcDbSpline
210
0.0
220
0.0
230
1.0
 70
     8
 71
     3
 72
    11
 73
     7
 74
     0
 42
0.000000001
 43
0.0000000001
 40
0.0
 40
0.0
 40
0.0
 40
0.0
 40
0.2837757226
 40
0.5526197727000001
 40
0.7938630459000002
 40
1.0
 40
1.0
 40
1.0
 40
1.0
 10
1.365384825317254
 20
17.79579261790252
 30
0.0
 10
1.364714023934531
 20
17.74509001437052
 30
0.0
 10
1.370647924327617
 20
17.64609399829284
 30
0.0
 10
1.400964272588234
 20
17.50684820260702
 30
0.0
 10
1.450313431863729
 20
17.38798560896004
 30
0.0
 10
1.498110648302213
 20
17.32224713069813
 30
0.0
 10
1.524799054913785
 20
17.29686066781732
 30
0.0
  0
SPLINE
  5
18E
330
2
100
AcDbEntity
  8
0
  6
Continuous
 62
     7
100
AcDbSpline
210
0.0
220
0.0
230
1.0
 70
     8
 71
     3
 72
    11
 73
     7
 74
     0
 42
0.000000001
 43
0.0000000001
 40
0.0
 40
0.0
 40
0.0
 40
0.0
 40
0.2441569459
 40
0.4906967727
 40
0.7419487753000002
 40
1.0
 40
1.0
 40
1.0
 40
1.0
 10
5.45972684777648
 20
21.56807363152073
 30
0.0
 10
5.179977044820377
 20
21.57150527223382
 30
0.0
 10
4.616778925135261
 20
21.54485909815853
 30
0.0
 10
3.776366247000686
 20
21.40471156435793
 30
0.0
 10
2.942223664838238
 20
21.16515979032354
 30
0.0
 10
2.40103637382495
 20
20.94337497876415
 30
0.0
 10
2.133437959949473
 20
20.81757856282464
 30
0.0
  0
SPLINE
  5
18F
330
2
100
AcDbEntity
  8
0
  6
Continuous
 62
     7
100
AcDbSpline
210
0.0
220
0.0
230
1.0
 70
     8
 71
     3
 72
     9
 73
     5
 74
     0
 42
0.000000001
 43
0.0000000001
 40
0.0
 40
0.0
 40
0.0
 40
0.0
 40
0.2335299989
 40
1.0
 40
1.0
 40
1.0
 40
1.0
 10
1.71148086889782
 20
17.29456453806774
 30
0.0
 10
1.705221493683158
 20
17.30051856142883
 30
0.0
 10
1.679557354723019
 20
17.32720961519063
 30
0.0
 10
1.658321378523089
 20
17.35795651439154
 30
0.0
 10
1.644223170110471
 20
17.38255677249742
 30
0.0
  0
SPLINE
  5
190
330
2
100
AcDbEntity
  8
0
  6
Continuous
 62
     7
100
AcDbSpline
210
0.0
220
0.0
230
1.0
 70
     8
 71
     3
 72
     9
 73
     5
 74
     0
 42
0.000000001
 43
0.0000000001
 40
0.0
 40
0.0
 40
0.0
 40
0.0
 40
0.2379436625
 40
1.0
 40
1.0
 40
1.0
 40
1.0
 10
1.644223170110471
 20
17.38255677249742
 30
0.0
 10
1.639366105437156
 20
17.39103196602024
 30
0.0
 10
1.620016626040913
 20
17.42725723007244
 30
0.0
 10
1.604687575824403
 20
17.46556348562783
 30
0.0
 10
1.594920200610121
 20
17.49528441392662
 30
0.0
  0
SPLINE
  5
191
330
2
100
AcDbEntity
  8
0
  6
Continuous
 62
     7
100
AcDbSpline
210
0.0
220
0.0
230
1.0
 70
     8
 71
     3
 72
     9
 73
     5
 74
     0
 42
0.000000001
 43
0.0000000001
 40
0.0
 40
0.0
 40
0.0
 40
0.0
 40
0.2425813032
 40
1.0
 40
1.0
 40
1.0
 40
1.0
 10
1.590924055333297
 20
17.50782082608774
 30
0.0
 10
1.58765757132037
 20
17.51839033513193
 30
0.0
 10
1.575155043274586
 20
17.56225589852574
 30
0.0
 10
1.566335809714006
 20
17.60714844138983
 30
0.0
 10
1.561534093592167
 20
17.64135461136834
 30
0.0
  0
SPLINE
  5
192
330
2
100
AcDbEntity
  8
0
  6
Continuous
 62
     7
100
AcDbSpline
210
0.0
220
0.0
230
1.0
 70
     8
 71
     3
 72
     9
 73
     5
 74
     0
 42
0.000000001
 43
0.0000000001
 40
0.0
 40
0.0
 40
0.0
 40
0.0
 40
0.2572472232
 40
1.0
 40
1.0
 40
1.0
 40
1.0
 10
1.65299522273262
 20
19.96303080198863
 30
0.0
 10
1.658881086088611
 20
19.98526471848264
 30
0.0
 10
1.683132606459118
 20
20.07132073837613
 30
0.0
 10
1.712928115935403
 20
20.15585545263143
 30
0.0
 10
1.738563328350985
 20
20.21711554861402
 30
0.0
  0
SPLINE
  5
193
330
2
100
AcDbEntity
  8
0
  6
Continuous
 62
     7
100
AcDbSpline
210
0.0
220
0.0
230
1.0
 70
     8
 71
     3
 72
     9
 73
     5
 74
     0
 42
0.000000001
 43
0.0000000001
 40
0.0
 40
0.0
 40
0.0
 40
0.0
 40
0.2598492733
 40
1.0
 40
1.0
 40
1.0
 40
1.0
 10
1.753916180153196
 20
20.25265532551733
 30
0.0
 10
1.761968601593531
 20
20.27071637300183
 30
0.0
 10
1.794207702787623
 20
20.33964936457493
 30
0.0
 10
1.831569810602535
 20
20.40625332345653
 30
0.0
 10
1.86247727300168
 20
20.45334234373345
 30
0.0
  0
SPLINE
  5
194
330
2
100
AcDbEntity
  8
0
  6
Continuous
 62
     7
100
AcDbSpline
210
0.0
220
0.0
230
1.0
 70
     8
 71
     3
 72
     9
 73
     5
 74
     0
 42
0.000000001
 43
0.0000000001
 40
0.0
 40
0.0
 40
0.0
 40
0.0
 40
0.2559476705
 40
1.0
 40
1.0
 40
1.0
 40
1.0
 10
1.86247727300168
 20
20.45334234373345
 30
0.0
 10
1.867611874638114
 20
20.46116515873225
 30
0.0
 10
1.888029660547291
 20
20.49149270638224
 30
0.0
 10
1.909898911749376
 20
20.52085079879123
 30
0.0
 10
1.92702576953653
 20
20.54198463746423
 30
0.0
  0
SPLINE
  5
195
330
2
100
AcDbEntity
  8
0
  6
Continuous
 62
     7
100
AcDbSpline
210
0.0
220
0.0
230
1.0
 70
     8
 71
     3
 72
     9
 73
     5
 74
     0
 42
0.000000001
 43
0.0000000001
 40
0.0
 40
0.0
 40
0.0
 40
0.0
 40
0.2570005755
 40
1.0
 40
1.0
 40
1.0
 40
1.0
 10
1.92702576953653
 20
20.54198463746423
 30
0.0
 10
1.933203352258945
 20
20.54960752066164
 30
0.0
 10
1.95767613152683
 20
20.57891056518474
 30
0.0
 10
1.983935286297734
 20
20.60673954050813
 30
0.0
 10
2.004476921378248
 20
20.62630187842162
 30
0.0
  0
SPLINE
  5
196
330
2
100
AcDbEntity
  8
0
  6
Continuous
 62
     7
100
AcDbSpline
210
0.0
220
0.0
230
1.0
 70
     8
 71
     3
 72
     9
 73
     5
 74
     0
 42
0.000000001
 43
0.0000000001
 40
0.0
 40
0.0
 40
0.0
 40
0.0
 40
0.2537361241
 40
1.0
 40
1.0
 40
1.0
 40
1.0
 10
2.162973308802393
 20
20.73950522030754
 30
0.0
 10
2.248663018761424
 20
20.78186688068752
 30
0.0
 10
2.589018454318611
 20
20.94339658703423
 30
0.0
 10
2.939981611535786
 20
21.08273837697413
 30
0.0
 10
3.206400549401235
 20
21.17250918480563
 30
0.0
  0
SPLINE
  5
197
330
2
100
AcDbEntity
  8
0
  6
Continuous
 62
     7
100
AcDbSpline
210
0.0
220
0.0
230
1.0
 70
     8
 71
     3
 72
     9
 73
     5
 74
     0
 42
0.000000001
 43
0.0000000001
 40
0.0
 40
0.0
 40
0.0
 40
0.0
 40
0.5196802573000002
 40
1.0
 40
1.0
 40
1.0
 40
1.0
 10
24.22457042243021
 20
16.25107600129314
 30
0.0
 10
24.14584200965024
 20
16.27883333807124
 30
0.0
 10
23.99029468714236
 20
16.32109210018583
 30
0.0
 10
23.82988670181847
 20
16.34056314431784
 30
0.0
 10
23.75273683873087
 20
16.34151206158402
 30
0.0
  0
SPLINE
  5
198
330
2
100
AcDbEntity
  8
0
  6
Continuous
 62
     7
100
AcDbSpline
210
0.0
220
0.0
230
1.0
 70
     8
 71
     3
 72
     9
 73
     5
 74
     0
 42
0.000000001
 43
0.0000000001
 40
0.0
 40
0.0
 40
0.0
 40
0.0
 40
0.4568473124000001
 40
1.0
 40
1.0
 40
1.0
 40
1.0
 10
28.05042935095747
 20
21.25048201623444
 30
0.0
 10
28.07490661954274
 20
21.24757849925782
 30
0.0
 10
28.12677804704744
 20
21.22509271482835
 30
0.0
 10
28.16350024000663
 20
21.18400184812703
 30
0.0
 10
28.18028287194192
 20
21.15997788052045
 30
0.0
  0
SPLINE
  5
199
330
2
100
AcDbEntity
  8
0
  6
Continuous
 62
     7
100
AcDbSpline
210
0.0
220
0.0
230
1.0
 70
     8
 71
     3
 72
    10
 73
     6
 74
     0
 42
0.000000001
 43
0.0000000001
 40
0.0
 40
0.0
 40
0.0
 40
0.0
 40
0.2209091814
 40
0.4745330987
 40
1.0
 40
1.0
 40
1.0
 40
1.0
 10
28.49584103174139
 20
20.65775926996343
 30
0.0
 10
28.50464528094583
 20
20.64480517826664
 30
0.0
 10
28.51866253123089
 20
20.61362519239704
 30
0.0
 10
28.53272512640358
 20
20.54393120926614
 30
0.0
 10
28.52881584870551
 20
20.48699956176895
 30
0.0
 10
28.51860587434448
 20
20.45116945647353
 30
0.0
  0
SPLINE
  5
19A
330
2
100
AcDbEntity
  8
0
  6
Continuous
 62
     7
100
AcDbSpline
210
0.0
220
0.0
230
1.0
 70
     8
 71
     3
 72
     9
 73
     5
 74
     0
 42
0.000000001
 43
0.0000000001
 40
0.0
 40
0.0
 40
0.0
 40
0.0
 40
0.5444406558
 40
1.0
 40
1.0
 40
1.0
 40
1.0
 10
28.42970289728023
 20
20.13918012962423
 30
0.0
 10
28.42737897670483
 20
20.13102474002183
 30
0.0
 10
28.42663432504633
 20
20.11522186915584
 30
0.0
 10
28.43202754263011
 20
20.09927314269144
 30
0.0
 10
28.43716875801283
 20
20.09438273184204
 30
0.0
  0
SPLINE
  5
19B
330
2
100
AcDbEntity
  8
0
  6
Continuous
 62
     7
100
AcDbSpline
210
0.0
220
0.0
230
1.0
 70
     8
 71
     3
 72
     9
 73
     5
 74
     0
 42
0.000000001
 43
0.0000000001
 40
0.0
 40
0.0
 40
0.0
 40
0.0
 40
0.2187665496
 40
1.0
 40
1.0
 40
1.0
 40
1.0
 10
37.07160833193402
 20
12.69232069660434
 30
0.0
 10
37.08336232156764
 20
12.68787549476694
 30
0.0
 10
37.13451876184174
 20
12.66053637144562
 30
0.0
 10
37.1707795250704
 20
12.61164526156222
 30
0.0
 10
37.19196468656933
 20
12.57208474168224
 30
0.0
  0
LINE
  5
19C
330
2
100
AcDbEntity
  8
0
  6
Continuous
 62
     7
100
AcDbLine
 10
37.40869785248642
 20
12.06921899776194
 30
0.0
 11
37.41301671859714
 21
12.05883776354333
 31
0.0
  0
SPLINE
  5
19D
330
2
100
AcDbEntity
  8
0
  6
Continuous
 62
     7
100
AcDbSpline
210
0.0
220
0.0
230
1.0
 70
     8
 71
     3
 72
     9
 73
     5
 74
     0
 42
0.000000001
 43
0.0000000001
 40
0.0
 40
0.0
 40
0.0
 40
0.0
 40
0.4860782034000001
 40
1.0
 40
1.0
 40
1.0
 40
1.0
 10
37.41301671859714
 20
12.05883776354333
 30
0.0
 10
37.82231917372995
 20
11.07443444124323
 30
0.0
 10
38.54822411822051
 20
8.999844806499831
 30
0.0
 10
39.06761375716093
 20
6.865430274860345
 30
0.0
 10
39.2861537887482
 20
5.759645802435241
 30
0.0
  0
SPLINE
  5
19E
330
2
100
AcDbEntity
  8
0
  6
Continuous
 62
     7
100
AcDbSpline
210
0.0
220
0.0
230
1.0
 70
     8
 71
     3
 72
     9
 73
     5
 74
     0
 42
0.000000001
 43
0.0000000001
 40
0.0
 40
0.0
 40
0.0
 40
0.0
 40
0.2446176168
 40
1.0
 40
1.0
 40
1.0
 40
1.0
 10
39.2861537887482
 20
5.759645802435241
 30
0.0
 10
39.29563046249953
 20
5.711695051229628
 30
0.0
 10
39.32809470042054
 20
5.514469787416127
 30
0.0
 10
39.33691711013504
 20
5.313464603428736
 30
0.0
 10
39.21104836359631
 20
4.490911568102117
 30
0.0
  0
SPLINE
  5
19F
330
2
100
AcDbEntity
  8
0
  6
Continuous
 62
     7
100
AcDbSpline
210
0.0
220
0.0
230
1.0
 70
     8
 71
     3
 72
     9
 73
     5
 74
     0
 42
0.000000001
 43
0.0000000001
 40
0.0
 40
0.0
 40
0.0
 40
0.0
 40
0.5245354778
 40
1.0
 40
1.0
 40
1.0
 40
1.0
 10
39.20820437210344
 20
4.482626870586538
 30
0.0
 10
39.18257063206957
 20
4.408500725898241
 30
0.0
 10
39.12512741537595
 20
4.269933261424429
 30
0.0
 10
39.04763880600696
 20
4.141089513356341
 30
0.0
 10
39.00523948382647
 20
4.084020271724341
 30
0.0
  0
SPLINE
  5
1A0
330
2
100
AcDbEntity
  8
0
  6
Continuous
 62
     7
100
AcDbSpline
210
0.0
220
0.0
230
1.0
 70
     8
 71
     3
 72
     9
 73
     5
 74
     0
 42
0.000000001
 43
0.0000000001
 40
0.0
 40
0.0
 40
0.0
 40
0.0
 40
0.5393910119
 40
1.0
 40
1.0
 40
1.0
 40
1.0
 10
38.31558692014423
 20
3.155751922759723
 30
0.0
 10
38.29623305023176
 20
3.129701726154832
 30
0.0
 10
38.25461903383727
 20
3.084976297376028
 30
0.0
 10
38.19891398096194
 20
3.05730965749912
 30
0.0
 10
38.17184087702158
 20
3.051389474674722
 30
0.0
  0
SPLINE
  5
1A1
330
2
100
AcDbEntity
  8
0
  6
Continuous
 62
     7
100
AcDbSpline
210
0.0
220
0.0
230
1.0
 70
     8
 71
     3
 72
    12
 73
     8
 74
     0
 42
0.000000001
 43
0.0000000001
 40
0.0
 40
0.0
 40
0.0
 40
0.0
 40
0.1928023814
 40
0.3058435556
 40
0.4297246087
 40
0.7041060533
 40
1.0
 40
1.0
 40
1.0
 40
1.0
 10
23.63138191614105
 20
20.47545029855963
 30
0.0
 10
23.54133347574219
 20
20.43093385134564
 30
0.0
 10
23.41836066248476
 20
20.32013513416134
 30
0.0
 10
23.29237944376631
 20
20.13513761709445
 30
0.0
 10
23.1736050798013
 20
19.89562446624264
 30
0.0
 10
23.07260819881365
 20
19.54552960844573
 30
0.0
 10
23.04321433320252
 20
19.24817816749133
 30
0.0
 10
23.0411749242085
 20
19.09402919262503
 30
0.0
  0
SPLINE
  5
1A2
330
2
100
AcDbEntity
  8
0
  6
Continuous
 62
     7
100
AcDbSpline
210
0.0
220
0.0
230
1.0
 70
     8
 71
     3
 72
    11
 73
     7
 74
     0
 42
0.000000001
 43
0.0000000001
 40
0.0
 40
0.0
 40
0.0
 40
0.0
 40
0.2441569477
 40
0.4906967755
 40
0.7419487777000002
 40
1.0
 40
1.0
 40
1.0
 40
1.0
 10
27.11481726908797
 20
21.30172258002324
 30
0.0
 10
26.83506751254098
 20
21.30515422017023
 30
0.0
 10
26.27186948741687
 20
21.27850805617373
 30
0.0
 10
25.43145694867603
 20
21.13836057085793
 30
0.0
 10
24.59731450237756
 20
20.89880887813103
 30
0.0
 10
24.05612729476966
 20
20.67702413993155
 30
0.0
 10
23.78852892123163
 20
20.55122776516195
 30
0.0
  0
SPLINE
  5
1A3
330
2
100
AcDbEntity
  8
0
  6
Continuous
 62
     7
100
AcDbSpline
210
0.0
220
0.0
230
1.0
 70
     8
 71
     3
 72
     9
 73
     5
 74
     0
 42
0.000000001
 43
0.0000000001
 40
0.0
 40
0.0
 40
0.0
 40
0.0
 40
0.1990353409
 40
1.0
 40
1.0
 40
1.0
 40
1.0
 10
36.47537297413514
 20
12.45237228496012
 30
0.0
 10
36.47706181035271
 20
12.45235171172064
 30
0.0
 10
36.48561261127044
 20
12.45477996228382
 30
0.0
 10
36.4897837422529
 20
12.46398683878014
 30
0.0
 10
36.49164637215845
 20
12.47052341007685
 30
0.0
  0
SPLINE
  5
1A4
330
2
100
AcDbEntity
  8
0
  6
Continuous
 62
     7
100
AcDbSpline
210
0.0
220
0.0
230
1.0
 70
     8
 71
     3
 72
     9
 73
     5
 74
     0
 42
0.000000001
 43
0.0000000001
 40
0.0
 40
0.0
 40
0.0
 40
0.0
 40
0.4730512225
 40
1.0
 40
1.0
 40
1.0
 40
1.0
 10
38.13458117419929
 20
3.047548586252327
 30
0.0
 10
38.11094711196371
 20
3.047826280846424
 30
0.0
 10
38.06073262147464
 20
3.059991125746725
 30
0.0
 10
38.01953080710973
 20
3.090071050967044
 30
0.0
 10
38.00045414676584
 20
3.108217092305933
 30
0.0
  0
SPLINE
  5
1A5
330
2
100
AcDbEntity
  8
0
  6
Continuous
 62
     7
100
AcDbSpline
210
0.0
220
0.0
230
1.0
 70
     8
 71
     3
 72
    11
 73
     7
 74
     0
 42
0.000000001
 43
0.0000000001
 40
0.0
 40
0.0
 40
0.0
 40
0.0
 40
0.2585875941
 40
0.5100897570000002
 40
0.7564762198999999
 40
1.0
 40
1.0
 40
1.0
 40
1.0
 10
23.81806373011398
 20
20.47315416881002
 30
0.0
 10
24.08274879964995
 20
20.60400417436793
 30
0.0
 10
24.61811870827995
 20
20.83646303716914
 30
0.0
 10
25.44430967647154
 20
21.09422184350155
 30
0.0
 10
26.27742727576517
 20
21.25425952481123
 30
0.0
 10
26.83683280449317
 20
21.29532383692704
 30
0.0
 10
27.11486721409302
 20
21.29925250887804
 30
0.0
  0
SPLINE
  5
1A6
330
2
100
AcDbEntity
  8
0
  6
Continuous
 62
     7
100
AcDbSpline
210
0.0
220
0.0
230
1.0
 70
     8
 71
     3
 72
    11
 73
     7
 74
     0
 42
0.000000001
 43
0.0000000001
 40
0.0
 40
0.0
 40
0.0
 40
0.0
 40
0.3100651039
 40
0.5791373263000002
 40
0.8044838341
 40
1.0
 40
1.0
 40
1.0
 40
1.0
 10
36.5805493492117
 20
12.78251273692614
 30
0.0
 10
36.58422391209271
 20
12.79540796763175
 30
0.0
 10
36.5930605914347
 20
12.81902686704534
 30
0.0
 10
36.61202895423989
 20
12.84858203492603
 30
0.0
 10
36.63516738533636
 20
12.86839227264714
 30
0.0
 10
36.65356812150312
 20
12.87337838153603
 30
0.0
 10
36.66202263963314
 20
12.87329146826964
 30
0.0
  0
SPLINE
  5
1A7
330
2
100
AcDbEntity
  8
0
  6
Continuous
 62
     7
100
AcDbSpline
210
0.0
220
0.0
230
1.0
 70
     8
 71
     3
 72
     9
 73
     5
 74
     0
 42
0.000000001
 43
0.0000000001
 40
0.0
 40
0.0
 40
0.0
 40
0.0
 40
0.4608945989000002
 40
1.0
 40
1.0
 40
1.0
 40
1.0
 10
23.36657129020931
 20
17.02821348657024
 30
0.0
 10
23.34001766941032
 20
17.05347173890102
 30
0.0
 10
23.29242434324415
 20
17.11878855343764
 30
0.0
 10
23.26165281546314
 20
17.19266301814672
 30
0.0
 10
23.24853497441293
 20
17.23347347170852
 30
0.0
  0
SPLINE
  5
1A8
330
2
100
AcDbEntity
  8
0
  6
Continuous
 62
     7
100
AcDbSpline
210
0.0
220
0.0
230
1.0
 70
     8
 71
     3
 72
     9
 73
     5
 74
     0
 42
0.000000001
 43
0.0000000001
 40
0.0
 40
0.0
 40
0.0
 40
0.0
 40
0.238508008
 40
1.0
 40
1.0
 40
1.0
 40
1.0
 10
23.24853497441293
 20
17.23347347170852
 30
0.0
 10
23.24130191290366
 20
17.25597599476042
 30
0.0
 10
23.21551415417592
 20
17.35175389367663
 30
0.0
 10
23.20615874031012
 20
17.45168727629392
 30
0.0
 10
23.20715706061277
 20
17.52714543664434
 30
0.0
  0
SPLINE
  5
1A9
330
2
100
AcDbEntity
  8
0
  6
Continuous
 62
     7
100
AcDbSpline
210
0.0
220
0.0
230
1.0
 70
     8
 71
     3
 72
     9
 73
     5
 74
     0
 42
0.000000001
 43
0.0000000001
 40
0.0
 40
0.0
 40
0.0
 40
0.0
 40
0.253785468
 40
1.0
 40
1.0
 40
1.0
 40
1.0
 10
23.26123634522805
 20
19.47618272453483
 30
0.0
 10
23.26431466200761
 20
19.49502379199634
 30
0.0
 10
23.27730717345733
 20
19.56911923320773
 30
0.0
 10
23.29376801029873
 20
19.64261543716732
 30
0.0
 10
23.30813826383829
 20
19.69687848435834
 30
0.0
  0
SPLINE
  5
1AA
330
2
100
AcDbEntity
  8
0
  6
Continuous
 62
     7
100
AcDbSpline
210
0.0
220
0.0
230
1.0
 70
     8
 71
     3
 72
     9
 73
     5
 74
     0
 42
0.000000001
 43
0.0000000001
 40
0.0
 40
0.0
 40
0.0
 40
0.0
 40
0.2568015661
 40
1.0
 40
1.0
 40
1.0
 40
1.0
 10
23.40030456178177
 20
19.96643747177544
 30
0.0
 10
23.40606983135232
 20
19.97983580366512
 30
0.0
 10
23.42919759441613
 20
20.03171351016233
 30
0.0
 10
23.45507900840595
 20
20.08237949143104
 30
0.0
 10
23.47599977259998
 20
20.11904356089412
 30
0.0
  0
SPLINE
  5
1AB
330
2
100
AcDbEntity
  8
0
  6
Continuous
 62
     7
100
AcDbSpline
210
0.0
220
0.0
230
1.0
 70
     8
 71
     3
 72
     9
 73
     5
 74
     0
 42
0.000000001
 43
0.0000000001
 40
0.0
 40
0.0
 40
0.0
 40
0.0
 40
0.2584766216
 40
1.0
 40
1.0
 40
1.0
 40
1.0
 10
23.51746912877739
 20
20.18684109833575
 30
0.0
 10
23.52465635706579
 20
20.19779476598124
 30
0.0
 10
23.55315309444764
 20
20.23971120933504
 30
0.0
 10
23.58448665011588
 20
20.27973123632573
 30
0.0
 10
23.60941481252265
 20
20.30785951767684
 30
0.0
  0
SPLINE
  5
1AC
330
2
100
AcDbEntity
  8
0
  6
Continuous
 62
     7
100
AcDbSpline
210
0.0
220
0.0
230
1.0
 70
     8
 71
     3
 72
     9
 73
     5
 74
     0
 42
0.000000001
 43
0.0000000001
 40
0.0
 40
0.0
 40
0.0
 40
0.0
 40
0.2575564331
 40
1.0
 40
1.0
 40
1.0
 40
1.0
 10
23.60941481252265
 20
20.30785951767684
 30
0.0
 10
23.61618381667599
 20
20.31549748353203
 30
0.0
 10
23.64295462672391
 20
20.34471260038194
 30
0.0
 10
23.67174853305037
 20
20.37209916551394
 30
0.0
 10
23.6942580880411
 20
20.39104209780863
 30
0.0
  0
SPLINE
  5
1AD
330
2
100
AcDbEntity
  8
0
  6
Continuous
 62
     7
100
AcDbSpline
210
0.0
220
0.0
230
1.0
 70
     8
 71
     3
 72
     9
 73
     5
 74
     0
 42
0.000000001
 43
0.0000000001
 40
0.0
 40
0.0
 40
0.0
 40
0.0
 40
0.2601746347
 40
1.0
 40
1.0
 40
1.0
 40
1.0
 10
23.6942580880411
 20
20.39104209780863
 30
0.0
 10
23.70412880659747
 20
20.39934880814994
 30
0.0
 10
23.74290182203693
 20
20.43025481583863
 30
0.0
 10
23.78517821897678
 20
20.45689685092374
 30
0.0
 10
23.81806373011398
 20
20.47315416881002
 30
0.0
  0
SPLINE
  5
1AE
330
2
100
AcDbEntity
  8
0
  6
Continuous
 62
     7
100
AcDbSpline
210
0.0
220
0.0
230
1.0
 70
     8
 71
     3
 72
    11
 73
     7
 74
     0
 42
0.000000001
 43
0.0000000001
 40
0.0
 40
0.0
 40
0.0
 40
0.0
 40
0.221799478
 40
0.4566045228000001
 40
0.7144400108
 40
1.0
 40
1.0
 40
1.0
 40
1.0
 10
23.01333565637678
 20
3.233531554237436
 30
0.0
 10
23.02949004920229
 20
3.233339442885522
 30
0.0
 10
23.06298501122292
 20
3.238064493138823
 30
0.0
 10
23.11092752121133
 20
3.25973563192943
 30
0.0
 10
23.15589066661327
 20
3.29495582287194
 30
0.0
 10
23.18195707058355
 20
3.325041391609741
 30
0.0
 10
23.19436139657408
 20
3.341737571849924
 30
0.0
  0
SPLINE
  5
1AF
330
2
100
AcDbEntity
  8
0
  6
Continuous
 62
     7
100
AcDbSpline
210
0.0
220
0.0
230
1.0
 70
     8
 71
     3
 72
     9
 73
     5
 74
     0
 42
0.000000001
 43
0.0000000001
 40
0.0
 40
0.0
 40
0.0
 40
0.0
 40
0.2349009797
 40
1.0
 40
1.0
 40
1.0
 40
1.0
 10
1.87070899408507
 20
17.15648157406404
 30
0.0
 10
1.868370854010146
 20
17.15650878463733
 30
0.0
 10
1.858409256845466
 20
17.15769727800983
 30
0.0
 10
1.849405389048444
 20
17.16336840631585
 30
0.0
 10
1.843887073687571
 20
17.16861752103562
 30
0.0
  0
SPLINE
  5
1B0
330
2
100
AcDbEntity
  8
0
  6
Continuous
 62
     7
100
AcDbSpline
210
0.0
220
0.0
230
1.0
 70
     8
 71
     3
 72
     9
 73
     5
 74
     0
 42
0.000000001
 43
0.0000000001
 40
0.0
 40
0.0
 40
0.0
 40
0.0
 40
0.7387455206999999
 40
1.0
 40
1.0
 40
1.0
 40
1.0
 10
8.408052594086555
 20
17.07626341678644
 30
0.0
 10
8.412074587988827
 20
17.07664892988743
 30
0.0
 10
8.417463646102945
 20
17.07821743602233
 30
0.0
 10
8.422289994623222
 20
17.08079010460073
 30
0.0
 10
8.423517553413372
 20
17.08152140603394
 30
0.0
  0
SPLINE
  5
1B1
330
2
100
AcDbEntity
  8
0
  6
Continuous
 62
     7
100
AcDbSpline
210
0.0
220
0.0
230
1.0
 70
     8
 71
     3
 72
    11
 73
     7
 74
     0
 42
0.000000001
 43
0.0000000001
 40
0.0
 40
0.0
 40
0.0
 40
0.0
 40
0.1953721009
 40
0.4206457207
 40
0.6899420000000001
 40
1.0
 40
1.0
 40
1.0
 40
1.0
 10
9.040119914366188
 20
16.73611554756622
 30
0.0
 10
9.051404906488935
 20
16.73596134359123
 30
0.0
 10
9.07600662925093
 20
16.74249203731583
 30
0.0
 10
9.106984054028773
 20
16.76890373848763
 30
0.0
 10
9.132342058407754
 20
16.80838148633364
 30
0.0
 10
9.144169644682047
 20
16.83993773043502
 30
0.0
 10
9.149078111435192
 20
16.85716312929353
 30
0.0
  0
SPLINE
  5
1B2
330
2
100
AcDbEntity
  8
0
  6
Continuous
 62
     7
100
AcDbSpline
210
0.0
220
0.0
230
1.0
 70
     8
 71
     3
 72
    11
 73
     7
 74
     0
 42
0.000000001
 43
0.0000000001
 40
0.0
 40
0.0
 40
0.0
 40
0.0
 40
0.2855277099
 40
0.5551491787
 40
0.7957745579000001
 40
1.0
 40
1.0
 40
1.0
 40
1.0
 10
1.572765836173348
 20
19.35808509813262
 30
0.0
 10
1.574547890757071
 20
19.49277721423404
 30
0.0
 10
1.597624658211992
 20
19.75485325120312
 30
0.0
 10
1.68961661419417
 20
20.12073002547474
 30
0.0
 10
1.831365207532604
 20
20.42877387218693
 30
0.0
 10
1.965413722412798
 20
20.59531831189164
 30
0.0
 10
2.039127263051514
 20
20.65736032153343
 30
0.0
  0
SPLINE
  5
1B3
330
2
100
AcDbEntity
  8
0
  6
Continuous
 62
     7
100
AcDbSpline
210
0.0
220
0.0
230
1.0
 70
     8
 71
     3
 72
     9
 73
     5
 74
     0
 42
0.000000001
 43
0.0000000001
 40
0.0
 40
0.0
 40
0.0
 40
0.0
 40
0.2601773099
 40
1.0
 40
1.0
 40
1.0
 40
1.0
 10
2.039127263051514
 20
20.65736032153343
 30
0.0
 10
2.049000944919363
 20
20.66567064091763
 30
0.0
 10
2.087785552621629
 20
20.69658959848794
 30
0.0
 10
2.130076024206073
 20
20.72324207938344
 30
0.0
 10
2.162972780253745
 20
20.73950495901353
 30
0.0
  0
SPLINE
  5
1B4
330
2
100
AcDbEntity
  8
0
  6
Continuous
 62
     7
100
AcDbSpline
210
0.0
220
0.0
230
1.0
 70
     8
 71
     3
 72
    11
 73
     7
 74
     0
 42
0.000000001
 43
0.0000000001
 40
0.0
 40
0.0
 40
0.0
 40
0.0
 40
0.206130595
 40
0.4473785308
 40
0.7162298956999999
 40
1.0
 40
1.0
 40
1.0
 40
1.0
 10
1.843887073687571
 20
17.16861752103562
 30
0.0
 10
1.684792020983485
 20
17.31995142070613
 30
0.0
 10
1.636993191437475
 20
17.38568838662632
 30
0.0
 10
1.58764292753437
 20
17.50455228583314
 30
0.0
 10
1.557327216957719
 20
17.64379979236194
 30
0.0
 10
1.551394632347544
 20
17.74279638066684
 30
0.0
 10
1.55206544544072
 20
17.79349810259243
 30
0.0
  0
SPLINE
  5
1B5
330
2
100
AcDbEntity
  8
0
  6
Continuous
 62
     7
100
AcDbSpline
210
0.0
220
0.0
230
1.0
 70
     8
 71
     3
 72
    11
 73
     7
 74
     0
 42
0.000000001
 43
0.0000000001
 40
0.0
 40
0.0
 40
0.0
 40
0.0
 40
0.2585875619
 40
0.5100897109
 40
0.7564761979000001
 40
1.0
 40
1.0
 40
1.0
 40
1.0
 10
2.162972780253745
 20
20.73950495901353
 30
0.0
 10
2.42765788628647
 20
20.87035500430944
 30
0.0
 10
2.963027719725098
 20
21.10281430377353
 30
0.0
 10
3.789218752973799
 20
21.36057371648782
 30
0.0
 10
4.622336628735073
 20
21.52061160426863
 30
0.0
 10
5.181742418479613
 20
21.56167555353652
 30
0.0
 10
5.459776938269246
 20
21.56560401189024
 30
0.0
  0
SPLINE
  5
1B6
330
2
100
AcDbEntity
  8
0
  6
Continuous
 62
     7
100
AcDbSpline
210
0.0
220
0.0
230
1.0
 70
     8
 71
     3
 72
     9
 73
     5
 74
     0
 42
0.000000001
 43
0.0000000001
 40
0.0
 40
0.0
 40
0.0
 40
0.0
 40
0.2628752861
 40
1.0
 40
1.0
 40
1.0
 40
1.0
 10
8.538388150985849
 20
17.14995400087132
 30
0.0
 10
8.539881605014651
 20
17.15084370577584
 30
0.0
 10
8.545746415455687
 20
17.15389889192034
 30
0.0
 10
8.552458973589393
 20
17.15541509928414
 30
0.0
 10
8.557333221118337
 20
17.15535837424372
 30
0.0
  0
SPLINE
  5
1B7
330
2
100
AcDbEntity
  8
0
  6
Continuous
 62
     7
100
AcDbSpline
210
0.0
220
0.0
230
1.0
 70
     8
 71
     3
 72
     9
 73
     5
 74
     0
 42
0.000000001
 43
0.0000000001
 40
0.0
 40
0.0
 40
0.0
 40
0.0
 40
0.2349009797
 40
1.0
 40
1.0
 40
1.0
 40
1.0
 10
8.557333221118337
 20
17.15535837424372
 30
0.0
 10
8.559671361204365
 20
17.15533116367042
 30
0.0
 10
8.56963295835794
 20
17.15414267029793
 30
0.0
 10
8.578636826154964
 20
17.14847154199194
 30
0.0
 10
8.58415514152694
 20
17.14322242726103
 30
0.0
  0
SPLINE
  5
1B8
330
2
100
AcDbEntity
  8
0
  6
Continuous
 62
     7
100
AcDbSpline
210
0.0
220
0.0
230
1.0
 70
     8
 71
     3
 72
     9
 73
     5
 74
     0
 42
0.000000001
 43
0.0000000001
 40
0.0
 40
0.0
 40
0.0
 40
0.0
 40
0.5269421055
 40
1.0
 40
1.0
 40
1.0
 40
1.0
 10
22.87922841474879
 20
3.294202460832543
 30
0.0
 10
22.8983025231916
 20
3.276058846908233
 30
0.0
 10
22.93949725497936
 20
3.24598034908133
 30
0.0
 10
22.98970416295872
 20
3.233812584781142
 30
0.0
 10
23.01333565637678
 20
3.233531554237436
 30
0.0
  0
SPLINE
  5
1B9
330
2
100
AcDbEntity
  8
0
  6
Continuous
 62
     7
100
AcDbSpline
210
0.0
220
0.0
230
1.0
 70
     8
 71
     3
 72
     9
 73
     5
 74
     0
 42
0.000000001
 43
0.0000000001
 40
0.0
 40
0.0
 40
0.0
 40
0.0
 40
0.54871962
 40
1.0
 40
1.0
 40
1.0
 40
1.0
 10
22.71755549909921
 20
3.484791227586231
 30
0.0
 10
22.71971454110707
 20
3.471836329663122
 30
0.0
 10
22.72605766986219
 20
3.448560213667431
 30
0.0
 10
22.73899477728253
 20
3.427595063947725
 30
0.0
 10
22.74682100983811
 20
3.420150619421943
 30
0.0
  0
SPLINE
  5
1BA
330
2
100
AcDbEntity
  8
0
  6
Continuous
 62
     7
100
AcDbSpline
210
0.0
220
0.0
230
1.0
 70
     8
 71
     3
 72
    11
 73
     7
 74
     0
 42
0.000000001
 43
0.0000000001
 40
0.0
 40
0.0
 40
0.0
 40
0.0
 40
0.2687178763
 40
0.5429231149
 40
0.7937270604000001
 40
1.0
 40
1.0
 40
1.0
 40
1.0
 10
22.20085176563138
 20
4.442095714447741
 30
0.0
 10
22.19313932246138
 20
4.415030254644523
 30
0.0
 10
22.1844136939909
 20
4.358286993661126
 30
0.0
 10
22.18876673413784
 20
4.274675581379641
 30
0.0
 10
22.20910741367504
 20
4.200282714336231
 30
0.0
 10
22.23497152379708
 20
4.158335457571142
 30
0.0
 10
22.25062417047103
 20
4.143446395836829
 30
0.0
  0
SPLINE
  5
1BB
330
2
100
AcDbEntity
  8
0
  6
Continuous
 62
     7
100
AcDbSpline
210
0.0
220
0.0
230
1.0
 70
     8
 71
     3
 72
     9
 73
     5
 74
     0
 42
0.000000001
 43
0.0000000001
 40
0.0
 40
0.0
 40
0.0
 40
0.0
 40
0.5261732982
 40
1.0
 40
1.0
 40
1.0
 40
1.0
 10
8.986626554417497
 20
16.76038482556134
 30
0.0
 10
8.994225330457307
 20
16.75315674152514
 30
0.0
 10
9.010673882173863
 20
16.74119757083364
 30
0.0
 10
9.030676695282394
 20
16.73624458461114
 30
0.0
 10
9.040119914366188
 20
16.73611554756622
 30
0.0
  0
SPLINE
  5
1BC
330
2
100
AcDbEntity
  8
0
  6
Continuous
 62
     7
100
AcDbSpline
210
0.0
220
0.0
230
1.0
 70
     8
 71
     3
 72
     9
 73
     5
 74
     0
 42
0.000000001
 43
0.0000000001
 40
0.0
 40
0.0
 40
0.0
 40
0.0
 40
0.274868284
 40
1.0
 40
1.0
 40
1.0
 40
1.0
 10
8.377750562872281
 20
17.08825297964423
 30
0.0
 10
8.379730082116012
 20
17.08637002752564
 30
0.0
 10
8.387344802384486
 20
17.08001333347162
 30
0.0
 10
8.397365577822725
 20
17.07620090447244
 30
0.0
 10
8.404572483280885
 20
17.07611703266154
 30
0.0
  0
SPLINE
  5
1BD
330
2
100
AcDbEntity
  8
0
  6
Continuous
 62
     7
100
AcDbSpline
210
0.0
220
0.0
230
1.0
 70
     8
 71
     3
 72
    11
 73
     7
 74
     0
 42
0.000000001
 43
0.0000000001
 40
0.0
 40
0.0
 40
0.0
 40
0.0
 40
0.2837701043
 40
0.5526214692
 40
0.7938694050000002
 40
1.0
 40
1.0
 40
1.0
 40
1.0
 10
8.085928934636534
 20
17.71313356118993
 30
0.0
 10
8.085258121532254
 20
17.66243183926434
 30
0.0
 10
8.091190706153534
 20
17.56343525095944
 30
0.0
 10
8.121506416730182
 20
17.42418774443062
 30
0.0
 10
8.170856680633287
 20
17.30532384523493
 30
0.0
 10
8.218655510168192
 20
17.23958687931474
 30
0.0
 10
8.245343157972712
 20
17.21420113823363
 30
0.0
  0
SPLINE
  5
1BE
330
2
100
AcDbEntity
  8
0
  6
Continuous
 62
     7
100
AcDbSpline
210
0.0
220
0.0
230
1.0
 70
     8
 71
     3
 72
    12
 73
     8
 74
     0
 42
0.000000001
 43
0.0000000001
 40
0.0
 40
0.0
 40
0.0
 40
0.0
 40
0.1928008969
 40
0.3058422252
 40
0.4297239734
 40
0.7041073473
 40
1.0
 40
1.0
 40
1.0
 40
1.0
 10
8.696836269449557
 20
20.65914041761103
 30
0.0
 10
8.606788525520233
 20
20.61462430732643
 30
0.0
 10
8.483815272036711
 20
20.50382751016464
 30
0.0
 10
8.35783317141224
 20
20.31883085003994
 30
0.0
 10
8.239057666911127
 20
20.07931662489684
 30
0.0
 10
8.138061721087332
 20
19.72922060142234
 30
0.0
 10
8.108668796512027
 20
19.43186885626132
 30
0.0
 10
8.106629325369162
 20
19.27772055674123
 30
0.0
  0
SPLINE
  5
1BF
330
2
100
AcDbEntity
  8
0
  6
Continuous
 62
     7
100
AcDbSpline
210
0.0
220
0.0
230
1.0
 70
     8
 71
     3
 72
     9
 73
     5
 74
     0
 42
0.000000001
 43
0.0000000001
 40
0.0
 40
0.0
 40
0.0
 40
0.0
 40
0.45128038
 40
1.0
 40
1.0
 40
1.0
 40
1.0
 10
22.65309558337269
 20
3.760608794137139
 30
0.0
 10
22.66092181593939
 20
3.753164349622438
 30
0.0
 10
22.67385892335973
 20
3.732199199891626
 30
0.0
 10
22.68020205211485
 20
3.708923083907042
 30
0.0
 10
22.68236109412271
 20
3.695968185972826
 30
0.0
  0
SPLINE
  5
1C0
330
2
100
AcDbEntity
  8
0
  6
Continuous
 62
     7
100
AcDbSpline
210
0.0
220
0.0
230
1.0
 70
     8
 71
     3
 72
    11
 73
     7
 74
     0
 42
0.000000001
 43
0.0000000001
 40
0.0
 40
0.0
 40
0.0
 40
0.0
 40
0.2436178007
 40
0.4898480461000001
 40
0.7412308122
 40
1.0
 40
1.0
 40
1.0
 40
1.0
 10
12.1802443197598
 20
21.48541361443613
 30
0.0
 10
11.88696931129242
 20
21.48901021814333
 30
0.0
 10
11.29618135553862
 20
21.45934187667174
 30
0.0
 10
10.41514586080636
 20
21.30469623443662
 30
0.0
 10
9.541472325012421
 20
21.04085483116765
 30
0.0
 10
8.976111537848531
 20
20.79720327301012
 30
0.0
 10
8.696836269449557
 20
20.65914041761103
 30
0.0
  0
SPLINE
  5
1C1
330
2
100
AcDbEntity
  8
0
  6
Continuous
 62
     7
100
AcDbSpline
210
0.0
220
0.0
230
1.0
 70
     8
 71
     3
 72
     9
 73
     5
 74
     0
 42
0.000000001
 43
0.0000000001
 40
0.0
 40
0.0
 40
0.0
 40
0.0
 40
0.4730578945000001
 40
1.0
 40
1.0
 40
1.0
 40
1.0
 10
23.94674472626354
 20
3.222050905456133
 30
0.0
 10
23.92311323284538
 20
3.222331936010943
 30
0.0
 10
23.87290632486612
 20
3.234499700311132
 30
0.0
 10
23.83171159307837
 20
3.264578198138033
 30
0.0
 10
23.81263748462444
 20
3.282721812062345
 30
0.0
  0
SPLINE
  5
1C2
330
2
100
AcDbEntity
  8
0
  6
Continuous
 62
     7
100
AcDbSpline
210
0.0
220
0.0
230
1.0
 70
     8
 71
     3
 72
    11
 73
     7
 74
     0
 42
0.000000001
 43
0.0000000001
 40
0.0
 40
0.0
 40
0.0
 40
0.0
 40
0.221799478
 40
0.4566045228000001
 40
0.7144400108
 40
1.0
 40
1.0
 40
1.0
 40
1.0
 10
30.48060821544825
 20
3.14168636406474
 30
0.0
 10
30.49676260827375
 20
3.141494252723933
 30
0.0
 10
30.53025757030539
 20
3.146219302966128
 30
0.0
 10
30.5782000802827
 20
3.167890441756735
 30
0.0
 10
30.62316322569584
 20
3.203110632699245
 30
0.0
 10
30.64922962965492
 20
3.233196201437046
 30
0.0
 10
30.66163395564556
 20
3.249892381677231
 30
0.0
  0
SPLINE
  5
1C3
330
2
100
AcDbEntity
  8
0
  6
Continuous
 62
     7
100
AcDbSpline
210
0.0
220
0.0
230
1.0
 70
     8
 71
     3
 72
     9
 73
     5
 74
     0
 42
0.000000001
 43
0.0000000001
 40
0.0
 40
0.0
 40
0.0
 40
0.0
 40
0.2349009797
 40
1.0
 40
1.0
 40
1.0
 40
1.0
 10
9.337981553167644
 20
17.06463638389134
 30
0.0
 10
9.335643413081513
 20
17.06466359446463
 30
0.0
 10
9.325681815928039
 20
17.06585208783713
 30
0.0
 10
9.316677948119812
 20
17.07152321614312
 30
0.0
 10
9.311159632759039
 20
17.07677233087403
 30
0.0
  0
SPLINE
  5
1C4
330
2
100
AcDbEntity
  8
0
  6
Continuous
 62
     7
100
AcDbSpline
210
0.0
220
0.0
230
1.0
 70
     8
 71
     3
 72
     9
 73
     5
 74
     0
 42
0.000000001
 43
0.0000000001
 40
0.0
 40
0.0
 40
0.0
 40
0.0
 40
0.7387455206999999
 40
1.0
 40
1.0
 40
1.0
 40
1.0
 10
15.87532515315792
 20
16.98441822661372
 30
0.0
 10
15.87934714706019
 20
16.98480373971474
 30
0.0
 10
15.88473620517431
 20
16.98637224584964
 30
0.0
 10
15.88956255369459
 20
16.98894491442803
 30
0.0
 10
15.89079011248484
 20
16.98967621586124
 30
0.0
  0
SPLINE
  5
1C5
330
2
100
AcDbEntity
  8
0
  6
Continuous
 62
     7
100
AcDbSpline
210
0.0
220
0.0
230
1.0
 70
     8
 71
     3
 72
    11
 73
     7
 74
     0
 42
0.000000001
 43
0.0000000001
 40
0.0
 40
0.0
 40
0.0
 40
0.0
 40
0.1953721009
 40
0.4206457207
 40
0.6899420000000001
 40
1.0
 40
1.0
 40
1.0
 40
1.0
 10
16.50739247343766
 20
16.64427035740463
 30
0.0
 10
16.5186774655603
 20
16.64411615341854
 30
0.0
 10
16.5432791883223
 20
16.65064684714313
 30
0.0
 10
16.57425661310024
 20
16.67705854831493
 30
0.0
 10
16.59961461747912
 20
16.71653629616094
 30
0.0
 10
16.61144220375342
 20
16.74809254026233
 30
0.0
 10
16.61635067050656
 20
16.76531793912084
 30
0.0
  0
SPLINE
  5
1C6
330
2
100
AcDbEntity
  8
0
  6
Continuous
 62
     7
100
AcDbSpline
210
0.0
220
0.0
230
1.0
 70
     8
 71
     3
 72
    12
 73
     8
 74
     0
 42
0.000000001
 43
0.0000000001
 40
0.0
 40
0.0
 40
0.0
 40
0.0
 40
0.2958926527
 40
0.5702760266000002
 40
0.6941577748000001
 40
0.8071991030999999
 40
1.0
 40
1.0
 40
1.0
 40
1.0
 10
9.040038395244716
 20
19.26623990795992
 30
0.0
 10
9.042077866398686
 20
19.42038820749112
 30
0.0
 10
9.07147079097399
 20
19.71773995265214
 30
0.0
 10
9.172466736786683
 20
20.06783597612664
 30
0.0
 10
9.291242241287797
 20
20.30735020126974
 30
0.0
 10
9.417224341912266
 20
20.49234686139444
 30
0.0
 10
9.540197595395786
 20
20.60314365855623
 30
0.0
 10
9.630245339336216
 20
20.64765976884084
 30
0.0
  0
SPLINE
  5
1C7
330
2
100
AcDbEntity
  8
0
  6
Continuous
 62
     7
100
AcDbSpline
210
0.0
220
0.0
230
1.0
 70
     8
 71
     3
 72
    11
 73
     7
 74
     0
 42
0.000000001
 43
0.0000000001
 40
0.0
 40
0.0
 40
0.0
 40
0.0
 40
0.206130595
 40
0.4473785308
 40
0.7162298956999999
 40
1.0
 40
1.0
 40
1.0
 40
1.0
 10
9.178752227859373
 20
17.20272048946343
 30
0.0
 10
9.152064580054851
 20
17.22810623054454
 30
0.0
 10
9.104265750520047
 20
17.29384319645363
 30
0.0
 10
9.054915486616943
 20
17.41270709566042
 30
0.0
 10
9.024599776029086
 20
17.55195460218922
 30
0.0
 10
9.018667191418911
 20
17.65095119049414
 30
0.0
 10
9.019338004512087
 20
17.70165291241973
 30
0.0
  0
SPLINE
  5
1C8
330
2
100
AcDbEntity
  8
0
  6
Continuous
 62
     7
100
AcDbSpline
210
0.0
220
0.0
230
1.0
 70
     8
 71
     3
 72
    10
 73
     6
 74
     0
 42
0.000000001
 43
0.0000000001
 40
0.0
 40
0.0
 40
0.0
 40
0.0
 40
0.205307266
 40
0.4515546921000002
 40
1.0
 40
1.0
 40
1.0
 40
1.0
 10
23.1840332403577
 20
4.13196574706663
 30
0.0
 10
23.17059563060736
 20
4.144747828290544
 30
0.0
 10
23.14751545557459
 20
4.179572480334535
 30
0.0
 10
23.11903264357575
 20
4.265730168513523
 30
0.0
 10
23.11737497257269
 20
4.339861216382622
 30
0.0
 10
23.1251160230623
 20
4.388795131762122
 30
0.0
  0
SPLINE
  5
1C9
330
2
100
AcDbEntity
  8
0
  6
Continuous
 62
     7
100
AcDbSpline
210
0.0
220
0.0
230
1.0
 70
     8
 71
     3
 72
     9
 73
     5
 74
     0
 42
0.000000001
 43
0.0000000001
 40
0.0
 40
0.0
 40
0.0
 40
0.0
 40
0.45128038
 40
1.0
 40
1.0
 40
1.0
 40
1.0
 10
23.68023007972477
 20
3.408669970651745
 30
0.0
 10
23.67240384716919
 20
3.416114415177526
 30
0.0
 10
23.65946673973785
 20
3.437079564897232
 30
0.0
 10
23.65312361098272
 20
3.460355680892923
 30
0.0
 10
23.65096456898587
 20
3.473310578816033
 30
0.0
  0
SPLINE
  5
1CA
330
2
100
AcDbEntity
  8
0
  6
Continuous
 62
     7
100
AcDbSpline
210
0.0
220
0.0
230
1.0
 70
     8
 71
     3
 72
     9
 73
     5
 74
     0
 42
0.000000001
 43
0.0000000001
 40
0.0
 40
0.0
 40
0.0
 40
0.0
 40
0.2538138174
 40
1.0
 40
1.0
 40
1.0
 40
1.0
 10
10.34928856454799
 20
20.96357558488162
 30
0.0
 10
10.45985659086528
 20
21.00615095336182
 30
0.0
 10
10.89902293774576
 20
21.16450089492293
 30
0.0
 10
11.35231957307107
 20
21.28407407791374
 30
0.0
 10
11.69458372136049
 20
21.34876629213142
 30
0.0
  0
SPLINE
  5
1CB
330
2
100
AcDbEntity
  8
0
  6
Continuous
 62
     7
100
AcDbSpline
210
0.0
220
0.0
230
1.0
 70
     8
 71
     3
 72
     9
 73
     5
 74
     0
 42
0.000000001
 43
0.0000000001
 40
0.0
 40
0.0
 40
0.0
 40
0.0
 40
0.2628752861
 40
1.0
 40
1.0
 40
1.0
 40
1.0
 10
16.00566071006832
 20
17.05810881069863
 30
0.0
 10
16.00715416408602
 20
17.05899851560312
 30
0.0
 10
16.01301897452716
 20
17.06205370174762
 30
0.0
 10
16.01973153266076
 20
17.06356990911142
 30
0.0
 10
16.02460578020081
 20
17.06351318407103
 30
0.0
  0
SPLINE
  5
1CC
330
2
100
AcDbEntity
  8
0
  6
Continuous
 62
     7
100
AcDbSpline
210
0.0
220
0.0
230
1.0
 70
     8
 71
     3
 72
     9
 73
     5
 74
     0
 42
0.000000001
 43
0.0000000001
 40
0.0
 40
0.0
 40
0.0
 40
0.0
 40
0.54871962
 40
1.0
 40
1.0
 40
1.0
 40
1.0
 10
23.61577016399836
 20
3.684487537202627
 30
0.0
 10
23.61361112199041
 20
3.697442435125739
 30
0.0
 10
23.60726799323528
 20
3.720718551121428
 30
0.0
 10
23.59433088581505
 20
3.741683700841134
 30
0.0
 10
23.58650465325947
 20
3.749128145366941
 30
0.0
  0
SPLINE
  5
1CD
330
2
100
AcDbEntity
  8
0
  6
Continuous
 62
     7
100
AcDbSpline
210
0.0
220
0.0
230
1.0
 70
     8
 71
     3
 72
     9
 73
     5
 74
     0
 42
0.000000001
 43
0.0000000001
 40
0.0
 40
0.0
 40
0.0
 40
0.0
 40
0.2349009797
 40
1.0
 40
1.0
 40
1.0
 40
1.0
 10
16.02460578020081
 20
17.06351318407103
 30
0.0
 10
16.02694392027584
 20
17.06348597349773
 30
0.0
 10
16.03690551742931
 20
17.06229748012524
 30
0.0
 10
16.04590938523754
 20
17.05662635181924
 30
0.0
 10
16.05142770059831
 20
17.05137723708834
 30
0.0
  0
SPLINE
  5
1CE
330
2
100
AcDbEntity
  8
0
  6
Continuous
 62
     7
100
AcDbSpline
210
0.0
220
0.0
230
1.0
 70
     8
 71
     3
 72
     9
 73
     5
 74
     0
 42
0.000000001
 43
0.0000000001
 40
0.0
 40
0.0
 40
0.0
 40
0.0
 40
0.5269421055
 40
1.0
 40
1.0
 40
1.0
 40
1.0
 10
30.34650097382026
 20
3.202357270670928
 30
0.0
 10
30.36557508227408
 20
3.184213656735538
 30
0.0
 10
30.40676981405083
 20
3.154135158919741
 30
0.0
 10
30.4569767220412
 20
3.141967394608423
 30
0.0
 10
30.48060821544825
 20
3.14168636406474
 30
0.0
  0
SPLINE
  5
1CF
330
2
100
AcDbEntity
  8
0
  6
Continuous
 62
     7
100
AcDbSpline
210
0.0
220
0.0
230
1.0
 70
     8
 71
     3
 72
     9
 73
     5
 74
     0
 42
0.000000001
 43
0.0000000001
 40
0.0
 40
0.0
 40
0.0
 40
0.0
 40
0.54871962
 40
1.0
 40
1.0
 40
1.0
 40
1.0
 10
30.18482805817058
 20
3.392946037424641
 30
0.0
 10
30.18698710017854
 20
3.379991139490426
 30
0.0
 10
30.19333022893356
 20
3.356715023505842
 30
0.0
 10
30.2062673363539
 20
3.335749873775029
 30
0.0
 10
30.21409356892059
 20
3.328305429260328
 30
0.0
  0
SPLINE
  5
1D0
330
2
100
AcDbEntity
  8
0
  6
Continuous
 62
     7
100
AcDbSpline
210
0.0
220
0.0
230
1.0
 70
     8
 71
     3
 72
    11
 73
     7
 74
     0
 42
0.000000001
 43
0.0000000001
 40
0.0
 40
0.0
 40
0.0
 40
0.0
 40
0.2687178763
 40
0.5429231149
 40
0.7937270604000001
 40
1.0
 40
1.0
 40
1.0
 40
1.0
 10
29.66812432470285
 20
4.350250524275021
 30
0.0
 10
29.66041188154396
 20
4.323185064471828
 30
0.0
 10
29.65168625306237
 20
4.26644180348843
 30
0.0
 10
29.6560392932092
 20
4.182830391206945
 30
0.0
 10
29.67637997274641
 20
4.108437524163536
 30
0.0
 10
29.70224408286855
 20
4.066490267409529
 30
0.0
 10
29.71789672954241
 20
4.051601205664136
 30
0.0
  0
SPLINE
  5
1D1
330
2
100
AcDbEntity
  8
0
  6
Continuous
 62
     7
100
AcDbSpline
210
0.0
220
0.0
230
1.0
 70
     8
 71
     3
 72
     9
 73
     5
 74
     0
 42
0.000000001
 43
0.0000000001
 40
0.0
 40
0.0
 40
0.0
 40
0.0
 40
0.5261732982
 40
1.0
 40
1.0
 40
1.0
 40
1.0
 10
16.45389911349997
 20
16.66853963539973
 30
0.0
 10
16.46149788953978
 20
16.66131155136354
 30
0.0
 10
16.47794644124533
 20
16.64935238066094
 30
0.0
 10
16.49794925436487
 20
16.64439939443842
 30
0.0
 10
16.50739247343766
 20
16.64427035740463
 30
0.0
  0
SPLINE
  5
1D2
330
2
100
AcDbEntity
  8
0
  6
Continuous
 62
     7
100
AcDbSpline
210
0.0
220
0.0
230
1.0
 70
     8
 71
     3
 72
     9
 73
     5
 74
     0
 42
0.000000001
 43
0.0000000001
 40
0.0
 40
0.0
 40
0.0
 40
0.0
 40
0.274868284
 40
1.0
 40
1.0
 40
1.0
 40
1.0
 10
15.84502312195485
 20
16.99640778947153
 30
0.0
 10
15.84700264118738
 20
16.99452483735294
 30
0.0
 10
15.85461736145595
 20
16.98816814329893
 30
0.0
 10
15.86463813689409
 20
16.98435571431082
 30
0.0
 10
15.87184504235235
 20
16.98427184248884
 30
0.0
  0
SPLINE
  5
1D3
330
2
100
AcDbEntity
  8
0
  6
Continuous
 62
     7
100
AcDbSpline
210
0.0
220
0.0
230
1.0
 70
     8
 71
     3
 72
    11
 73
     7
 74
     0
 42
0.000000001
 43
0.0000000001
 40
0.0
 40
0.0
 40
0.0
 40
0.0
 40
0.2837701043
 40
0.5526214692
 40
0.7938694050000002
 40
1.0
 40
1.0
 40
1.0
 40
1.0
 10
15.5532014937079
 20
17.62128837101724
 30
0.0
 10
15.55253068060362
 20
17.57058664909162
 30
0.0
 10
15.5584632652249
 20
17.47159006079783
 30
0.0
 10
15.58877897580165
 20
17.33234255425793
 30
0.0
 10
15.63812923970476
 20
17.21347865506224
 30
0.0
 10
15.68592806923956
 20
17.14774168914202
 30
0.0
 10
15.71261571704408
 20
17.12235594806093
 30
0.0
  0
SPLINE
  5
1D4
330
2
100
AcDbEntity
  8
0
  6
Continuous
 62
     7
100
AcDbSpline
210
0.0
220
0.0
230
1.0
 70
     8
 71
     3
 72
    12
 73
     8
 74
     0
 42
0.000000001
 43
0.0000000001
 40
0.0
 40
0.0
 40
0.0
 40
0.0
 40
0.1928008969
 40
0.3058422252
 40
0.4297239734
 40
0.7041073473
 40
1.0
 40
1.0
 40
1.0
 40
1.0
 10
16.16410882852093
 20
20.56729522743834
 30
0.0
 10
16.0740610845916
 20
20.52277911715373
 30
0.0
 10
15.95108783110808
 20
20.41198231999192
 30
0.0
 10
15.82510573048361
 20
20.22698565986724
 30
0.0
 10
15.7063302259825
 20
19.98747143472412
 30
0.0
 10
15.6053342801587
 20
19.63737541124964
 30
0.0
 10
15.5759413555834
 20
19.34002366608863
 30
0.0
 10
15.57390188444053
 20
19.18587536656853
 30
0.0
  0
SPLINE
  5
1D5
330
2
100
AcDbEntity
  8
0
  6
Continuous
 62
     7
100
AcDbSpline
210
0.0
220
0.0
230
1.0
 70
     8
 71
     3
 72
     9
 73
     5
 74
     0
 42
0.000000001
 43
0.0000000001
 40
0.0
 40
0.0
 40
0.0
 40
0.0
 40
0.45128038
 40
1.0
 40
1.0
 40
1.0
 40
1.0
 10
30.12036814244417
 20
3.668763603964444
 30
0.0
 10
30.12819437501076
 20
3.661319159449743
 30
0.0
 10
30.14113148243109
 20
3.640354009718931
 30
0.0
 10
30.14747461118622
 20
3.617077893734321
 30
0.0
 10
30.14963365319408
 20
3.604122995800131
 30
0.0
  0
SPLINE
  5
1D6
330
2
100
AcDbEntity
  8
0
  6
Continuous
 62
     7
100
AcDbSpline
210
0.0
220
0.0
230
1.0
 70
     8
 71
     3
 72
    11
 73
     7
 74
     0
 42
0.000000001
 43
0.0000000001
 40
0.0
 40
0.0
 40
0.0
 40
0.0
 40
0.2436178007
 40
0.4898480461000001
 40
0.7412308122
 40
1.0
 40
1.0
 40
1.0
 40
1.0
 10
19.64751687883117
 20
21.39356842426343
 30
0.0
 10
19.35424187036379
 20
21.39716502797064
 30
0.0
 10
18.76345391461
 20
21.36749668649905
 30
0.0
 10
17.88241841987774
 20
21.21285104426393
 30
0.0
 10
17.00874488408379
 20
20.94900964099493
 30
0.0
 10
16.4433840969199
 20
20.70535808283743
 30
0.0
 10
16.16410882852093
 20
20.56729522743834
 30
0.0
  0
SPLINE
  5
1D7
330
2
100
AcDbEntity
  8
0
  6
Continuous
 62
     7
100
AcDbSpline
210
0.0
220
0.0
230
1.0
 70
     8
 71
     3
 72
     9
 73
     5
 74
     0
 42
0.000000001
 43
0.0000000001
 40
0.0
 40
0.0
 40
0.0
 40
0.0
 40
0.4730578945000001
 40
1.0
 40
1.0
 40
1.0
 40
1.0
 10
31.41401728533491
 20
3.130205715294541
 30
0.0
 10
31.39038579191685
 20
3.130486745838223
 30
0.0
 10
31.34017888393749
 20
3.142654510138437
 30
0.0
 10
31.29898415214973
 20
3.172733007965338
 30
0.0
 10
31.27991004370692
 20
3.190876621889625
 30
0.0
  0
SPLINE
  5
1D8
330
2
100
AcDbEntity
  8
0
  6
Continuous
 62
     7
100
AcDbSpline
210
0.0
220
0.0
230
1.0
 70
     8
 71
     3
 72
     9
 73
     5
 74
     0
 42
0.000000001
 43
0.0000000001
 40
0.0
 40
0.0
 40
0.0
 40
0.0
 40
0.2349009797
 40
1.0
 40
1.0
 40
1.0
 40
1.0
 10
16.80525411223901
 20
16.97279119371864
 30
0.0
 10
16.80291597215288
 20
16.97281840429194
 30
0.0
 10
16.79295437499941
 20
16.97400689766444
 30
0.0
 10
16.78395050720229
 20
16.97967802597043
 30
0.0
 10
16.77843219183041
 20
16.98492714070134
 30
0.0
  0
SPLINE
  5
1D9
330
2
100
AcDbEntity
  8
0
  6
Continuous
 62
     7
100
AcDbSpline
210
0.0
220
0.0
230
1.0
 70
     8
 71
     3
 72
    12
 73
     8
 74
     0
 42
0.000000001
 43
0.0000000001
 40
0.0
 40
0.0
 40
0.0
 40
0.0
 40
0.2958926527
 40
0.5702760266000002
 40
0.6941577748000001
 40
0.8071991030999999
 40
1.0
 40
1.0
 40
1.0
 40
1.0
 10
16.50731095432719
 20
19.17439471779833
 30
0.0
 10
16.50935042547016
 20
19.32854301731843
 30
0.0
 10
16.53874335004536
 20
19.62589476247944
 30
0.0
 10
16.63973929586926
 20
19.97599078595395
 30
0.0
 10
16.75851480037026
 20
20.21550501109704
 30
0.0
 10
16.88449690099484
 20
20.40050167122175
 30
0.0
 10
17.00747015447826
 20
20.51129846838353
 30
0.0
 10
17.09751789840758
 20
20.55581457866814
 30
0.0
  0
SPLINE
  5
1DA
330
2
100
AcDbEntity
  8
0
  6
Continuous
 62
     7
100
AcDbSpline
210
0.0
220
0.0
230
1.0
 70
     8
 71
     3
 72
    11
 73
     7
 74
     0
 42
0.000000001
 43
0.0000000001
 40
0.0
 40
0.0
 40
0.0
 40
0.0
 40
0.206130595
 40
0.4473785308
 40
0.7162298956999999
 40
1.0
 40
1.0
 40
1.0
 40
1.0
 10
16.64602478693084
 20
17.11087529929073
 30
0.0
 10
16.61933713912632
 20
17.13626104037182
 30
0.0
 10
16.57153830959142
 20
17.20199800629204
 30
0.0
 10
16.52218804568831
 20
17.32086190548773
 30
0.0
 10
16.49187233511166
 20
17.46010941202763
 30
0.0
 10
16.48593975049028
 20
17.55910600032145
 30
0.0
 10
16.48661056359466
 20
17.60980772224703
 30
0.0
  0
SPLINE
  5
1DB
330
2
100
AcDbEntity
  8
0
  6
Continuous
 62
     7
100
AcDbSpline
210
0.0
220
0.0
230
1.0
 70
     8
 71
     3
 72
    10
 73
     6
 74
     0
 42
0.000000001
 43
0.0000000001
 40
0.0
 40
0.0
 40
0.0
 40
0.0
 40
0.205307266
 40
0.4515546921000002
 40
1.0
 40
1.0
 40
1.0
 40
1.0
 10
30.65130579942918
 20
4.040120556893937
 30
0.0
 10
30.63786818967883
 20
4.052902638117823
 30
0.0
 10
30.61478801464606
 20
4.087727290161841
 30
0.0
 10
30.58630520265822
 20
4.173884978340828
 30
0.0
 10
30.58464753164416
 20
4.24801602620993
 30
0.0
 10
30.59238858213367
 20
4.296949941589428
 30
0.0
  0
SPLINE
  5
1DC
330
2
100
AcDbEntity
  8
0
  6
Continuous
 62
     7
100
AcDbSpline
210
0.0
220
0.0
230
1.0
 70
     8
 71
     3
 72
     9
 73
     5
 74
     0
 42
0.000000001
 43
0.0000000001
 40
0.0
 40
0.0
 40
0.0
 40
0.0
 40
0.45128038
 40
1.0
 40
1.0
 40
1.0
 40
1.0
 10
31.14750263879625
 20
3.316824780490131
 30
0.0
 10
31.13967640624066
 20
3.324269225004832
 30
0.0
 10
31.12673929882032
 20
3.345234374724538
 30
0.0
 10
31.1203961700652
 20
3.368510490720228
 30
0.0
 10
31.11823712805734
 20
3.381465388654443
 30
0.0
  0
SPLINE
  5
1DD
330
2
100
AcDbEntity
  8
0
  6
Continuous
 62
     7
100
AcDbSpline
210
0.0
220
0.0
230
1.0
 70
     8
 71
     3
 72
     9
 73
     5
 74
     0
 42
0.000000001
 43
0.0000000001
 40
0.0
 40
0.0
 40
0.0
 40
0.0
 40
0.2538138174
 40
1.0
 40
1.0
 40
1.0
 40
1.0
 10
17.81656112361936
 20
20.87173039470893
 30
0.0
 10
17.92712914993664
 20
20.91430576318913
 30
0.0
 10
18.36629549681713
 20
21.07265570475023
 30
0.0
 10
18.81959213215364
 20
21.19222888774104
 30
0.0
 10
19.16185628044307
 20
21.25692110195873
 30
0.0
  0
SPLINE
  5
1DE
330
2
100
AcDbEntity
  8
0
  6
Continuous
 62
     7
100
AcDbSpline
210
0.0
220
0.0
230
1.0
 70
     8
 71
     3
 72
     9
 73
     5
 74
     0
 42
0.000000001
 43
0.0000000001
 40
0.0
 40
0.0
 40
0.0
 40
0.0
 40
0.54871962
 40
1.0
 40
1.0
 40
1.0
 40
1.0
 10
31.08304272308084
 20
3.592642347029933
 30
0.0
 10
31.08088368107288
 20
3.605597244964123
 30
0.0
 10
31.07454055231785
 20
3.628873360948733
 30
0.0
 10
31.06160344489752
 20
3.649838510679546
 30
0.0
 10
31.05377721233083
 20
3.657282955194246
 30
0.0
  0
SPLINE
  5
1DF
330
2
100
AcDbEntity
  8
0
  6
Continuous
 62
     7
100
AcDbSpline
210
0.0
220
0.0
230
1.0
 70
     8
 71
     3
 72
     9
 73
     5
 74
     0
 42
0.000000001
 43
0.0000000001
 40
0.0
 40
0.0
 40
0.0
 40
0.0
 40
0.2378396545
 40
1.0
 40
1.0
 40
1.0
 40
1.0
 10
23.6313813875923
 20
20.47545003726564
 30
0.0
 10
23.61750899745767
 20
20.46859206590183
 30
0.0
 10
23.56044599391463
 20
20.43721086418284
 30
0.0
 10
23.50880032313833
 20
20.39645036783603
 30
0.0
 10
23.47288915221195
 20
20.36225192053824
 30
0.0
  0
SPLINE
  5
1E0
330
2
100
AcDbEntity
  8
0
  6
Continuous
 62
     7
100
AcDbSpline
210
0.0
220
0.0
230
1.0
 70
     8
 71
     3
 72
     9
 73
     5
 74
     0
 42
0.000000001
 43
0.0000000001
 40
0.0
 40
0.0
 40
0.0
 40
0.0
 40
0.2431112376
 40
1.0
 40
1.0
 40
1.0
 40
1.0
 10
23.47288915221195
 20
20.36225192053824
 30
0.0
 10
23.46609250048926
 20
20.35577942383613
 30
0.0
 10
23.43860905996306
 20
20.32866052079632
 30
0.0
 10
23.41299850424381
 20
20.29966358410343
 30
0.0
 10
23.39463005713332
 20
20.27693857756884
 30
0.0
  0
SPLINE
  5
1E1
330
2
100
AcDbEntity
  8
0
  6
Continuous
 62
     7
100
AcDbSpline
210
0.0
220
0.0
230
1.0
 70
     8
 71
     3
 72
     9
 73
     5
 74
     0
 42
0.000000001
 43
0.0000000001
 40
0.0
 40
0.0
 40
0.0
 40
0.0
 40
0.2442068192
 40
1.0
 40
1.0
 40
1.0
 40
1.0
 10
23.39463005713332
 20
20.27693857756884
 30
0.0
 10
23.38908346905126
 20
20.27007647051152
 30
0.0
 10
23.36674369628616
 20
20.24167659747955
 30
0.0
 10
23.3458748702131
 20
20.21212723275655
 30
0.0
 10
23.33089032424754
 20
20.18929813848053
 30
0.0
  0
SPLINE
  5
1E2
330
2
100
AcDbEntity
  8
0
  6
Continuous
 62
     7
100
AcDbSpline
210
0.0
220
0.0
230
1.0
 70
     8
 71
     3
 72
     9
 73
     5
 74
     0
 42
0.000000001
 43
0.0000000001
 40
0.0
 40
0.0
 40
0.0
 40
0.0
 40
0.2396590067
 40
1.0
 40
1.0
 40
1.0
 40
1.0
 10
23.33089032424754
 20
20.18929813848053
 30
0.0
 10
23.3202831452332
 20
20.17313800322545
 30
0.0
 10
23.27765753566663
 20
20.10464021990844
 30
0.0
 10
23.24131799173094
 20
20.03231141336065
 30
0.0
 10
23.21680836203919
 20
19.97609466583673
 30
0.0
  0
SPLINE
  5
1E3
330
2
100
AcDbEntity
  8
0
  6
Continuous
 62
     7
100
AcDbSpline
210
0.0
220
0.0
230
1.0
 70
     8
 71
     3
 72
     9
 73
     5
 74
     0
 42
0.000000001
 43
0.0000000001
 40
0.0
 40
0.0
 40
0.0
 40
0.0
 40
0.2430011845
 40
1.0
 40
1.0
 40
1.0
 40
1.0
 10
23.20165442191514
 20
19.94021465604022
 30
0.0
 10
23.19385513286682
 20
19.92114771597744
 30
0.0
 10
23.16315248468171
 20
19.84211708901412
 30
0.0
 10
23.13782841282518
 20
19.76102663597214
 30
0.0
 10
23.12140530375165
 20
19.69898911919963
 30
0.0
  0
SPLINE
  5
1E4
330
2
100
AcDbEntity
  8
0
  6
Continuous
 62
     7
100
AcDbSpline
210
0.0
220
0.0
230
1.0
 70
     8
 71
     3
 72
     9
 73
     5
 74
     0
 42
0.000000001
 43
0.0000000001
 40
0.0
 40
0.0
 40
0.0
 40
0.0
 40
0.24656259
 40
1.0
 40
1.0
 40
1.0
 40
1.0
 10
24.67480910731154
 20
20.90845481060963
 30
0.0
 10
24.58678459757833
 20
20.87879458728954
 30
0.0
 10
24.23189719574502
 20
20.75227040823052
 30
0.0
 10
23.88582841009026
 20
20.60123877135023
 30
0.0
 10
23.6313813875923
 20
20.47545003726564
 30
0.0
  0
LINE
  5
1E5
330
2
100
AcDbEntity
  8
0
  6
Continuous
 62
     7
100
AcDbLine
 10
36.46888573604471
 20
12.87522741056723
 30
0.0
 11
36.46872934397111
 21
12.87520795647414
 31
0.0
  0
SPLINE
  5
1E6
330
2
100
AcDbEntity
  8
0
  6
Continuous
 62
     7
100
AcDbSpline
210
0.0
220
0.0
230
1.0
 70
     8
 71
     3
 72
    14
 73
    10
 74
     0
 42
0.000000001
 43
0.0000000001
 40
0.0
 40
0.0
 40
0.0
 40
0.0
 40
0.111608951
 40
0.2451570091
 40
0.5436176354
 40
0.6871252958000002
 40
0.8125676062
 40
0.9151420549
 40
1.0
 40
1.0
 40
1.0
 40
1.0
 10
36.35178829286919
 20
13.11778188722664
 30
0.0
 10
36.35834901545726
 20
13.11154121715472
 30
0.0
 10
36.36967518204193
 20
13.09463148765533
 30
0.0
 10
36.38391219292417
 20
13.05265336577512
 30
0.0
 10
36.38556162832646
 20
13.00467830139593
 30
0.0
 10
36.37514900217592
 20
12.95962334404224
 30
0.0
 10
36.36199937282356
 20
12.93216984798593
 30
0.0
 10
36.34443772021086
 20
12.91300727302043
 30
0.0
 10
36.32907919918363
 20
12.90783659976954
 30
0.0
 10
36.32219538216909
 20
12.90793242896664
 30
0.0
  0
SPLINE
  5
1E7
330
2
100
AcDbEntity
  8
0
  6
Continuous
 62
     7
100
AcDbSpline
210
0.0
220
0.0
230
1.0
 70
     8
 71
     3
 72
     9
 73
     5
 74
     0
 42
0.000000001
 43
0.0000000001
 40
0.0
 40
0.0
 40
0.0
 40
0.0
 40
0.220126522
 40
1.0
 40
1.0
 40
1.0
 40
1.0
 10
35.66895395500268
 20
13.76730543570442
 30
0.0
 10
35.66634184819104
 20
13.76979011579274
 30
0.0
 10
35.65553485310394
 20
13.78219052416044
 30
0.0
 10
35.64867912589372
 20
13.79759419207342
 30
0.0
 10
35.64489464249873
 20
13.80979293010222
 30
0.0
  0
SPLINE
  5
1E8
330
2
100
AcDbEntity
  8
0
  6
Continuous
 62
     7
100
AcDbSpline
210
0.0
220
0.0
230
1.0
 70
     8
 71
     3
 72
     9
 73
     5
 74
     0
 42
0.000000001
 43
0.0000000001
 40
0.0
 40
0.0
 40
0.0
 40
0.0
 40
0.4769923634000002
 40
1.0
 40
1.0
 40
1.0
 40
1.0
 10
31.05725917428346
 20
30.77581287772944
 30
0.0
 10
31.23974882690289
 20
30.77356831028812
 30
0.0
 10
31.62439290632773
 20
30.88784523850194
 30
0.0
 10
31.92085920908414
 20
31.14710491025545
 30
0.0
 10
32.04296569302705
 20
31.30564139404313
 30
0.0
  0
SPLINE
  5
1E9
330
2
100
AcDbEntity
  8
0
  6
Continuous
 62
     7
100
AcDbSpline
210
0.0
220
0.0
230
1.0
 70
     8
 71
     3
 72
    14
 73
    10
 74
     0
 42
0.000000001
 43
0.0000000001
 40
0.0
 40
0.0
 40
0.0
 40
0.0
 40
0.2792572822
 40
0.4152380922
 40
0.5454307317
 40
0.6684913818
 40
0.7842313095000001
 40
0.8938669312
 40
1.0
 40
1.0
 40
1.0
 40
1.0
 10
32.04296569302705
 20
31.30564139404313
 30
0.0
 10
32.8268939042029
 20
32.32345157192514
 30
0.0
 10
34.2488146424317
 20
33.66437363480904
 30
0.0
 10
36.4477426017655
 20
34.89101983196005
 30
0.0
 10
38.15090735527583
 20
35.47836263909994
 30
0.0
 10
39.8448222928277
 20
35.70970353770663
 30
0.0
 10
41.45698374171461
 20
35.57002080639382
 30
0.0
 10
42.91198866081191
 20
35.05865852557104
 30
0.0
 10
43.73485593492445
 20
34.47575992984884
 30
0.0
 10
44.08864020936722
 20
34.13925602263015
 30
0.0
  0
SPLINE
  5
1EA
330
2
100
AcDbEntity
  8
0
  6
Continuous
 62
     7
100
AcDbSpline
210
0.0
220
0.0
230
1.0
 70
     8
 71
     3
 72
    14
 73
    10
 74
     0
 42
0.000000001
 43
0.0000000001
 40
0.0
 40
0.0
 40
0.0
 40
0.0
 40
0.2751690431
 40
0.4122579101
 40
0.5443411622
 40
0.6691171025
 40
0.7856819771
 40
0.8949955624999999
 40
1.0
 40
1.0
 40
1.0
 40
1.0
 10
33.9964580507881
 20
28.75823120891063
 30
0.0
 10
34.37815878293978
 20
29.46975041853624
 30
0.0
 10
35.16205521668056
 20
30.43712067587363
 30
0.0
 10
36.4642043659121
 20
31.37224627819853
 30
0.0
 10
37.52034320946135
 20
31.86181627769455
 30
0.0
 10
38.59700123871855
 20
32.10864319915463
 30
0.0
 10
39.6372565821229
 20
32.09568393274882
 30
0.0
 10
40.58129406978602
 20
31.81716576843235
 30
0.0
 10
41.11149073837895
 20
31.45607923197233
 30
0.0
 10
41.33474930843789
 20
31.24372990004394
 30
0.0
  0
SPLINE
  5
1EB
330
2
100
AcDbEntity
  8
0
  6
Continuous
 62
     7
100
AcDbSpline
210
0.0
220
0.0
230
1.0
 70
     8
 71
     3
 72
    10
 73
     6
 74
     0
 42
0.000000001
 43
0.0000000001
 40
0.0
 40
0.0
 40
0.0
 40
0.0
 40
0.5279559091000002
 40
0.7686946885
 40
1.0
 40
1.0
 40
1.0
 40
1.0
 10
38.92161464418592
 20
30.10965625561945
 30
0.0
 10
38.93839191104701
 20
30.16853311631183
 30
0.0
 10
38.94625531863498
 20
30.26207486043233
 30
0.0
 10
38.90740575291141
 20
30.37281917643895
 30
0.0
 10
38.87375388932712
 20
30.41740214449886
 30
0.0
 10
38.85432446127076
 20
30.43589263619813
 30
0.0
  0
SPLINE
  5
1EC
330
2
100
AcDbEntity
  8
0
  6
Continuous
 62
     7
100
AcDbSpline
210
0.0
220
0.0
230
1.0
 70
     8
 71
     3
 72
    10
 73
     6
 74
     0
 42
0.000000001
 43
0.0000000001
 40
0.0
 40
0.0
 40
0.0
 40
0.0
 40
0.5679386800000002
 40
0.8111917828000001
 40
1.0
 40
1.0
 40
1.0
 40
1.0
 10
25.9915767177487
 20
30.85419045706073
 30
0.0
 10
25.90642302293802
 20
30.87088161037732
 30
0.0
 10
25.78534199491275
 20
30.89751998810124
 30
0.0
 10
25.63619165500786
 20
30.93045691202963
 30
0.0
 10
25.57131436760414
 20
30.94307312257914
 30
0.0
 10
25.54270128753702
 20
30.94674400854084
 30
0.0
  0
SPLINE
  5
1ED
330
2
100
AcDbEntity
  8
0
  6
Continuous
 62
     7
100
AcDbSpline
210
0.0
220
0.0
230
1.0
 70
     8
 71
     3
 72
     9
 73
     5
 74
     0
 42
0.000000001
 43
0.0000000001
 40
0.0
 40
0.0
 40
0.0
 40
0.0
 40
0.263257717
 40
1.0
 40
1.0
 40
1.0
 40
1.0
 10
25.9915767177487
 20
30.85419045706073
 30
0.0
 10
26.00579676093797
 20
30.85140315674005
 30
0.0
 10
26.06000624433526
 20
30.84189130320383
 30
0.0
 10
26.11504376188065
 20
30.83660062999524
 30
0.0
 10
26.15559360966458
 20
30.83610187914534
 30
0.0
  0
SPLINE
  5
1EE
330
2
100
AcDbEntity
  8
0
  6
Continuous
 62
     7
100
AcDbSpline
210
0.0
220
0.0
230
1.0
 70
     8
 71
     3
 72
     9
 73
     5
 74
     0
 42
0.000000001
 43
0.0000000001
 40
0.0
 40
0.0
 40
0.0
 40
0.0
 40
0.2532270459
 40
1.0
 40
1.0
 40
1.0
 40
1.0
 10
25.54270128753702
 20
30.94674400854084
 30
0.0
 10
25.52775557764095
 20
30.95119616084304
 30
0.0
 10
25.46817342472451
 20
30.96682546946723
 30
0.0
 10
25.40641917270372
 20
30.97426124280624
 30
0.0
 10
25.36043352803559
 20
30.97483956598193
 30
0.0
  0
SPLINE
  5
1EF
330
2
100
AcDbEntity
  8
0
  6
Continuous
 62
     7
100
AcDbSpline
210
0.0
220
0.0
230
1.0
 70
     8
 71
     3
 72
    11
 73
     7
 74
     0
 42
0.000000001
 43
0.0000000001
 40
0.0
 40
0.0
 40
0.0
 40
0.0
 40
0.2144495519
 40
0.4530903844
 40
0.7197841124
 40
1.0
 40
1.0
 40
1.0
 40
1.0
 10
28.39808784250394
 20
29.89983927138622
 30
0.0
 10
28.43334893761245
 20
29.86626966400793
 30
0.0
 10
28.48632299922376
 20
29.77075005434393
 30
0.0
 10
28.48393858725586
 20
29.60200449814795
 30
0.0
 10
28.41377773773643
 20
29.43434515101115
 30
0.0
 10
28.32995914254528
 20
29.33929981497655
 30
0.0
 10
28.28077575086947
 20
29.29895156636933
 30
0.0
  0
SPLINE
  5
1F0
330
2
100
AcDbEntity
  8
0
  6
Continuous
 62
     7
100
AcDbSpline
210
0.0
220
0.0
230
1.0
 70
     8
 71
     3
 72
    13
 73
     9
 74
     0
 42
0.000000001
 43
0.0000000001
 40
0.0
 40
0.0
 40
0.0
 40
0.0
 40
0.104646956
 40
0.2146967614
 40
0.3334213815
 40
0.4612074426
 40
0.7325940468000001
 40
1.0
 40
1.0
 40
1.0
 40
1.0
 10
38.24217757118713
 20
29.79260439405023
 30
0.0
 10
38.26422123846523
 20
29.77162599749064
 30
0.0
 10
38.31793796926391
 20
29.73676729588583
 30
0.0
 10
38.41403310884409
 20
29.71471316957724
 30
0.0
 10
38.51878501328299
 20
29.72244499416864
 30
0.0
 10
38.66255211646865
 20
29.77148473142034
 30
0.0
 10
38.82012566285784
 20
29.89392650701373
 30
0.0
 10
38.90030493781205
 20
30.03487359740185
 30
0.0
 10
38.92161464418592
 20
30.10965625561945
 30
0.0
  0
SPLINE
  5
1F1
330
2
100
AcDbEntity
  8
0
  6
Continuous
 62
     7
100
AcDbSpline
210
0.0
220
0.0
230
1.0
 70
     8
 71
     3
 72
    11
 73
     7
 74
     0
 42
0.000000001
 43
0.0000000001
 40
0.0
 40
0.0
 40
0.0
 40
0.0
 40
0.2418487471
 40
0.4871891513000002
 40
0.7391137916
 40
1.0
 40
1.0
 40
1.0
 40
1.0
 10
42.71238969422186
 20
32.69085704261455
 30
0.0
 10
42.8914614447646
 20
32.52049784432034
 30
0.0
 10
43.22098077265418
 20
32.14280639158705
 30
0.0
 10
43.60767217469603
 20
31.48941211420164
 30
0.0
 10
43.88145060196065
 20
30.76068763123854
 30
0.0
 10
43.98344717058235
 20
30.24403711438974
 30
0.0
 10
44.01553047873649
 20
29.97935704956624
 30
0.0
  0
SPLINE
  5
1F2
330
2
100
AcDbEntity
  8
0
  6
Continuous
 62
     7
100
AcDbSpline
210
0.0
220
0.0
230
1.0
 70
     8
 71
     3
 72
     9
 73
     5
 74
     0
 42
0.000000001
 43
0.0000000001
 40
0.0
 40
0.0
 40
0.0
 40
0.0
 40
0.4846931671
 40
1.0
 40
1.0
 40
1.0
 40
1.0
 10
45.87950916680394
 20
30.77168090257404
 30
0.0
 10
45.94114509951786
 20
30.71308956304136
 30
0.0
 10
46.09511198512225
 20
30.61816091097263
 30
0.0
 10
46.27222683543547
 20
30.58867338506003
 30
0.0
 10
46.36263202491689
 20
30.58756142861844
 30
0.0
  0
SPLINE
  5
1F3
330
2
100
AcDbEntity
  8
0
  6
Continuous
 62
     7
100
AcDbSpline
210
0.0
220
0.0
230
1.0
 70
     8
 71
     3
 72
     9
 73
     5
 74
     0
 42
0.000000001
 43
0.0000000001
 40
0.0
 40
0.0
 40
0.0
 40
0.0
 40
0.2576352864
 40
1.0
 40
1.0
 40
1.0
 40
1.0
 10
45.6847110598927
 20
31.13785205896884
 30
0.0
 10
45.68966754198238
 20
31.11238141202302
 30
0.0
 10
45.71371616687385
 20
31.01455626251784
 30
0.0
 10
45.758216187997
 20
30.92144063214595
 30
0.0
 10
45.80188379956299
 20
30.86074814755043
 30
0.0
  0
SPLINE
  5
1F4
330
2
100
AcDbEntity
  8
0
  6
Continuous
 62
     7
100
AcDbSpline
210
0.0
220
0.0
230
1.0
 70
     8
 71
     3
 72
    19
 73
    15
 74
     0
 42
0.000000001
 43
0.0000000001
 40
-0.0046504423569405
 40
-0.0046504423569405
 40
-0.0046504423569405
 40
-0.0046504423569405
 40
0.0
 40
0.0
 40
0.0
 40
0.2752770497
 40
0.4122352304
 40
0.5441350816
 40
0.6687307210000001
 40
0.7851610895000001
 40
0.8406795522999999
 40
0.8946928561
 40
0.9476280583999999
 40
1.0
 40
1.0
 40
1.0
 40
1.0
 10
32.51102620712183
 20
29.25029779394177
 30
0.0
 10
32.51998573911722
 20
29.26691134176317
 30
0.0
 10
32.5290004251452
 20
29.28349868385846
 30
0.0
 10
32.53807026688634
 20
29.30005981942915
 30
0.0
 10
33.07494806992365
 20
30.28037527969434
 30
0.0
 10
34.16835025242219
 20
31.61091508458443
 30
0.0
 10
35.97690078933549
 20
32.89388762181262
 30
0.0
 10
37.44003475329512
 20
33.56278178275463
 30
0.0
 10
38.92881402230123
 20
33.89717900574414
 30
0.0
 10
40.14739671831375
 20
33.87684055721813
 30
0.0
 10
41.04446676932815
 20
33.67170275993635
 30
0.0
 10
41.66181309416105
 20
33.43214908065352
 30
0.0
 10
42.22443276254317
 20
33.10791065444274
 30
0.0
 10
42.5583260461765
 20
32.83742488197173
 30
0.0
 10
42.71238969422186
 20
32.69085704261455
 30
0.0
  0
SPLINE
  5
1F5
330
2
100
AcDbEntity
  8
0
  6
Continuous
 62
     7
100
AcDbSpline
210
0.0
220
0.0
230
1.0
 70
     8
 71
     3
 72
    13
 73
     9
 74
     0
 42
0.000000001
 43
0.0000000001
 40
0.0
 40
0.0
 40
0.0
 40
0.0
 40
0.1071605534
 40
0.223000409
 40
0.3486124982
 40
0.4819300892000002
 40
0.7526125068000002
 40
1.0
 40
1.0
 40
1.0
 40
1.0
 10
25.87941407483321
 20
29.32809403880304
 30
0.0
 10
25.86138230489746
 20
29.35668642285354
 30
0.0
 10
25.83555049083577
 20
29.42408061356785
 30
0.0
 10
25.83238518154689
 20
29.53562229123684
 30
0.0
 10
25.86203078973015
 20
29.65148408953853
 30
0.0
 10
25.94169688546636
 20
29.79978275189573
 30
0.0
 10
26.09560821947804
 20
29.94519512065794
 30
0.0
 10
26.25984313682805
 20
29.99754306840983
 30
0.0
 10
26.33787468001964
 20
29.99658330407934
 30
0.0
  0
SPLINE
  5
1F6
330
2
100
AcDbEntity
  8
0
  6
Continuous
 62
     7
100
AcDbSpline
210
0.0
220
0.0
230
1.0
 70
     8
 71
     3
 72
    10
 73
     6
 74
     0
 42
0.000000001
 43
0.0000000001
 40
0.0
 40
0.0
 40
0.0
 40
0.0
 40
0.5279559091000002
 40
0.7686946885
 40
1.0
 40
1.0
 40
1.0
 40
1.0
 10
38.17488738828309
 20
30.11884077462893
 30
0.0
 10
38.15811012141069
 20
30.05996391393653
 30
0.0
 10
38.15024671382293
 20
29.96642216981602
 30
0.0
 10
38.1890962795465
 20
29.85567785380944
 30
0.0
 10
38.22274814313058
 20
29.81109488573843
 30
0.0
 10
38.24217757118713
 20
29.79260439405023
 30
0.0
  0
SPLINE
  5
1F7
330
2
100
AcDbEntity
  8
0
  6
Continuous
 62
     7
100
AcDbSpline
210
0.0
220
0.0
230
1.0
 70
     8
 71
     3
 72
     9
 73
     5
 74
     0
 42
0.000000001
 43
0.0000000001
 40
0.0
 40
0.0
 40
0.0
 40
0.0
 40
0.5152356708000001
 40
1.0
 40
1.0
 40
1.0
 40
1.0
 10
28.20469281978196
 20
29.97362200652784
 30
0.0
 10
28.24088329517982
 20
29.97317687464973
 30
0.0
 10
28.3117945893367
 20
29.96135670761545
 30
0.0
 10
28.37342464603276
 20
29.92331936524434
 30
0.0
 10
28.39808784250394
 20
29.89983927138622
 30
0.0
  0
SPLINE
  5
1F8
330
2
100
AcDbEntity
  8
0
  6
Continuous
 62
     7
100
AcDbSpline
210
0.0
220
0.0
230
1.0
 70
     8
 71
     3
 72
    13
 73
     9
 74
     0
 42
0.000000001
 43
0.0000000001
 40
0.0
 40
0.0
 40
0.0
 40
0.0
 40
0.104646956
 40
0.2146967614
 40
0.3334213815
 40
0.4612074426
 40
0.7325940468000001
 40
1.0
 40
1.0
 40
1.0
 40
1.0
 10
38.85432446127076
 20
30.43589263619813
 30
0.0
 10
38.83228079400377
 20
30.45687103275774
 30
0.0
 10
38.7785640632051
 20
30.49172973436253
 30
0.0
 10
38.68246892362491
 20
30.51378386066004
 30
0.0
 10
38.57771701917491
 20
30.50605203606864
 30
0.0
 10
38.43394991600014
 20
30.45701229882802
 30
0.0
 10
38.27637636960007
 20
30.33457052323462
 30
0.0
 10
38.19619709465675
 20
30.19362343283543
 30
0.0
 10
38.17488738828309
 20
30.11884077462893
 30
0.0
  0
SPLINE
  5
1F9
330
2
100
AcDbEntity
  8
0
  6
Continuous
 62
     7
100
AcDbSpline
210
0.0
220
0.0
230
1.0
 70
     8
 71
     3
 72
    10
 73
     6
 74
     0
 42
0.000000001
 43
0.0000000001
 40
0.0
 40
0.0
 40
0.0
 40
0.0
 40
0.2436190381
 40
0.4903904163
 40
1.0
 40
1.0
 40
1.0
 40
1.0
 10
44.29410968095377
 20
33.93243449665135
 30
0.0
 10
44.46957886698979
 20
33.74552454102623
 30
0.0
 10
44.79512643882218
 20
33.34206533051093
 30
0.0
 10
45.33050294566964
 20
32.43300593089104
 30
0.0
 10
45.58227485293843
 20
31.66425695995823
 30
0.0
 10
45.6847110598927
 20
31.13785205896884
 30
0.0
  0
SPLINE
  5
1FA
330
2
100
AcDbEntity
  8
0
  6
Continuous
 62
     7
100
AcDbSpline
210
0.0
220
0.0
230
1.0
 70
     8
 71
     3
 72
    12
 73
     8
 74
     0
 42
0.000000001
 43
0.0000000001
 40
0.0
 40
0.0
 40
0.0
 40
0.0
 40
0.3016184913
 40
0.5649929383
 40
0.79307109
 40
0.8980434019
 40
1.0
 40
1.0
 40
1.0
 40
1.0
 10
37.3636146864475
 20
18.76489128896272
 30
0.0
 10
37.28901295521075
 20
18.59705707985182
 30
0.0
 10
37.12422584612739
 20
18.29243174176464
 30
0.0
 10
36.8092506198886
 20
17.92090036978432
 30
0.0
 10
36.50007629520835
 20
17.71641056500584
 30
0.0
 10
36.24526032869024
 20
17.63848683217373
 30
0.0
 10
36.11873036466648
 20
17.62665632530075
 30
0.0
 10
36.05664954472929
 20
17.62741204230502
 30
0.0
  0
SPLINE
  5
1FB
330
2
100
AcDbEntity
  8
0
  6
Continuous
 62
     7
100
AcDbSpline
210
0.0
220
0.0
230
1.0
 70
     8
 71
     3
 72
     9
 73
     5
 74
     0
 42
0.000000001
 43
0.0000000001
 40
0.0
 40
0.0
 40
0.0
 40
0.0
 40
0.2532270459
 40
1.0
 40
1.0
 40
1.0
 40
1.0
 10
51.7714961512789
 20
30.62413777805603
 30
0.0
 10
51.75655044139396
 20
30.62858993036934
 30
0.0
 10
51.6969682884774
 20
30.64421923899354
 30
0.0
 10
51.63521403645663
 20
30.65165501233254
 30
0.0
 10
51.5892283917886
 20
30.65223333550824
 30
0.0
  0
SPLINE
  5
1FC
330
2
100
AcDbEntity
  8
0
  6
Continuous
 62
     7
100
AcDbSpline
210
0.0
220
0.0
230
1.0
 70
     8
 71
     3
 72
     9
 73
     5
 74
     0
 42
0.000000001
 43
0.0000000001
 40
0.0
 40
0.0
 40
0.0
 40
0.0
 40
0.2194315056
 40
1.0
 40
1.0
 40
1.0
 40
1.0
 10
50.11041240655893
 20
24.64659971798214
 30
0.0
 10
50.0919715131783
 20
24.64122732561893
 30
0.0
 10
50.00659484109039
 20
24.62133729433794
 30
0.0
 10
49.91831843240825
 20
24.61656336317004
 30
0.0
 10
49.84999798975088
 20
24.61740368391924
 30
0.0
  0
SPLINE
  5
1FD
330
2
100
AcDbEntity
  8
0
  6
Continuous
 62
     7
100
AcDbSpline
210
0.0
220
0.0
230
1.0
 70
     8
 71
     3
 72
     9
 73
     5
 74
     0
 42
0.000000001
 43
0.0000000001
 40
0.0
 40
0.0
 40
0.0
 40
0.0
 40
0.2431991953
 40
1.0
 40
1.0
 40
1.0
 40
1.0
 10
8.032766772669367
 20
22.39473593780243
 30
0.0
 10
8.013449496737543
 20
22.32694536298013
 30
0.0
 10
7.940649156883918
 20
22.04633589704753
 30
0.0
 10
7.893110167015866
 20
21.75931913993094
 30
0.0
 10
7.870227333155471
 20
21.54116393513154
 30
0.0
  0
SPLINE
  5
1FE
330
2
100
AcDbEntity
  8
0
  6
Continuous
 62
     7
100
AcDbSpline
210
0.0
220
0.0
230
1.0
 70
     8
 71
     3
 72
     9
 73
     5
 74
     0
 42
0.000000001
 43
0.0000000001
 40
0.0
 40
0.0
 40
0.0
 40
0.0
 40
0.2601935093
 40
1.0
 40
1.0
 40
1.0
 40
1.0
 10
10.69228097473542
 20
29.52687864027354
 30
0.0
 10
10.72613540447296
 20
29.54542102390674
 30
0.0
 10
10.85929135377883
 20
29.61084379491413
 30
0.0
 10
11.00561848636146
 20
29.65055739493852
 30
0.0
 10
11.11487378347755
 20
29.66097120259553
 30
0.0
  0
SPLINE
  5
1FF
330
2
100
AcDbEntity
  8
0
  6
Continuous
 62
     7
100
AcDbSpline
210
0.0
220
0.0
230
1.0
 70
     8
 71
     3
 72
    11
 73
     7
 74
     0
 42
0.000000001
 43
0.0000000001
 40
0.0
 40
0.0
 40
0.0
 40
0.0
 40
0.3071128326
 40
0.5759037831000002
 40
0.8035979976
 40
1.0
 40
1.0
 40
1.0
 40
1.0
 10
38.7008034640316
 20
23.31980829034044
 30
0.0
 10
38.72413571613487
 20
23.40168871627435
 30
0.0
 10
38.7798263081631
 20
23.55236845050954
 30
0.0
 10
38.89805774690799
 20
23.74337461223935
 30
0.0
 10
39.04109068171923
 20
23.87633577145253
 30
0.0
 10
39.15583872207171
 20
23.91842908442632
 30
0.0
 10
39.21004093701144
 20
23.92359543750175
 30
0.0
  0
SPLINE
  5
200
330
2
100
AcDbEntity
  8
0
  6
Continuous
 62
     7
100
AcDbSpline
210
0.0
220
0.0
230
1.0
 70
     8
 71
     3
 72
     9
 73
     5
 74
     0
 42
0.000000001
 43
0.0000000001
 40
0.0
 40
0.0
 40
0.0
 40
0.0
 40
0.4936616851000001
 40
1.0
 40
1.0
 40
1.0
 40
1.0
 10
41.54697327029523
 20
31.04185888516525
 30
0.0
 10
41.72064419836695
 20
30.87667415992943
 30
0.0
 10
42.03143365911667
 20
30.49627967655474
 30
0.0
 10
42.24025426960986
 20
30.05239135465374
 30
0.0
 10
42.31968766422451
 20
29.81974103930784
 30
0.0
  0
SPLINE
  5
201
330
2
100
AcDbEntity
  8
0
  6
Continuous
 62
     7
100
AcDbSpline
210
0.0
220
0.0
230
1.0
 70
     8
 71
     3
 72
    11
 73
     7
 74
     0
 42
0.000000001
 43
0.0000000001
 40
0.0
 40
0.0
 40
0.0
 40
0.0
 40
0.1814754301
 40
0.3927871011
 40
0.6629326529
 40
1.0
 40
1.0
 40
1.0
 40
1.0
 10
51.90028389734948
 20
30.46546845358644
 30
0.0
 10
51.90392239429928
 20
30.47821251501264
 30
0.0
 10
51.9033843089678
 20
30.50865917795033
 30
0.0
 10
51.87748923910294
 20
30.55120552229484
 30
0.0
 10
51.83210900015647
 20
30.59081777353612
 30
0.0
 10
51.79353173015339
 20
30.61316530864223
 30
0.0
 10
51.7714961512789
 20
30.62413777805603
 30
0.0
  0
SPLINE
  5
202
330
2
100
AcDbEntity
  8
0
  6
Continuous
 62
     7
100
AcDbSpline
210
0.0
220
0.0
230
1.0
 70
     8
 71
     3
 72
    10
 73
     6
 74
     0
 42
0.000000001
 43
0.0000000001
 40
0.0
 40
0.0
 40
0.0
 40
0.0
 40
0.3956682159
 40
0.6696405113
 40
1.0
 40
1.0
 40
1.0
 40
1.0
 10
50.27379522638176
 20
24.75759348607583
 30
0.0
 10
50.266437752576
 20
24.73182372232404
 30
0.0
 10
50.23060226364739
 20
24.69681526304903
 30
0.0
 10
50.17086991829593
 20
24.66643152756532
 30
0.0
 10
50.13189529966143
 20
24.65285833726464
 30
0.0
 10
50.11041240655893
 20
24.64659971798214
 30
0.0
  0
SPLINE
  5
203
330
2
100
AcDbEntity
  8
0
  6
Continuous
 62
     7
100
AcDbSpline
210
0.0
220
0.0
230
1.0
 70
     8
 71
     3
 72
    11
 73
     7
 74
     0
 42
0.000000001
 43
0.0000000001
 40
0.0
 40
0.0
 40
0.0
 40
0.0
 40
0.3369790452000001
 40
0.607089843
 40
0.8184364516
 40
1.0
 40
1.0
 40
1.0
 40
1.0
 10
50.14505095229567
 20
24.91641504963174
 30
0.0
 10
50.16708463877558
 20
24.90542964578754
 30
0.0
 10
50.20565875640087
 20
24.88305655720494
 30
0.0
 10
50.25102974462966
 20
24.84340308926603
 30
0.0
 10
50.2769093138326
 20
24.80081561851134
 30
0.0
 10
50.27743707866163
 20
24.77034917852604
 30
0.0
 10
50.27379522638176
 20
24.75759348607583
 30
0.0
  0
SPLINE
  5
204
330
2
100
AcDbEntity
  8
0
  6
Continuous
 62
     7
100
AcDbSpline
210
0.0
220
0.0
230
1.0
 70
     8
 71
     3
 72
     9
 73
     5
 74
     0
 42
0.000000001
 43
0.0000000001
 40
0.0
 40
0.0
 40
0.0
 40
0.0
 40
0.7467541736
 40
1.0
 40
1.0
 40
1.0
 40
1.0
 10
49.96224834130329
 20
24.94467030084143
 30
0.0
 10
50.00837117925184
 20
24.94409021042363
 30
0.0
 10
50.0703123402433
 20
24.93661139919894
 30
0.0
 10
50.130062706267
 20
24.92089280035433
 30
0.0
 10
50.14505095229567
 20
24.91641504963174
 30
0.0
  0
SPLINE
  5
205
330
2
100
AcDbEntity
  8
0
  6
Continuous
 62
     7
100
AcDbSpline
210
0.0
220
0.0
230
1.0
 70
     8
 71
     3
 72
     9
 73
     5
 74
     0
 42
0.000000001
 43
0.0000000001
 40
0.0
 40
0.0
 40
0.0
 40
0.0
 40
0.2466827
 40
1.0
 40
1.0
 40
1.0
 40
1.0
 10
36.05664954472929
 20
17.62741204230502
 30
0.0
 10
36.02829729272857
 20
17.62775717754654
 30
0.0
 10
35.91345750056451
 20
17.63457502485235
 30
0.0
 10
35.80023532632976
 20
17.66377072447223
 30
0.0
 10
35.71984061133101
 20
17.69592994671413
 30
0.0
  0
SPLINE
  5
206
330
2
100
AcDbEntity
  8
0
  6
Continuous
 62
     7
100
AcDbSpline
210
0.0
220
0.0
230
1.0
 70
     8
 71
     3
 72
    15
 73
    11
 74
     0
 42
0.000000001
 43
0.0000000001
 40
0.0
 40
0.0
 40
0.0
 40
0.0
 40
0.0872735722
 40
0.1882122239
 40
0.3042136314
 40
0.4336258374000001
 40
0.5728543028000001
 40
0.7171677395999999
 40
0.8612909520999998
 40
1.0
 40
1.0
 40
1.0
 40
1.0
 10
35.71984061133101
 20
17.69592994671413
 30
0.0
 10
35.589926980905
 20
17.74789755819412
 30
0.0
 10
35.33232742457444
 20
17.91818175189023
 30
0.0
 10
35.01831714251445
 20
18.29722841249243
 30
0.0
 10
34.76112300775633
 20
18.79313751429623
 30
0.0
 10
34.57197137840444
 20
19.38254597166263
 30
0.0
 10
34.45924050731917
 20
20.03689095853135
 30
0.0
 10
34.42868407554912
 20
20.72363397878065
 30
0.0
 10
34.48173677643135
 20
21.40801582669913
 30
0.0
 10
34.57398113198351
 20
21.85366475796175
 30
0.0
 10
34.63492526437934
 20
22.06753744781844
 30
0.0
  0
SPLINE
  5
207
330
2
100
AcDbEntity
  8
0
  6
Continuous
 62
     7
100
AcDbSpline
210
0.0
220
0.0
230
1.0
 70
     8
 71
     3
 72
     9
 73
     5
 74
     0
 42
0.000000001
 43
0.0000000001
 40
0.0
 40
0.0
 40
0.0
 40
0.0
 40
0.2445369674
 40
1.0
 40
1.0
 40
1.0
 40
1.0
 10
37.71703227517622
 20
29.33377271260043
 30
0.0
 10
37.6880281123946
 20
29.33100814392534
 30
0.0
 10
37.56994343297682
 20
29.31443918052984
 30
0.0
 10
37.45511235484551
 20
29.27684436647633
 30
0.0
 10
37.37329186650267
 20
29.23933051189344
 30
0.0
  0
SPLINE
  5
208
330
2
100
AcDbEntity
  8
0
  6
Continuous
 62
     7
100
AcDbSpline
210
0.0
220
0.0
230
1.0
 70
     8
 71
     3
 72
    10
 73
     6
 74
     0
 42
0.000000001
 43
0.0000000001
 40
0.0
 40
0.0
 40
0.0
 40
0.0
 40
0.4378470407
 40
0.7049316854000001
 40
1.0
 40
1.0
 40
1.0
 40
1.0
 10
37.34398492465872
 20
29.22541415441453
 30
0.0
 10
37.06859578352009
 20
29.09011894478815
 30
0.0
 10
36.7088171969456
 20
28.71086269476292
 30
0.0
 10
36.37859720802941
 20
28.09485395204213
 30
0.0
 10
36.24598553241624
 20
27.72126947302405
 30
0.0
 10
36.18931985625911
 20
27.52241127113873
 30
0.0
  0
ELLIPSE
  5
209
330
2
100
AcDbEntity
  8
0
  6
Continuous
 62
     7
100
AcDbEllipse
 10
2.062442210687855
 20
16.74162573186623
 30
0.0
 11
0.0554490464046
 21
-0.0199412453268
 31
0.0
210
0.0
220
0.0
230
1.0
 40
0.3904201329
 41
6.436266894299999
 42
7.0080541676
  0
ELLIPSE
  5
20A
330
2
100
AcDbEntity
  8
0
  6
Continuous
 62
     7
100
AcDbEllipse
 10
15.52769784871539
 20
3.933247274378939
 30
0.0
 11
0.0554490464046
 21
-0.0199412453268
 31
0.0
210
0.0
220
0.0
230
1.0
 40
0.3904201329
 41
0.7248688603
 42
1.510267023699999
  0
ELLIPSE
  5
20B
330
2
100
AcDbEntity
  8
0
  6
Continuous
 62
     7
100
AcDbEllipse
 10
15.16643633537412
 20
4.171718066255334
 30
0.0
 11
0.1663471392138
 21
-0.0598237359693
 31
0.0
210
0.0
220
0.0
230
1.0
 40
0.3904201328999999
 41
-2.4167237932
 42
-1.631325629799998
  0
ELLIPSE
  5
20C
330
2
100
AcDbEntity
  8
0
  6
Continuous
 62
     7
100
AcDbEllipse
 10
2.199685547259448
 20
16.50591029569822
 30
0.0
 11
0.1663471392138
 21
-0.0598237359693
 31
0.0
210
0.0
220
0.0
230
1.0
 40
0.3904201328999999
 41
-2.988800107399998
 42
-2.4167237932
  0
ELLIPSE
  5
20D
330
2
100
AcDbEntity
  8
0
  6
Continuous
 62
     7
100
AcDbEllipse
 10
37.46281099099178
 20
3.663452028257021
 30
0.0
 11
0.0554490464046
 21
-0.0199412453268
 31
0.0
210
0.0
220
0.0
230
1.0
 40
0.3904201329
 41
3.0810633506
 42
3.866461513999998
  0
ELLIPSE
  5
20E
330
2
100
AcDbEntity
  8
0
  6
Continuous
 62
     7
100
AcDbEllipse
 10
23.99755535296423
 20
16.47183048574434
 30
0.0
 11
0.0554490464046
 21
-0.0199412453268
 31
0.0
210
0.0
220
0.0
230
1.0
 40
0.3904201329
 41
-2.4167237932
 42
-1.6313256299
  0
ELLIPSE
  5
20F
330
2
100
AcDbEntity
  8
0
  6
Continuous
 62
     7
100
AcDbEllipse
 10
24.35881686630552
 20
16.23335969386794
 30
0.0
 11
0.1663471392138
 21
-0.0598237359693
 31
0.0
210
0.0
220
0.0
230
1.0
 40
0.3904201328999999
 41
0.7248688603
 42
1.510267023699999
  0
ELLIPSE
  5
210
330
2
100
AcDbEntity
  8
0
  6
Continuous
 62
     7
100
AcDbEllipse
 10
37.32556765442018
 20
3.899167464425028
 30
0.0
 11
0.1663471392138
 21
-0.0598237359693
 31
0.0
210
0.0
220
0.0
230
1.0
 40
0.3904201328999999
 41
-0.060529303
 42
0.7248688604000001
  0
ELLIPSE
  5
211
330
2
100
AcDbEntity
  8
粗实线
 48
0.5
100
AcDbEllipse
 10
38.65865828633083
 20
20.9939951166237
 30
0.0
 11
0.1514504618799633
 21
2.121675495232835
 31
0.0
210
0.0
220
0.0
230
1.0
 40
0.3305884329888116
 41
0.0
 42
6.283185307179585
  0
ARC
  5
212
330
2
100
AcDbEntity
  8
粗实线
 48
0.5
100
AcDbCircle
 10
38.4671625273087
 20
20.84052906769529
 30
0.0
 40
3.223330995528509
100
AcDbArc
 50
133.0710288781346
 51
215.9772510592775
  0
LINE
  5
213
330
2
100
AcDbEntity
  8
粗实线
 48
0.5
100
AcDbLine
 10
25.45253956228104
 20
30.96711495440012
 30
0.0
 11
24.58157466867231
 21
29.34782764553297
 31
0.0
  0
ARC
  5
214
330
2
100
AcDbEntity
  8
粗实线
 48
0.5
100
AcDbCircle
 10
9.763329022865868
 20
21.80262655461651
 30
0.0
 40
2.768863578800052
100
AcDbArc
 50
142.0006114268845
 51
185.2544111332177
  0
LINE
  5
215
330
2
100
AcDbEntity
  8
粗实线
 48
0.5
100
AcDbLine
 10
10.57850362372208
 20
15.35750854739784
 30
0.0
 11
20.57153987551989
 21
5.851963781445844
 31
0.0
  0
LINE
  5
216
330
2
100
AcDbEntity
  8
粗实线
 48
0.5
100
AcDbLine
 10
3.755365093343196
 20
16.58749176832914
 30
0.0
 11
8.62996925940458
 21
16.52740015082063
 31
0.0
  0
LINE
  5
217
330
2
100
AcDbEntity
  8
0
  6
Continuous
 62
     7
100
AcDbLine
 10
10.64637704351101
 20
16.03509472100425
 30
0.0
 11
10.74497130167103
 21
16.38109389054473
 31
0.0
  0
LINE
  5
218
330
2
100
AcDbEntity
  8
0
  6
Continuous
 62
     7
100
AcDbLine
 10
11.05684242420956
 20
16.49754129983814
 30
0.0
 11
10.95824816606075
 21
16.15154213029762
 31
0.0
  0
LINE
  5
219
330
2
100
AcDbEntity
  8
0
  6
Continuous
 62
     7
100
AcDbLine
 10
16.18533895754609
 20
16.08725049708683
 30
0.0
 11
16.28393321569501
 21
16.43324966662734
 31
0.0
  0
LINE
  5
21A
330
2
100
AcDbEntity
  8
0
  6
Continuous
 62
     7
100
AcDbLine
 10
17.13424248512071
 20
16.13345229188844
 30
0.0
 11
17.03564822696069
 21
15.78745312234793
 31
0.0
  0
LINE
  5
21B
330
2
100
AcDbEntity
  8
0
  6
Continuous
 62
     7
100
AcDbLine
 10
10.72327209568679
 20
15.86635022864332
 30
0.0
 11
22.31776703989709
 21
4.837867648601045
 31
0.0
  0
LINE
  5
21C
330
2
100
AcDbEntity
  8
0
  6
Continuous
 62
     7
100
AcDbLine
 10
22.50437981905172
 20
4.659962355632937
 30
0.0
 11
22.31757463675952
 21
4.837869988247931
 31
0.0
  0
LINE
  5
21D
330
2
100
AcDbEntity
  8
0
  6
Continuous
 62
     7
100
AcDbLine
 10
23.35300265166902
 20
4.361442505379639
 30
0.0
 11
23.67925825007729
 21
4.357840456567424
 31
0.0
  0
LINE
  5
21E
330
2
100
AcDbEntity
  8
0
  6
Continuous
 62
     7
100
AcDbLine
 10
23.67925825027708
 20
4.357840456589634
 30
0.0
 11
28.25296253530945
 21
4.301585279544831
 31
0.0
  0
LINE
  5
21F
330
2
100
AcDbEntity
  8
0
  6
Continuous
 62
     7
100
AcDbLine
 10
28.5822510559041
 20
4.297309632960224
 30
0.0
 11
28.25307194886418
 21
4.301481234760428
 31
0.0
  0
LINE
  5
220
330
2
100
AcDbEntity
  8
0
  6
Continuous
 62
     7
100
AcDbLine
 10
28.81407812946026
 20
4.583611778170732
 30
0.0
 11
28.62761245546441
 21
4.760258364860648
 31
0.0
  0
LINE
  5
221
330
2
100
AcDbEntity
  8
0
  6
Continuous
 62
     7
100
AcDbLine
 10
28.91267238760917
 20
4.929610947722326
 30
0.0
 11
28.72620670281298
 21
5.106257544624235
 31
0.0
  0
LINE
  5
222
330
2
100
AcDbEntity
  8
0
  6
Continuous
 62
     7
100
AcDbLine
 10
28.62761245538667
 20
4.760258364860648
 30
0.0
 11
17.22057445069234
 21
15.61082546664144
 31
0.0
  0
LINE
  5
223
330
2
100
AcDbEntity
  8
0
  6
Continuous
 62
     7
100
AcDbLine
 10
28.72620670281298
 20
5.106257544624235
 30
0.0
 11
28.03907206519527
 21
5.759871610811947
 31
0.0
  0
LINE
  5
224
330
2
100
AcDbEntity
  8
0
  6
Continuous
 62
     7
100
AcDbLine
 10
17.31916872209459
 20
15.95682462358344
 30
0.0
 11
18.04603581339747
 21
15.26541637676394
 31
0.0
  0
LINE
  5
225
330
2
100
AcDbEntity
  8
0
  6
Continuous
 62
     7
100
AcDbLine
 10
17.03396177057188
 20
15.78873066539272
 30
0.0
 11
17.22076687766159
 21
15.61082310442823
 31
0.0
  0
LINE
  5
226
330
2
100
AcDbEntity
  8
0
  6
Continuous
 62
     7
100
AcDbLine
 10
17.13424248512071
 20
16.13345229188844
 30
0.0
 11
17.31916872219454
 21
15.95682462358344
 31
0.0
  0
LINE
  5
227
330
2
100
AcDbEntity
  8
0
  6
Continuous
 62
     7
100
AcDbLine
 10
28.8919645656486
 20
4.413598281462225
 30
0.0
 11
28.9905588237975
 21
4.759597451002739
 31
0.0
  0
LINE
  5
228
330
2
100
AcDbEntity
  8
0
  6
Continuous
 62
     7
100
AcDbLine
 10
16.18533895754609
 20
16.08725049708683
 30
0.0
 11
15.85908335910451
 21
16.09085254589902
 31
0.0
  0
LINE
  5
229
330
2
100
AcDbEntity
  8
0
  6
Continuous
 62
     7
100
AcDbLine
 10
16.09750144907996
 20
16.43530798018673
 30
0.0
 11
16.28393321569501
 21
16.43324966662734
 31
0.0
  0
LINE
  5
22A
330
2
100
AcDbEntity
  8
0
  6
Continuous
 62
     7
100
AcDbLine
 10
15.85908335891583
 20
16.09085254587684
 30
0.0
 11
11.28537907387225
 21
16.14710772292164
 31
0.0
  0
LINE
  5
22B
330
2
100
AcDbEntity
  8
0
  6
Continuous
 62
     7
100
AcDbLine
 10
10.95609099029579
 20
16.15138299556942
 30
0.0
 11
11.28526966031762
 21
16.14721176770604
 31
0.0
  0
SPLINE
  5
22C
330
2
100
AcDbEntity
  8
0
  6
Continuous
 62
     7
100
AcDbSpline
210
0.0
220
0.0
230
1.0
 70
     8
 71
     3
 72
    13
 73
     9
 74
     0
 42
0.000000001
 43
0.0000000001
 40
0.0
 40
0.0
 40
0.0
 40
0.0
 40
0.0826354645
 40
0.1717078836
 40
0.272123244
 40
0.3867753611
 40
0.6629207429
 40
1.0
 40
1.0
 40
1.0
 40
1.0
 10
28.89195700120953
 20
4.413634696455235
 30
0.0
 10
28.88931472965926
 20
4.404355583090326
 30
0.0
 10
28.88065764993811
 20
4.385855434624138
 30
0.0
 10
28.85912733412803
 20
4.362009370391636
 30
0.0
 10
28.82967067138803
 20
4.341738516314638
 30
0.0
 10
28.77718485666332
 20
4.318067720027646
 30
0.0
 10
28.6933252642326
 20
4.300039229120631
 30
0.0
 10
28.62160326907707
 20
4.296825613985937
 30
0.0
 10
28.5822510559041
 20
4.297309632960224
 30
0.0
  0
SPLINE
  5
22D
330
2
100
AcDbEntity
  8
0
  6
Continuous
 62
     7
100
AcDbSpline
210
0.0
220
0.0
230
1.0
 70
     8
 71
     3
 72
    12
 73
     8
 74
     0
 42
0.000000001
 43
0.0000000001
 40
0.0
 40
0.0
 40
0.0
 40
0.0
 40
0.2532896228
 40
0.5273249699
 40
0.7867764386000001
 40
0.9008932577999999
 40
1.0
 40
1.0
 40
1.0
 40
1.0
 10
23.35045033636145
 20
4.361659190411031
 30
0.0
 10
23.2734232540035
 20
4.362606597511123
 30
0.0
 10
23.11321853537608
 20
4.382082313466645
 30
0.0
 10
22.88179769105072
 20
4.445078898932634
 30
0.0
 10
22.69996706482289
 20
4.523466588032936
 30
0.0
 10
22.57726318958036
 20
4.598744124776626
 30
0.0
 10
22.52621897565633
 20
4.639188581235234
 30
0.0
 10
22.50437981905172
 20
4.659962355632937
 30
0.0
  0
SPLINE
  5
22E
330
2
100
AcDbEntity
  8
0
  6
Continuous
 62
     7
100
AcDbSpline
210
0.0
220
0.0
230
1.0
 70
     8
 71
     3
 72
    11
 73
     7
 74
     0
 42
0.000000001
 43
0.0000000001
 40
0.0
 40
0.0
 40
0.0
 40
0.0
 40
0.3140502272
 40
0.5793884319
 40
0.8023891139999999
 40
1.0
 40
1.0
 40
1.0
 40
1.0
 10
10.72327209568679
 20
15.86635022864332
 30
0.0
 10
10.70856819226442
 20
15.88033682978603
 30
0.0
 10
10.68296690092707
 20
15.90788474239794
 30
0.0
 10
10.65486269011467
 20
15.95191427097354
 30
0.0
 10
10.64117578621915
 20
15.99479730158363
 30
0.0
 10
10.6428874773147
 20
16.02277711071114
 30
0.0
 10
10.6463846039208
 20
16.03505830718783
 30
0.0
  0
SPLINE
  5
22F
330
2
100
AcDbEntity
  8
0
  6
Continuous
 62
     7
100
AcDbSpline
210
0.0
220
0.0
230
1.0
 70
     8
 71
     3
 72
    11
 73
     7
 74
     0
 42
0.000000001
 43
0.0000000001
 40
0.0
 40
0.0
 40
0.0
 40
0.0
 40
0.1974280931
 40
0.4205604377000002
 40
0.6860917423
 40
1.0
 40
1.0
 40
1.0
 40
1.0
 10
28.99055628598233
 20
4.759632256207133
 30
0.0
 10
28.9940795285241
 20
4.772003718050344
 30
0.0
 10
28.99574136665579
 20
4.80023008246464
 30
0.0
 10
28.98175774092358
 20
4.843417963818827
 30
0.0
 10
28.95332088014973
 20
4.887752136301126
 30
0.0
 10
28.92749150502451
 20
4.915514753082845
 30
0.0
 10
28.91267238760917
 20
4.929610947722326
 30
0.0
  0
SPLINE
  5
230
330
2
100
AcDbEntity
  8
0
  6
Continuous
 62
     7
100
AcDbSpline
210
0.0
220
0.0
230
1.0
 70
     8
 71
     3
 72
     8
 73
     4
 74
     0
 42
0.000000001
 43
0.0000000001
 40
0.0
 40
0.0
 40
0.0
 40
0.0
 40
1.0
 40
1.0
 40
1.0
 40
1.0
 10
11.22289728301858
 20
16.49539959769524
 30
0.0
 10
11.16703249857936
 20
16.49611565994953
 30
0.0
 10
11.11116585903033
 20
16.49668561581202
 30
0.0
 10
11.05530161792485
 20
16.49744288090004
 30
0.0
  0
SPLINE
  5
231
330
2
100
AcDbEntity
  8
0
  6
Continuous
 62
     7
100
AcDbSpline
210
0.0
220
0.0
230
1.0
 70
     8
 71
     3
 72
    13
 73
     9
 74
     0
 42
0.000000001
 43
0.0000000001
 40
0.0
 40
0.0
 40
0.0
 40
0.0
 40
0.336991893
 40
0.6132300853000002
 40
0.7279136803
 40
0.8283315724999999
 40
0.9173921068
 40
1.0
 40
1.0
 40
1.0
 40
1.0
 10
11.05530161792485
 20
16.49744288090004
 30
0.0
 10
11.01588988295548
 20
16.49792763193044
 30
0.0
 10
10.94404255501376
 20
16.49470319848043
 30
0.0
 10
10.86001982800321
 20
16.47670798447434
 30
0.0
 10
10.80740474929409
 20
16.45303809320364
 30
0.0
 10
10.7778801268041
 20
16.43274873875664
 30
0.0
 10
10.75630013906009
 20
16.40887697032073
 30
0.0
 10
10.74762019538128
 20
16.39035146036362
 30
0.0
 10
10.74497383948621
 20
16.38105908534034
 30
0.0
  0
SPLINE
  5
232
330
2
100
AcDbEntity
  8
0
  6
Continuous
 62
     7
100
AcDbSpline
210
0.0
220
0.0
230
1.0
 70
     8
 71
     3
 72
    13
 73
     9
 74
     0
 42
0.000000001
 43
0.0000000001
 40
0.0
 40
0.0
 40
0.0
 40
0.0
 40
0.0826353605
 40
0.1717076693
 40
0.2721229073
 40
0.3867748083
 40
0.6629199707
 40
1.0
 40
1.0
 40
1.0
 40
1.0
 10
10.6463846039208
 20
16.03505830718783
 30
0.0
 10
10.64902687359513
 20
16.04433742018643
 30
0.0
 10
10.65768395050795
 20
16.06283756961834
 30
0.0
 10
10.67921428233539
 20
16.08668361884363
 30
0.0
 10
10.70867094230037
 20
16.10695445073172
 30
0.0
 10
10.76115671270277
 20
16.13062533964824
 30
0.0
 10
10.84501648469819
 20
16.14865385426484
 30
0.0
 10
10.91673864098132
 20
16.15186701618653
 30
0.0
 10
10.95609099029579
 20
16.15138299556942
 30
0.0
  0
SPLINE
  5
233
330
2
100
AcDbEntity
  8
0
  6
Continuous
 62
     7
100
AcDbSpline
210
0.0
220
0.0
230
1.0
 70
     8
 71
     3
 72
    12
 73
     8
 74
     0
 42
0.000000001
 43
0.0000000001
 40
0.0
 40
0.0
 40
0.0
 40
0.0
 40
0.2532896194
 40
0.5273249634
 40
0.7867764325
 40
0.9008932539999999
 40
1.0
 40
1.0
 40
1.0
 40
1.0
 10
16.18789127284266
 20
16.08703381205544
 30
0.0
 10
16.26491835188155
 20
16.08608640498864
 30
0.0
 10
16.42512306380463
 20
16.06661069052054
 30
0.0
 10
16.65654390003813
 20
16.00361410938353
 30
0.0
 10
16.83837452180368
 20
15.92522642531152
 30
0.0
 10
16.96107839712385
 20
15.84994889305223
 30
0.0
 10
17.01212261262417
 20
15.80950443879144
 30
0.0
 10
17.03396177057188
 20
15.78873066539272
 30
0.0
  0
SPLINE
  5
234
330
2
100
AcDbEntity
  8
0
  6
Continuous
 62
     7
100
AcDbSpline
210
0.0
220
0.0
230
1.0
 70
     8
 71
     3
 72
    11
 73
     7
 74
     0
 42
0.000000001
 43
0.0000000001
 40
0.0
 40
0.0
 40
0.0
 40
0.0
 40
0.3140502276
 40
0.5793884345000002
 40
0.8023891239000001
 40
1.0
 40
1.0
 40
1.0
 40
1.0
 10
28.81506952854665
 20
4.582342759426439
 30
0.0
 10
28.82977343039282
 20
4.568356159793344
 30
0.0
 10
28.85537471817811
 20
4.540808248824236
 30
0.0
 10
28.88347892210848
 20
4.496778722457528
 30
0.0
 10
28.89716582562662
 20
4.453895696442837
 30
0.0
 10
28.89545412943624
 20
4.425915890356735
 30
0.0
 10
28.89195700120953
 20
4.413634696455235
 30
0.0
  0
SPLINE
  5
235
330
2
100
AcDbEntity
  8
0
  6
Continuous
 62
     7
100
AcDbSpline
210
0.0
220
0.0
230
1.0
 70
     8
 71
     3
 72
    12
 73
     8
 74
     0
 42
0.000000001
 43
0.0000000001
 40
0.0
 40
0.0
 40
0.0
 40
0.0
 40
0.0990646281
 40
0.2130503463
 40
0.4724179497
 40
0.746577188
 40
1.0
 40
1.0
 40
1.0
 40
1.0
 10
17.1342424855425
 20
16.13345229145552
 30
0.0
 10
17.11234375012079
 20
16.15428273594863
 30
0.0
 10
17.06123053164809
 20
16.19487652914324
 30
0.0
 10
16.93833639144983
 20
16.27056519467994
 30
0.0
 10
16.75601620889069
 20
16.34935437782875
 30
0.0
 10
16.52382437220718
 20
16.41261667784754
 30
0.0
 10
16.36303459039529
 20
16.43215937603154
 30
0.0
 10
16.28572391025241
 20
16.43311027129554
 30
0.0
  0
LINE
  5
236
330
2
100
AcDbEntity
  8
粗实线
 48
0.5
100
AcDbLine
 10
18.04603581339747
 20
15.26541637676394
 30
0.0
 11
28.03907206519527
 21
5.759871610811947
 31
0.0
  0
LINE
  5
237
330
2
100
AcDbEntity
  8
粗实线
 48
0.5
100
AcDbLine
 10
11.22289728301858
 20
16.49539959769524
 30
0.0
 11
16.09750144907996
 21
16.43530798018673
 31
0.0
  0
LINE
  5
238
330
2
100
AcDbEntity
  8
0
  6
Continuous
 62
     7
100
AcDbLine
 10
24.78618165051518
 20
15.86522641387269
 30
0.0
 11
25.51304874180705
 21
15.17381816705319
 31
0.0
  0
LINE
  5
239
330
2
100
AcDbEntity
  8
0
  6
Continuous
 62
     7
100
AcDbLine
 10
24.6012554135302
 20
16.04185408217771
 30
0.0
 11
24.78618165060402
 21
15.86522641387269
 31
0.0
  0
LINE
  5
23A
330
2
100
AcDbEntity
  8
0
  6
Continuous
 62
     7
100
AcDbLine
 10
23.56451437748955
 20
16.34370977048711
 30
0.0
 11
23.7509461441045
 21
16.3416514569166
 31
0.0
  0
SPLINE
  5
23B
330
2
100
AcDbEntity
  8
0
  6
Continuous
 62
     7
100
AcDbSpline
210
0.0
220
0.0
230
1.0
 70
     8
 71
     3
 72
    12
 73
     8
 74
     0
 42
0.000000001
 43
0.0000000001
 40
0.0
 40
0.0
 40
0.0
 40
0.0
 40
0.0990646281
 40
0.2130503463
 40
0.4724179497
 40
0.746577188
 40
1.0
 40
1.0
 40
1.0
 40
1.0
 10
24.60125541396309
 20
16.0418540817448
 30
0.0
 10
24.57935667853028
 20
16.0626845262379
 30
0.0
 10
24.52824346005758
 20
16.10327831943251
 30
0.0
 10
24.40534931985942
 20
16.17896698496922
 30
0.0
 10
24.22302913730017
 20
16.257756168118
 30
0.0
 10
23.99083730061666
 20
16.32101846813682
 30
0.0
 10
23.83004751880478
 20
16.34056116632082
 30
0.0
 10
23.752736838673
 20
16.34151206158481
 30
0.0
  0
LINE
  5
23C
330
2
100
AcDbEntity
  8
0
  6
Continuous
 62
     7
100
AcDbLine
 10
18.11364960252451
 20
15.94324953083233
 30
0.0
 11
18.21224386068453
 21
16.28924870037281
 31
0.0
  0
LINE
  5
23D
330
2
100
AcDbEntity
  8
0
  6
Continuous
 62
     7
100
AcDbLine
 10
18.52411498322307
 20
16.40569610966622
 30
0.0
 11
18.42552072507425
 21
16.0596969401257
 31
0.0
  0
LINE
  5
23E
330
2
100
AcDbEntity
  8
0
  6
Continuous
 62
     7
100
AcDbLine
 10
23.6526115165596
 20
15.99540530691491
 30
0.0
 11
23.75120577470852
 21
16.34140447645542
 31
0.0
  0
LINE
  5
23F
330
2
100
AcDbEntity
  8
0
  6
Continuous
 62
     7
100
AcDbLine
 10
24.60151504413421
 20
16.04160710171652
 30
0.0
 11
24.50292078597419
 21
15.69560793217601
 31
0.0
  0
LINE
  5
240
330
2
100
AcDbEntity
  8
0
  6
Continuous
 62
     7
100
AcDbLine
 10
18.19054465470029
 20
15.77450503847139
 30
0.0
 11
29.78503959891059
 21
4.746022458429122
 31
0.0
  0
LINE
  5
241
330
2
100
AcDbEntity
  8
0
  6
Continuous
 62
     7
100
AcDbLine
 10
29.97165237806522
 20
4.568117165461013
 30
0.0
 11
29.78484719577302
 21
4.746024798076007
 31
0.0
  0
LINE
  5
242
330
2
100
AcDbEntity
  8
0
  6
Continuous
 62
     7
100
AcDbLine
 10
30.82027521068253
 20
4.269597315207716
 30
0.0
 11
31.14653080909079
 21
4.2659952663955
 31
0.0
  0
LINE
  5
243
330
2
100
AcDbEntity
  8
0
  6
Continuous
 62
     7
100
AcDbLine
 10
31.14653080929059
 20
4.26599526641771
 30
0.0
 11
35.72023509432296
 21
4.209740089372907
 31
0.0
  0
LINE
  5
244
330
2
100
AcDbEntity
  8
0
  6
Continuous
 62
     7
100
AcDbLine
 10
36.0495236149176
 20
4.205464442788301
 30
0.0
 11
35.72034450787768
 21
4.209636044588505
 31
0.0
  0
LINE
  5
245
330
2
100
AcDbEntity
  8
0
  6
Continuous
 62
     7
100
AcDbLine
 10
36.28135068847376
 20
4.491766587998808
 30
0.0
 11
36.09488501447791
 21
4.668413174688724
 31
0.0
  0
LINE
  5
246
330
2
100
AcDbEntity
  8
0
  6
Continuous
 62
     7
100
AcDbLine
 10
36.37994494662267
 20
4.837765757550402
 30
0.0
 11
36.19347926182648
 21
5.014412354452312
 31
0.0
  0
LINE
  5
247
330
2
100
AcDbEntity
  8
0
  6
Continuous
 62
     7
100
AcDbLine
 10
36.09488501440017
 20
4.668413174688724
 30
0.0
 11
24.68784700970584
 21
15.51898027646952
 31
0.0
  0
LINE
  5
248
330
2
100
AcDbEntity
  8
0
  6
Continuous
 62
     7
100
AcDbLine
 10
36.19347926182648
 20
5.014412354452312
 30
0.0
 11
35.50634462420878
 21
5.668026420640023
 31
0.0
  0
LINE
  5
249
330
2
100
AcDbEntity
  8
0
  6
Continuous
 62
     7
100
AcDbLine
 10
24.7864412811081
 20
15.86497943341152
 30
0.0
 11
25.51330837241097
 21
15.17357118659202
 31
0.0
  0
LINE
  5
24A
330
2
100
AcDbEntity
  8
0
  6
Continuous
 62
     7
100
AcDbLine
 10
24.50123432958538
 20
15.6968854752208
 30
0.0
 11
24.6880394366751
 21
15.51897791425631
 31
0.0
  0
LINE
  5
24B
330
2
100
AcDbEntity
  8
0
  6
Continuous
 62
     7
100
AcDbLine
 10
24.60151504413421
 20
16.04160710171652
 30
0.0
 11
24.78644128120804
 21
15.86497943341152
 31
0.0
  0
LINE
  5
24C
330
2
100
AcDbEntity
  8
0
  6
Continuous
 62
     7
100
AcDbLine
 10
36.3592371246621
 20
4.321753091290301
 30
0.0
 11
36.45783138281101
 21
4.667752260830815
 31
0.0
  0
LINE
  5
24D
330
2
100
AcDbEntity
  8
0
  6
Continuous
 62
     7
100
AcDbLine
 10
23.6526115165596
 20
15.99540530691491
 30
0.0
 11
23.32635591811802
 21
15.9990073557271
 31
0.0
  0
LINE
  5
24E
330
2
100
AcDbEntity
  8
0
  6
Continuous
 62
     7
100
AcDbLine
 10
23.56477400809346
 20
16.34346279001481
 30
0.0
 11
23.75120577470852
 21
16.34140447645542
 31
0.0
  0
LINE
  5
24F
330
2
100
AcDbEntity
  8
0
  6
Continuous
 62
     7
100
AcDbLine
 10
23.32635591792934
 20
15.99900735570492
 30
0.0
 11
18.75265163288575
 21
16.05526253274972
 31
0.0
  0
LINE
  5
250
330
2
100
AcDbEntity
  8
0
  6
Continuous
 62
     7
100
AcDbLine
 10
18.42336354930929
 20
16.0595378053975
 30
0.0
 11
18.75254221933112
 21
16.05536657753412
 31
0.0
  0
SPLINE
  5
251
330
2
100
AcDbEntity
  8
0
  6
Continuous
 62
     7
100
AcDbSpline
210
0.0
220
0.0
230
1.0
 70
     8
 71
     3
 72
    13
 73
     9
 74
     0
 42
0.000000001
 43
0.0000000001
 40
0.0
 40
0.0
 40
0.0
 40
0.0
 40
0.0826354645
 40
0.1717078836
 40
0.272123244
 40
0.3867753611
 40
0.6629207429
 40
1.0
 40
1.0
 40
1.0
 40
1.0
 10
36.35922956022303
 20
4.321789506283312
 30
0.0
 10
36.35658728867277
 20
4.312510392918402
 30
0.0
 10
36.34793020895162
 20
4.294010244452215
 30
0.0
 10
36.32639989314153
 20
4.270164180219712
 30
0.0
 10
36.29694323040153
 20
4.249893326142714
 30
0.0
 10
36.24445741567682
 20
4.226222529855722
 30
0.0
 10
36.16059782324611
 20
4.208194038948708
 30
0.0
 10
36.08887582809057
 20
4.204980423814014
 30
0.0
 10
36.0495236149176
 20
4.205464442788301
 30
0.0
  0
SPLINE
  5
252
330
2
100
AcDbEntity
  8
0
  6
Continuous
 62
     7
100
AcDbSpline
210
0.0
220
0.0
230
1.0
 70
     8
 71
     3
 72
    12
 73
     8
 74
     0
 42
0.000000001
 43
0.0000000001
 40
0.0
 40
0.0
 40
0.0
 40
0.0
 40
0.2532896228
 40
0.5273249699
 40
0.7867764386000001
 40
0.9008932577999999
 40
1.0
 40
1.0
 40
1.0
 40
1.0
 10
30.81772289537496
 20
4.269814000239107
 30
0.0
 10
30.740695813017
 20
4.270761407339199
 30
0.0
 10
30.58049109438958
 20
4.290237123294721
 30
0.0
 10
30.34907025006422
 20
4.35323370876071
 30
0.0
 10
30.1672396238364
 20
4.431621397861012
 30
0.0
 10
30.04453574859387
 20
4.506898934604702
 30
0.0
 10
29.99349153466983
 20
4.547343391063311
 30
0.0
 10
29.97165237806522
 20
4.568117165461013
 30
0.0
  0
SPLINE
  5
253
330
2
100
AcDbEntity
  8
0
  6
Continuous
 62
     7
100
AcDbSpline
210
0.0
220
0.0
230
1.0
 70
     8
 71
     3
 72
    11
 73
     7
 74
     0
 42
0.000000001
 43
0.0000000001
 40
0.0
 40
0.0
 40
0.0
 40
0.0
 40
0.3140502272
 40
0.5793884319
 40
0.8023891139999999
 40
1.0
 40
1.0
 40
1.0
 40
1.0
 10
18.19054465470029
 20
15.77450503847139
 30
0.0
 10
18.17584075127792
 20
15.78849163961411
 30
0.0
 10
18.15023945994057
 20
15.81603955222602
 30
0.0
 10
18.12213524912817
 20
15.86006908080162
 30
0.0
 10
18.10844834523265
 20
15.90295211141171
 30
0.0
 10
18.1101600363282
 20
15.93093192053921
 30
0.0
 10
18.1136571629343
 20
15.94321311701591
 30
0.0
  0
SPLINE
  5
254
330
2
100
AcDbEntity
  8
0
  6
Continuous
 62
     7
100
AcDbSpline
210
0.0
220
0.0
230
1.0
 70
     8
 71
     3
 72
    11
 73
     7
 74
     0
 42
0.000000001
 43
0.0000000001
 40
0.0
 40
0.0
 40
0.0
 40
0.0
 40
0.1974280931
 40
0.4205604377000002
 40
0.6860917423
 40
1.0
 40
1.0
 40
1.0
 40
1.0
 10
36.45782884499583
 20
4.667787066035209
 30
0.0
 10
36.4613520875376
 20
4.68015852787842
 30
0.0
 10
36.46301392566929
 20
4.708384892292716
 30
0.0
 10
36.44903029993708
 20
4.751572773646903
 30
0.0
 10
36.42059343916323
 20
4.795906946129202
 30
0.0
 10
36.39476406403801
 20
4.823669562910922
 30
0.0
 10
36.37994494662267
 20
4.837765757550402
 30
0.0
  0
SPLINE
  5
255
330
2
100
AcDbEntity
  8
0
  6
Continuous
 62
     7
100
AcDbSpline
210
0.0
220
0.0
230
1.0
 70
     8
 71
     3
 72
     8
 73
     4
 74
     0
 42
0.000000001
 43
0.0000000001
 40
0.0
 40
0.0
 40
0.0
 40
0.0
 40
1.0
 40
1.0
 40
1.0
 40
1.0
 10
18.69016984203208
 20
16.40355440752332
 30
0.0
 10
18.63430505759286
 20
16.40427046977761
 30
0.0
 10
18.57843841804383
 20
16.4048404256401
 30
0.0
 10
18.52257417693835
 20
16.40559769072812
 30
0.0
  0
SPLINE
  5
256
330
2
100
AcDbEntity
  8
0
  6
Continuous
 62
     7
100
AcDbSpline
210
0.0
220
0.0
230
1.0
 70
     8
 71
     3
 72
    13
 73
     9
 74
     0
 42
0.000000001
 43
0.0000000001
 40
0.0
 40
0.0
 40
0.0
 40
0.0
 40
0.336991893
 40
0.6132300853000002
 40
0.7279136803
 40
0.8283315724999999
 40
0.9173921068
 40
1.0
 40
1.0
 40
1.0
 40
1.0
 10
18.52257417693835
 20
16.40559769072812
 30
0.0
 10
18.48316244196899
 20
16.40608244175852
 30
0.0
 10
18.41131511402726
 20
16.40285800830851
 30
0.0
 10
18.32729238701671
 20
16.38486279430242
 30
0.0
 10
18.27467730830759
 20
16.36119290303172
 30
0.0
 10
18.2451526858176
 20
16.34090354858472
 30
0.0
 10
18.2235726980736
 20
16.31703178014881
 30
0.0
 10
18.21489275439478
 20
16.2985062701917
 30
0.0
 10
18.21224639849971
 20
16.28921389516842
 30
0.0
  0
SPLINE
  5
257
330
2
100
AcDbEntity
  8
0
  6
Continuous
 62
     7
100
AcDbSpline
210
0.0
220
0.0
230
1.0
 70
     8
 71
     3
 72
    13
 73
     9
 74
     0
 42
0.000000001
 43
0.0000000001
 40
0.0
 40
0.0
 40
0.0
 40
0.0
 40
0.0826353605
 40
0.1717076693
 40
0.2721229073
 40
0.3867748083
 40
0.6629199707
 40
1.0
 40
1.0
 40
1.0
 40
1.0
 10
18.1136571629343
 20
15.94321311701591
 30
0.0
 10
18.11629943260864
 20
15.9524922300145
 30
0.0
 10
18.12495650952145
 20
15.97099237944641
 30
0.0
 10
18.14648684134889
 20
15.99483842867171
 30
0.0
 10
18.17594350131387
 20
16.01510926055979
 30
0.0
 10
18.22842927171627
 20
16.03878014947632
 30
0.0
 10
18.31228904371169
 20
16.05680866409292
 30
0.0
 10
18.38401119999482
 20
16.06002182601461
 30
0.0
 10
18.42336354930929
 20
16.0595378053975
 30
0.0
  0
SPLINE
  5
258
330
2
100
AcDbEntity
  8
0
  6
Continuous
 62
     7
100
AcDbSpline
210
0.0
220
0.0
230
1.0
 70
     8
 71
     3
 72
    12
 73
     8
 74
     0
 42
0.000000001
 43
0.0000000001
 40
0.0
 40
0.0
 40
0.0
 40
0.0
 40
0.2532896194
 40
0.5273249634
 40
0.7867764325
 40
0.9008932539999999
 40
1.0
 40
1.0
 40
1.0
 40
1.0
 10
23.65516383185616
 20
15.99518862188352
 30
0.0
 10
23.73219091089506
 20
15.99424121481671
 30
0.0
 10
23.89239562281813
 20
15.97476550034861
 30
0.0
 10
24.12381645905163
 20
15.91176891921161
 30
0.0
 10
24.30564708081718
 20
15.8333812351396
 30
0.0
 10
24.42835095613736
 20
15.75810370288031
 30
0.0
 10
24.47939517163768
 20
15.71765924861952
 30
0.0
 10
24.50123432958538
 20
15.6968854752208
 30
0.0
  0
SPLINE
  5
259
330
2
100
AcDbEntity
  8
0
  6
Continuous
 62
     7
100
AcDbSpline
210
0.0
220
0.0
230
1.0
 70
     8
 71
     3
 72
    11
 73
     7
 74
     0
 42
0.000000001
 43
0.0000000001
 40
0.0
 40
0.0
 40
0.0
 40
0.0
 40
0.3140502276
 40
0.5793884345000002
 40
0.8023891239000001
 40
1.0
 40
1.0
 40
1.0
 40
1.0
 10
36.28234208756015
 20
4.490497569254515
 30
0.0
 10
36.29704598940632
 20
4.47651096962142
 30
0.0
 10
36.32264727719161
 20
4.448963058652312
 30
0.0
 10
36.35075148112198
 20
4.404933532285604
 30
0.0
 10
36.36443838464013
 20
4.362050506270914
 30
0.0
 10
36.36272668844974
 20
4.334070700184811
 30
0.0
 10
36.35922956022303
 20
4.321789506283312
 30
0.0
  0
SPLINE
  5
25A
330
2
100
AcDbEntity
  8
0
  6
Continuous
 62
     7
100
AcDbSpline
210
0.0
220
0.0
230
1.0
 70
     8
 71
     3
 72
    12
 73
     8
 74
     0
 42
0.000000001
 43
0.0000000001
 40
0.0
 40
0.0
 40
0.0
 40
0.0
 40
0.0990646281
 40
0.2130503463
 40
0.4724179497
 40
0.746577188
 40
1.0
 40
1.0
 40
1.0
 40
1.0
 10
24.601515044556
 20
16.0416071012836
 30
0.0
 10
24.5796163091343
 20
16.06243754577671
 30
0.0
 10
24.52850309066159
 20
16.10303133897132
 30
0.0
 10
24.40560895046334
 20
16.17872000450802
 30
0.0
 10
24.2232887679042
 20
16.25750918765683
 30
0.0
 10
23.99109693122068
 20
16.32077148767562
 30
0.0
 10
23.8303071494088
 20
16.34031418585962
 30
0.0
 10
23.75299646926591
 20
16.34126508112362
 30
0.0
  0
LINE
  5
25B
330
2
100
AcDbEntity
  8
粗实线
 48
0.5
100
AcDbLine
 10
25.51330837241097
 20
15.17357118659202
 30
0.0
 11
35.50634462420878
 21
5.668026420640023
 31
0.0
  0
LINE
  5
25C
330
2
100
AcDbEntity
  8
粗实线
 48
0.5
100
AcDbLine
 10
18.69016984203208
 20
16.40355440752332
 30
0.0
 11
23.56477400809346
 21
16.34346279001481
 31
0.0
  0
ARC
  5
25D
330
2
100
AcDbEntity
  8
粗实线
 48
0.5
100
AcDbCircle
 10
23.68709609755637
 20
17.45690596649344
 30
0.0
 40
0.6705569312519947
100
AcDbArc
 50
173.7899012268233
 51
237.3035009403408
  0
ENDSEC
  0
SECTION
  2
OBJECTS
  0
DICTIONARY
  5
7
330
0
100
AcDbDictionary
281
     1
  3
ACAD_COLOR
350
4C
  3
ACAD_GROUP
350
39
  3
ACAD_LAYOUT
350
14
  3
ACAD_MATERIAL
350
9
  3
ACAD_MLEADERSTYLE
350
4F
  3
ACAD_MLINESTYLE
350
3A
  3
ACAD_PLOTSETTINGS
350
3B
  3
ACAD_PLOTSTYLENAME
350
6
  3
ACAD_SCALELIST
350
4D
  3
ACAD_TABLESTYLE
350
4E
  3
ACAD_VISUALSTYLE
350
2F
  3
ACDB_RECOMPOSE_DATA
350
269
  3
AcDbVariableDictionary
350
25E
  0
DICTIONARY
  5
20
330
1F
100
AcDbDictionary
280
     1
281
     1
  3
ACAD_LAYERSTATES
360
21
  3
ACLYDICTIONARY
360
22
  0
DICTIONARY
  5
19
330
18
100
AcDbDictionary
280
     1
281
     1
  3
ACAD_SORTENTS
360
1A
  0
DICTIONARY
  5
4C
102
{ACAD_REACTORS
330
7
102
}
330
7
100
AcDbDictionary
281
     1
  0
DICTIONARY
  5
39
102
{ACAD_REACTORS
330
7
102
}
330
7
100
AcDbDictionary
281
     1
  0
DICTIONARY
  5
14
102
{ACAD_REACTORS
330
7
102
}
330
7
100
AcDbDictionary
281
     1
  3
Model
350
13
  3
布局3
350
1D
1001
AcadStringInfo
1000
MIFCodePage
1070
     5
  0
DICTIONARY
  5
9
102
{ACAD_REACTORS
330
7
102
}
330
7
100
AcDbDictionary
281
     1
  3
ByBlock
350
44
  3
ByLayer
350
3C
  3
Global
350
8
  0
DICTIONARY
  5
4F
102
{ACAD_REACTORS
330
7
102
}
330
7
100
AcDbDictionary
281
     1
  0
DICTIONARY
  5
3A
102
{ACAD_REACTORS
330
7
102
}
330
7
100
AcDbDictionary
281
     1
  3
Standard
350
51
  0
DICTIONARY
  5
3B
102
{ACAD_REACTORS
330
7
102
}
330
7
100
AcDbDictionary
281
     1
1001
AcadStringInfo
1000
MIFCodePage
1070
     5
  0
ACDBDICTIONARYWDFLT
  5
6
102
{ACAD_REACTORS
330
7
102
}
330
7
100
AcDbDictionary
281
     1
  3
Normal
350
5
100
AcDbDictionaryWithDefault
340
5
  0
DICTIONARY
  5
4D
102
{ACAD_REACTORS
330
7
102
}
330
7
100
AcDbDictionary
281
     1
  3
*A1
350
56
  3
A0
350
57
  3
A1
350
58
  3
A2
350
59
  3
A3
350
5A
  3
A4
350
5B
  3
A5
350
5C
  3
A6
350
5D
  3
A7
350
5E
  3
A8
350
5F
  3
A9
350
60
  3
B0
350
61
  3
B1
350
62
  3
B2
350
63
  3
B3
350
64
  3
B4
350
65
  3
B5
350
66
  3
B6
350
67
  3
B7
350
68
  0
DICTIONARY
  5
4E
102
{ACAD_REACTORS
330
7
102
}
330
7
100
AcDbDictionary
281
     1
  3
Standard
350
52
  0
DICTIONARY
  5
2F
102
{ACAD_REACTORS
330
7
102
}
330
7
100
AcDbDictionary
281
     1
  3
2dWireframe
350
2E
  3
Realistic
350
54
  3
Wireframe
350
55
  0
XRECORD
  5
269
102
{ACAD_REACTORS
330
7
102
}
330
7
100
AcDbXrecord
280
     1
 90
        1
330
52
  0
DICTIONARY
  5
25E
102
{ACAD_REACTORS
330
7
102
}
330
7
100
AcDbDictionary
281
     1
  3
CANNOSCALE
350
264
  3
CMLEADERSTYLE
350
260
  3
CTABLESTYLE
350
25F
  3
CVIEWDETAILSTYLE
350
261
  3
CVIEWSECTIONSTYLE
350
262
  3
LAYEREVAL
350
266
  3
LAYERNOTIFY
350
267
  3
LIGHTINGUNITS
350
265
  3
MSLTSCALE
350
263
  0
DICTIONARY
  5
21
102
{ACAD_REACTORS
330
20
102
}
330
20
100
AcDbDictionary
281
     1
  0
DICTIONARY
  5
22
102
{ACAD_REACTORS
330
20
102
}
330
20
100
AcDbDictionary
281
     1
1001
ACAD
1000
<AllUsed
  0
SORTENTSTABLE
  5
1A
102
{ACAD_REACTORS
330
19
102
}
330
19
100
AcDbSortentsTable
330
18
  0
LAYOUT
  5
13
102
{ACAD_XDICTIONARY
360
16
102
}
102
{ACAD_REACTORS
330
14
102
}
330
14
100
AcDbPlotSettings
  1

  2
none_device
  4
ISO_A4_(210.00_x_297.00_MM)
  6

 40
7.5
 41
20.0
 42
7.5
 43
20.0
 44
210.0
 45
297.0
 46
11.54999923706054
 47
-13.65000009536743
 48
0.0
 49
0.0
140
0.0
141
0.0
142
1.0
143
8.704084754739808
 70
 11952
 72
     1
 73
     0
 74
     0
  7

 75
     0
147
0.1148885871608098
 76
     0
 77
     2
 78
   300
148
0.0
149
0.0
100
AcDbLayout
  1
Model
 70
     1
 71
     0
 10
0.0
 20
0.0
 11
12.0
 21
9.0
 12
0.0
 22
0.0
 32
0.0
 14
4481.471318350177
 24
-3535.630252803612
 34
0.0
 15
24959.29873815779
 25
454.717472976647
 35
0.0
146
0.0
 13
0.0
 23
0.0
 33
0.0
 16
1.0
 26
0.0
 36
0.0
 17
0.0
 27
1.0
 37
0.0
 76
     0
330
2
331
2D
1001
ACAD_PSEXT
1000
None
1000
None
1000
Not applicable
1000
The layout will not be plotted unless a new plotter configuration name is selected.
1070
     0
  0
LAYOUT
  5
1D
102
{ACAD_XDICTIONARY
360
1E
102
}
102
{ACAD_REACTORS
330
14
102
}
330
14
100
AcDbPlotSettings
  1

  2
TOSHIBA e-STUDIO PS3.pc3
  4
A4
  6

 40
5.0
 41
5.0
 42
4.888656616210936
 43
5.053009033203125
 44
209.8886566162109
 45
297.0530090332031
 46
0.0
 47
0.0
 48
0.0
 49
0.0
140
0.0
141
0.0
142
1.0
143
1.0
 70
   688
 72
     1
 73
     1
 74
     5
  7
monochrome.ctb
 75
    16
147
1.0
 76
     0
 77
     2
 78
   300
148
0.0
149
0.0
100
AcDbLayout
  1
布局3
 70
     1
 71
     1
 10
-5.053009033203125
 20
-5.0
 11
292.0
 21
204.888656616211
 12
0.0
 22
0.0
 32
0.0
 14
5.0
 24
4.899999999999494
 34
0.0
 15
282.0000000000003
 25
194.9
 35
0.0
146
0.0
 13
0.0
 23
0.0
 33
0.0
 16
1.0
 26
0.0
 36
0.0
 17
0.0
 27
1.0
 37
0.0
 76
     0
330
18
1001
ACAD_PSEXT
1000
TOSHIBA e-STUDIO PS3.pc3
1000
TOSHIBA e-STUDIO PS3
1000
192.168.1.14_1
1000

1070
     0
1001
AcadStringInfo
1000
MIFCodePage
1070
     5
  0
MATERIAL
  5
44
102
{ACAD_XDICTIONARY
360
45
102
}
102
{ACAD_REACTORS
330
9
102
}
330
9
100
AcDbMaterial
  1
ByBlock
 72
     0
 43
0.0008202099737533
 43
0.0
 43
0.0
 43
0.0
 43
0.0
 43
0.0008202099737533
 43
0.0
 43
0.0
 43
0.0
 43
0.0
 43
1.0
 43
0.0
 43
0.0
 43
0.0
 43
0.0
 43
1.0
 77
     0
 47
0.0008202099737533
 47
0.0
 47
0.0
 47
0.0
 47
0.0
 47
0.0008202099737533
 47
0.0
 47
0.0
 47
0.0
 47
0.0
 47
1.0
 47
0.0
 47
0.0
 47
0.0
 47
0.0
 47
1.0
171
     0
 49
0.0008202099737533
 49
0.0
 49
0.0
 49
0.0
 49
0.0
 49
0.0008202099737533
 49
0.0
 49
0.0
 49
0.0
 49
0.0
 49
1.0
 49
0.0
 49
0.0
 49
0.0
 49
0.0
 49
1.0
175
     0
142
0.0008202099737533
142
0.0
142
0.0
142
0.0
142
0.0
142
0.0008202099737533
142
0.0
142
0.0
142
0.0
142
0.0
142
1.0
142
0.0
142
0.0
142
0.0
142
0.0
142
1.0
179
     0
144
0.0008202099737533
144
0.0
144
0.0
144
0.0
144
0.0
144
0.0008202099737533
144
0.0
144
0.0
144
0.0
144
0.0
144
1.0
144
0.0
144
0.0
144
0.0
144
0.0
144
1.0
147
0.0008202099737533
147
0.0
147
0.0
147
0.0
147
0.0
147
0.0008202099737533
147
0.0
147
0.0
147
0.0
147
0.0
147
1.0
147
0.0
147
0.0
147
0.0
147
0.0
147
1.0
  0
MATERIAL
  5
3C
102
{ACAD_XDICTIONARY
360
3D
102
}
102
{ACAD_REACTORS
330
9
102
}
330
9
100
AcDbMaterial
  1
ByLayer
 72
     0
 43
0.0008202099737533
 43
0.0
 43
0.0
 43
0.0
 43
0.0
 43
0.0008202099737533
 43
0.0
 43
0.0
 43
0.0
 43
0.0
 43
1.0
 43
0.0
 43
0.0
 43
0.0
 43
0.0
 43
1.0
 77
     0
 47
0.0008202099737533
 47
0.0
 47
0.0
 47
0.0
 47
0.0
 47
0.0008202099737533
 47
0.0
 47
0.0
 47
0.0
 47
0.0
 47
1.0
 47
0.0
 47
0.0
 47
0.0
 47
0.0
 47
1.0
171
     0
 49
0.0008202099737533
 49
0.0
 49
0.0
 49
0.0
 49
0.0
 49
0.0008202099737533
 49
0.0
 49
0.0
 49
0.0
 49
0.0
 49
1.0
 49
0.0
 49
0.0
 49
0.0
 49
0.0
 49
1.0
175
     0
142
0.0008202099737533
142
0.0
142
0.0
142
0.0
142
0.0
142
0.0008202099737533
142
0.0
142
0.0
142
0.0
142
0.0
142
1.0
142
0.0
142
0.0
142
0.0
142
0.0
142
1.0
179
     0
144
0.0008202099737533
144
0.0
144
0.0
144
0.0
144
0.0
144
0.0008202099737533
144
0.0
144
0.0
144
0.0
144
0.0
144
1.0
144
0.0
144
0.0
144
0.0
144
0.0
144
1.0
147
0.0008202099737533
147
0.0
147
0.0
147
0.0
147
0.0
147
0.0008202099737533
147
0.0
147
0.0
147
0.0
147
0.0
147
1.0
147
0.0
147
0.0
147
0.0
147
0.0
147
1.0
  0
MATERIAL
  5
8
102
{ACAD_XDICTIONARY
360
A
102
}
102
{ACAD_REACTORS
330
9
102
}
330
9
100
AcDbMaterial
  1
Global
 72
     0
 43
0.0008202099737533
 43
0.0
 43
0.0
 43
0.0
 43
0.0
 43
0.0008202099737533
 43
0.0
 43
0.0
 43
0.0
 43
0.0
 43
1.0
 43
0.0
 43
0.0
 43
0.0
 43
0.0
 43
1.0
 77
     0
 47
0.0008202099737533
 47
0.0
 47
0.0
 47
0.0
 47
0.0
 47
0.0008202099737533
 47
0.0
 47
0.0
 47
0.0
 47
0.0
 47
1.0
 47
0.0
 47
0.0
 47
0.0
 47
0.0
 47
1.0
171
     0
 49
0.0008202099737533
 49
0.0
 49
0.0
 49
0.0
 49
0.0
 49
0.0008202099737533
 49
0.0
 49
0.0
 49
0.0
 49
0.0
 49
1.0
 49
0.0
 49
0.0
 49
0.0
 49
0.0
 49
1.0
175
     0
142
0.0008202099737533
142
0.0
142
0.0
142
0.0
142
0.0
142
0.0008202099737533
142
0.0
142
0.0
142
0.0
142
0.0
142
1.0
142
0.0
142
0.0
142
0.0
142
0.0
142
1.0
179
     0
144
0.0008202099737533
144
0.0
144
0.0
144
0.0
144
0.0
144
0.0008202099737533
144
0.0
144
0.0
144
0.0
144
0.0
144
1.0
144
0.0
144
0.0
144
0.0
144
0.0
144
1.0
147
0.0008202099737533
147
0.0
147
0.0
147
0.0
147
0.0
147
0.0008202099737533
147
0.0
147
0.0
147
0.0
147
0.0
147
1.0
147
0.0
147
0.0
147
0.0
147
0.0
147
1.0
  0
MLINESTYLE
  5
51
102
{ACAD_REACTORS
330
3A
102
}
330
3A
100
AcDbMlineStyle
  2
STANDARD
 70
     0
  3

 62
   256
 51
90.0
 52
90.0
 71
     2
 49
0.5
 62
   256
  6
BYLAYER
 49
-0.5
 62
   256
  6
BYLAYER
  0
ACDBPLACEHOLDER
  5
5
102
{ACAD_REACTORS
330
6
102
}
330
6
  0
SCALE
  5
56
102
{ACAD_REACTORS
330
4D
102
}
330
4D
100
AcDbScale
 70
     0
300
1:1_XREF_XREF
140
1.0
141
1.0
290
     0
  0
SCALE
  5
57
102
{ACAD_REACTORS
330
4D
102
}
330
4D
100
AcDbScale
 70
     0
300
1:1
140
1.0
141
1.0
290
     1
  0
SCALE
  5
58
102
{ACAD_REACTORS
330
4D
102
}
330
4D
100
AcDbScale
 70
     0
300
1:3
140
1.0
141
3.0
290
     0
  0
SCALE
  5
59
102
{ACAD_REACTORS
330
4D
102
}
330
4D
100
AcDbScale
 70
     0
300
1:2
140
1.0
141
2.0
290
     0
  0
SCALE
  5
5A
102
{ACAD_REACTORS
330
4D
102
}
330
4D
100
AcDbScale
 70
     0
300
1:4
140
1.0
141
4.0
290
     0
  0
SCALE
  5
5B
102
{ACAD_REACTORS
330
4D
102
}
330
4D
100
AcDbScale
 70
     0
300
1:5
140
1.0
141
5.0
290
     0
  0
SCALE
  5
5C
102
{ACAD_REACTORS
330
4D
102
}
330
4D
100
AcDbScale
 70
     0
300
1:8
140
1.0
141
8.0
290
     0
  0
SCALE
  5
5D
102
{ACAD_REACTORS
330
4D
102
}
330
4D
100
AcDbScale
 70
     0
300
1:10
140
1.0
141
10.0
290
     0
  0
SCALE
  5
5E
102
{ACAD_REACTORS
330
4D
102
}
330
4D
100
AcDbScale
 70
     0
300
1:16
140
1.0
141
16.0
290
     0
  0
SCALE
  5
5F
102
{ACAD_REACTORS
330
4D
102
}
330
4D
100
AcDbScale
 70
     0
300
1:20
140
1.0
141
20.0
290
     0
  0
SCALE
  5
60
102
{ACAD_REACTORS
330
4D
102
}
330
4D
100
AcDbScale
 70
     0
300
1:30
140
1.0
141
30.0
290
     0
  0
SCALE
  5
61
102
{ACAD_REACTORS
330
4D
102
}
330
4D
100
AcDbScale
 70
     0
300
1:40
140
1.0
141
40.0
290
     0
  0
SCALE
  5
62
102
{ACAD_REACTORS
330
4D
102
}
330
4D
100
AcDbScale
 70
     0
300
1:50
140
1.0
141
50.0
290
     0
  0
SCALE
  5
63
102
{ACAD_REACTORS
330
4D
102
}
330
4D
100
AcDbScale
 70
     0
300
1:100
140
1.0
141
100.0
290
     0
  0
SCALE
  5
64
102
{ACAD_REACTORS
330
4D
102
}
330
4D
100
AcDbScale
 70
     0
300
2:1
140
2.0
141
1.0
290
     0
  0
SCALE
  5
65
102
{ACAD_REACTORS
330
4D
102
}
330
4D
100
AcDbScale
 70
     0
300
4:1
140
4.0
141
1.0
290
     0
  0
SCALE
  5
66
102
{ACAD_REACTORS
330
4D
102
}
330
4D
100
AcDbScale
 70
     0
300
8:1
140
8.0
141
1.0
290
     0
  0
SCALE
  5
67
102
{ACAD_REACTORS
330
4D
102
}
330
4D
100
AcDbScale
 70
     0
300
10:1
140
10.0
141
1.0
290
     0
  0
SCALE
  5
68
102
{ACAD_REACTORS
330
4D
102
}
330
4D
100
AcDbScale
 70
     0
300
100:1
140
100.0
141
1.0
290
     0
  0
TABLESTYLE
  5
52
102
{ACAD_XDICTIONARY
360
53
102
}
102
{ACAD_REACTORS
330
4E
102
}
330
4E
100
AcDbTableStyle
280
     0
  3
Standard
 70
     0
 71
     0
 40
1.5
 41
1.5
280
     0
281
     0
  7
Standard
140
4.5
170
     2
 62
     0
 63
     7
283
     0
 90
      512
 91
        0
  1

274
    -2
284
     1
 64
     0
275
    -2
285
     1
 65
     0
276
    -2
286
     1
 66
     0
277
    -2
287
     1
 67
     0
278
    -2
288
     1
 68
     0
279
    -2
289
     1
 69
     0
  7
Standard
140
6.0
170
     5
 62
     0
 63
     7
283
     0
 90
      512
 91
        0
  1

274
    -2
284
     1
 64
     0
275
    -2
285
     1
 65
     0
276
    -2
286
     1
 66
     0
277
    -2
287
     1
 67
     0
278
    -2
288
     1
 68
     0
279
    -2
289
     1
 69
     0
  7
Standard
140
4.5
170
     5
 62
     0
 63
     7
283
     0
 90
      512
 91
        0
  1

274
    -2
284
     1
 64
     0
275
    -2
285
     1
 65
     0
276
    -2
286
     1
 66
     0
277
    -2
287
     1
 67
     0
278
    -2
288
     1
 68
     0
279
    -2
289
     1
 69
     0
  0
VISUALSTYLE
  5
2E
102
{ACAD_REACTORS
330
2F
102
}
330
2F
100
AcDbVisualStyle
  2
2dWireframe
 70
     4
177
     3
291
     0
 70
    58
 90
        0
176
     1
 90
        2
176
     1
 90
        0
176
     1
 90
        0
176
     1
 40
0.6
176
     1
 40
30.0
176
     1
 62
     7
420
 16777215
176
     1
 90
        1
176
     1
 90
        4
176
     1
 62
     7
176
     1
 62
   257
176
     1
 90
        1
176
     1
 90
        1
176
     1
 40
1.0
176
     1
 90
        0
176
     1
 62
   257
176
     1
 40
1.0
176
     1
 90
        1
176
     1
 90
        6
176
     1
 90
        2
176
     1
 62
     7
176
     1
 90
        5
176
     1
 90
        0
176
     1
 90
        0
176
     1
290
     0
176
     1
 90
        1
176
     1
 40
0.0
176
     1
 90
        0
176
     1
290
     1
176
     1
290
     1
176
     1
290
     0
176
     1
290
     0
176
     1
290
     0
176
     1
290
     0
176
     1
290
     0
176
     1
290
     0
176
     1
290
     0
176
     1
 90
       50
176
     1
 40
0.0
176
     1
 40
1.0
176
     1
 90
        0
176
     1
 62
    18
176
     1
 90
       50
176
     1
 90
        3
176
     1
 62
     5
420
      255
176
     1
290
     0
176
     1
 90
       50
176
     1
 90
       50
176
     1
 90
       50
176
     1
290
     0
176
     1
 90
       50
176
     1
 62
   256
176
     0
 40
1.0
176
     0
 90
        2
176
     1
  1
strokes_ogs.tif
176
     1
290
     0
176
     1
 40
1.0
176
     1
 40
1.0
176
     1
  0
VISUALSTYLE
  5
54
102
{ACAD_REACTORS
330
2F
102
}
330
2F
100
AcDbVisualStyle
  2
Realistic
 70
     8
177
     3
291
     0
 70
    58
 90
        2
176
     1
 90
        3
176
     1
 90
        0
176
     1
 90
        2
176
     1
 40
0.6
176
     1
 40
30.0
176
     1
 62
     7
420
 16777215
176
     1
 90
        0
176
     1
 90
        0
176
     1
 62
     7
176
     1
 62
   257
176
     1
 90
        1
176
     1
 90
        1
176
     1
 40
1.0
176
     1
 90
        8
176
     1
 62
   257
176
     1
 40
1.0
176
     1
 90
        1
176
     1
 90
        6
176
     1
 90
        2
176
     1
 62
     7
176
     1
 90
        3
176
     1
 90
        0
176
     1
 90
        0
176
     1
290
     0
176
     1
 90
       13
176
     1
 40
0.0
176
     1
 90
        0
176
     1
290
     0
176
     1
290
     1
176
     1
290
     1
176
     1
290
     0
176
     1
290
     0
176
     1
290
     0
176
     1
290
     0
176
     1
290
     0
176
     1
290
     0
176
     1
 90
       50
176
     1
 40
0.0
176
     1
 40
1.0
176
     1
 90
        0
176
     1
 62
    18
176
     1
 90
       50
176
     1
 90
        3
176
     1
 62
     5
420
      255
176
     1
290
     0
176
     1
 90
       50
176
     1
 90
       50
176
     1
 90
       50
176
     1
290
     0
176
     1
 90
       50
176
     1
 62
   256
176
     0
 40
1.0
176
     0
 90
        2
176
     1
  1
strokes_ogs.tif
176
     1
290
     0
176
     1
 40
1.0
176
     1
 40
1.0
176
     1
  0
VISUALSTYLE
  5
55
102
{ACAD_REACTORS
330
2F
102
}
330
2F
100
AcDbVisualStyle
  2
Wireframe
 70
     5
177
     3
291
     0
 70
    58
 90
        0
176
     1
 90
        2
176
     1
 90
        0
176
     1
 90
        0
176
     1
 40
0.6
176
     1
 40
30.0
176
     1
 62
     7
420
 16777215
176
     1
 90
        1
176
     1
 90
        4
176
     1
 62
     7
176
     1
 62
   257
176
     1
 90
        1
176
     1
 90
        1
176
     1
 40
1.0
176
     1
 90
        0
176
     1
 62
   257
176
     1
 40
1.0
176
     1
 90
        1
176
     1
 90
        6
176
     1
 90
        2
176
     1
 62
     7
176
     1
 90
        3
176
     1
 90
        0
176
     1
 90
        0
176
     1
290
     0
176
     1
 90
        1
176
     1
 40
0.0
176
     1
 90
        0
176
     1
290
     0
176
     1
290
     1
176
     1
290
     1
176
     1
290
     0
176
     1
290
     0
176
     1
290
     0
176
     1
290
     0
176
     1
290
     0
176
     1
290
     0
176
     1
 90
       50
176
     1
 40
0.0
176
     1
 40
1.0
176
     1
 90
        0
176
     1
 62
    18
176
     1
 90
       50
176
     1
 90
        3
176
     1
 62
     5
420
      255
176
     1
290
     0
176
     1
 90
       50
176
     1
 90
       50
176
     1
 90
       50
176
     1
290
     0
176
     1
 90
       50
176
     1
 62
   256
176
     0
 40
1.0
176
     0
 90
        2
176
     1
  1
strokes_ogs.tif
176
     1
290
     0
176
     1
 40
1.0
176
     1
 40
1.0
176
     1
  0
DICTIONARYVAR
  5
264
102
{ACAD_REACTORS
330
25E
102
}
330
25E
100
DictionaryVariables
280
     0
  1
1:1
  0
DICTIONARYVAR
  5
260
102
{ACAD_REACTORS
330
25E
102
}
330
25E
100
DictionaryVariables
280
     0
  1
STANDARD
  0
DICTIONARYVAR
  5
25F
102
{ACAD_REACTORS
330
25E
102
}
330
25E
100
DictionaryVariables
280
     0
  1
STANDARD
  0
DICTIONARYVAR
  5
261
102
{ACAD_REACTORS
330
25E
102
}
330
25E
100
DictionaryVariables
280
     0
  1

  0
DICTIONARYVAR
  5
262
102
{ACAD_REACTORS
330
25E
102
}
330
25E
100
DictionaryVariables
280
     0
  1

  0
DICTIONARYVAR
  5
266
102
{ACAD_REACTORS
330
25E
102
}
330
25E
100
DictionaryVariables
280
     0
  1
1
  0
DICTIONARYVAR
  5
267
102
{ACAD_REACTORS
330
25E
102
}
330
25E
100
DictionaryVariables
280
     0
  1
15
  0
DICTIONARYVAR
  5
265
102
{ACAD_REACTORS
330
25E
102
}
330
25E
100
DictionaryVariables
280
     0
  1
0
  0
DICTIONARYVAR
  5
263
102
{ACAD_REACTORS
330
25E
102
}
330
25E
100
DictionaryVariables
280
     0
  1
0
  0
DICTIONARY
  5
16
330
13
100
AcDbDictionary
280
     1
281
     1
  0
DICTIONARY
  5
1E
330
1D
100
AcDbDictionary
280
     1
281
     1
  0
DICTIONARY
  5
45
330
44
100
AcDbDictionary
280
     1
281
     1
  3
BUMPTILE
360
46
  3
DIFFUSETILE
360
47
  3
OPACITYTILE
360
48
  3
REFLECTIONTILE
360
49
  3
REFRACTIONTILE
360
4A
  3
SPECULARTILE
360
4B
  0
DICTIONARY
  5
3D
330
3C
100
AcDbDictionary
280
     1
281
     1
  3
BUMPTILE
360
3E
  3
DIFFUSETILE
360
3F
  3
OPACITYTILE
360
40
  3
REFLECTIONTILE
360
41
  3
REFRACTIONTILE
360
42
  3
SPECULARTILE
360
43
  0
DICTIONARY
  5
A
330
8
100
AcDbDictionary
280
     1
281
     1
  3
BUMPTILE
360
B
  3
DIFFUSETILE
360
C
  3
OPACITYTILE
360
D
  3
REFLECTIONTILE
360
E
  3
REFRACTIONTILE
360
F
  3
SPECULARTILE
360
10
  0
DICTIONARY
  5
53
330
52
100
AcDbDictionary
280
     1
281
     1
  3
ACAD_ROUNDTRIP_2008_TABLESTYLE_CELLSTYLEMAP
360
268
  0
XRECORD
  5
46
102
{ACAD_REACTORS
330
45
102
}
330
45
100
AcDbXrecord
280
     1
270
     1
271
     1
  0
XRECORD
  5
47
102
{ACAD_REACTORS
330
45
102
}
330
45
100
AcDbXrecord
280
     1
270
     1
271
     1
  0
XRECORD
  5
48
102
{ACAD_REACTORS
330
45
102
}
330
45
100
AcDbXrecord
280
     1
270
     1
271
     1
  0
XRECORD
  5
49
102
{ACAD_REACTORS
330
45
102
}
330
45
100
AcDbXrecord
280
     1
270
     1
271
     1
  0
XRECORD
  5
4A
102
{ACAD_REACTORS
330
45
102
}
330
45
100
AcDbXrecord
280
     1
270
     1
271
     1
  0
XRECORD
  5
4B
102
{ACAD_REACTORS
330
45
102
}
330
45
100
AcDbXrecord
280
     1
270
     1
271
     1
  0
XRECORD
  5
3E
102
{ACAD_REACTORS
330
3D
102
}
330
3D
100
AcDbXrecord
280
     1
270
     1
271
     1
  0
XRECORD
  5
3F
102
{ACAD_REACTORS
330
3D
102
}
330
3D
100
AcDbXrecord
280
     1
270
     1
271
     1
  0
XRECORD
  5
40
102
{ACAD_REACTORS
330
3D
102
}
330
3D
100
AcDbXrecord
280
     1
270
     1
271
     1
  0
XRECORD
  5
41
102
{ACAD_REACTORS
330
3D
102
}
330
3D
100
AcDbXrecord
280
     1
270
     1
271
     1
  0
XRECORD
  5
42
102
{ACAD_REACTORS
330
3D
102
}
330
3D
100
AcDbXrecord
280
     1
270
     1
271
     1
  0
XRECORD
  5
43
102
{ACAD_REACTORS
330
3D
102
}
330
3D
100
AcDbXrecord
280
     1
270
     1
271
     1
  0
XRECORD
  5
B
102
{ACAD_REACTORS
330
A
102
}
330
A
100
AcDbXrecord
280
     1
270
     1
271
     1
  0
XRECORD
  5
C
102
{ACAD_REACTORS
330
A
102
}
330
A
100
AcDbXrecord
280
     1
270
     1
271
     1
  0
XRECORD
  5
D
102
{ACAD_REACTORS
330
A
102
}
330
A
100
AcDbXrecord
280
     1
270
     1
271
     1
  0
XRECORD
  5
E
102
{ACAD_REACTORS
330
A
102
}
330
A
100
AcDbXrecord
280
     1
270
     1
271
     1
  0
XRECORD
  5
F
102
{ACAD_REACTORS
330
A
102
}
330
A
100
AcDbXrecord
280
     1
270
     1
271
     1
  0
XRECORD
  5
10
102
{ACAD_REACTORS
330
A
102
}
330
A
100
AcDbXrecord
280
     1
270
     1
271
     1
  0
CELLSTYLEMAP
  5
268
102
{ACAD_REACTORS
330
53
102
}
330
53
100
AcDbCellStyleMap
 90
        3
300
CELLSTYLE
  1
TABLEFORMAT_BEGIN
 90
        5
170
     1
 91
        0
 92
    32768
 62
   257
 93
        1
300
CONTENTFORMAT
  1
CONTENTFORMAT_BEGIN
 90
        0
 91
        0
 92
      512
 93
        0
300

 40
0.0
140
1.0
 94
        5
 62
     0
340
25
144
6.0
309
CONTENTFORMAT_END
171
     1
301
MARGIN
  1
CELLMARGIN_BEGIN
 40
1.5
 40
1.5
 40
1.5
 40
1.5
 40
0.18
 40
0.18
309
CELLMARGIN_END
 94
        6
 95
        1
302
GRIDFORMAT
  1
GRIDFORMAT_BEGIN
 90
        0
 91
        1
 62
     0
 92
       -2
340
0
 93
        0
 40
1.125
309
GRIDFORMAT_END
 95
        2
302
GRIDFORMAT
  1
GRIDFORMAT_BEGIN
 90
        0
 91
        1
 62
     0
 92
       -2
340
0
 93
        0
 40
1.125
309
GRIDFORMAT_END
 95
        4
302
GRIDFORMAT
  1
GRIDFORMAT_BEGIN
 90
        0
 91
        1
 62
     0
 92
       -2
340
0
 93
        0
 40
1.125
309
GRIDFORMAT_END
 95
        8
302
GRIDFORMAT
  1
GRIDFORMAT_BEGIN
 90
        0
 91
        1
 62
     0
 92
       -2
340
0
 93
        0
 40
1.125
309
GRIDFORMAT_END
 95
       16
302
GRIDFORMAT
  1
GRIDFORMAT_BEGIN
 90
        0
 91
        1
 62
     0
 92
       -2
340
0
 93
        0
 40
1.125
309
GRIDFORMAT_END
 95
       32
302
GRIDFORMAT
  1
GRIDFORMAT_BEGIN
 90
        0
 91
        1
 62
     0
 92
       -2
340
0
 93
        0
 40
1.125
309
GRIDFORMAT_END
309
TABLEFORMAT_END
  1
CELLSTYLE_BEGIN
 90
        1
 91
        1
300
_TITLE
309
CELLSTYLE_END
300
CELLSTYLE
  1
TABLEFORMAT_BEGIN
 90
        5
170
     1
 91
        0
 92
        0
 62
   257
 93
        1
300
CONTENTFORMAT
  1
CONTENTFORMAT_BEGIN
 90
        0
 91
        0
 92
      512
 93
        0
300

 40
0.0
140
1.0
 94
        5
 62
     0
340
25
144
4.5
309
CONTENTFORMAT_END
171
     1
301
MARGIN
  1
CELLMARGIN_BEGIN
 40
1.5
 40
1.5
 40
1.5
 40
1.5
 40
0.18
 40
0.18
309
CELLMARGIN_END
 94
        6
 95
        1
302
GRIDFORMAT
  1
GRIDFORMAT_BEGIN
 90
        0
 91
        1
 62
     0
 92
       -2
340
0
 93
        0
 40
1.125
309
GRIDFORMAT_END
 95
        2
302
GRIDFORMAT
  1
GRIDFORMAT_BEGIN
 90
        0
 91
        1
 62
     0
 92
       -2
340
0
 93
        0
 40
1.125
309
GRIDFORMAT_END
 95
        4
302
GRIDFORMAT
  1
GRIDFORMAT_BEGIN
 90
        0
 91
        1
 62
     0
 92
       -2
340
0
 93
        0
 40
1.125
309
GRIDFORMAT_END
 95
        8
302
GRIDFORMAT
  1
GRIDFORMAT_BEGIN
 90
        0
 91
        1
 62
     0
 92
       -2
340
0
 93
        0
 40
1.125
309
GRIDFORMAT_END
 95
       16
302
GRIDFORMAT
  1
GRIDFORMAT_BEGIN
 90
        0
 91
        1
 62
     0
 92
       -2
340
0
 93
        0
 40
1.125
309
GRIDFORMAT_END
 95
       32
302
GRIDFORMAT
  1
GRIDFORMAT_BEGIN
 90
        0
 91
        1
 62
     0
 92
       -2
340
0
 93
        0
 40
1.125
309
GRIDFORMAT_END
309
TABLEFORMAT_END
  1
CELLSTYLE_BEGIN
 90
        2
 91
        1
300
_HEADER
309
CELLSTYLE_END
300
CELLSTYLE
  1
TABLEFORMAT_BEGIN
 90
        5
170
     1
 91
        0
 92
        0
 62
   257
 93
        1
300
CONTENTFORMAT
  1
CONTENTFORMAT_BEGIN
 90
        0
 91
        0
 92
      512
 93
        0
300

 40
0.0
140
1.0
 94
        2
 62
     0
340
25
144
4.5
309
CONTENTFORMAT_END
171
     1
301
MARGIN
  1
CELLMARGIN_BEGIN
 40
1.5
 40
1.5
 40
1.5
 40
1.5
 40
0.18
 40
0.18
309
CELLMARGIN_END
 94
        6
 95
        1
302
GRIDFORMAT
  1
GRIDFORMAT_BEGIN
 90
        0
 91
        1
 62
     0
 92
       -2
340
0
 93
        0
 40
1.125
309
GRIDFORMAT_END
 95
        2
302
GRIDFORMAT
  1
GRIDFORMAT_BEGIN
 90
        0
 91
        1
 62
     0
 92
       -2
340
0
 93
        0
 40
1.125
309
GRIDFORMAT_END
 95
        4
302
GRIDFORMAT
  1
GRIDFORMAT_BEGIN
 90
        0
 91
        1
 62
     0
 92
       -2
340
0
 93
        0
 40
1.125
309
GRIDFORMAT_END
 95
        8
302
GRIDFORMAT
  1
GRIDFORMAT_BEGIN
 90
        0
 91
        1
 62
     0
 92
       -2
340
0
 93
        0
 40
1.125
309
GRIDFORMAT_END
 95
       16
302
GRIDFORMAT
  1
GRIDFORMAT_BEGIN
 90
        0
 91
        1
 62
     0
 92
       -2
340
0
 93
        0
 40
1.125
309
GRIDFORMAT_END
 95
       32
302
GRIDFORMAT
  1
GRIDFORMAT_BEGIN
 90
        0
 91
        1
 62
     0
 92
       -2
340
0
 93
        0
 40
1.125
309
GRIDFORMAT_END
309
TABLEFORMAT_END
  1
CELLSTYLE_BEGIN
 90
        3
 91
        2
300
_DATA
309
CELLSTYLE_END
  0
ENDSEC
  0
SECTION
  2
ACDSDATA
 70
     2
 71
     7
  0
ACDSSCHEMA
 90
        0
  1
AcDb_Thumbnail_Schema
  2
AcDbDs::ID
280
    10
 91
        8
  2
Thumbnail_Data
280
    15
 91
        0
101
ACDSRECORD
 95
        0
 90
        1
  2
AcDbDs::TreatedAsObjectData
280
     1
291
     1
101
ACDSRECORD
 95
        0
 90
        2
  2
AcDbDs::Legacy
280
     1
291
     1
101
ACDSRECORD
  1
AcDbDs::ID
 90
        3
  2
AcDs:Indexable
280
     1
291
     1
101
ACDSRECORD
  1
AcDbDs::ID
 90
        4
  2
AcDbDs::HandleAttribute
280
     7
282
     1
  0
ACDSSCHEMA
 90
        1
  1
AcDbDs::TreatedAsObjectDataSchema
  2
AcDbDs::TreatedAsObjectData
280
     1
 91
        0
  0
ACDSSCHEMA
 90
        2
  1
AcDbDs::LegacySchema
  2
AcDbDs::Legacy
280
     1
 91
        0
  0
ACDSSCHEMA
 90
        3
  1
AcDbDs::IndexedPropertySchema
  2
AcDs:Indexable
280
     1
 91
        0
  0
ACDSSCHEMA
 90
        4
  1
AcDbDs::HandleAttributeSchema
  2
AcDbDs::HandleAttribute
280
     7
 91
        1
284
     1
  0
ACDSRECORD
 90
        0
  2
AcDbDs::ID
280
    10
320
13
  2
Thumbnail_Data
280
    15
 94
     2733
310
89504E470D0A1A0A0000000D4948445200000100000000530802000000FF7D4EDC00000A744944415478DAED9D4B6C13D71AC7FF63C7CF38B6431287D80E763C8402A510AA969B7B814B69116D454129AD44AB6E587037AD2A2155F74A5D54AABAAD2A655354A98B9B6EFB502316558B80F68A059B1252686B829830CE8334
310
761CEC38F1731E7761700EB13389133B09F8FB2DA2C9DFE79CF93CF39D39E73B8F3140100441AC0C1DD492C7C073450A00A8A6F9BFAC524C5F5FDF92677C5082AAAEC05A822008822008822008822008822008822008822008822008822008822008822008822008822008822008A21C3870EB5E02519BE8368211010456EC
310
C43AE80A251044B9D46D042378F0A770EA2AAE8E60A4E4D3DD04530E391972F1A7AFE2D5294C5DC335BA97C48AFA0E1BA30208104A7EB4033B8EE3B8030E05CA47F868052510C4466F013470C0318EF1694C3BE1E4C0A9F45E17E2C98307BFEE251014041304550082A01860AD2A9FAE031D007CF001C820338631BA25C45A
310
A25FC77373E00EE3B008B11DED01040630D08AD60412DAB9DAD1EE81A7031D16584EE0443DEA9D703E8B67EFE08E0489EE28F1D874818C3076A0E3088E1CC2A1633896463A8B6C031AB473196098C1CC311CE3C1BBE00A20E085F7088EE49B1182786C5A0009D21CE6FEC49F02845FF1EB38C69348B6A16D0E730A94925902
310
080C63D80C33801FF16312490B2C3398B1C176099732C8D01D251E3F160C622E36A66980A11DEDCB2981201E832ED0628C63DC0D77B1BE055B46314AF78C78C22B403E1870C0C18A36D8968C8F09E249A80000A6306587DD00C3432B3B8EE0481861BA614465D9106B81F63CB7A7A5AE2512892CD00FE60E860C2100DB675F
310
B318C2BC696147DF061BCCE83476DE1FBCBFD82AA136B48910573CC3D0B9B573AF63EFE0F5415991AB7A111C70E8A11FC2D00C66C82F6BAB02CC35CD45EE440441280E069EC2538940A2CE95FD26F88D2449C5B16FCA9D529A94A43B298C0BC5413307EE1DBCF3093E59B16D8AAA0CC407A42D9224496363559CA7DB877D0D
310
6820EFAFC50AA0110C3C83675C49D7FFCC778BBDDF0D7700813FF007009817E66D46F3C7F87810839770699566A8AA2A8AA2C964E279FEFEFDFBD3D3D3D5F8B24104B7600B7924C5008F701EE7774FEF0E47836EF7C2712109924ED3FE5FF0CB1DDCF90B7F55C4924C26230882A2283CCF5B2C968A7FD3041269A4C923A905
310
788426DDB31F35F61927BB735B465A61B13DFA690EB9463496CC388BD9010CA0D2DB8563B1582C1673BBDD6D6D6DC3C3C3E4405401AA85C160906539AA0CD4EBEA0D5E63E73DEE128498C994C964F6637F273A2388DCC2AD14524D682ACECE818B20A2426D456BC56DBB77EF1E804020904EA7F3C70455800AB363C78E4C26
310
3334343433310358F760F75EC7DEE4E66426934988090B2CB398D5C86E85F5244E5EC5D56E745769B7E4F0F0B0C562E1793E168B45A35172268A012A49341A0D870B03FF89EFF17D341E35C886898989610C8B106FE2A6567644BFC497BFE3F7925BE92B452A9512044196659EE7CD6633F913B5002B243FC6B240349BCD9B
310
366D7AF85F0380949AF27ABD08E1B674DB0DF7566CBD25DFF2289E6C2EBB58C969A4BDF0AE781EC039E334F08670389C4824960C0CCC667328149265991C8B2883975F7E79257D24EC38833300789E2FAE3C8548E0537CBA1ADBF2CBEC5C2E17CFF37AFDD28B677D3E9FD7EB5DCDB9088A01964510C12CB2DA6954A85FE08B
310
D59F2B1C0E87C361BFDF0F4014458D94A150C86834961518D8616F40C30426C81D2906280FED38D88C0A77CA45511C1919E179DEE5726924CB66B382204892C4F3BCD56A5DB258175C2770A2E458164115408B494C2EDA7787F36B7C7D00072A7B46455104414826933CCF3B1C0E8D94F1785C100487C3D1D1D1A1D3695DE7
310
36B479E0B1C34EEE58A31540DB9396EE42D8ED1CC715777E7EC00F25F71554A0E5999D1504C16030F03C6F341A35524E4C4C88A2E8F3F95A5A5A345A2A09D24EEC2477ACD118201E8F57BE4CC4873054D54D92535353535353EDEDED3A9D2E140AE59B9D26342D78BD85AAAA77EFDEDDBE7D7BF172D73C1771F1322E37A271
310
C11608825A8065313333A3AA251643DFC3BD38E2D5367E7474746C6C8CE7F95657EBBB78378144C921D75C2EB758097AE84FE3F41A984A6CD00A508D16C006DB4B78E9693CBD06F6CBB22C084273BCF93BFEBB5443AADCEC5E7865C81404D72E2B9B0728A0310F80550FAE2F3F7B61C6C0E7F39534B282E7229EA816A0AAAC
310
81571DC5D14E74E68FC3E1B0D168D41EF621A80254068FC7C3F3BCCFE72B1E05CAC3817B1ECF57D5060B2C12A417F08219660B2C001445511425FF1179D80667438C0265B3D9EEEEEEB9B939499282C1E03273F9FDFE5DBB76058341655C318C18167BD2DFC44D1E7C02892AEDA94F21A542F5C2CB834FD7A5A7A429BD5EBF
310
6BDBAE2EB56B541D0D1B1E9CD4E57215EFF9B4C29A4492BCB0D62BC0952B57366FDE0CE0E0C183CBAF007ABD3E180C0A82A0B1DA9903F736DE3E8FF355B5FF67FCEC877F14A3822434A1C92FF9DB67DB27E549EE19AEB01BC16E2F31CFD58636FA611BAA0028EC37AFEC76DB9DD85987BAABB8BA065FE11AAEE5C731A3880A
310
9C70217C01007E01E001C64B06C11CB857F0CAE7F89CBC90628007943521A0D7EB1B1A167D93AE038EC338BC0DDB44886B60F90DDC0821943F4EA7D379C36C365B20F0701CB668D1860A557B2D13512B2D4081B226046459D658A36F855581328C75D8B63B3939E9F3F9128966BDBED1A3F373E0011C683C50ECED63185BCD
310
5E05E249A3AC0901EDE1FF4237A322FB01CAC5EFF73FDC3CE000D0D2D2B26FD33EEDC25FC48B3DE8211FA8E916C0A03394D10592F46EEBD26BDD7EC36F6BFF94154571EBD6ADAAAA36E79A1D0647EC7ECC366D2BAE4B7EF80BC739E45248D961A77763D52EAF5B5EAFF6B3796D5A806596731AA7E9A653103C4F32554383E2
310
1C382BACE48254016A1415EA4FF889AE0355000030C1947F859B19E6E5BCCB4DBFAE3FEEB47AEA516F8491FCAFA683600F3CF5A8CFBFB7673FF62B50FCF01FC2A1EBB89E7FAB21803AD4295038703AE872985F52FF16DE0A21F4984EA36EC2A60FF1E16DDCBE8CCBE482B58B19E6AFF09509A682B21BBB17A4791FEF77A1EB
310
0DBCF1013E58F05135DE7958327835C1B4CAA7B51D7636086E40C367F8EC0CCED0FAE79A6E01D2487F8B6FD95D8B377063419A38E22698228814EF7FD7D8115F415AD072144743080D61A864149B6FA000C890F5D0172F6ED341770AA7F23F86995712489CC3B928A24E38C905D77B288258AA02441059AC1FFF26DE9CC6B4
310
15D68BB8781CC7ADB09EC3B972CB216AB405782CD0F0DA6634471071C22941CA227B01170A3F6A5656390441100441100441100441100441100441100441AC3BDC7FFE5D38CE6FF82FF9666200AAA9282F00A0BB28FDBFAECC2F0BD7412D7DECDF53522F3ECB72E8EBEB7BE4FF932A00FCA5BEA79A1EFCEDC57BAA09CEFFCE
310
0270FEF34DE0C1FAE37E46EF63F44146EF3F38AFC718BD87D19DDCBC2E327A17A3C70ECCEB3D8CDECBE86719DDCF94D3CBE85D4CFA7E461FDCCFD8CFE8A799F431463FCBA477EA98EBC3E85D8CDEC7E83D8CDEFF0FC67E46EF61F45E461719BD9FD1637F67EC67F45E468F31BA9F29C7A967AE0F93BE8BD107BB19FB19FD34
310
93FE2CA39F65D2F732BA93D1FB19BD8FD10719BDFF6F8CFD8CDEC3E8CE3AE6FA307A17A3C7F631F6337A2FA3FF1F2E17E49F83FAA6F10000000049454E44AE426082
  0
ACDSRECORD
 90
        0
  2
AcDbDs::ID
280
    10
320
1D
  2
Thumbnail_Data
280
    15
 94
     3517
310
89504E470D0A1A0A0000000D4948445200000100000000540802000000E2787E6400000D844944415478DAED9D5B701BD779C7BFB3078B1B011024481DDEC08B8858A04849142591BA50322346B6DAF4C2A469DAE685B45ED24CEC194F3BD369E24B7CC9C5B16347E317A3ED4C45D1D3E9D49EC9C8A323352F91EDB825259A
310
9464C6B2C6224401BC4A202002200002582C4E1F4053AB0B6DC129648EF4FD1E7680FF7E67CFC733DF9F67CF7277492510DF12CF5F7C1EAE8A23AFBCF4CE0F32475E79E99DF7B26C0E629DC47315629DC4730D627B882700B13DC4330FB1DDC41384D86EE209416C17F15C87D82EE25980D84EE209436C27F14420D6413C51
310
887510CF22C4DA892706B176E289436C07F12420B683789620B69D7892103B42D824F062CAD60BFE6BC2A680DB286B14FC35C2A681DB287309FE1A6133C0AD947D4DF057099B056EA5EC21C15F256C0EB885B20D82FF8AB0ABC02D94B905FF1561D7801751D624F82B8405801751B651F057089B076EA6AC59F097090B0237
310
53D622F8CB8485809B28DB24F82F09BB0EDC44D966C17F49D8027023655B047F89B030702365AD82BF445804B881B2AD82FF82B0287003656D82FF82B045E07ACAB609FE73C262C0F5946D17FCE784C581CB94ED10FC67842580CB94B50BFE33C29680EB28EB10FCA784A58053CA7609FE226169E094B2DD82BF4898025CA2
310
6C8FE02F1096012E51D629F80B84A9C009657B057F9EB02C7042D93EC19F274C0007CA1E16FC39C2003850D625F8738411E082B2AF0BFE13C224E082B2FD82FF84300A3C4B59B7E0CF12A6039EA5EC1B823F4B980C5CA5EC80E0CF10A607AE52F688E0CF1066009EA1EC51C19F26CC083C43D941C19F26CC045CA1EC4F047F
310
8A30337085B23F15FC29C28A80A729FBA6E03F26CC023C4DD99F09FE63C2ACC05394FDB9E03F22CC063C45D95F089EA2AC47F02AA9B34B0C2C51F62DC12BA5CEAF8B8125CABE2D78A5D4B95F0C2428FB2BC12BA4CE6E3190A0EC3B8257489DDF100371CAFE5A7026751E100371CABE2B38933A1F110331CAFE46F07552E7A3
310
622046D9DF0ABE4EEA3C28067ED0DF40FAFBFB0141F2C1D3DBFBF7478FF6F5F5F5F7F71FECEBFE6DFFEFDED9F4BBBFFC43F763BE4347EAFF3DA7E7B6FFF04F2FBEF6F233B9CFB956DFBD72E8AD869B6272DBDBDBE6FABA3DF2E91DCE9F7E38A53D666F6FEFD1CFF259ED68BDDFEF3BFA2FFDFF78F1D9579B5ED0B64503200F
310
34120E0182064010340082A00110040D8020680004410320081A0041D0000882064010340082A00110040D8020680004410320081A0041D0000882064010340082A00110040D80206B15DD57D26B2C166B6F6F5F9B23924AA5CE9D3B67B3D9B03870062814B22C171515A90ED5D6660B9584E4263959934C5627F54DFA05C7
310
42C9F69205C7C2ADE28E92B0232C37C96A83BA54BDA4DFA80F9584AC5BADE1B2B0EC5E168BB614AD88D008D986AC568C57C645A3C8AECF46CBA3962D965049C8DA6A4D542644A3A01B684E349418CC66B3AAAA581938031496FAFAFA0BC90BD94BD9D0D950F5E66A66603E9F2FA6C6CACBCBE7AFCD5FF75FAF6DAD0D4E0713
310
8944717DB161C130323CE2743A45449416957ABD5ED6C8E824252A8149302BE6D054C8E9745EFCF0A2DBED9E7E7FBABEB67EECDDB10D1B36C4037177977BA36B2300B86BDCCB7D3B00009A5C4D3789360000AFCB5B3C5F8C65810628380B0B0B299A7AF38D37ABAAAA868787B76EDD7AE9D2A5DADADAF7DF7FDF68349ACDE6
310
D1D1D1F2F2F275EBD60D0F0F2F2D2D3DF4D0432323236EB79B521A080486878733994C71717122913873E68CC562B972E54A341AF57ABDB158ACAAAA2A93C98C8F8FEB74BAAEAEAEBC120B87C3581668808263341A2B1C15AFBFFEFA5A1B11A3D18865816B000441031492C5C5C5B539226B3631E4BE32407575F5DA1C9135
310
9B18725F19C0EFF717B60301A00288B59718828B6000A8ABABF3433EA57619400F5009F03F00BB009600ECAB440E039402CC01FC01A005A00A2008B01EE03A80FBAE12C3B24003149CE9E96968C873AE7A0BE011801A8029003F40F72A91A5002E0017C05E8D680488DE7562089E02159AB2B2B2FC1A34C0E9E6D3B069B9B8
310
C7D431F0027801DE0208ACDA28994CFEF63FC7E6FE7B0E3E019800F85F80EC17F4E37038B02CD00005271E8FE715AF28CA85990B2B5F67D49994390566804580D42A6D7E0F33EFCD78CF7F3AA41F0237402300FBE29F3891486059A0010ADFB1945FD78B8B8B4D4D4D2B5FBBBABA4EFEFE24D8015C00C655D7C19154E4D08F
310
BEE9DEEB063B401B40FCFF3F31040DF065D0EBF579AF577437562C2693C964378119601CE04E470A8542DE6A6FABABD5546CCA643200004980D305490CC14570DE44A3D1552FE3AC7E16944A2D9FEE18260D4421900268BEF5B43E1A8D06BC0187C3E172B96666669213C9CD9B3703005080CABB4B0C4103141AC6D8144CE5
310
D5E4ECD9B3AAAA06C7E52235FAE8C4A35396296805B804B0FEA6B0C1D9C1836D07E7E7E7BD5E6F7575B5C9645ADE6104D87857896159E02950C1999ACAAFFA09903247D9BE7DFBF4A3C56D3BF7C201000B80132076EB1A20914E78BD5E59965D2ED78DEA2F586208CE005F869A9A9A69C8E38A7B0994B435B4F9DEF335FC9D
310
2D129A8DD4C0F794EF8117A01B80DC147960FB016BDA0A4180E06D475101B25FE0FA9A9A1A2C0B3440C1090402509B4F8393B0A17403EC06B0037801FE03200E70F00E81D65AEB1F9B1882062834369B2D78875FD1ABD30A207F76FB4323C03F034C142431ABD58A65810628388AA2E4D7A00A6002C00BF01E402B801D60A9
310
20892D5F3345D0000525EF3A2B06D80A40015C2B1E4203207F2C5FD955208BC5925F030A406F56E4B591188206F8120483C1B539226B3631E4BE3280D3E95C9B23B2661343EE2B03F87CBEB539226B3631E4BE5A04D7D6D64EC2E4DDC72793C97BF0A88A52A7D4D6D66259E00C5070E6E6E6F28ACF3DAAEBF7FB3FE799DD95
310
1800989F9FAFA8A870B95C131313A3A3A3E974DAE5720180CBE5B2A5671787FE2DFEE1D1C5C17F4D7FFC9BE4F9FF4A8CBCE9A03197CB25CBF2ECEC2C9605CE0005A7A4A42400010048A7D38AA2C8B2FCF9F7214B92C418CB3D46B3DAFD6AF1783C17B312B0B0B070E9D225C6D8DCDCDCC68D1B85109393937321A5687D97DE
310
56AEC6831915A2E11001E1BB1A0E66C6C9D74849490996051AA0E0AC5C6E3F79F2E4E0E0607373736B6B2B63ECDAB56B151515B79778369B9D9A9ACACD1BB22CAF36ABC8B29CDB06834183C12049525B5B9BAAAA131313A15028180C7EF0C107C160D0E1702493494248341ACD64322693C962F133C6F6AEDF8B6FC64503DC
310
0B128904942E2F06BC5EEF850B178686865A5A5A1445B1DBED76BBDDE9741A8DC69696969535C0D1A3476D361BA534F76AF53367CE4C4D4DF9FDFE279E7822377B70CE2F5FBEBC65CB9613274E54565646A3D14F3FFDB4A5A5657474B4A3A3E38D37DED8B16307634CAFD75BADD6AAAAAAE3C78FEFDAB52B1A8D46A3518BC5
310
927B29223E12F940417B7A7AEE7DAFAAAA7674742CCA8BA5503A3E3EEEF3F95455B5582C841049929C4EE7E9D3A76D365B757575696969AE492412894422C96472DDBA75C78F1F0F0683838383841045518686864E9C38B169D3A6A6A626A7D3994AA5B66FDF6E3018721DD96CB6C6C6C64C26B36DDBB6783CEE76BBEBEAEA
310
EAEBEB25496A6868686A6A2A2B2B6B69699165B9A1A18196D332A96C6C6CEC4BDC478DE00C9007B3B3B32B373598CD669D4E373F3FBF67CF1EB7DB5D5A5ADADEDE6E369B6FB92F4D51944422D1D9D9D9DDDDEDF7FBF7EDDB975BF28642A1B1B1B1DC3A410841C8F2EDD1E5E5E5B22C2B8A3231315153536332992449D2EBF5
310
7ABD5E519448242284906539E731B3D93C3D3DED6A71E122180D702F686C6CBC0C970160E7CE9DDBB66D339BCDE9745A92A4DCF9FD1DFF418BD96CBEE3D97F301814E20EAF800B04027EBFFFE1871F5655B5AEAEEEDD77DF6D6C6C1C1D1D1542BCFDF6DB8F3FFE787373B3CFE79B9D9D2D2B2B339BCD0D0D0D293955DB587B
310
EAD429AC8C0704D2DFDF7FEF7B4DA552FBF7EF37B94C4B777D4B6746C9E8645D2693A1941242725F6FD7455664B359AAA3AAAA4A4422D272A4769B6B0500B9CF5ACAA1DC3FE63F75EA145E0B7A40F86AFE0EA0AAAA2CCBD7CE5E2B09958447C2C669A37251512E2AC66963F46CB42C5C163D1B5D114D33A6E8D96845BC62F1
310
DCA2E5AA855C26E94FD2D680353C12B607ED4B1F2F19A78D3A9F4EB9A8D802B6C8D98823EC583CB7A89FD44B57A4F427E9D285D2F048B82C5296FC38A99FD293CB24FE51DC1176C43E8AD983F6D485943421E927F5F18FE2C5F3C5E323E3B9C50382334001C964324B4B4B6B76508A8A8AF0ED40B8062864AF3A1D3E78853C
310
B8A7400882064010340082A00110040D8020680004410320081A0041D0000882064010340082A00110040D8020680004410320081A0041D0000882064010340082A0019002D2D7D7B7B2F5F4F6AE6C1FF31DBA65AF76DBFBFD1B9F1FFBDCBD87FA7A6FD99B530E3DF7EB95BE566B7BFBF6F6F8A77E736B0C00C0B70500C055
310
F1436158DE1E861F0A03D88FC400C0BEEF3BF0D97FE83AA6D1FB35FA798D7E6CEF0D3DACD17B34BA9DDCD07D1ABD55A3873B6FE83D1AFDB0467F52A3D76B8E7358A3B76AE28F69F4F37B34F96BF43E4D7C58A33FA989B74B9AF1D1E8AD1ABD5FA3F768F463BB35F96BF41E8D7E58A3FB34FA318D1EDEA5C95FA31FD6E8618D
310
5EAF398E9D6AC64713DFAAD1CFEFD4E4AFD1FB34F14F6AF42735F18735BA5DA31FD3E8FD1AFDBC463FD6A1C95FA3F76874BB4E333E1ABD55A387DB35F96BF4C31AFDFF00A9D222C530523F4D0000000049454E44AE426082
  0
ENDSEC
  0
EOF
