  0
SECTION
  2
HEADER
  9
$ACADVER
  1
AC1027
  9
$ACADMAINTVER
 70
    20
  9
$DWGCODEPAGE
  3
ANSI_932
  9
$REQUIREDVERSIONS
160
                 0
  9
$INSBASE
 10
0.0
 20
0.0
 30
0.0
  9
$EXTMIN
 10
-0.8049167638336804
 20
1.154092637598059
 30
0.0
  9
$EXTMAX
 10
49.47753495974936
 20
29.52281399839786
 30
0.0
  9
$LIMMIN
 10
0.0
 20
0.0
  9
$LIMMAX
 10
420.0
 20
297.0
  9
$ORTHOMODE
 70
     0
  9
$REGENMODE
 70
     1
  9
$FILLMODE
 70
     1
  9
$QTEXTMODE
 70
     0
  9
$MIRRTEXT
 70
     0
  9
$LTSCALE
 40
0.5
  9
$ATTMODE
 70
     1
  9
$TEXTSIZE
 40
2.5
  9
$TRACEWID
 40
1.0
  9
$TEXTSTYLE
  7
黑体
  9
$CLAYER
  8
粗实线
  9
$CELTYPE
  6
ByLayer
  9
$CECOLOR
 62
   256
  9
$CELTSCALE
 40
0.5
  9
$DISPSILH
 70
     0
  9
$DIMSCALE
 40
1.0
  9
$DIMASZ
 40
12.5
  9
$DIMEXO
 40
0.0
  9
$DIMDLI
 40
12.5
  9
$DIMRND
 40
0.0
  9
$DIMDLE
 40
0.0
  9
$DIMEXE
 40
10.0
  9
$DIMTP
 40
0.0
  9
$DIMTM
 40
0.0
  9
$DIMTXT
 40
12.5
  9
$DIMCEN
 40
0.0
  9
$DIMTSZ
 40
0.0
  9
$DIMTOL
 70
     0
  9
$DIMLIM
 70
     0
  9
$DIMTIH
 70
     0
  9
$DIMTOH
 70
     0
  9
$DIMSE1
 70
     0
  9
$DIMSE2
 70
     0
  9
$DIMTAD
 70
     1
  9
$DIMZIN
 70
    12
  9
$DIMBLK
  1

  9
$DIMASO
 70
     1
  9
$DIMSHO
 70
     1
  9
$DIMPOST
  1

  9
$DIMAPOST
  1

  9
$DIMALT
 70
     0
  9
$DIMALTD
 70
     3
  9
$DIMALTF
 40
0.03937007874016
  9
$DIMLFAC
 40
1.0
  9
$DIMTOFL
 70
     1
  9
$DIMTVP
 40
0.0
  9
$DIMTIX
 70
     0
  9
$DIMSOXD
 70
     0
  9
$DIMSAH
 70
     0
  9
$DIMBLK1
  1

  9
$DIMBLK2
  1

  9
$DIMSTYLE
  2
1：5
  9
$DIMCLRD
 70
     6
  9
$DIMCLRE
 70
     6
  9
$DIMCLRT
 70
     6
  9
$DIMTFAC
 40
1.0
  9
$DIMGAP
 40
5.0
  9
$DIMJUST
 70
     0
  9
$DIMSD1
 70
     0
  9
$DIMSD2
 70
     0
  9
$DIMTOLJ
 70
     0
  9
$DIMTZIN
 70
     8
  9
$DIMALTZ
 70
     0
  9
$DIMALTTZ
 70
     0
  9
$DIMUPT
 70
     0
  9
$DIMDEC
 70
     1
  9
$DIMTDEC
 70
     1
  9
$DIMALTU
 70
     2
  9
$DIMALTTD
 70
     3
  9
$DIMTXSTY
  7
黑体
  9
$DIMAUNIT
 70
     0
  9
$DIMADEC
 70
     1
  9
$DIMALTRND
 40
0.0
  9
$DIMAZIN
 70
     3
  9
$DIMDSEP
 70
    46
  9
$DIMATFIT
 70
     3
  9
$DIMFRAC
 70
     0
  9
$DIMLDRBLK
  1

  9
$DIMLUNIT
 70
     2
  9
$DIMLWD
 70
     9
  9
$DIMLWE
 70
     9
  9
$DIMTMOVE
 70
     0
  9
$DIMFXL
 40
1.0
  9
$DIMFXLON
 70
     0
  9
$DIMJOGANG
 40
0.7853981633974483
  9
$DIMTFILL
 70
     0
  9
$DIMTFILLCLR
 70
     0
  9
$DIMARCSYM
 70
     0
  9
$DIMLTYPE
  6

  9
$DIMLTEX1
  6

  9
$DIMLTEX2
  6

  9
$DIMTXTDIRECTION
 70
     0
  9
$LUNITS
 70
     2
  9
$LUPREC
 70
     4
  9
$SKETCHINC
 40
1.0
  9
$FILLETRAD
 40
15.0
  9
$AUNITS
 70
     0
  9
$AUPREC
 70
     0
  9
$MENU
  1
.
  9
$ELEVATION
 40
0.0
  9
$PELEVATION
 40
0.0
  9
$THICKNESS
 40
0.0
  9
$LIMCHECK
 70
     0
  9
$CHAMFERA
 40
0.0
  9
$CHAMFERB
 40
0.0
  9
$CHAMFERC
 40
0.0
  9
$CHAMFERD
 40
0.0
  9
$SKPOLY
 70
     0
  9
$TDCREATE
 40
2457485.840038634
  9
$TDUCREATE
 40
2457485.465038634
  9
$TDUPDATE
 40
2457771.532734201
  9
$TDUUPDATE
 40
2457771.157734201
  9
$TDINDWG
 40
0.8129567940
  9
$TDUSRTIMER
 40
2457771.271007130
  9
$USRTIMER
 70
     1
  9
$ANGBASE
 50
0.0
  9
$ANGDIR
 70
     0
  9
$PDMODE
 70
     0
  9
$PDSIZE
 40
0.0
  9
$PLINEWID
 40
0.0
  9
$SPLFRAME
 70
     0
  9
$SPLINETYPE
 70
     6
  9
$SPLINESEGS
 70
     8
  9
$HANDSEED
  5
364
  9
$SURFTAB1
 70
     6
  9
$SURFTAB2
 70
     6
  9
$SURFTYPE
 70
     6
  9
$SURFU
 70
     6
  9
$SURFV
 70
     6
  9
$UCSBASE
  2

  9
$UCSNAME
  2

  9
$UCSORG
 10
0.0
 20
0.0
 30
0.0
  9
$UCSXDIR
 10
1.0
 20
0.0
 30
0.0
  9
$UCSYDIR
 10
0.0
 20
1.0
 30
0.0
  9
$UCSORTHOREF
  2

  9
$UCSORTHOVIEW
 70
     0
  9
$UCSORGTOP
 10
0.0
 20
0.0
 30
0.0
  9
$UCSORGBOTTOM
 10
0.0
 20
0.0
 30
0.0
  9
$UCSORGLEFT
 10
0.0
 20
0.0
 30
0.0
  9
$UCSORGRIGHT
 10
0.0
 20
0.0
 30
0.0
  9
$UCSORGFRONT
 10
0.0
 20
0.0
 30
0.0
  9
$UCSORGBACK
 10
0.0
 20
0.0
 30
0.0
  9
$PUCSBASE
  2

  9
$PUCSNAME
  2

  9
$PUCSORG
 10
0.0
 20
0.0
 30
0.0
  9
$PUCSXDIR
 10
1.0
 20
0.0
 30
0.0
  9
$PUCSYDIR
 10
0.0
 20
1.0
 30
0.0
  9
$PUCSORTHOREF
  2

  9
$PUCSORTHOVIEW
 70
     0
  9
$PUCSORGTOP
 10
0.0
 20
0.0
 30
0.0
  9
$PUCSORGBOTTOM
 10
0.0
 20
0.0
 30
0.0
  9
$PUCSORGLEFT
 10
0.0
 20
0.0
 30
0.0
  9
$PUCSORGRIGHT
 10
0.0
 20
0.0
 30
0.0
  9
$PUCSORGFRONT
 10
0.0
 20
0.0
 30
0.0
  9
$PUCSORGBACK
 10
0.0
 20
0.0
 30
0.0
  9
$USERI1
 70
     0
  9
$USERI2
 70
     0
  9
$USERI3
 70
     0
  9
$USERI4
 70
     0
  9
$USERI5
 70
     0
  9
$USERR1
 40
0.0
  9
$USERR2
 40
0.0
  9
$USERR3
 40
0.0
  9
$USERR4
 40
0.0
  9
$USERR5
 40
0.0
  9
$WORLDVIEW
 70
     1
  9
$SHADEDGE
 70
     3
  9
$SHADEDIF
 70
    70
  9
$TILEMODE
 70
     1
  9
$MAXACTVP
 70
    48
  9
$PINSBASE
 10
0.0
 20
0.0
 30
0.0
  9
$PLIMCHECK
 70
     0
  9
$PEXTMIN
 10
5.0
 20
4.899999999999494
 30
0.0
  9
$PEXTMAX
 10
282.0000000000003
 20
194.9
 30
0.0
  9
$PLIMMIN
 10
-5.053009033203125
 20
-5.0
  9
$PLIMMAX
 10
292.0
 20
204.888656616211
  9
$UNITMODE
 70
     0
  9
$VISRETAIN
 70
     1
  9
$PLINEGEN
 70
     0
  9
$PSLTSCALE
 70
     1
  9
$TREEDEPTH
 70
  3020
  9
$CMLSTYLE
  2
Standard
  9
$CMLJUST
 70
     0
  9
$CMLSCALE
 40
20.0
  9
$PROXYGRAPHICS
 70
     1
  9
$MEASUREMENT
 70
     1
  9
$CELWEIGHT
370
    -1
  9
$ENDCAPS
280
     0
  9
$JOINSTYLE
280
     0
  9
$LWDISPLAY
290
     0
  9
$INSUNITS
 70
     4
  9
$HYPERLINKBASE
  1

  9
$STYLESHEET
  1

  9
$XEDIT
290
     1
  9
$CEPSNTYPE
380
     0
  9
$PSTYLEMODE
290
     1
  9
$FINGERPRINTGUID
  2
{D6CE466A-BF49-4B94-947D-1342CBE2533E}
  9
$VERSIONGUID
  2
{C387276E-C8BA-4D7A-9A70-98FF7CD1F9ED}
  9
$EXTNAMES
290
     1
  9
$PSVPSCALE
 40
0.0
  9
$OLESTARTUP
290
     0
  9
$SORTENTS
280
   127
  9
$INDEXCTL
280
     0
  9
$HIDETEXT
280
     1
  9
$XCLIPFRAME
280
     2
  9
$HALOGAP
280
     0
  9
$OBSCOLOR
 70
   257
  9
$OBSLTYPE
280
     0
  9
$INTERSECTIONDISPLAY
280
     0
  9
$INTERSECTIONCOLOR
 70
   257
  9
$DIMASSOC
280
     2
  9
$PROJECTNAME
  1

  9
$CAMERADISPLAY
290
     0
  9
$LENSLENGTH
 40
50.0
  9
$CAMERAHEIGHT
 40
0.0
  9
$STEPSPERSEC
 40
2.0
  9
$STEPSIZE
 40
6.0
  9
$3DDWFPREC
 40
2.0
  9
$PSOLWIDTH
 40
0.25
  9
$PSOLHEIGHT
 40
4.0
  9
$LOFTANG1
 40
1.570796326794896
  9
$LOFTANG2
 40
1.570796326794896
  9
$LOFTMAG1
 40
0.0
  9
$LOFTMAG2
 40
0.0
  9
$LOFTPARAM
 70
     7
  9
$LOFTNORMALS
280
     1
  9
$LATITUDE
 40
37.795
  9
$LONGITUDE
 40
-122.394
  9
$NORTHDIRECTION
 40
0.0
  9
$TIMEZONE
 70
 -8000
  9
$LIGHTGLYPHDISPLAY
280
     1
  9
$TILEMODELIGHTSYNCH
280
     1
  9
$CMATERIAL
347
12
  9
$SOLIDHIST
280
     0
  9
$SHOWHIST
280
     1
  9
$DWFFRAME
280
     2
  9
$DGNFRAME
280
     0
  9
$REALWORLDSCALE
290
     1
  9
$INTERFERECOLOR
 62
     1
  9
$INTERFEREOBJVS
345
54
  9
$INTERFEREVPVS
346
55
  9
$CSHADOW
280
     0
  9
$SHADOWPLANELOCATION
 40
0.0
  0
ENDSEC
  0
SECTION
  2
CLASSES
  0
CLASS
  1
ACDBDICTIONARYWDFLT
  2
AcDbDictionaryWithDefault
  3
ObjectDBX Classes
 90
        0
 91
        1
280
     0
281
     0
  0
CLASS
  1
DICTIONARYVAR
  2
AcDbDictionaryVar
  3
ObjectDBX Classes
 90
        0
 91
        9
280
     0
281
     0
  0
CLASS
  1
TABLESTYLE
  2
AcDbTableStyle
  3
ObjectDBX Classes
 90
     4095
 91
        1
280
     0
281
     0
  0
CLASS
  1
MATERIAL
  2
AcDbMaterial
  3
ObjectDBX Classes
 90
     1153
 91
        3
280
     0
281
     0
  0
CLASS
  1
VISUALSTYLE
  2
AcDbVisualStyle
  3
ObjectDBX Classes
 90
     4095
 91
        3
280
     0
281
     0
  0
CLASS
  1
SCALE
  2
AcDbScale
  3
ObjectDBX Classes
 90
     1153
 91
       19
280
     0
281
     0
  0
CLASS
  1
MLEADERSTYLE
  2
AcDbMLeaderStyle
  3
ACDB_MLEADERSTYLE_CLASS
 90
     4095
 91
        0
280
     0
281
     0
  0
CLASS
  1
CELLSTYLEMAP
  2
AcDbCellStyleMap
  3
ObjectDBX Classes
 90
     1152
 91
        1
280
     0
281
     0
  0
CLASS
  1
EXACXREFPANELOBJECT
  2
ExAcXREFPanelObject
  3
EXAC_ESW
 90
     1025
 91
        0
280
     1
281
     0
  0
CLASS
  1
NPOCOLLECTION
  2
AcDbImpNonPersistentObjectsCollection
  3
ObjectDBX Classes
 90
     1153
 91
        0
280
     0
281
     0
  0
CLASS
  1
LAYER_INDEX
  2
AcDbLayerIndex
  3
ObjectDBX Classes
 90
        0
 91
        0
280
     0
281
     0
  0
CLASS
  1
SPATIAL_INDEX
  2
AcDbSpatialIndex
  3
ObjectDBX Classes
 90
        0
 91
        0
280
     0
281
     0
  0
CLASS
  1
IDBUFFER
  2
AcDbIdBuffer
  3
ObjectDBX Classes
 90
        0
 91
        0
280
     0
281
     0
  0
CLASS
  1
ACDBSECTIONVIEWSTYLE
  2
AcDbSectionViewStyle
  3
ObjectDBX Classes
 90
     1025
 91
        0
280
     0
281
     0
  0
CLASS
  1
ACDBDETAILVIEWSTYLE
  2
AcDbDetailViewStyle
  3
ObjectDBX Classes
 90
     1025
 91
        0
280
     0
281
     0
  0
CLASS
  1
ACDBVIEWREPSTANDARD
  2
AcDbViewRepStandard
  3
AcModelDocObj
 90
      129
 91
        0
280
     1
281
     0
  0
CLASS
  1
PLOTSETTINGS
  2
AcDbPlotSettings
  3
ObjectDBX Classes
 90
        0
 91
        0
280
     0
281
     0
  0
CLASS
  1
DIMASSOC
  2
AcDbDimAssoc
  3
"AcDbDimAssoc|Product Desc:     AcDim ARX App For Dimension|Company:          Autodesk, Inc.|WEB Address:      www.autodesk.com"
 90
        0
 91
        0
280
     0
281
     0
  0
CLASS
  1
SORTENTSTABLE
  2
AcDbSortentsTable
  3
ObjectDBX Classes
 90
        0
 91
        1
280
     0
281
     0
  0
CLASS
  1
ACDB_MTEXTOBJECTCONTEXTDATA_CLASS
  2
AcDbMTextObjectContextData
  3
ObjectDBX Classes
 90
     1153
 91
        0
280
     0
281
     0
  0
CLASS
  1
MULTILEADER
  2
AcDbMLeader
  3
ACDB_MLEADER_CLASS
 90
     1025
 91
        0
280
     0
281
     1
  0
CLASS
  1
SUN
  2
AcDbSun
  3
SCENEOE
 90
     1153
 91
        0
280
     1
281
     0
  0
CLASS
  1
RASTERVARIABLES
  2
AcDbRasterVariables
  3
ISM
 90
        0
 91
        0
280
     1
281
     0
  0
ENDSEC
  0
SECTION
  2
TABLES
  0
TABLE
  2
VPORT
  5
34
330
0
100
AcDbSymbolTable
 70
     1
  0
VPORT
  5
35
330
34
100
AcDbSymbolTableRecord
100
AcDbViewportTableRecord
  2
*Active
 70
     0
 10
0.0
 20
0.0
 11
1.0
 21
1.0
 12
36.55958326487598
 22
15.04033255363365
 13
0.0
 23
0.0
 14
10.0
 24
10.0
 15
10.0
 25
10.0
 16
0.0
 26
0.0
 36
1.0
 17
0.0
 27
0.0
 37
0.0
 40
70.73131042231779
 41
2.232941176470588
 42
50.0
 43
0.0
 44
0.0
 50
0.0
 51
0.0
 71
    16
 72
  1000
 73
     1
 74
     3
 75
     0
 76
     0
 77
     0
 78
     0
281
     0
 65
     1
110
0.0
120
0.0
130
0.0
111
1.0
121
0.0
131
0.0
112
0.0
122
1.0
132
0.0
 79
     0
146
0.0
348
36
 60
     3
 61
     5
292
     1
282
     1
141
0.0
142
0.0
 63
   250
421
  3355443
1001
ACAD_NAV_VCDISPLAY
1070
     3
  0
ENDTAB
  0
TABLE
  2
LTYPE
  5
2F
330
0
100
AcDbSymbolTable
 70
     1
  0
LTYPE
  5
30
330
2F
100
AcDbSymbolTableRecord
100
AcDbLinetypeTableRecord
  2
ByBlock
 70
     0
  3

 72
    65
 73
     0
 40
0.0
  0
LTYPE
  5
31
330
2F
100
AcDbSymbolTableRecord
100
AcDbLinetypeTableRecord
  2
ByLayer
 70
     0
  3

 72
    65
 73
     0
 40
0.0
  0
LTYPE
  5
11
330
2F
100
AcDbSymbolTableRecord
100
AcDbLinetypeTableRecord
  2
Continuous
 70
     0
  3
Solid line
 72
    65
 73
     0
 40
0.0
  0
ENDTAB
  0
TABLE
  2
LAYER
  5
27
102
{ACAD_XDICTIONARY
360
28
102
}
330
0
100
AcDbSymbolTable
 70
     2
  0
LAYER
  5
4
330
27
100
AcDbSymbolTableRecord
100
AcDbLayerTableRecord
  2
0
 70
     0
 62
     7
  6
Continuous
370
    -3
390
5
347
8
348
0
  0
LAYER
  5
50
330
27
100
AcDbSymbolTableRecord
100
AcDbLayerTableRecord
  2
粗实线
 70
     0
 62
     7
  6
Continuous
370
    20
390
5
347
8
348
0
1001
AcadStringInfo
1000
MIFCodePage
1070
     5
  0
ENDTAB
  0
TABLE
  2
STYLE
  5
2C
330
0
100
AcDbSymbolTable
 70
     2
  0
STYLE
  5
2D
330
2C
100
AcDbSymbolTableRecord
100
AcDbTextStyleTableRecord
  2
Standard
 70
     0
 40
0.0
 41
1.0
 50
0.0
 71
     0
 42
2.5
  3
arial.ttf
  4

1001
ACAD
1000
Arial
1071
       34
  0
STYLE
  5
3C
330
2C
100
AcDbSymbolTableRecord
100
AcDbTextStyleTableRecord
  2
黑体
 70
     0
 40
0.0
 41
1.0
 50
0.0
 71
     0
 42
2.5
  3
simhei.ttf
  4

1001
ACAD
1000
SimHei
1071
    34353
1001
AcadStringInfo
1000
MIFCodePage
1070
     5
  0
ENDTAB
  0
TABLE
  2
VIEW
  5
32
330
0
100
AcDbSymbolTable
 70
     0
  0
ENDTAB
  0
TABLE
  2
UCS
  5
33
330
0
100
AcDbSymbolTable
 70
     0
  0
ENDTAB
  0
TABLE
  2
APPID
  5
39
330
0
100
AcDbSymbolTable
 70
     7
  0
APPID
  5
2B
330
39
100
AcDbSymbolTableRecord
100
AcDbRegAppTableRecord
  2
ACAD
 70
     0
  0
APPID
  5
1F
330
39
100
AcDbSymbolTableRecord
100
AcDbRegAppTableRecord
  2
ACAD_PSEXT
 70
     0
  0
APPID
  5
3E
330
39
100
AcDbSymbolTableRecord
100
AcDbRegAppTableRecord
  2
ACAD_DSTYLE_DIMJAG
 70
     0
  0
APPID
  5
3F
330
39
100
AcDbSymbolTableRecord
100
AcDbRegAppTableRecord
  2
ACAD_DSTYLE_DIMTALN
 70
     0
  0
APPID
  5
38
330
39
100
AcDbSymbolTableRecord
100
AcDbRegAppTableRecord
  2
ACAD_NAV_VCDISPLAY
 70
     0
  0
APPID
  5
3D
330
39
100
AcDbSymbolTableRecord
100
AcDbRegAppTableRecord
  2
ACAD_DSTYLE_DIMBREAK
 70
     0
  0
APPID
  5
1D
330
39
100
AcDbSymbolTableRecord
100
AcDbRegAppTableRecord
  2
AcadStringInfo
 70
     0
  0
ENDTAB
  0
TABLE
  2
DIMSTYLE
  5
3A
330
0
100
AcDbSymbolTable
 70
     1
100
AcDbDimStyleTable
 71
     1
340
3B
  0
DIMSTYLE
105
3B
330
3A
100
AcDbSymbolTableRecord
100
AcDbDimStyleTableRecord
  2
1：5
 70
     0
 41
12.5
 42
0.0
 43
12.5
 44
10.0
 73
     0
 74
     0
 77
     1
 78
    12
 79
     3
140
12.5
141
0.0
143
0.03937007874016
147
5.0
171
     3
172
     1
176
     6
177
     6
178
     6
179
     1
271
     1
272
     1
274
     3
283
     0
284
     8
340
3C
371
     9
372
     9
1001
ACAD_DSTYLE_DIMBREAK
1070
   391
1040
3.75
1001
ACAD_DSTYLE_DIMJAG
1070
   388
1040
1.5
1001
ACAD_DSTYLE_DIMTALN
1070
   392
1070
     0
1001
AcadStringInfo
1000
MIFCodePage
1070
     5
  0
ENDTAB
  0
TABLE
  2
BLOCK_RECORD
  5
1
330
0
100
AcDbSymbolTable
 70
     0
  0
BLOCK_RECORD
  5
2
330
1
100
AcDbSymbolTableRecord
100
AcDbBlockTableRecord
  2
*Model_Space
340
1B
 70
     0
280
     1
281
     0
  0
BLOCK_RECORD
  5
20
102
{ACAD_XDICTIONARY
360
21
102
}
330
1
100
AcDbSymbolTableRecord
100
AcDbBlockTableRecord
  2
*Paper_Space
340
25
 70
     0
280
     1
281
     0
  0
ENDTAB
  0
ENDSEC
  0
SECTION
  2
BLOCKS
  0
BLOCK
  5
3
330
2
100
AcDbEntity
  8
0
100
AcDbBlockBegin
  2
*Model_Space
 70
     0
 10
0.0
 20
0.0
 30
0.0
  3
*Model_Space
  1

  0
ENDBLK
  5
1A
330
2
100
AcDbEntity
  8
0
100
AcDbBlockEnd
  0
BLOCK
  5
23
330
20
100
AcDbEntity
 67
     1
  8
0
100
AcDbBlockBegin
  2
*Paper_Space
 70
     0
 10
0.0
 20
0.0
 30
0.0
  3
*Paper_Space
  1

  0
ENDBLK
  5
24
330
20
100
AcDbEntity
 67
     1
  8
0
100
AcDbBlockEnd
  0
ENDSEC
  0
SECTION
  2
ENTITIES
  0
LINE
  5
69
330
2
100
AcDbEntity
  8
0
  6
Continuous
 62
     7
100
AcDbLine
 10
-0.2745873929534283
 20
15.89185015012071
 30
0.0
 11
-0.3669726868074941
 21
14.72485636911804
 31
0.0
  0
LWPOLYLINE
  5
6A
330
2
100
AcDbEntity
  8
0
  6
Continuous
 62
     7
100
AcDbPolyline
 90
       11
 70
   128
 43
0.0
 10
-0.7993305866302473
 20
16.03620260081858
 10
-0.8049167638336804
 20
16.00639923963922
 10
-0.79647263212657
 20
15.95670643600712
 10
-0.7719488051778826
 20
15.9149875737257
 10
-0.7331400581629352
 20
15.87538364486363
 10
-0.6781201459340446
 20
15.8341649280471
 10
-0.6047064070663838
 20
15.78974890093792
 10
-0.5145986983051917
 20
15.74434339669061
 10
-0.4153785610424457
 20
15.70266867874538
 10
-0.3126277701834042
 20
15.66672711280595
 10
-0.2928526209319389
 20
15.66112720089039
  0
LINE
  5
6B
330
2
100
AcDbEntity
  8
0
  6
Continuous
 62
     7
100
AcDbLine
 10
-0.7915573777900211
 20
16.05403311512056
 30
0.0
 11
-0.7995381324274425
 21
16.03558013633474
 31
0.0
  0
LINE
  5
6C
330
2
100
AcDbEntity
  8
0
  6
Continuous
 62
     7
100
AcDbLine
 10
0.90128835846523
 20
13.64773806614428
 30
0.0
 11
0.9550002161773882
 21
13.81015016982062
 31
0.0
  0
LINE
  5
6D
330
2
100
AcDbEntity
  8
0
  6
Continuous
 62
     7
100
AcDbLine
 10
4.691469831972593
 20
19.65004681022596
 30
0.0
 11
6.032185350183056
 21
23.70405717287492
 31
0.0
  0
LINE
  5
6E
330
2
100
AcDbEntity
  8
0
  6
Continuous
 62
     7
100
AcDbLine
 10
6.733539981538932
 20
24.74476852393347
 30
0.0
 11
4.420948630481412
 21
17.96884863467733
 31
0.0
  0
LINE
  5
6F
330
2
100
AcDbEntity
  8
0
  6
Continuous
 62
     7
100
AcDbLine
 10
0.1321614898022744
 20
14.02903144441199
 30
0.0
 11
0.133507968508231
 21
14.03139792927705
 31
0.0
  0
LINE
  5
70
330
2
100
AcDbEntity
  8
0
  6
Continuous
 62
     7
100
AcDbLine
 10
0.0532577239112434
 20
13.96099486496093
 30
0.0
 11
0.057301581096639
 21
13.96808528927177
 31
0.0
  0
LINE
  5
71
330
2
100
AcDbEntity
  8
0
  6
Continuous
 62
     7
100
AcDbLine
 10
4.759506664044493
 20
13.84789476085851
 30
0.0
 11
4.851892450867686
 21
15.01488816824606
 31
0.0
  0
LINE
  5
72
330
2
100
AcDbEntity
  8
0
  6
Continuous
 62
     7
100
AcDbLine
 10
5.471517795788932
 20
13.72609439288747
 30
0.0
 11
5.563903582612125
 21
14.89308780027502
 31
0.0
  0
LINE
  5
73
330
2
100
AcDbEntity
  8
0
  6
Continuous
 62
     7
100
AcDbLine
 10
5.193482814482027
 20
13.15165160126307
 30
0.0
 11
5.123266799736054
 21
12.9393347841859
 31
0.0
  0
LINE
  5
74
330
2
100
AcDbEntity
  8
0
  6
Continuous
 62
     7
100
AcDbLine
 10
5.523017443565964
 20
13.42756570377068
 30
0.0
 11
5.498554057739478
 21
13.35359414283905
 31
0.0
  0
LINE
  5
75
330
2
100
AcDbEntity
  8
0
  6
Continuous
 62
     7
100
AcDbLine
 10
5.892483907589157
 20
12.63529550883286
 30
0.0
 11
5.946018783258012
 21
12.79717246017888
 31
0.0
  0
LINE
  5
76
330
2
100
AcDbEntity
  8
0
  6
Continuous
 62
     7
100
AcDbLine
 10
6.597377412404852
 20
12.67333512235028
 30
0.0
 11
6.651089270108451
 21
12.83574722602636
 31
0.0
  0
LINE
  5
77
330
2
100
AcDbEntity
  8
0
  6
Continuous
 62
     7
100
AcDbLine
 10
0.057301581096639
 20
13.96808528927177
 30
0.0
 11
0.1321614898022744
 21
14.02903144441199
 31
0.0
  0
LINE
  5
78
330
2
100
AcDbEntity
  8
0
  6
Continuous
 62
     7
100
AcDbLine
 10
0.071167504938523
 20
13.93579001060057
 30
0.0
 11
8.991557672410081
 21
6.497465918479474
 31
0.0
  0
LINE
  5
79
330
2
100
AcDbEntity
  8
0
  6
Continuous
 62
     7
100
AcDbLine
 10
-0.2744351552549124
 20
14.37498567358614
 30
0.0
 11
0.1275395151856646
 21
14.03979653729953
 31
0.0
  0
LINE
  5
7A
330
2
100
AcDbEntity
  8
0
  6
Continuous
 62
     7
100
AcDbLine
 10
9.390872786474675
 20
6.315507156281622
 30
0.0
 11
9.792847456923658
 21
5.980318019995189
 31
0.0
  0
LINE
  5
7B
330
2
100
AcDbEntity
  8
0
  6
Continuous
 62
     7
100
AcDbLine
 10
0.9578948992653677
 20
13.5346296988021
 30
0.0
 11
1.095432201055468
 21
13.42033253447606
 31
0.0
  0
LINE
  5
7C
330
2
100
AcDbEntity
  8
0
  6
Continuous
 62
     7
100
AcDbLine
 10
0.3903229521471585
 20
14.11238923293214
 30
0.0
 11
-0.3477720969592703
 21
14.96739463478459
 31
0.0
  0
LINE
  5
7D
330
2
100
AcDbEntity
  8
0
  6
Continuous
 62
     7
100
AcDbLine
 10
9.060808283792351
 20
6.777963882107447
 30
0.0
 11
8.942844180108908
 21
6.876689965729026
 31
0.0
  0
LINE
  5
7E
330
2
100
AcDbEntity
  8
0
  6
Continuous
 62
     7
100
AcDbLine
 10
10.45559571798411
 20
12.8734918170645
 30
0.0
 11
10.54798150480746
 21
14.04048522445203
 31
0.0
  0
LINE
  5
7F
330
2
100
AcDbEntity
  8
0
  6
Continuous
 62
     7
100
AcDbLine
 10
11.16760684972855
 20
12.75169144909342
 30
0.0
 11
11.25999263654334
 21
13.91868485648078
 31
0.0
  0
LINE
  5
80
330
2
100
AcDbEntity
  8
0
  6
Continuous
 62
     7
100
AcDbLine
 10
10.58695710461032
 20
12.05721570062959
 30
0.0
 11
10.64066896231423
 21
12.21962780429732
 31
0.0
  0
LINE
  5
81
330
2
100
AcDbEntity
  8
0
  6
Continuous
 62
     7
100
AcDbLine
 10
11.21910649749733
 20
12.45316275997644
 30
0.0
 11
11.19464311167069
 21
12.37919119904481
 31
0.0
  0
LINE
  5
82
330
2
100
AcDbEntity
  8
0
  6
Continuous
 62
     7
100
AcDbLine
 10
4.976433370878571
 20
13.42319979262711
 30
0.0
 11
5.06422292877132
 21
13.48953170190919
 31
0.0
  0
LINE
  5
83
330
2
100
AcDbEntity
  8
0
  6
Continuous
 62
     7
100
AcDbLine
 10
9.792847456923658
 20
5.980318019995189
 30
0.0
 11
9.849897827820656
 21
5.953027841137572
 31
0.0
  0
LINE
  5
84
330
2
100
AcDbEntity
  8
0
  6
Continuous
 62
     7
100
AcDbLine
 10
6.40735202801328
 20
12.13004976575777
 30
0.0
 11
6.411717327368701
 21
12.12616765162737
 31
0.0
  0
LINE
  5
85
330
2
100
AcDbEntity
  8
0
  6
Continuous
 62
     7
100
AcDbLine
 10
14.79447526666436
 20
5.375898886689268
 30
0.0
 11
14.80992193157067
 21
5.22348279624104
 31
0.0
  0
LINE
  5
86
330
2
100
AcDbEntity
  8
0
  6
Continuous
 62
     7
100
AcDbLine
 10
11.58857296152878
 20
11.66089256503885
 30
0.0
 11
11.64210783719763
 21
11.82276951638485
 31
0.0
  0
LINE
  5
87
330
2
100
AcDbEntity
  8
0
  6
Continuous
 62
     7
100
AcDbLine
 10
12.29346646633622
 20
11.698932178556
 30
0.0
 11
12.34717832404807
 21
11.86134428223235
 31
0.0
  0
LINE
  5
88
330
2
100
AcDbEntity
  8
0
  6
Continuous
 62
     7
100
AcDbLine
 10
9.365396488646409
 20
6.329839699354294
 30
0.0
 11
9.067986565911995
 21
6.454468289261785
 31
0.0
  0
LINE
  5
89
330
2
100
AcDbEntity
  8
0
  6
Continuous
 62
     7
100
AcDbLine
 10
8.93366646908607
 20
6.884371023720457
 30
0.0
 11
8.944968740392855
 21
6.879228522089174
 31
0.0
  0
LINE
  5
8A
330
2
100
AcDbEntity
  8
0
  6
Continuous
 62
     7
100
AcDbLine
 10
14.62975552301744
 20
5.909968079926217
 30
0.0
 11
14.64105779433247
 21
5.904825578295142
 31
0.0
  0
LINE
  5
8B
330
2
100
AcDbEntity
  8
0
  6
Continuous
 62
     7
100
AcDbLine
 10
14.91932843106891
 20
5.103354682141755
 30
0.0
 11
14.97636908350017
 21
5.076069615059227
 31
0.0
  0
LINE
  5
8C
330
2
100
AcDbEntity
  8
0
  6
Continuous
 62
     7
100
AcDbLine
 10
15.68838021524445
 20
4.954269247088204
 30
0.0
 11
15.63133956281334
 21
4.981554314170711
 31
0.0
  0
LINE
  5
8D
330
2
100
AcDbEntity
  8
0
  6
Continuous
 62
     7
100
AcDbLine
 10
15.604123820024
 20
5.523394119019799
 30
0.0
 11
15.59955895988256
 21
5.525577316517771
 31
0.0
  0
LINE
  5
8E
330
2
100
AcDbEntity
  8
0
  6
Continuous
 62
     7
100
AcDbLine
 10
13.39693073176064
 20
5.900968158022812
 30
0.0
 11
13.3923915952471
 21
5.903146944406197
 31
0.0
  0
LINE
  5
8F
330
2
100
AcDbEntity
  8
0
  6
Continuous
 62
     7
100
AcDbLine
 10
13.79341485265845
 20
6.253571323060968
 30
0.0
 11
13.92192729619178
 21
6.147482294399902
 31
0.0
  0
LINE
  5
90
330
2
100
AcDbEntity
  8
0
  6
Continuous
 62
     7
100
AcDbLine
 10
10.43928625899099
 20
9.051115519580076
 30
0.0
 11
10.08651541043028
 21
9.344934370994426
 31
0.0
  0
LINE
  5
91
330
2
100
AcDbEntity
  8
0
  6
Continuous
 62
     7
100
AcDbLine
 10
5.946018783258012
 20
12.79717246017888
 30
0.0
 11
6.49599663475922
 21
12.33887995772011
 31
0.0
  0
LINE
  5
92
330
2
100
AcDbEntity
  8
0
  6
Continuous
 62
     7
100
AcDbLine
 10
5.822061776555621
 20
12.61785568333774
 30
0.0
 11
6.411723814087221
 21
12.12616224194719
 31
0.0
  0
LINE
  5
93
330
2
100
AcDbEntity
  8
0
  6
Continuous
 62
     7
100
AcDbLine
 10
14.91932843106891
 20
5.103354682141755
 30
0.0
 11
14.82823963541906
 21
5.179309653898025
 31
0.0
  0
LINE
  5
94
330
2
100
AcDbEntity
  8
0
  6
Continuous
 62
     7
100
AcDbLine
 10
4.943132963327588
 20
13.42206874085876
 30
0.0
 11
4.852044167677741
 21
13.49802371261507
 31
0.0
  0
LINE
  5
95
330
2
100
AcDbEntity
  8
0
  6
Continuous
 62
     7
100
AcDbLine
 10
14.77615756281597
 20
5.420072029032247
 30
0.0
 11
14.4992800248051
 21
5.650948125584061
 31
0.0
  0
LINE
  5
96
330
2
100
AcDbEntity
  8
0
  6
Continuous
 62
     7
100
AcDbLine
 10
5.374400874342033
 20
13.25978665711756
 30
0.0
 11
5.097523336322759
 21
13.49066275366912
 31
0.0
  0
LINE
  5
97
330
2
100
AcDbEntity
  8
0
  6
Continuous
 62
     7
100
AcDbLine
 10
8.732538895648477
 20
10.47392513740743
 30
0.0
 11
9.519498440624618
 21
9.818086443555587
 31
0.0
  0
LINE
  5
98
330
2
100
AcDbEntity
  8
0
  6
Continuous
 62
     7
100
AcDbLine
 10
10.57211453238154
 20
8.939983289448038
 30
0.0
 11
11.00733664850872
 21
8.577070067291392
 31
0.0
  0
LINE
  5
99
330
2
100
AcDbEntity
  8
0
  6
Continuous
 62
     7
100
AcDbLine
 10
6.980562098764093
 20
11.93482213545928
 30
0.0
 11
8.247973349948944
 21
10.87798291836364
 31
0.0
  0
LINE
  5
9A
330
2
100
AcDbEntity
  8
0
  6
Continuous
 62
     7
100
AcDbLine
 10
11.49190235074776
 20
8.173012365472587
 30
0.0
 11
12.75931360194086
 21
7.11617314837713
 31
0.0
  0
LINE
  5
9B
330
2
100
AcDbEntity
  8
0
  6
Continuous
 62
     7
100
AcDbLine
 10
10.08651541043028
 20
9.344934370994426
 30
0.0
 11
9.65309520752918
 21
9.706344564575747
 31
0.0
  0
LINE
  5
9C
330
2
100
AcDbEntity
  8
0
  6
Continuous
 62
     7
100
AcDbLine
 10
6.495051467830292
 20
12.3400407931665
 30
0.0
 11
6.8477338253653
 21
12.04595436559111
 31
0.0
  0
LINE
  5
9D
330
2
100
AcDbEntity
  8
0
  6
Continuous
 62
     7
100
AcDbLine
 10
6.8477338253653
 20
12.04595436559111
 30
0.0
 11
6.981419083295871
 21
11.93448006276393
 31
0.0
  0
LINE
  5
9E
330
2
100
AcDbEntity
  8
0
  6
Continuous
 62
     7
100
AcDbLine
 10
8.247028264714828
 20
10.87914379511465
 30
0.0
 11
8.599710622258237
 21
10.58505736753106
 31
0.0
  0
LINE
  5
9F
330
2
100
AcDbEntity
  8
0
  6
Continuous
 62
     7
100
AcDbLine
 10
8.599710622258237
 20
10.58505736753106
 30
0.0
 11
8.733395880180403
 21
10.47358306471209
 31
0.0
  0
LINE
  5
A0
330
2
100
AcDbEntity
  8
0
  6
Continuous
 62
     7
100
AcDbLine
 10
10.43928625899099
 20
9.051115519580076
 30
0.0
 11
10.57297151691301
 21
8.93964121676111
 31
0.0
  0
LINE
  5
A1
330
2
100
AcDbEntity
  8
0
  6
Continuous
 62
     7
100
AcDbLine
 10
11.00639171981411
 20
8.578231023179771
 30
0.0
 11
11.35907407735768
 21
8.284144595596181
 31
0.0
  0
LINE
  5
A2
330
2
100
AcDbEntity
  8
0
  6
Continuous
 62
     7
100
AcDbLine
 10
11.35907407735768
 20
8.284144595596181
 30
0.0
 11
11.49275933527954
 21
8.172670292777215
 31
0.0
  0
LINE
  5
A3
330
2
100
AcDbEntity
  8
0
  6
Continuous
 62
     7
100
AcDbLine
 10
12.75836851670705
 20
7.117334025119721
 30
0.0
 11
12.89205377462937
 21
7.005859722300753
 31
0.0
  0
LINE
  5
A4
330
2
100
AcDbEntity
  8
0
  6
Continuous
 62
     7
100
AcDbLine
 10
15.63133956281334
 20
4.981554314170711
 30
0.0
 11
15.5402507671638
 21
5.057509285918578
 31
0.0
  0
LINE
  5
A5
330
2
100
AcDbEntity
  8
0
  6
Continuous
 62
     7
100
AcDbLine
 10
5.655144095071874
 20
13.30026837288772
 30
0.0
 11
5.564055299422485
 21
13.37622334463562
 31
0.0
  0
LINE
  5
A6
330
2
100
AcDbEntity
  8
0
  6
Continuous
 62
     7
100
AcDbLine
 10
6.653983953196432
 20
12.56022675500785
 30
0.0
 11
6.791521254995088
 21
12.44592959068205
 31
0.0
  0
LINE
  5
A7
330
2
100
AcDbEntity
  8
0
  6
Continuous
 62
     7
100
AcDbLine
 10
15.48816869456071
 20
5.298271661061205
 30
0.0
 11
15.21129115654113
 21
5.529147757612808
 31
0.0
  0
LINE
  5
A8
330
2
100
AcDbEntity
  8
0
  6
Continuous
 62
     7
100
AcDbLine
 10
13.2438791476407
 20
6.712115367420921
 30
0.0
 11
13.7934148526583
 21
6.253571323069353
 31
0.0
  0
LINE
  5
A9
330
2
100
AcDbEntity
  8
0
  6
Continuous
 62
     7
100
AcDbLine
 10
9.65309520752918
 20
9.706344564575747
 30
0.0
 11
9.519498440624618
 21
9.818086443555587
 31
0.0
  0
LINE
  5
AA
330
2
100
AcDbEntity
  8
0
  6
Continuous
 62
     7
100
AcDbLine
 10
14.75689733773197
 20
5.803560938313417
 30
0.0
 11
14.63893323404012
 21
5.902287021934784
 31
0.0
  0
LINE
  5
AB
330
2
100
AcDbEntity
  8
0
  6
Continuous
 62
     7
100
AcDbLine
 10
14.63893323404012
 20
5.902287021934784
 30
0.0
 11
6.791521254995088
 21
12.44592959068205
 31
0.0
  0
LINE
  5
AC
330
2
100
AcDbEntity
  8
0
  6
Continuous
 62
     7
100
AcDbLine
 10
5.819034610582266
 20
12.90413091039769
 30
0.0
 11
5.946018783258012
 21
12.79717246017888
 31
0.0
  0
LINE
  5
AD
330
2
100
AcDbEntity
  8
0
  6
Continuous
 62
     7
100
AcDbLine
 10
15.52193306331526
 20
5.101682428270016
 30
0.0
 11
15.50648639840926
 21
5.254098518709803
 31
0.0
  0
LINE
  5
AE
330
2
100
AcDbEntity
  8
0
  6
Continuous
 62
     7
100
AcDbLine
 10
16.15168477191518
 20
11.89908887327026
 30
0.0
 11
16.24407055873852
 21
13.06608228065781
 31
0.0
  0
LINE
  5
AF
330
2
100
AcDbEntity
  8
0
  6
Continuous
 62
     7
100
AcDbLine
 10
13.917880275543
 20
5.902622301906213
 30
0.0
 11
13.97159213324645
 21
6.065034405582329
 31
0.0
  0
LINE
  5
B0
330
2
100
AcDbEntity
  8
0
  6
Continuous
 62
     7
100
AcDbLine
 10
10.67252242481819
 20
12.4487968488331
 30
0.0
 11
10.76031198270269
 21
12.51512875811495
 31
0.0
  0
LINE
  5
B1
330
2
100
AcDbEntity
  8
0
  6
Continuous
 62
     7
100
AcDbLine
 10
44.66260336247368
 20
8.69280604495664
 30
0.0
 11
44.71845621041214
 21
8.704654416180266
 31
0.0
  0
LINE
  5
B2
330
2
100
AcDbEntity
  8
0
  6
Continuous
 62
     7
100
AcDbLine
 10
32.69239881035976
 20
2.600183952039265
 30
0.0
 11
32.44344732389898
 21
2.642571369954879
 31
0.0
  0
LINE
  5
B3
330
2
100
AcDbEntity
  8
0
  6
Continuous
 62
     7
100
AcDbLine
 10
21.30022070248877
 20
4.548989839627537
 30
0.0
 11
21.05126921602814
 21
4.591377257543133
 31
0.0
  0
LINE
  5
B4
330
2
100
AcDbEntity
  8
0
  6
Continuous
 62
     7
100
AcDbLine
 10
15.6041316485577
 20
5.523392783413374
 30
0.0
 11
15.35518016208883
 21
5.565780201328759
 31
0.0
  0
LINE
  5
B5
330
2
100
AcDbEntity
  8
0
  6
Continuous
 62
     7
100
AcDbLine
 10
9.908042594618235
 20
6.497795727207405
 30
0.0
 11
9.659091108157459
 21
6.540183145123001
 31
0.0
  0
LINE
  5
B6
330
2
100
AcDbEntity
  8
0
  6
Continuous
 62
     7
100
AcDbLine
 10
15.68840625324539
 20
4.954263429951661
 30
0.0
 11
20.67248417543201
 21
4.101660854128481
 31
0.0
  0
LINE
  5
B7
330
2
100
AcDbEntity
  8
0
  6
Continuous
 62
     7
100
AcDbLine
 10
21.38449530717661
 20
3.979860486157419
 30
0.0
 11
26.36857322937133
 21
3.127257910342853
 31
0.0
  0
LINE
  5
B8
330
2
100
AcDbEntity
  8
0
  6
Continuous
 62
     7
100
AcDbLine
 10
27.08058436111608
 20
3.005457542363388
 30
0.0
 11
32.0646622833027
 21
2.152854966548613
 31
0.0
  0
LINE
  5
B9
330
2
100
AcDbEntity
  8
0
  6
Continuous
 62
     7
100
AcDbLine
 10
37.9031527379801
 20
1.154092637598059
 30
0.0
 11
32.77667341504729
 21
2.031054598569148
 31
0.0
  0
LINE
  5
BA
330
2
100
AcDbEntity
  8
0
  6
Continuous
 62
     7
100
AcDbLine
 10
9.849914147355702
 20
5.953027135776156
 30
0.0
 11
14.9763951215008
 21
5.076063797922721
 31
0.0
  0
LINE
  5
BB
330
2
100
AcDbEntity
  8
0
  6
Continuous
 62
     7
100
AcDbLine
 10
9.908035281824721
 20
6.497796955756733
 30
0.0
 11
13.39693849213306
 21
5.900966827830146
 31
0.0
  0
LINE
  5
BC
330
2
100
AcDbEntity
  8
0
  6
Continuous
 62
     7
100
AcDbLine
 10
15.60412433575609
 20
5.523394011962511
 30
0.0
 11
19.09302754606397
 21
4.92656388404429
 31
0.0
  0
LINE
  5
BD
330
2
100
AcDbEntity
  8
0
  6
Continuous
 62
     7
100
AcDbLine
 10
21.30021338969556
 20
4.548991068176884
 30
0.0
 11
24.78911660000374
 21
3.952160940250259
 31
0.0
  0
LINE
  5
BE
330
2
100
AcDbEntity
  8
0
  6
Continuous
 62
     7
100
AcDbLine
 10
26.99630244362678
 20
3.574588124382643
 30
0.0
 11
30.48520565393496
 21
2.977757996456018
 31
0.0
  0
LINE
  5
BF
330
2
100
AcDbEntity
  8
0
  6
Continuous
 62
     7
100
AcDbLine
 10
32.6923914975664
 20
2.600185180588614
 30
0.0
 11
36.18129470786633
 21
2.003355052661776
 31
0.0
  0
LINE
  5
C0
330
2
100
AcDbEntity
  8
0
  6
Continuous
 62
     7
100
AcDbLine
 10
13.64639520069842
 20
5.858093977035344
 30
0.0
 11
13.39693124849079
 21
5.900968050394835
 31
0.0
  0
LINE
  5
C1
330
2
100
AcDbEntity
  8
0
  6
Continuous
 62
     7
100
AcDbLine
 10
19.34248425462964
 20
4.883691033241124
 30
0.0
 11
19.093020302422
 21
4.926565106600594
 31
0.0
  0
LINE
  5
C2
330
2
100
AcDbEntity
  8
0
  6
Continuous
 62
     7
100
AcDbLine
 10
25.03857330856942
 20
3.909288089447093
 30
0.0
 11
24.78910935636163
 21
3.952162162806562
 31
0.0
  0
LINE
  5
C3
330
2
100
AcDbEntity
  8
0
  6
Continuous
 62
     7
100
AcDbLine
 10
1.086282316528289
 20
13.42796230110306
 30
0.0
 11
1.097538351200709
 21
13.42285832937853
 31
0.0
  0
LINE
  5
C4
330
2
100
AcDbEntity
  8
0
  6
Continuous
 62
     7
100
AcDbLine
 10
20.32584457694835
 20
4.93556513614038
 30
0.0
 11
20.33714684826369
 21
4.930422634500902
 31
0.0
  0
LINE
  5
C5
330
2
100
AcDbEntity
  8
0
  6
Continuous
 62
     7
100
AcDbLine
 10
0.4133643947374367
 20
14.10146936951377
 30
0.0
 11
0.3903229521471585
 21
14.11238923293214
 31
0.0
  0
LINE
  5
C6
330
2
100
AcDbEntity
  8
0
  6
Continuous
 62
     7
100
AcDbLine
 10
20.61541748500852
 20
4.128951738347723
 30
0.0
 11
20.67245813743964
 21
4.101666671265216
 31
0.0
  0
LINE
  5
C7
330
2
100
AcDbEntity
  8
0
  6
Continuous
 62
     7
100
AcDbLine
 10
21.38446926917582
 20
3.979866303293963
 30
0.0
 11
21.32742861674456
 21
4.007151370376471
 31
0.0
  0
LINE
  5
C8
330
2
100
AcDbEntity
  8
0
  6
Continuous
 62
     7
100
AcDbLine
 10
19.09301978569201
 20
4.926565214228571
 30
0.0
 11
19.08848064917816
 21
4.92874400062036
 31
0.0
  0
LINE
  5
C9
330
2
100
AcDbEntity
  8
0
  6
Continuous
 62
     7
100
AcDbLine
 10
19.48950390658936
 20
5.27916837927513
 30
0.0
 11
19.61801635012315
 21
5.173079350605663
 31
0.0
  0
LINE
  5
CA
330
2
100
AcDbEntity
  8
0
  6
Continuous
 62
     7
100
AcDbLine
 10
11.64210783719763
 20
11.82276951638485
 30
0.0
 11
12.67665115269531
 21
10.96041919166506
 31
0.0
  0
LINE
  5
CB
330
2
100
AcDbEntity
  8
0
  6
Continuous
 62
     7
100
AcDbLine
 10
20.61541748500852
 20
4.128951738347723
 30
0.0
 11
20.52432868935883
 21
4.204906710104013
 31
0.0
  0
LINE
  5
CC
330
2
100
AcDbEntity
  8
0
  6
Continuous
 62
     7
100
AcDbLine
 10
10.63922201725896
 20
12.44766579706452
 30
0.0
 11
10.54813322160896
 21
12.52362076882082
 31
0.0
  0
LINE
  5
CD
330
2
100
AcDbEntity
  8
0
  6
Continuous
 62
     7
100
AcDbLine
 10
20.47224661675574
 20
4.445669085238256
 30
0.0
 11
20.19536907873601
 21
4.676545181798223
 31
0.0
  0
LINE
  5
CE
330
2
100
AcDbEntity
  8
0
  6
Continuous
 62
     7
100
AcDbLine
 10
11.0704899282734
 20
12.28538371332332
 30
0.0
 11
10.79361239025367
 21
12.51625980988328
 31
0.0
  0
LINE
  5
CF
330
2
100
AcDbEntity
  8
0
  6
Continuous
 62
     7
100
AcDbLine
 10
14.42862794958825
 20
9.499522193613415
 30
0.0
 11
15.34918426146055
 21
8.731941620781505
 31
0.0
  0
LINE
  5
D0
330
2
100
AcDbEntity
  8
0
  6
Continuous
 62
     7
100
AcDbLine
 10
12.67665115269531
 20
10.96041919166506
 30
0.0
 11
13.94406240388001
 21
9.903579974569396
 31
0.0
  0
LINE
  5
D1
330
2
100
AcDbEntity
  8
0
  6
Continuous
 62
     7
100
AcDbLine
 10
16.13496593190704
 20
8.076712575785839
 30
0.0
 11
15.34918426146055
 21
8.731941620781505
 31
0.0
  0
LINE
  5
D2
330
2
100
AcDbEntity
  8
0
  6
Continuous
 62
     7
100
AcDbLine
 10
13.94311731865445
 20
9.904740851320619
 30
0.0
 11
14.42862794958825
 21
9.499522193613415
 31
0.0
  0
LINE
  5
D3
330
2
100
AcDbEntity
  8
0
  6
Continuous
 62
     7
100
AcDbLine
 10
16.13537531292236
 20
8.076712575785839
 30
0.0
 11
19.48950390658936
 21
5.27916837927513
 31
0.0
  0
LINE
  5
D4
330
2
100
AcDbEntity
  8
0
  6
Continuous
 62
     7
100
AcDbLine
 10
21.32742861674456
 20
4.007151370376471
 30
0.0
 11
21.23633982109471
 21
4.083106342132739
 31
0.0
  0
LINE
  5
D5
330
2
100
AcDbEntity
  8
0
  6
Continuous
 62
     7
100
AcDbLine
 10
11.35123314900324
 20
12.32586542909349
 30
0.0
 11
11.2601443533534
 21
12.40182040084976
 31
0.0
  0
LINE
  5
D6
330
2
100
AcDbEntity
  8
0
  6
Continuous
 62
     7
100
AcDbLine
 10
12.35007300712765
 20
11.58582381122202
 30
0.0
 11
12.48761030892646
 21
11.47152664688781
 31
0.0
  0
LINE
  5
D7
330
2
100
AcDbEntity
  8
0
  6
Continuous
 62
     7
100
AcDbLine
 10
21.18425774850019
 20
4.323868717267194
 30
0.0
 11
20.90738021048091
 21
4.554744813818777
 31
0.0
  0
LINE
  5
D8
330
2
100
AcDbEntity
  8
0
  6
Continuous
 62
     7
100
AcDbLine
 10
20.45298639166304
 20
4.829157994519175
 30
0.0
 11
20.33502228797959
 21
4.927884078149176
 31
0.0
  0
LINE
  5
D9
330
2
100
AcDbEntity
  8
0
  6
Continuous
 62
     7
100
AcDbLine
 10
20.33502228797959
 20
4.927884078149176
 30
0.0
 11
12.48761030892646
 21
11.47152664688781
 31
0.0
  0
LINE
  5
DA
330
2
100
AcDbEntity
  8
0
  6
Continuous
 62
     7
100
AcDbLine
 10
11.51512366451348
 20
11.92972796660341
 30
0.0
 11
11.64210783719763
 21
11.82276951638485
 31
0.0
  0
LINE
  5
DB
330
2
100
AcDbEntity
  8
0
  6
Continuous
 62
     7
100
AcDbLine
 10
16.86369590365977
 20
11.77728850529922
 30
0.0
 11
16.95608169048296
 21
12.94428191268677
 31
0.0
  0
LINE
  5
DC
330
2
100
AcDbEntity
  8
0
  6
Continuous
 62
     7
100
AcDbLine
 10
14.52162929640397
 20
6.000129821884072
 30
0.0
 11
14.47743514179118
 21
5.866497027815348
 31
0.0
  0
LINE
  5
DD
330
2
100
AcDbEntity
  8
0
  6
Continuous
 62
     7
100
AcDbLine
 10
16.28304615854994
 20
11.08281275683558
 30
0.0
 11
16.336758016254
 21
11.24522486050331
 31
0.0
  0
LINE
  5
DE
330
2
100
AcDbEntity
  8
0
  6
Continuous
 62
     7
100
AcDbLine
 10
16.91519555143665
 20
11.47875981619081
 30
0.0
 11
16.89073216561031
 21
11.40478825525918
 31
0.0
  0
LINE
  5
DF
330
2
100
AcDbEntity
  8
0
  6
Continuous
 62
     7
100
AcDbLine
 10
17.28466201545999
 20
10.68648962124461
 30
0.0
 11
17.33819689112885
 21
10.84836657259901
 31
0.0
  0
LWPOLYLINE
  5
E0
330
2
100
AcDbEntity
  8
0
  6
Continuous
 62
     7
100
AcDbPolyline
 90
       13
 70
   128
 43
0.0
 10
44.71845621041214
 20
8.704654416180266
 10
44.77152309203157
 20
8.713106222519902
 10
44.8331251492405
 20
8.715811099057447
 10
44.90691322658322
 20
8.711230627807079
 10
44.98989397869567
 20
8.698471885113562
 10
45.07803055509095
 20
8.678075767419985
 10
45.17005093361849
 20
8.65049694949662
 10
45.26294358560313
 20
8.617045438295139
 10
45.34800824226571
 20
8.581149239234896
 10
45.41819597343068
 20
8.545846297009545
 10
45.47063149351201
 20
8.513564066289282
 10
45.50407743583347
 20
8.487018692353339
 10
45.51969245646517
 20
8.470048511829205
  0
LINE
  5
E1
330
2
100
AcDbEntity
  8
0
  6
Continuous
 62
     7
100
AcDbLine
 10
24.46336392177997
 20
4.621192403548407
 30
0.0
 11
24.46342243444286
 21
4.621181323122049
 31
0.0
  0
LWPOLYLINE
  5
E2
330
2
100
AcDbEntity
  8
0
  6
Continuous
 62
     7
100
AcDbPolyline
 90
        3
 70
   128
 43
0.0
 10
24.46335367026939
 20
4.621186532711393
 10
24.4639256839505
 20
4.621070172791433
 10
24.46961135470965
 20
4.618812556990101
  0
LINE
  5
E3
330
2
100
AcDbEntity
  8
0
  6
Continuous
 62
     7
100
AcDbLine
 10
5.374400874342033
 20
13.25978665711756
 30
0.0
 11
5.397442316932465
 21
13.24886679369082
 31
0.0
  0
LINE
  5
E4
330
2
100
AcDbEntity
  8
0
  6
Continuous
 62
     7
100
AcDbLine
 10
11.0704899282734
 20
12.28538371332332
 30
0.0
 11
11.09353137086353
 21
12.27446384990498
 31
0.0
  0
LINE
  5
E5
330
2
100
AcDbEntity
  8
0
  6
Continuous
 62
     7
100
AcDbLine
 10
26.31150653893989
 20
3.154548794553483
 30
0.0
 11
26.36854719137101
 21
3.127263727470975
 31
0.0
  0
LINE
  5
E6
330
2
100
AcDbEntity
  8
0
  6
Continuous
 62
     7
100
AcDbLine
 10
27.08055832311544
 20
3.005463359499931
 30
0.0
 11
27.02351767068418
 21
3.03274842658244
 31
0.0
  0
LINE
  5
E7
330
2
100
AcDbEntity
  8
0
  6
Continuous
 62
     7
100
AcDbLine
 10
32.00759559287906
 20
2.180145850767856
 30
0.0
 11
32.06463624531063
 21
2.152860783676944
 31
0.0
  0
LINE
  5
E8
330
2
100
AcDbEntity
  8
0
  6
Continuous
 62
     7
100
AcDbLine
 10
4.943132963327588
 20
13.42206874085876
 30
0.0
 11
4.954537432115764
 21
13.41661327556428
 31
0.0
  0
LINE
  5
E9
330
2
100
AcDbEntity
  8
0
  6
Continuous
 62
     7
100
AcDbLine
 10
5.086118867534126
 20
13.496118218972
 30
0.0
 11
5.097523336322759
 21
13.49066275366912
 31
0.0
  0
LINE
  5
EA
330
2
100
AcDbEntity
  8
0
  6
Continuous
 62
     7
100
AcDbLine
 10
5.666548563852106
 20
13.29481290758462
 30
0.0
 11
5.655144095071874
 21
13.30026837288772
 31
0.0
  0
LINE
  5
EB
330
2
100
AcDbEntity
  8
0
  6
Continuous
 62
     7
100
AcDbLine
 10
10.63922201725896
 20
12.44766579706452
 30
0.0
 11
10.65062648604698
 21
12.44221033177004
 31
0.0
  0
LINE
  5
EC
330
2
100
AcDbEntity
  8
0
  6
Continuous
 62
     7
100
AcDbLine
 10
10.7822079214739
 20
12.52171527517799
 30
0.0
 11
10.79361239025367
 21
12.51625980988328
 31
0.0
  0
LINE
  5
ED
330
2
100
AcDbEntity
  8
0
  6
Continuous
 62
     7
100
AcDbLine
 10
24.78910883963163
 20
3.952162270434559
 30
0.0
 11
24.78456970311779
 21
3.954341056826329
 31
0.0
  0
LINE
  5
EE
330
2
100
AcDbEntity
  8
0
  6
Continuous
 62
     7
100
AcDbLine
 10
24.46961135470965
 20
4.618812556990101
 30
0.0
 11
24.47198528447197
 21
4.617131198182541
 31
0.0
  0
LINE
  5
EF
330
2
100
AcDbEntity
  8
0
  6
Continuous
 62
     7
100
AcDbLine
 10
20.87805892108395
 20
7.613651403001132
 30
0.0
 11
20.88043285084658
 21
7.611970044185133
 31
0.0
  0
LINE
  5
F0
330
2
100
AcDbEntity
  8
0
  6
Continuous
 62
     7
100
AcDbLine
 10
17.2142398844263
 20
10.66904979575789
 30
0.0
 11
19.55587871884244
 21
8.716459356315452
 31
0.0
  0
LINE
  5
F1
330
2
100
AcDbEntity
  8
0
  6
Continuous
 62
     7
100
AcDbLine
 10
19.56297663805215
 20
8.71107247605548
 30
0.0
 11
21.39545435558375
 21
7.182517508356313
 31
0.0
  0
LINE
  5
F2
330
2
100
AcDbEntity
  8
0
  6
Continuous
 62
     7
100
AcDbLine
 10
24.47197390403931
 20
4.617142110240853
 30
0.0
 11
25.06163595382675
 21
4.125448658639983
 31
0.0
  0
LINE
  5
F3
330
2
100
AcDbEntity
  8
0
  6
Continuous
 62
     7
100
AcDbLine
 10
26.31150653893989
 20
3.154548794553483
 30
0.0
 11
26.2204177432899
 21
3.230503766309772
 31
0.0
  0
LINE
  5
F4
330
2
100
AcDbEntity
  8
0
  6
Continuous
 62
     7
100
AcDbLine
 10
16.33531107119842
 20
11.4732628532705
 30
0.0
 11
16.24422227554858
 21
11.54921782502679
 31
0.0
  0
LINE
  5
F5
330
2
100
AcDbEntity
  8
0
  6
Continuous
 62
     7
100
AcDbLine
 10
19.5515069327769
 20
8.720346880117856
 30
0.0
 11
19.55587223213247
 21
8.716464765987451
 31
0.0
  0
LINE
  5
F6
330
2
100
AcDbEntity
  8
0
  6
Continuous
 62
     7
100
AcDbLine
 10
21.39108256950966
 20
7.186405032166891
 30
0.0
 11
21.39544786886538
 21
7.182522918028081
 31
0.0
  0
LINE
  5
F7
330
2
100
AcDbEntity
  8
0
  6
Continuous
 62
     7
100
AcDbLine
 10
20.49056432060398
 20
4.401495942895238
 30
0.0
 11
20.50601098551029
 21
4.249079852455433
 31
0.0
  0
LINE
  5
F8
330
2
100
AcDbEntity
  8
0
  6
Continuous
 62
     7
100
AcDbLine
 10
21.21802211725487
 20
4.127279484475987
 30
0.0
 11
21.20257545234032
 21
4.279695574915562
 31
0.0
  0
LINE
  5
F9
330
2
100
AcDbEntity
  8
0
  6
Continuous
 62
     7
100
AcDbLine
 10
16.36861147874956
 20
11.47439390503884
 30
0.0
 11
16.4564010366339
 21
11.54072581432069
 31
0.0
  0
LWPOLYLINE
  5
FA
330
2
100
AcDbEntity
  8
0
  6
Continuous
 62
     7
100
AcDbPolyline
 90
        4
 70
   128
 43
0.0
 10
44.5052165820661
 20
8.670380209747646
 10
44.52300224717485
 20
8.671641618301372
 10
44.59900213251524
 20
8.680791245848336
 10
44.66260336247368
 20
8.69280604495664
  0
LWPOLYLINE
  5
FB
330
2
100
AcDbEntity
  8
0
  6
Continuous
 62
     7
100
AcDbPolyline
 90
        6
 70
   128
 43
0.0
 10
-0.2792372979321445
 20
15.83311341864343
 10
-0.3226871477430104
 20
15.84736214731108
 10
-0.4005353744970999
 20
15.87764651475342
 10
-0.467788612672266
 20
15.90803555286967
 10
-0.5246335688795735
 20
15.93747038182196
 10
-0.5587200250419993
 20
15.95763263278004
  0
LINE
  5
FC
330
2
100
AcDbEntity
  8
0
  6
Continuous
 62
     7
100
AcDbLine
 10
31.71802268481934
 20
2.986759248552127
 30
0.0
 11
31.72932495613438
 21
2.981616746921033
 31
0.0
  0
LINE
  5
FD
330
2
100
AcDbEntity
  8
0
  6
Continuous
 62
     7
100
AcDbLine
 10
16.76657898220447
 20
11.31098076952907
 30
0.0
 11
16.78962042480315
 21
11.30006090611095
 31
0.0
  0
LINE
  5
FE
330
2
100
AcDbEntity
  8
0
  6
Continuous
 62
     7
100
AcDbLine
 10
32.77664737704667
 20
2.03106041570569
 30
0.0
 11
32.71960672461555
 21
2.058345482788198
 31
0.0
  0
LINE
  5
FF
330
2
100
AcDbEntity
  8
0
  6
Continuous
 62
     7
100
AcDbLine
 10
37.9031364184449
 20
1.154093342959455
 30
0.0
 11
37.84608604754821
 21
1.18138352181711
 31
0.0
  0
LINE
  5
100
330
2
100
AcDbEntity
  8
0
  6
Continuous
 62
     7
100
AcDbLine
 10
11.36263761779188
 20
12.32040996379061
 30
0.0
 11
11.35123314900324
 21
12.32586542909349
 31
0.0
  0
LINE
  5
101
330
2
100
AcDbEntity
  8
0
  6
Continuous
 62
     7
100
AcDbLine
 10
16.33531107119842
 20
11.4732628532705
 30
0.0
 11
16.34671553997835
 21
11.4678073879758
 31
0.0
  0
LINE
  5
102
330
2
100
AcDbEntity
  8
0
  6
Continuous
 62
     7
100
AcDbLine
 10
16.47829697540511
 20
11.54731233138373
 30
0.0
 11
16.48970144419329
 21
11.54185686608925
 31
0.0
  0
LINE
  5
103
330
2
100
AcDbEntity
  8
0
  6
Continuous
 62
     7
100
AcDbLine
 10
17.05872667172279
 20
11.34600702000478
 30
0.0
 11
17.04732220294286
 21
11.35146248529946
 31
0.0
  0
LINE
  5
104
330
2
100
AcDbEntity
  8
0
  6
Continuous
 62
     7
100
AcDbLine
 10
18.20629430583319
 20
9.841519325028462
 30
0.0
 11
18.20866823559551
 21
9.839837966220899
 31
0.0
  0
LINE
  5
105
330
2
100
AcDbEntity
  8
0
  6
Continuous
 62
     7
100
AcDbLine
 10
25.18559296052914
 20
4.304765435481099
 30
0.0
 11
25.31410540406277
 21
4.198676406811632
 31
0.0
  0
LINE
  5
106
330
2
100
AcDbEntity
  8
0
  6
Continuous
 62
     7
100
AcDbLine
 10
26.16833567068696
 20
3.471266141443996
 30
0.0
 11
25.89145813267578
 21
3.702142238004193
 31
0.0
  0
LINE
  5
107
330
2
100
AcDbEntity
  8
0
  6
Continuous
 62
     7
100
AcDbLine
 10
16.76657898220447
 20
11.31098076952907
 30
0.0
 11
16.48970144419329
 21
11.54185686608925
 31
0.0
  0
LINE
  5
108
330
2
100
AcDbEntity
  8
0
  6
Continuous
 62
     7
100
AcDbLine
 10
17.33827736319422
 20
10.84860990131603
 30
0.0
 11
19.64015145781963
 21
8.929177030775385
 31
0.0
  0
LINE
  5
109
330
2
100
AcDbEntity
  8
0
  6
Continuous
 62
     7
100
AcDbLine
 10
22.8840804586186
 20
6.224206477884314
 30
0.0
 11
25.18559296052914
 21
4.304765435481099
 31
0.0
  0
LINE
  5
10A
330
2
100
AcDbEntity
  8
0
  6
Continuous
 62
     7
100
AcDbLine
 10
19.63920637258565
 20
8.930337907526396
 30
0.0
 11
19.77289163051623
 21
8.81886360470764
 31
0.0
  0
LINE
  5
10B
330
2
100
AcDbEntity
  8
0
  6
Continuous
 62
     7
100
AcDbLine
 10
27.02351767068418
 20
3.03274842658244
 30
0.0
 11
26.93242887503449
 21
3.108703398338728
 31
0.0
  0
LINE
  5
10C
330
2
100
AcDbEntity
  8
0
  6
Continuous
 62
     7
100
AcDbLine
 10
17.04732220294286
 20
11.35146248529946
 30
0.0
 11
16.95623340728477
 21
11.42741745705552
 31
0.0
  0
LINE
  5
10D
330
2
100
AcDbEntity
  8
0
  6
Continuous
 62
     7
100
AcDbLine
 10
26.88034680243156
 20
3.349465773472971
 30
0.0
 11
26.60346926441197
 21
3.580341870024536
 31
0.0
  0
LINE
  5
10E
330
2
100
AcDbEntity
  8
0
  6
Continuous
 62
     7
100
AcDbLine
 10
17.2112127184531
 20
10.9553250228178
 30
0.0
 11
17.33819689112885
 21
10.84836657259901
 31
0.0
  0
LINE
  5
10F
330
2
100
AcDbEntity
  8
0
  6
Continuous
 62
     7
100
AcDbLine
 10
21.8477738258548
 20
10.92468592948463
 30
0.0
 11
21.94015961267814
 21
12.0916793368722
 31
0.0
  0
LINE
  5
110
330
2
100
AcDbEntity
  8
0
  6
Continuous
 62
     7
100
AcDbLine
 10
19.61396932947391
 20
4.928219358111954
 30
0.0
 11
19.66768118718607
 21
5.090631461788297
 31
0.0
  0
LINE
  5
111
330
2
100
AcDbEntity
  8
0
  6
Continuous
 62
     7
100
AcDbLine
 10
15.32939190873981
 20
5.430668694043992
 30
0.0
 11
15.15325252850758
 21
5.181003647409066
 31
0.0
  0
LWPOLYLINE
  5
112
330
2
100
AcDbEntity
  8
0
  6
Continuous
 62
     7
100
AcDbPolyline
 90
       10
 70
   128
 43
0.0
 10
45.45099270166319
 20
8.525654801891493
 10
45.43054209668035
 20
8.527460954837266
 10
45.37615957019439
 20
8.53540168610732
 10
45.31467140435913
 20
8.547230840664706
 10
45.24765297337617
 20
8.562578606433419
 10
45.17638404363985
 20
8.581169398821362
 10
45.10096011396686
 20
8.602935076416963
 10
45.02185376668633
 20
8.626985677213387
 10
44.94009563554363
 20
8.651785145188686
 10
44.85530605147992
 20
8.676057023081636
  0
LINE
  5
113
330
2
100
AcDbEntity
  8
0
  6
Continuous
 62
     7
100
AcDbLine
 10
44.06175983571197
 20
8.51475169132183
 30
0.0
 11
44.69878170617897
 21
8.448177417035319
 31
0.0
  0
LINE
  5
114
330
2
100
AcDbEntity
  8
0
  6
Continuous
 62
     7
100
AcDbLine
 10
12.83630802549457
 20
11.84403951532654
 30
0.0
 11
12.84782822325079
 21
11.84210940916257
 31
0.0
  0
LINE
  5
115
330
2
100
AcDbEntity
  8
0
  6
Continuous
 62
     7
100
AcDbLine
 10
1.444129917623736
 20
13.79284540291477
 30
0.0
 11
1.455650115379953
 21
13.79091529675085
 31
0.0
  0
LINE
  5
116
330
2
100
AcDbEntity
  8
0
  6
Continuous
 62
     7
100
AcDbLine
 10
16.34636357875907
 20
11.24325240200711
 30
0.0
 11
16.5856609224777
 21
11.20284571404775
 31
0.0
  0
LINE
  5
117
330
2
100
AcDbEntity
  8
0
  6
Continuous
 62
     7
100
AcDbLine
 10
10.6502745248277
 20
12.21765534580131
 30
0.0
 11
10.88957186854633
 21
12.177248657842
 31
0.0
  0
LINE
  5
118
330
2
100
AcDbEntity
  8
0
  6
Continuous
 62
     7
100
AcDbLine
 10
4.954185470888238
 20
13.19205828959536
 30
0.0
 11
5.193482814607013
 21
13.1516516016276
 31
0.0
  0
LINE
  5
119
330
2
100
AcDbEntity
  8
0
  6
Continuous
 62
     7
100
AcDbLine
 10
16.30245009332047
 20
11.0287895439618
 30
0.0
 11
16.2274599217055
 21
11.04161775701266
 31
0.0
  0
LINE
  5
11A
330
2
100
AcDbEntity
  8
0
  6
Continuous
 62
     7
100
AcDbLine
 10
12.88858579342761
 20
11.61278312130761
 30
0.0
 11
12.81359554778219
 21
11.62561134703111
 31
0.0
  0
LINE
  5
11B
330
2
100
AcDbEntity
  8
0
  6
Continuous
 62
     7
100
AcDbLine
 10
1.496407685556775
 20
13.56158900889588
 30
0.0
 11
1.421417439911353
 21
13.57441723461938
 31
0.0
  0
LINE
  5
11C
330
2
100
AcDbEntity
  8
0
  6
Continuous
 62
     7
100
AcDbLine
 10
16.08755412014566
 20
11.2878549893012
 30
0.0
 11
12.84790347071557
 21
11.84204666358101
 31
0.0
  0
LINE
  5
11D
330
2
100
AcDbEntity
  8
0
  6
Continuous
 62
     7
100
AcDbLine
 10
10.3914650662062
 20
12.26225793308683
 30
0.0
 11
8.08892185003004
 21
12.65586036860117
 31
0.0
  0
LINE
  5
11E
330
2
100
AcDbEntity
  8
0
  6
Continuous
 62
     7
100
AcDbLine
 10
4.695376012275133
 20
13.23666087688105
 30
0.0
 11
3.993233895172321
 21
13.35649028542454
 31
0.0
  0
LINE
  5
11F
330
2
100
AcDbEntity
  8
0
  6
Continuous
 62
     7
100
AcDbLine
 10
16.336758016254
 20
11.24522486050331
 30
0.0
 11
16.08755412014566
 21
11.2878549893012
 31
0.0
  0
LINE
  5
120
330
2
100
AcDbEntity
  8
0
  6
Continuous
 62
     7
100
AcDbLine
 10
10.64066896231423
 20
12.21962780429732
 30
0.0
 11
10.3914650662062
 21
12.26225793308683
 31
0.0
  0
LINE
  5
121
330
2
100
AcDbEntity
  8
0
  6
Continuous
 62
     7
100
AcDbLine
 10
4.944579908383013
 20
13.19403074809154
 30
0.0
 11
4.695376012275133
 21
13.23666087688105
 31
0.0
  0
LINE
  5
122
330
2
100
AcDbEntity
  8
0
  6
Continuous
 62
     7
100
AcDbLine
 10
2.132135938001264
 20
13.67514220158709
 30
0.0
 11
1.455725362844888
 21
13.79085255116088
 31
0.0
  0
LINE
  5
123
330
2
100
AcDbEntity
  8
0
  6
Continuous
 62
     7
100
AcDbLine
 10
5.373235551097358
 20
13.25297450099738
 30
0.0
 11
0.413149628319763
 21
14.10147287925291
 31
0.0
  0
LINE
  5
124
330
2
100
AcDbEntity
  8
0
  6
Continuous
 62
     7
100
AcDbLine
 10
5.666557433158406
 20
13.29481019604391
 30
0.0
 11
10.63863935563624
 21
12.44425971900864
 31
0.0
  0
LINE
  5
125
330
2
100
AcDbEntity
  8
0
  6
Continuous
 62
     7
100
AcDbLine
 10
11.36264648708962
 20
12.32040725224967
 30
0.0
 11
16.33472840957601
 21
11.46985677521461
 31
0.0
  0
LINE
  5
126
330
2
100
AcDbEntity
  8
0
  6
Continuous
 62
     7
100
AcDbLine
 10
17.05873554102099
 20
11.34600430845543
 30
0.0
 11
22.03081746350708
 21
10.49545383142037
 31
0.0
  0
LINE
  5
127
330
2
100
AcDbEntity
  8
0
  6
Continuous
 62
     7
100
AcDbLine
 10
22.75482459496046
 20
10.37160136466142
 30
0.0
 11
27.86682537963461
 21
9.502653517193616
 31
0.0
  0
LINE
  5
128
330
2
100
AcDbEntity
  8
0
  6
Continuous
 62
     7
100
AcDbLine
 10
3.993233895172321
 20
13.35649028542454
 30
0.0
 11
2.132135938001264
 21
13.67514220158709
 31
0.0
  0
LINE
  5
129
330
2
100
AcDbEntity
  8
0
  6
Continuous
 62
     7
100
AcDbLine
 10
1.20622047685267
 20
13.83373366228437
 30
0.0
 11
1.445689277032629
 21
13.79223997292119
 31
0.0
  0
LINE
  5
12A
330
2
100
AcDbEntity
  8
0
  6
Continuous
 62
     7
100
AcDbLine
 10
6.902309530792293
 20
12.85933071849034
 30
0.0
 11
8.08892185003004
 21
12.65586036860117
 31
0.0
  0
LINE
  5
12B
330
2
100
AcDbEntity
  8
0
  6
Continuous
 62
     7
100
AcDbLine
 10
12.59839858472336
 20
11.8849277747045
 30
0.0
 11
12.83786738490362
 21
11.84343408533291
 31
0.0
  0
LINE
  5
12C
330
2
100
AcDbEntity
  8
0
  6
Continuous
 62
     7
100
AcDbLine
 10
4.944504660909982
 20
13.19409349367288
 30
0.0
 11
4.95614736508824
 21
13.19206123474379
 31
0.0
  0
LINE
  5
12D
330
2
100
AcDbEntity
  8
0
  6
Continuous
 62
     7
100
AcDbLine
 10
10.6405937148496
 20
12.21969054987885
 30
0.0
 11
10.65223641901915
 21
12.21765829095794
 31
0.0
  0
LINE
  5
12E
330
2
100
AcDbEntity
  8
0
  6
Continuous
 62
     7
100
AcDbLine
 10
16.33668276878051
 20
11.24528760609301
 30
0.0
 11
16.34832547295892
 21
11.24325534716394
 31
0.0
  0
LINE
  5
12F
330
2
100
AcDbEntity
  8
0
  6
Continuous
 62
     7
100
AcDbLine
 10
1.496400264971809
 20
13.56158904837505
 30
0.0
 11
1.497836433112643
 21
13.56129202484219
 31
0.0
  0
LINE
  5
130
330
2
100
AcDbEntity
  8
0
  6
Continuous
 62
     7
100
AcDbLine
 10
12.88857837284249
 20
11.6127831607952
 30
0.0
 11
12.89001454098363
 21
11.61248613725391
 31
0.0
  0
LWPOLYLINE
  5
131
330
2
100
AcDbEntity
  8
0
  6
Continuous
 62
     7
100
AcDbPolyline
 90
       10
 70
   128
 43
0.0
 10
-0.2516353247551378
 20
16.0607697803274
 10
-0.2872877427718414
 20
16.07152885723629
 10
-0.3890975762417657
 20
16.09785347654533
 10
-0.4817105500129985
 20
16.11666905298716
 10
-0.5623816458867879
 20
16.12699307345816
 10
-0.6287763411100534
 20
16.12900961539366
 10
-0.6819718288614242
 20
16.12339233959921
 10
-0.7252712915824598
 20
16.1107195599873
 10
-0.7628170223006673
 20
16.08854244158041
 10
-0.7915573777900211
 20
16.05403311512056
  0
LINE
  5
132
330
2
100
AcDbEntity
  8
0
  6
Continuous
 62
     7
100
AcDbLine
 10
22.46266803614394
 20
10.33657782574345
 30
0.0
 11
22.48570947873452
 21
10.32565796231671
 31
0.0
  0
LINE
  5
133
330
2
100
AcDbEntity
  8
0
  6
Continuous
 62
     7
100
AcDbLine
 10
22.03140012512949
 20
10.49885990948467
 30
0.0
 11
22.04280459391797
 21
10.49340444418179
 31
0.0
  0
LINE
  5
134
330
2
100
AcDbEntity
  8
0
  6
Continuous
 62
     7
100
AcDbLine
 10
22.17438602933649
 20
10.57290938758949
 30
0.0
 11
22.18579049812452
 21
10.56745392229503
 31
0.0
  0
LINE
  5
135
330
2
100
AcDbEntity
  8
0
  6
Continuous
 62
     7
100
AcDbLine
 10
22.75481572566256
 20
10.37160407621074
 30
0.0
 11
22.74341125687424
 21
10.37705954150522
 31
0.0
  0
LINE
  5
136
330
2
100
AcDbEntity
  8
0
  6
Continuous
 62
     7
100
AcDbLine
 10
32.00759559287906
 20
2.180145850767856
 30
0.0
 11
31.91650679722127
 21
2.25610082251553
 31
0.0
  0
LINE
  5
137
330
2
100
AcDbEntity
  8
0
  6
Continuous
 62
     7
100
AcDbLine
 10
22.03140012512949
 20
10.49885990948467
 30
0.0
 11
21.94031132947995
 21
10.57481488123255
 31
0.0
  0
LINE
  5
138
330
2
100
AcDbEntity
  8
0
  6
Continuous
 62
     7
100
AcDbLine
 10
31.86442472462643
 20
2.496863197658386
 30
0.0
 11
31.587547186607
 21
2.727739294209951
 31
0.0
  0
LINE
  5
139
330
2
100
AcDbEntity
  8
0
  6
Continuous
 62
     7
100
AcDbLine
 10
22.46266803614394
 20
10.33657782574345
 30
0.0
 11
22.18579049812452
 21
10.56745392229503
 31
0.0
  0
LINE
  5
13A
330
2
100
AcDbEntity
  8
0
  6
Continuous
 62
     7
100
AcDbLine
 10
32.71960672461555
 20
2.058345482788198
 30
0.0
 11
32.62851792896571
 21
2.134300454544469
 31
0.0
  0
LINE
  5
13B
330
2
100
AcDbEntity
  8
0
  6
Continuous
 62
     7
100
AcDbLine
 10
22.74341125687424
 20
10.37705954150522
 30
0.0
 11
22.65232246122439
 21
10.45301451326149
 31
0.0
  0
LINE
  5
13C
330
2
100
AcDbEntity
  8
0
  6
Continuous
 62
     7
100
AcDbLine
 10
32.57643585637102
 20
2.37506282967894
 30
0.0
 11
32.29955831835145
 21
2.605938926238909
 31
0.0
  0
LINE
  5
13D
330
2
100
AcDbEntity
  8
0
  6
Continuous
 62
     7
100
AcDbLine
 10
31.84516449953403
 20
2.880352106930923
 30
0.0
 11
31.72720039585043
 21
2.979078190560923
 31
0.0
  0
LINE
  5
13E
330
2
100
AcDbEntity
  8
0
  6
Continuous
 62
     7
100
AcDbLine
 10
22.55978495759098
 20
10.80288556150496
 30
0.0
 11
22.65217074441433
 21
11.96987896889253
 31
0.0
  0
LINE
  5
13F
330
2
100
AcDbEntity
  8
0
  6
Continuous
 62
     7
100
AcDbLine
 10
20.21771835033504
 20
5.025726878089828
 30
0.0
 11
20.1735241957308
 21
4.892094084021334
 31
0.0
  0
LINE
  5
140
330
2
100
AcDbEntity
  8
0
  6
Continuous
 62
     7
100
AcDbLine
 10
22.61128460536802
 20
10.50435687239657
 30
0.0
 11
22.58682121954138
 21
10.43038531146494
 31
0.0
  0
LINE
  5
141
330
2
100
AcDbEntity
  8
0
  6
Continuous
 62
     7
100
AcDbLine
 10
22.06470053268079
 20
10.49999096124464
 30
0.0
 11
22.15249009057368
 21
10.56632287052668
 31
0.0
  0
LINE
  5
142
330
2
100
AcDbEntity
  8
0
  6
Continuous
 62
     7
100
AcDbLine
 10
39.82959688750515
 20
16.22482378081983
 30
0.0
 11
47.72967482229893
 21
18.41554750083594
 31
0.0
  0
LINE
  5
143
330
2
100
AcDbEntity
  8
0
  6
Continuous
 62
     7
100
AcDbLine
 10
43.90303144900054
 20
8.977327491050949
 30
0.0
 11
44.5400533194677
 21
8.910753216764437
 31
0.0
  0
LWPOLYLINE
  5
144
330
2
100
AcDbEntity
  8
0
  6
Continuous
 62
     7
100
AcDbPolyline
 90
       33
 70
   128
 43
0.0
 10
43.78965167471352
 20
8.882850643356007
 10
43.66088619965028
 20
8.896761312351209
 10
43.48365393506432
 20
8.916169324999986
 10
43.29901226754961
 20
8.935945835324581
 10
43.1077266171632
 20
8.955305640898087
 10
42.91023370733451
 20
8.973745620656432
 10
42.70613233294454
 20
8.991290413113947
 10
42.49469948525644
 20
9.007983950005922
 10
42.27589275863444
 20
9.023786015641272
 10
42.04973136000496
 20
9.038632983889387
 10
41.81554506528615
 20
9.052465510376407
 10
41.57020654285707
 20
9.065285219807037
 10
41.31033608633564
 20
9.076998389799136
 10
41.04254637752779
 20
9.087129097341158
 10
40.78576721273582
 20
9.095035666635407
 10
40.55285318870146
 20
9.100669233476446
 10
40.33925853702925
 20
9.104501823774212
 10
40.13958351246549
 20
9.106842116725866
 10
39.95208676716174
 20
9.107801730388754
 10
39.77801150712203
 20
9.107478225690599
 10
39.61681437157001
 20
9.106348834895886
 10
39.46660102782138
 20
9.105143337178605
 10
39.325439439351
 20
9.104899097954234
 10
39.19076366589115
 20
9.107080977639514
 10
39.05940079686619
 20
9.113406703654536
 10
38.9277598389772
 20
9.125998193893225
 10
38.79394365407904
 20
9.146425862110667
 10
38.65925341622537
 20
9.174989572144713
 10
38.52694670588106
 20
9.211518460793268
 10
38.39754571877289
 20
9.255135923366012
 10
38.26687497434234
 20
9.307320995371863
 10
38.13556996860945
 20
9.36754749137156
 10
38.00803329400967
 20
9.433399895483336
  0
LINE
  5
145
330
2
100
AcDbEntity
  8
0
  6
Continuous
 62
     7
100
AcDbLine
 10
37.07447457021557
 20
9.141546814372528
 30
0.0
 11
36.96767290045122
 21
9.159816869572699
 31
0.0
  0
LINE
  5
146
330
2
100
AcDbEntity
  8
0
  6
Continuous
 62
     7
100
AcDbLine
 10
37.60120983645498
 20
9.221881104449206
 30
0.0
 11
37.2096037140031
 21
9.288871306836409
 31
0.0
  0
LINE
  5
147
330
2
100
AcDbEntity
  8
0
  6
Continuous
 62
     7
100
AcDbLine
 10
37.74284720657958
 20
10.04985384276159
 30
0.0
 11
37.35124108411929
 21
10.11684404514858
 31
0.0
  0
LINE
  5
148
330
2
100
AcDbEntity
  8
0
  6
Continuous
 62
     7
100
AcDbLine
 10
37.27276688838673
 20
10.30070864800473
 30
0.0
 11
37.16596521862238
 21
10.31897870320494
 31
0.0
  0
LINE
  5
149
330
2
100
AcDbEntity
  8
0
  6
Continuous
 62
     7
100
AcDbLine
 10
37.35565147273746
 20
8.268064599558256
 30
0.0
 11
37.36166721976319
 21
8.266563220733027
 31
0.0
  0
LINE
  5
14A
330
2
100
AcDbEntity
  8
0
  6
Continuous
 62
     7
100
AcDbLine
 10
28.20625440364688
 20
9.226529496048954
 30
0.0
 11
28.50366432638129
 21
9.101900906141462
 31
0.0
  0
LINE
  5
14B
330
2
100
AcDbEntity
  8
0
  6
Continuous
 62
     7
100
AcDbLine
 10
37.84608604755661
 20
1.18138352181732
 30
0.0
 11
37.44411137710763
 21
1.516572658103716
 31
0.0
  0
LINE
  5
14C
330
2
100
AcDbEntity
  8
0
  6
Continuous
 62
     7
100
AcDbLine
 10
28.18077810581846
 20
9.240862039121644
 30
0.0
 11
27.77880343536948
 21
9.576051175408061
 31
0.0
  0
LINE
  5
14D
330
2
100
AcDbEntity
  8
0
  6
Continuous
 62
     7
100
AcDbLine
 10
37.50048338735478
 20
1.620579184802696
 30
0.0
 11
28.58009321988321
 21
9.058903276923773
 31
0.0
  0
LINE
  5
14E
330
2
100
AcDbEntity
  8
0
  6
Continuous
 62
     7
100
AcDbLine
 10
26.1866533745352
 20
3.427092999100997
 30
0.0
 11
26.20210003944135
 21
3.274676908661191
 31
0.0
  0
LINE
  5
14F
330
2
100
AcDbEntity
  8
0
  6
Continuous
 62
     7
100
AcDbLine
 10
26.91411117118609
 20
3.152876540681746
 30
0.0
 11
26.89866450627994
 21
3.305292631129935
 31
0.0
  0
LINE
  5
150
330
2
100
AcDbEntity
  8
0
  6
Continuous
 62
     7
100
AcDbLine
 10
21.02548096267959
 20
4.456265750249981
 30
0.0
 11
20.84934158244735
 21
4.206600703615035
 31
0.0
  0
LINE
  5
151
330
2
100
AcDbEntity
  8
0
  6
Continuous
 62
     7
100
AcDbLine
 10
31.42906006217741
 20
13.34624124887838
 30
0.0
 11
31.44984531365802
 21
13.34512447534873
 31
0.0
  0
LINE
  5
152
330
2
100
AcDbEntity
  8
0
  6
Continuous
 62
     7
100
AcDbLine
 10
31.30744308731401
 20
13.36948454894642
 30
0.0
 11
31.28665783582532
 21
13.37060132246745
 31
0.0
  0
LINE
  5
153
330
2
100
AcDbEntity
  8
0
  6
Continuous
 62
     7
100
AcDbLine
 10
26.30257991363015
 20
14.22320389829043
 30
0.0
 11
26.32336585200298
 21
14.22208690082127
 31
0.0
  0
LINE
  5
154
330
2
100
AcDbEntity
  8
0
  6
Continuous
 62
     7
100
AcDbLine
 10
25.6113547202671
 20
14.34388726879252
 30
0.0
 11
25.59056878189425
 21
14.34500426626169
 31
0.0
  0
LINE
  5
155
330
2
100
AcDbEntity
  8
0
  6
Continuous
 62
     7
100
AcDbLine
 10
38.71903117247619
 20
11.73593863765226
 30
0.0
 11
37.21752992902546
 21
11.96153104660638
 31
0.0
  0
LINE
  5
156
330
2
100
AcDbEntity
  8
0
  6
Continuous
 62
     7
100
AcDbLine
 10
36.99019913320416
 20
11.11603316656274
 30
0.0
 11
36.5605569766573
 21
11.22162285785451
 31
0.0
  0
LINE
  5
157
330
2
100
AcDbEntity
  8
0
  6
Continuous
 62
     7
100
AcDbLine
 10
36.5605569766573
 20
11.22162285785451
 30
0.0
 11
36.2254433277991
 21
11.27894916066758
 31
0.0
  0
LINE
  5
158
330
2
100
AcDbEntity
  8
0
  6
Continuous
 62
     7
100
AcDbLine
 10
35.68012388792143
 20
11.37223437136005
 30
0.0
 11
36.17561840554086
 21
11.2874724738503
 31
0.0
  0
LINE
  5
159
330
2
100
AcDbEntity
  8
0
  6
Continuous
 62
     7
100
AcDbLine
 10
31.28706633200718
 20
13.37298927771422
 30
0.0
 11
26.32325034895198
 21
14.22212573968656
 31
0.0
  0
LINE
  5
15A
330
2
100
AcDbEntity
  8
0
  6
Continuous
 62
     7
100
AcDbLine
 10
25.59097727806741
 20
14.34739222150825
 30
0.0
 11
20.62716129502076
 21
15.1965286834724
 31
0.0
  0
LINE
  5
15B
330
2
100
AcDbEntity
  8
0
  6
Continuous
 62
     7
100
AcDbLine
 10
19.89488822413649
 20
15.32179516529408
 30
0.0
 11
14.9310722410897
 21
16.17093162726662
 31
0.0
  0
LINE
  5
15C
330
2
100
AcDbEntity
  8
0
  6
Continuous
 62
     7
100
AcDbLine
 10
14.19879917019672
 20
16.2961981090881
 30
0.0
 11
9.234983187149927
 21
17.14533457106065
 31
0.0
  0
LINE
  5
15D
330
2
100
AcDbEntity
  8
0
  6
Continuous
 62
     7
100
AcDbLine
 10
8.502710116265502
 20
17.27060105288234
 30
0.0
 11
3.538894133218709
 21
18.1197375148549
 31
0.0
  0
LINE
  5
15E
330
2
100
AcDbEntity
  8
0
  6
Continuous
 62
     7
100
AcDbLine
 10
3.518632194070319
 20
18.12320362870532
 30
0.0
 11
3.396491906866306
 21
18.14409758845238
 31
0.0
  0
LINE
  5
15F
330
2
100
AcDbEntity
  8
0
  6
Continuous
 62
     7
100
AcDbLine
 10
31.30732827114702
 20
13.36952316386359
 30
0.0
 11
31.42946855835103
 21
13.34862920411652
 31
0.0
  0
LINE
  5
160
330
2
100
AcDbEntity
  8
0
  6
Continuous
 62
     7
100
AcDbLine
 10
44.68411542926824
 20
8.545564588891544
 30
0.0
 11
44.77580372989965
 21
8.523358511960987
 31
0.0
  0
LWPOLYLINE
  5
161
330
2
100
AcDbEntity
  8
0
  6
Continuous
 62
     7
100
AcDbPolyline
 90
        3
 70
   128
 43
0.0
 10
44.85530605147992
 20
8.676057023081636
 10
44.76951713516572
 20
8.698125620146253
 10
44.73195708769913
 20
8.706804661243442
  0
LWPOLYLINE
  5
162
330
2
100
AcDbEntity
  8
0
  6
Continuous
 62
     7
100
AcDbPolyline
 90
       13
 70
   128
 43
0.0
 10
44.77580372989965
 20
8.523358511960987
 10
44.90128350293313
 20
8.488042993608111
 10
45.02120395401322
 20
8.451516628788018
 10
45.13462434696399
 20
8.418444445334102
 10
45.239494652353
 20
8.39179404046051
 10
45.33581612954608
 20
8.371964109288883
 10
45.4205633422249
 20
8.359557809777975
 10
45.49237556907589
 20
8.354756337542422
 10
45.55169236029087
 20
8.357609611861672
 10
45.6007510600424
 20
8.368826382944344
 10
45.64235350297171
 20
8.391196525949156
 10
45.67332084331265
 20
8.427529511787302
 10
45.68130298873836
 20
8.446049030862662
  0
LINE
  5
163
330
2
100
AcDbEntity
  8
0
  6
Continuous
 62
     7
100
AcDbLine
 10
37.18049612461955
 20
7.931427023567507
 30
0.0
 11
37.1840423349708
 21
7.92982100255017
 31
0.0
  0
LINE
  5
164
330
2
100
AcDbEntity
  8
0
  6
Continuous
 62
     7
100
AcDbLine
 10
27.68626590381705
 20
9.925921870939923
 30
0.0
 11
27.77865119767952
 21
11.09291565193442
 31
0.0
  0
LINE
  5
165
330
2
100
AcDbEntity
  8
0
  6
Continuous
 62
     7
100
AcDbLine
 10
25.31005838341354
 20
3.953816414317943
 30
0.0
 11
25.36377024111744
 21
4.116228517994056
 31
0.0
  0
LINE
  5
166
330
2
100
AcDbEntity
  8
0
  6
Continuous
 62
     7
100
AcDbLine
 10
25.91380740427466
 20
4.051323934304221
 30
0.0
 11
25.86961324966202
 21
3.917691140227075
 31
0.0
  0
LINE
  5
167
330
2
100
AcDbEntity
  8
0
  6
Continuous
 62
     7
100
AcDbLine
 10
49.20680953177093
 20
22.88084480204259
 30
0.0
 11
38.99929985604845
 21
20.05026088204944
 31
0.0
  0
LINE
  5
168
330
2
100
AcDbEntity
  8
0
  6
Continuous
 62
     7
100
AcDbLine
 10
20.60649085969892
 20
15.19760684208468
 30
0.0
 11
20.62727679807161
 21
15.19648984461547
 31
0.0
  0
LINE
  5
169
330
2
100
AcDbEntity
  8
0
  6
Continuous
 62
     7
100
AcDbLine
 10
19.91526566632732
 20
15.31829021258653
 30
0.0
 11
19.89447972795448
 21
15.31940721005572
 31
0.0
  0
LINE
  5
16A
330
2
100
AcDbEntity
  8
0
  6
Continuous
 62
     7
100
AcDbLine
 10
14.91040180575945
 20
16.17200978587031
 30
0.0
 11
14.93118774413214
 21
16.1708927884095
 31
0.0
  0
LINE
  5
16B
330
2
100
AcDbEntity
  8
0
  6
Continuous
 62
     7
100
AcDbLine
 10
14.21917661239611
 20
16.29269315638077
 30
0.0
 11
14.19839067402326
 21
16.29381015384996
 31
0.0
  0
LINE
  5
16C
330
2
100
AcDbEntity
  8
0
  6
Continuous
 62
     7
100
AcDbLine
 10
9.214312751828234
 20
17.14641272966455
 30
0.0
 11
9.235098690200922
 21
17.14529573219533
 31
0.0
  0
LINE
  5
16D
330
2
100
AcDbEntity
  8
0
  6
Continuous
 62
     7
100
AcDbLine
 10
8.523087558456332
 20
17.26709610017478
 30
0.0
 11
8.502301620083491
 21
17.26821309764399
 31
0.0
  0
LINE
  5
16E
330
2
100
AcDbEntity
  8
0
  6
Continuous
 62
     7
100
AcDbLine
 10
37.2095593674965
 20
9.288884864565828
 30
0.0
 11
37.15253702357106
 21
9.316162191055461
 31
0.0
  0
LINE
  5
16F
330
2
100
AcDbEntity
  8
0
  6
Continuous
 62
     7
100
AcDbLine
 10
38.00803329400967
 20
9.433399895483336
 30
0.0
 11
37.89964098742976
 21
9.494946070306847
 31
0.0
  0
LWPOLYLINE
  5
170
330
2
100
AcDbEntity
  8
0
  6
Continuous
 62
     7
100
AcDbPolyline
 90
       36
 70
   128
 43
0.0
 10
37.82671281460869
 20
9.343392800719533
 10
37.87062166144247
 20
9.317432632564623
 10
38.00984101764171
 20
9.242516494881636
 10
38.15397882085086
 20
9.173399906197518
 10
38.29848608427311
 20
9.113060069564113
 10
38.4402444570966
 20
9.062747820977126
 10
38.58355864236532
 20
9.020947637910703
 10
38.73052834149801
 20
8.987328424738592
 10
38.8788686623459
 20
8.962910595716984
 10
39.02608221206681
 20
8.947415964372181
 10
39.17234703354277
 20
8.939530820919893
 10
39.32069112342537
 20
8.936922238899015
 10
39.47516083583418
 20
8.937138426510664
 10
39.6398245913476
 20
8.938462593012713
 10
39.81642592258405
 20
8.93961432059897
 10
40.00635822243721
 20
8.939666507596001
 10
40.21375883809596
 20
8.938130400234982
 10
40.4434165070501
 20
8.934782509305563
 10
40.68753376097716
 20
8.929539122520118
 10
40.93010854321671
 20
8.922715429719856
 10
41.16278228516452
 20
8.914689989421365
 10
41.38588189179086
 20
8.905620718258777
 10
41.60050566659027
 20
8.895587914697042
 10
41.80738819007357
 20
8.884664263309662
 10
42.00718537985355
 20
8.872952231230744
 10
42.20051640841163
 20
8.860527352677728
 10
42.38783742807508
 20
8.847440765722209
 10
42.56955145408336
 20
8.833722586672424
 10
42.74594997875585
 20
8.819389884989318
 10
42.91736773849156
 20
8.804429588847757
 10
43.08419297071803
 20
8.788802326780118
 10
43.24661356294959
 20
8.772496416720624
 10
43.40449141906145
 20
8.755773583579793
 10
43.55734193621056
 20
8.739105897372352
 10
43.70468259203025
 20
8.722975531897089
 10
43.78099267588575
 20
8.714826579610852
  0
LINE
  5
171
330
2
100
AcDbEntity
  8
0
  6
Continuous
 62
     7
100
AcDbLine
 10
3.518223697888461
 20
18.12081567345858
 30
0.0
 11
3.539009636261303
 21
18.11969867598937
 31
0.0
  0
LINE
  5
172
330
2
100
AcDbEntity
  8
0
  6
Continuous
 62
     7
100
AcDbLine
 10
3.518223697888461
 20
18.12081567345858
 30
0.0
 11
3.53900894937761
 21
18.11969889992911
 31
0.0
  0
LINE
  5
173
330
2
100
AcDbEntity
  8
0
  6
Continuous
 62
     7
100
AcDbLine
 10
3.396606723033611
 20
18.1440589735268
 30
0.0
 11
3.375821471544615
 21
18.14517574705625
 31
0.0
  0
LINE
  5
174
330
2
100
AcDbEntity
  8
0
  6
Continuous
 62
     7
100
AcDbLine
 10
4.832592771492921
 20
20.87883134588234
 30
0.0
 11
5.085289372511295
 21
20.8408650536726
 31
0.0
  0
LINE
  5
175
330
2
100
AcDbEntity
  8
0
  6
Continuous
 62
     7
100
AcDbLine
 10
36.52994810866122
 20
16.3400708012174
 30
0.0
 11
36.75989130661661
 21
16.30073550873182
 31
0.0
  0
LINE
  5
176
330
2
100
AcDbEntity
  8
0
  6
Continuous
 62
     7
100
AcDbLine
 10
31.65623531378713
 20
12.53786704568343
 30
0.0
 11
37.18049612461955
 21
7.931427023567507
 31
0.0
  0
LINE
  5
177
330
2
100
AcDbEntity
  8
0
  6
Continuous
 62
     7
100
AcDbLine
 10
36.60867935714324
 20
8.720988870521502
 30
0.0
 11
33.09781168440654
 21
11.64854821535855
 31
0.0
  0
LINE
  5
178
330
2
100
AcDbEntity
  8
0
  6
Continuous
 62
     7
100
AcDbLine
 10
37.60182909187518
 20
9.442527627091683
 30
0.0
 11
37.729577399984
 21
9.336003887647658
 31
0.0
  0
LINE
  5
179
330
2
100
AcDbEntity
  8
0
  6
Continuous
 62
     7
100
AcDbLine
 10
31.88274242847497
 20
2.452690055306967
 30
0.0
 11
31.89818909338113
 21
2.300273964867161
 31
0.0
  0
LINE
  5
17A
330
2
100
AcDbEntity
  8
0
  6
Continuous
 62
     7
100
AcDbLine
 10
32.61020022511716
 20
2.178473596895908
 30
0.0
 11
32.59475356021101
 21
2.330889687335694
 31
0.0
  0
LINE
  5
17B
330
2
100
AcDbEntity
  8
0
  6
Continuous
 62
     7
100
AcDbLine
 10
31.7336790367819
 20
12.81427917155842
 30
0.0
 11
31.65295858133545
 21
12.5701993810219
 31
0.0
  0
LINE
  5
17C
330
2
100
AcDbEntity
  8
0
  6
Continuous
 62
     7
100
AcDbLine
 10
33.04545917970393
 20
12.19414606043371
 30
0.0
 11
35.39931050340178
 21
19.09095815534753
 31
0.0
  0
LINE
  5
17D
330
2
100
AcDbEntity
  8
0
  6
Continuous
 62
     7
100
AcDbLine
 10
35.39931050340178
 20
19.09095815534753
 30
0.0
 11
35.64119193026017
 21
19.79967358418685
 31
0.0
  0
LINE
  5
17E
330
2
100
AcDbEntity
  8
0
  6
Continuous
 62
     7
100
AcDbLine
 10
26.7215700166108
 20
3.48186280645574
 30
0.0
 11
26.54543063637841
 21
3.232197759820794
 31
0.0
  0
LINE
  5
17F
330
2
100
AcDbEntity
  8
0
  6
Continuous
 62
     7
100
AcDbLine
 10
6.356212409206317
 20
23.63919429399961
 30
0.0
 11
6.091272206858687
 21
23.68451635808111
 31
0.0
  0
LINE
  5
180
330
2
100
AcDbEntity
  8
0
  6
Continuous
 62
     7
100
AcDbLine
 10
43.81504964706306
 20
8.668398882675807
 30
0.0
 11
44.02806802973496
 21
8.527163492663888
 31
0.0
  0
LINE
  5
181
330
2
100
AcDbEntity
  8
0
  6
Continuous
 62
     7
100
AcDbLine
 10
44.6337492496957
 20
8.858557497321481
 30
0.0
 11
44.57374512544453
 21
8.898341415422397
 31
0.0
  0
LINE
  5
182
330
2
100
AcDbEntity
  8
0
  6
Continuous
 62
     7
100
AcDbLine
 10
37.88463017751179
 20
9.804847246530018
 30
0.0
 11
37.75688186940298
 21
9.911370985974041
 31
0.0
  0
LINE
  5
183
330
2
100
AcDbEntity
  8
0
  6
Continuous
 62
     7
100
AcDbLine
 10
31.60989645820573
 20
3.076920990509961
 30
0.0
 11
31.56570230360165
 21
2.943288196433064
 31
0.0
  0
LWPOLYLINE
  5
184
330
2
100
AcDbEntity
  8
0
  6
Continuous
 62
     7
100
AcDbPolyline
 90
        8
 70
   128
 43
0.0
 10
-0.6597241940181267
 20
15.95598837826943
 10
-0.6456471827081916
 20
15.95918607159421
 10
-0.6159570985498867
 20
15.96125204234746
 10
-0.5697868579682254
 20
15.9591371166929
 10
-0.5085861715699357
 20
15.95081717106276
 10
-0.4362617300100319
 20
15.93632876344082
 10
-0.3561279056305939
 20
15.91624275012812
 10
-0.2743714371457682
 20
15.89259682350758
  0
LINE
  5
185
330
2
100
AcDbEntity
  8
0
  6
Continuous
 62
     7
100
AcDbLine
 10
6.588915142855657
 20
24.45158891240378
 30
0.0
 11
6.232909576983439
 21
24.51248909638512
 31
0.0
  0
LINE
  5
186
330
2
100
AcDbEntity
  8
0
  6
Continuous
 62
     7
100
AcDbLine
 10
6.783751294587454
 20
24.79578532573536
 30
0.0
 11
35.69140324330869
 21
19.85069038598871
 31
0.0
  0
LINE
  5
187
330
2
100
AcDbEntity
  8
0
  6
Continuous
 62
     7
100
AcDbLine
 10
47.66140457684069
 20
18.35932000011277
 30
0.0
 11
47.57822340828332
 21
18.37354940817548
 31
0.0
  0
LINE
  5
188
330
2
100
AcDbEntity
  8
0
  6
Continuous
 62
     7
100
AcDbLine
 10
38.40510685169945
 20
19.94275095890037
 30
0.0
 11
17.1161270251103
 21
23.58455578620213
 31
0.0
  0
LINE
  5
189
330
2
100
AcDbEntity
  8
0
  6
Continuous
 62
     7
100
AcDbLine
 10
36.37596519448767
 20
14.22993043538107
 30
0.0
 11
37.78729520333183
 21
18.49746251303656
 31
0.0
  0
LINE
  5
18A
330
2
100
AcDbEntity
  8
0
  6
Continuous
 62
     7
100
AcDbLine
 10
32.41765907055057
 20
2.507459862661709
 30
0.0
 11
32.24151969031819
 21
2.257794816026763
 31
0.0
  0
LINE
  5
18B
330
2
100
AcDbEntity
  8
0
  6
Continuous
 62
     7
100
AcDbLine
 10
37.75688186940298
 20
9.911370985974041
 30
0.0
 11
37.61548132658467
 21
9.730211176250666
 31
0.0
  0
LINE
  5
18C
330
2
100
AcDbEntity
  8
0
  6
Continuous
 62
     7
100
AcDbLine
 10
35.70281658139492
 20
19.84523220914492
 30
0.0
 11
35.69138779019328
 21
19.85069249893846
 31
0.0
  0
LINE
  5
18D
330
2
100
AcDbEntity
  8
0
  6
Continuous
 62
     7
100
AcDbLine
 10
37.61548132658467
 20
9.730211176250666
 30
0.0
 11
37.60182909187518
 21
9.442527627091683
 31
0.0
  0
LINE
  5
18E
330
2
100
AcDbEntity
  8
0
  6
Continuous
 62
     7
100
AcDbLine
 10
37.87097794280214
 20
9.517163697371037
 30
0.0
 11
37.88463017751179
 21
9.804847246530018
 31
0.0
  0
LINE
  5
18F
330
2
100
AcDbEntity
  8
0
  6
Continuous
 62
     7
100
AcDbLine
 10
37.69967361452164
 20
11.3927086612554
 30
0.0
 11
37.33994242651816
 21
10.26951610314295
 31
0.0
  0
LINE
  5
190
330
2
100
AcDbEntity
  8
0
  6
Continuous
 62
     7
100
AcDbLine
 10
36.98365707963123
 20
9.157082531828683
 30
0.0
 11
36.92126642793247
 21
8.96227952885088
 31
0.0
  0
LINE
  5
191
330
2
100
AcDbEntity
  8
0
  6
Continuous
 62
     7
100
AcDbLine
 10
39.42559533660522
 20
15.70722432447958
 30
0.0
 11
39.192617993767
 21
15.00275529336384
 31
0.0
  0
LINE
  5
192
330
2
100
AcDbEntity
  8
0
  6
Continuous
 62
     7
100
AcDbLine
 10
37.19911910212605
 20
7.945498146418509
 30
0.0
 11
37.27983955757205
 21
8.189577936963445
 31
0.0
  0
LINE
  5
193
330
2
100
AcDbEntity
  8
0
  6
Continuous
 62
     7
100
AcDbLine
 10
37.729577399984
 20
9.336003887647658
 30
0.0
 11
37.87097794280214
 21
9.517163697371037
 31
0.0
  0
LINE
  5
194
330
2
100
AcDbEntity
  8
0
  6
Continuous
 62
     7
100
AcDbLine
 10
16.38296784442505
 20
23.79796652537411
 30
0.0
 11
14.93785666911868
 21
23.40090118581255
 31
0.0
  0
LINE
  5
195
330
2
100
AcDbEntity
  8
0
  6
Continuous
 62
     7
100
AcDbLine
 10
24.04295622348531
 20
25.8711887989095
 30
0.0
 11
25.46697848696609
 21
25.62758806295878
 31
0.0
  0
LINE
  5
196
330
2
100
AcDbEntity
  8
0
  6
Continuous
 62
     7
100
AcDbLine
 10
41.13122338528736
 20
22.947979967527
 30
0.0
 11
42.55524564877639
 21
22.70437923158489
 31
0.0
  0
LINE
  5
197
330
2
100
AcDbEntity
  8
0
  6
Continuous
 62
     7
100
AcDbLine
 10
42.75986224956056
 20
23.32309200748249
 30
0.0
 11
41.33583998607963
 21
23.56669274343321
 31
0.0
  0
LINE
  5
198
330
2
100
AcDbEntity
  8
0
  6
Continuous
 62
     7
100
AcDbLine
 10
25.6715950877585
 20
26.24630083885661
 30
0.0
 11
24.24757282426948
 21
26.48990157480709
 31
0.0
  0
LINE
  5
199
330
2
100
AcDbEntity
  8
0
  6
Continuous
 62
     7
100
AcDbLine
 10
35.70281658139492
 20
19.84523220914492
 30
0.0
 11
36.45230315951515
 21
19.22026805779244
 31
0.0
  0
LINE
  5
19A
330
2
100
AcDbEntity
  8
0
  6
Continuous
 62
     7
100
AcDbLine
 10
36.45230315959523
 20
19.22026805773112
 30
0.0
 11
37.70827292032743
 21
18.2585175990493
 31
0.0
  0
LINE
  5
19B
330
2
100
AcDbEntity
  8
0
  6
Continuous
 62
     7
100
AcDbLine
 10
18.03444799004399
 20
28.26594147688965
 30
0.0
 11
17.99135511773435
 21
28.26735410753463
 31
0.0
  0
LINE
  5
19C
330
2
100
AcDbEntity
  8
0
  6
Continuous
 62
     7
100
AcDbLine
 10
18.44694927488351
 20
28.17185666276495
 30
0.0
 11
27.88206397008468
 21
26.55783633284972
 31
0.0
  0
LINE
  5
19D
330
2
100
AcDbEntity
  8
0
  6
Continuous
 62
     7
100
AcDbLine
 10
39.55711213140479
 20
24.56064120658218
 30
0.0
 11
49.01536959697832
 21
22.94637840206455
 31
0.0
  0
LINE
  5
19E
330
2
100
AcDbEntity
  8
0
  6
Continuous
 62
     7
100
AcDbLine
 10
17.99135511773435
 20
28.26735410753463
 30
0.0
 11
17.7065506650381
 21
28.31607425472141
 31
0.0
  0
LINE
  5
19F
330
2
100
AcDbEntity
  8
0
  6
Continuous
 62
     7
100
AcDbLine
 10
49.10624157485678
 20
22.94467802707169
 30
0.0
 11
49.39104602755318
 21
22.89595787987654
 31
0.0
  0
LINE
  5
1A0
330
2
100
AcDbEntity
  8
0
  6
Continuous
 62
     7
100
AcDbLine
 10
38.63259697118951
 20
2.042283916566831
 30
0.0
 11
38.08000997797937
 21
1.259032250348834
 31
0.0
  0
LINE
  5
1A1
330
2
100
AcDbEntity
  8
0
  6
Continuous
 62
     7
100
AcDbLine
 10
37.43948940249087
 20
1.527337750991233
 30
0.0
 11
37.43888996857399
 21
1.526752829601701
 31
0.0
  0
LINE
  5
1A2
330
2
100
AcDbEntity
  8
0
  6
Continuous
 62
     7
100
AcDbLine
 10
37.51615617404262
 20
1.590025722722876
 30
0.0
 11
37.51434931119665
 21
1.588283906131457
 31
0.0
  0
LINE
  5
1A3
330
2
100
AcDbEntity
  8
0
  6
Continuous
 62
     7
100
AcDbLine
 10
37.51434931119665
 20
1.588283906131457
 30
0.0
 11
37.43948940249087
 21
1.527337750991233
 31
0.0
  0
LINE
  5
1A4
330
2
100
AcDbEntity
  8
0
  6
Continuous
 62
     7
100
AcDbLine
 10
7.314804493533673
 20
25.47037725689433
 30
0.0
 11
17.52231416925602
 21
28.3009611768875
 31
0.0
  0
LINE
  5
1A5
330
2
100
AcDbEntity
  8
0
  6
Continuous
 62
     7
100
AcDbLine
 10
43.7887425671943
 20
8.874435400290671
 30
0.0
 11
43.77851173715519
 21
8.843499761491983
 31
0.0
  0
LWPOLYLINE
  5
1A6
330
2
100
AcDbEntity
  8
0
  6
Continuous
 62
     7
100
AcDbPolyline
 90
       18
 70
   128
 43
0.0
 10
45.68111529271417
 20
8.445483019905161
 10
45.68671768008972
 20
8.47419856563285
 10
45.68007898048863
 20
8.522596926010129
 10
45.65844518657781
 20
8.564790767773377
 10
45.62369905514676
 20
8.605098211360298
 10
45.57197605761722
 20
8.647634146498267
 10
45.49807165556338
 20
8.693674973209358
 10
45.40428693277388
 20
8.740061566991336
 10
45.30160478093733
 20
8.782145122621058
 10
45.19575250991482
 20
8.818720594034196
 10
45.08898815824568
 20
8.848554532411133
 10
44.98344892221324
 20
8.870266850147814
 10
44.88266021645092
 20
8.881969064870553
 10
44.79060393153292
 20
8.882972256966429
 10
44.70950682354917
 20
8.873910878527548
 10
44.64024357131914
 20
8.859817547007747
 10
44.57292901538793
 20
8.846756955020216
 10
44.50633783400389
 20
8.83885101728597
  0
LINE
  5
1A7
330
2
100
AcDbEntity
  8
0
  6
Continuous
 62
     7
100
AcDbLine
 10
49.47739013785928
 20
22.83663887338957
 30
0.0
 11
48.00060965506022
 21
18.37119986016603
 31
0.0
  0
ARC
  5
1A8
330
2
100
AcDbEntity
  8
0
  6
Continuous
 62
     7
100
AcDbCircle
 10
9.865354148900571
 20
7.745590809436539
 30
0.0
 40
1.222927650260399
100
AcDbArc
 50
259.9852879880164
 51
260.289570563102
  0
ARC
  5
1A9
330
2
100
AcDbEntity
  8
0
  6
Continuous
 62
     7
100
AcDbCircle
 10
9.314280009644432
 20
7.082188145511124
 30
0.0
 40
0.3959802219072
100
AcDbArc
 50
230.1997998626149
 51
231.9517203783561
  0
ARC
  5
1AA
330
2
100
AcDbEntity
  8
0
  6
Continuous
 62
     7
100
AcDbCircle
 10
4.405794413287476
 20
10.27506657119155
 30
0.0
 40
2.7501976957308
100
AcDbArc
 50
74.52129283074633
 51
74.89035009197285
  0
ARC
  5
1AB
330
2
100
AcDbEntity
  8
0
  6
Continuous
 62
     7
100
AcDbCircle
 10
4.444697771674836
 20
10.42208760018175
 30
0.0
 40
2.5981186551852
100
AcDbArc
 50
74.87347690813971
 51
76.46040980807928
  0
ARC
  5
1AC
330
2
100
AcDbEntity
  8
0
  6
Continuous
 62
     7
100
AcDbCircle
 10
4.478959389745337
 20
10.56343135219981
 30
0.0
 40
2.4526818504636
100
AcDbArc
 50
76.46551242122959
 51
77.03611128289328
  0
ARC
  5
1AD
330
2
100
AcDbEntity
  8
0
  6
Continuous
 62
     7
100
AcDbCircle
 10
5.101036923290791
 20
11.65912118581288
 30
0.0
 40
1.201314556579199
100
AcDbArc
 50
58.29936652498061
 51
59.23626719554616
  0
ARC
  5
1AE
330
2
100
AcDbEntity
  8
0
  6
Continuous
 62
     7
100
AcDbCircle
 10
5.153062600810023
 20
11.74351199289711
 30
0.0
 40
1.102175905672799
100
AcDbArc
 50
57.66268425732906
 51
58.29510129963324
  0
ARC
  5
1AF
330
2
100
AcDbEntity
  8
0
  6
Continuous
 62
     7
100
AcDbCircle
 10
15.0103690635593
 20
6.107785201699654
 30
0.0
 40
0.3959802218904
100
AcDbArc
 50
230.1997998624848
 51
231.9517203784702
  0
ARC
  5
1B0
330
2
100
AcDbEntity
  8
0
  6
Continuous
 62
     7
100
AcDbCircle
 10
15.56144320287641
 20
6.771187865861922
 30
0.0
 40
1.222927650487198
100
AcDbArc
 50
259.9852879881213
 51
260.2895705632068
  0
ARC
  5
1B1
330
2
100
AcDbEntity
  8
0
  6
Continuous
 62
     7
100
AcDbCircle
 10
15.7979725212124
 20
8.326260683781152
 30
0.0
 40
2.750197695545999
100
AcDbArc
 50
74.52129283085376
 51
74.89035009197285
  0
ARC
  5
1B2
330
2
100
AcDbEntity
  8
0
  6
Continuous
 62
     7
100
AcDbCircle
 10
15.83687587954521
 20
8.473281712610271
 30
0.0
 40
2.598118655168399
100
AcDbArc
 50
74.87347690813971
 51
76.46040980807928
  0
ARC
  5
1B3
330
2
100
AcDbEntity
  8
0
  6
Continuous
 62
     7
100
AcDbCircle
 10
15.8711374976012
 20
8.614625464543927
 30
0.0
 40
2.4526818505392
100
AcDbArc
 50
76.46551242122959
 51
77.03611128289328
  0
ARC
  5
1B4
330
2
100
AcDbEntity
  8
0
  6
Continuous
 62
     7
100
AcDbCircle
 10
12.50497322432257
 20
9.821525203314319
 30
0.0
 40
1.830293570027999
100
AcDbArc
 50
80.29246384485182
 51
80.45264931818808
  0
ARC
  5
1B5
330
2
100
AcDbEntity
  8
0
  6
Continuous
 62
     7
100
AcDbCircle
 10
12.51209979814422
 20
9.864075701146546
 30
0.0
 40
1.787150412767999
100
AcDbArc
 50
80.45169793402118
 51
80.84638231035512
  0
ARC
  5
1B6
330
2
100
AcDbEntity
  8
0
  6
Continuous
 62
     7
100
AcDbCircle
 10
15.93541254058653
 20
8.905134661520463
 30
0.0
 40
2.15515948095
100
AcDbArc
 50
76.96871314765833
 51
79.69100468264383
  0
ARC
  5
1B7
330
2
100
AcDbEntity
  8
0
  6
Continuous
 62
     7
100
AcDbCircle
 10
15.98176007004012
 20
9.155142410209732
 30
0.0
 40
1.900893612743999
100
AcDbArc
 50
79.71688966732532
 51
80.17065812890612
  0
ARC
  5
1B8
330
2
100
AcDbEntity
  8
0
  6
Continuous
 62
     7
100
AcDbCircle
 10
15.99112970664541
 20
9.20892070012448
 30
0.0
 40
1.846305227180399
100
AcDbArc
 50
80.17225267286205
 51
80.29252073090097
  0
ARC
  5
1B9
330
2
100
AcDbEntity
  8
0
  6
Continuous
 62
     7
100
AcDbCircle
 10
20.70645811751543
 20
5.133382257922851
 30
0.0
 40
0.3959802219072
100
AcDbArc
 50
230.1997998625265
 51
231.95172037834
  0
ARC
  5
1BA
330
2
100
AcDbEntity
  8
0
  6
Continuous
 62
     7
100
AcDbCircle
 10
26.40254717141379
 20
4.158979314094156
 30
0.0
 40
0.3959802218568
100
AcDbArc
 50
230.1997998623713
 51
231.9517203784702
  0
ARC
  5
1BB
330
2
100
AcDbEntity
  8
0
  6
Continuous
 62
     7
100
AcDbCircle
 10
26.95362131074694
 20
4.822381978290438
 30
0.0
 40
1.222927650495599
100
AcDbArc
 50
259.9852879880187
 51
260.289570563102
  0
ARC
  5
1BC
330
2
100
AcDbEntity
  8
0
  6
Continuous
 62
     7
100
AcDbCircle
 10
21.25753225665421
 20
5.796784921181393
 30
0.0
 40
1.2229276495884
100
AcDbArc
 50
259.9852879880164
 51
260.289570563314
  0
ARC
  5
1BD
330
2
100
AcDbEntity
  8
0
  6
Continuous
 62
     7
100
AcDbCircle
 10
16.49321503119356
 20
9.710315298284278
 30
0.0
 40
1.201314556512
100
AcDbArc
 50
58.29936652498061
 51
59.23626719566247
  0
ARC
  5
1BE
330
2
100
AcDbEntity
  8
0
  6
Continuous
 62
     7
100
AcDbCircle
 10
16.54524070875313
 20
9.794706105436773
 30
0.0
 40
1.1021759055216
100
AcDbArc
 50
57.6626842573011
 51
58.29510129963324
  0
ARC
  5
1BF
330
2
100
AcDbEntity
  8
0
  6
Continuous
 62
     7
100
AcDbCircle
 10
16.79694136411413
 20
11.34383066754624
 30
0.0
 40
0.0443941787184
100
AcDbArc
 50
260.5045315317354
 51
271.8936978250455
  0
ARC
  5
1C0
330
2
100
AcDbEntity
  8
0
  6
Continuous
 62
     7
100
AcDbCircle
 10
19.62707256387346
 20
8.803939627582135
 30
0.0
 40
0.1128388033416
100
AcDbArc
 50
235.3869575026451
 51
239.2158043019121
  0
ARC
  5
1C1
330
2
100
AcDbEntity
  8
0
  6
Continuous
 62
     7
100
AcDbCircle
 10
19.61912585874526
 20
8.792446656402116
 30
0.0
 40
0.0988660316364
100
AcDbArc
 50
230.2228386767697
 51
235.3938130582337
  0
ARC
  5
1C2
330
2
100
AcDbEntity
  8
0
  6
Continuous
 62
     7
100
AcDbCircle
 10
22.49303041804536
 20
10.369427723752
 30
0.0
 40
0.0443941787184
100
AcDbArc
 50
260.5045315319475
 51
271.8936978252543
  0
ARC
  5
1C3
330
2
100
AcDbEntity
  8
0
  6
Continuous
 62
     7
100
AcDbCircle
 10
1.112795116627755
 20
11.77033109189031
 30
0.0
 40
1.83029356902
100
AcDbArc
 50
80.29246384474474
 51
80.45264931818808
  0
ARC
  5
1C4
330
2
100
AcDbEntity
  8
0
  6
Continuous
 62
     7
100
AcDbCircle
 10
1.119921690273235
 20
11.81288158873481
 30
0.0
 40
1.787150412767999
100
AcDbArc
 50
80.45169793402118
 51
80.84638231035512
  0
ARC
  5
1C5
330
2
100
AcDbEntity
  8
0
  6
Continuous
 62
     7
100
AcDbCircle
 10
1.370870939134249
 20
15.89327116187678
 30
0.0
 40
1.6216448135748
100
AcDbArc
 50
154.1024310218546
 51
155.6199564941715
  0
ARC
  5
1C6
330
2
100
AcDbEntity
  8
0
  6
Continuous
 62
     7
100
AcDbCircle
 10
5.404763256243446
 20
13.29263655512611
 30
0.0
 40
0.0443941787184
100
AcDbArc
 50
260.5045315317354
 51
271.8936978250455
  0
ARC
  5
1C7
330
2
100
AcDbEntity
  8
0
  6
Continuous
 62
     7
100
AcDbCircle
 10
11.10085231017466
 20
12.31823361133187
 30
0.0
 40
0.0443941787184
100
AcDbArc
 50
260.5045315319475
 51
271.8936978252543
  0
ARC
  5
1C8
330
2
100
AcDbEntity
  8
0
  6
Continuous
 62
     7
100
AcDbCircle
 10
12.42890725117186
 20
19.36642567928827
 30
0.0
 40
4.3951507769736
100
AcDbArc
 50
209.5103110336681
 51
211.474393841086
  0
ARC
  5
1C9
330
2
100
AcDbEntity
  8
0
  6
Continuous
 62
     7
100
AcDbCircle
 10
6.565148578298183
 20
24.31267178555528
 30
0.0
 40
0.1409355090864
100
AcDbArc
 50
73.50175428569655
 51
80.29157463548903
  0
ARC
  5
1CA
330
2
100
AcDbEntity
  8
0
  6
Continuous
 62
     7
100
AcDbCircle
 10
18.12499630516939
 20
18.39202273552936
 30
0.0
 40
4.395150777040798
100
AcDbArc
 50
209.5103110336681
 51
211.474393841086
  0
ARC
  5
1CB
330
2
100
AcDbEntity
  8
0
  6
Continuous
 62
     7
100
AcDbCircle
 10
23.82108535909236
 20
17.41761979173489
 30
0.0
 40
4.395150777032399
100
AcDbArc
 50
209.5103110336681
 51
211.474393841086
  0
ARC
  5
1CC
330
2
100
AcDbEntity
  8
0
  6
Continuous
 62
     7
100
AcDbCircle
 10
20.75607036894351
 20
36.45757445919711
 30
0.0
 40
13.3936439674968
100
AcDbArc
 50
250.9431712017282
 51
251.4873306136239
  0
ARC
  5
1CD
330
2
100
AcDbEntity
  8
0
  6
Continuous
 62
     7
100
AcDbCircle
 10
20.05798663772667
 20
34.3787778597367
 30
0.0
 40
11.2007664461532
100
AcDbArc
 50
251.4971141210969
 51
251.6823885758621
  0
ARC
  5
1CE
330
2
100
AcDbEntity
  8
0
  6
Continuous
 62
     7
100
AcDbCircle
 10
19.4861742273357
 20
32.62459639685825
 30
0.0
 40
9.355763444538002
100
AcDbArc
 50
251.6304953303555
 51
253.4563299667038
  0
ARC
  5
1CF
330
2
100
AcDbEntity
  8
0
  6
Continuous
 62
     7
100
AcDbCircle
 10
19.22656163070495
 20
31.7558238277824
 30
0.0
 40
8.449031933857201
100
AcDbArc
 50
253.466405975994
 51
253.7863235997859
  0
ARC
  5
1D0
330
2
100
AcDbEntity
  8
0
  6
Continuous
 62
     7
100
AcDbCircle
 10
17.58830904053013
 20
26.1204290551964
 30
0.0
 40
2.580339983491199
100
AcDbArc
 50
253.776947671119
 51
255.6095673521979
  0
ARC
  5
1D1
330
2
100
AcDbEntity
  8
0
  6
Continuous
 62
     7
100
AcDbCircle
 10
32.09863622541025
 20
3.184576370377248
 30
0.0
 40
0.3959802219576
100
AcDbArc
 50
230.1997998627698
 51
231.9517203783561
  0
ARC
  5
1D2
330
2
100
AcDbEntity
  8
0
  6
Continuous
 62
     7
100
AcDbCircle
 10
32.36986296766145
 20
6.227668872702688
 30
0.0
 40
7.231909834699199
100
AcDbArc
 50
114.9221985578462
 51
115.6882281463266
  0
ARC
  5
1D3
330
2
100
AcDbEntity
  8
0
  6
Continuous
 62
     7
100
AcDbCircle
 10
29.91569203124418
 20
10.92132649597684
 30
0.0
 40
2.143963170064798
100
AcDbArc
 50
170.5125458871727
 51
171.1859527640721
  0
ARC
  5
1D4
330
2
100
AcDbEntity
  8
0
  6
Continuous
 62
     7
100
AcDbCircle
 10
29.903592148178
 20
10.92342080437808
 30
0.0
 40
2.1316835855196
100
AcDbArc
 50
168.2081698616666
 51
170.514460106065
  0
ARC
  5
1D5
330
2
100
AcDbEntity
  8
0
  6
Continuous
 62
     7
100
AcDbCircle
 10
29.88175465739394
 20
10.92800699570664
 30
0.0
 40
2.109369723677999
100
AcDbArc
 50
165.9170270270887
 51
168.2088971171662
  0
ARC
  5
1D6
330
2
100
AcDbEntity
  8
0
  6
Continuous
 62
     7
100
AcDbCircle
 10
29.87890965616309
 20
10.92624923187888
 30
0.0
 40
2.106861003491999
100
AcDbArc
 50
171.1649721642695
 51
175.4627902654708
  0
ARC
  5
1D7
330
2
100
AcDbEntity
  8
0
  6
Continuous
 62
     7
100
AcDbCircle
 10
29.85598850577139
 20
10.93436388625173
 30
0.0
 40
2.0828311908936
100
AcDbArc
 50
165.36962248918
 51
165.9141726125827
  0
ARC
  5
1D8
330
2
100
AcDbEntity
  8
0
  6
Continuous
 62
     7
100
AcDbCircle
 10
29.78644985961528
 20
10.95307699726337
 30
0.0
 40
2.010820778954399
100
AcDbArc
 50
160.6324746969813
 51
165.3850691736831
  0
ARC
  5
1D9
330
2
100
AcDbEntity
  8
0
  6
Continuous
 62
     7
100
AcDbCircle
 10
29.67226590693222
 20
10.99141165470084
 30
0.0
 40
1.890386386274399
100
AcDbArc
 50
159.7870221885821
 51
160.5809162317765
  0
ARC
  5
1DA
330
2
100
AcDbEntity
  8
0
  6
Continuous
 62
     7
100
AcDbCircle
 10
29.60791520542644
 20
11.01531036672066
 30
0.0
 40
1.821741484416
100
AcDbArc
 50
157.2048458964714
 51
159.793093657274
  0
ARC
  5
1DB
330
2
100
AcDbEntity
  8
0
  6
Continuous
 62
     7
100
AcDbCircle
 10
29.46567019503357
 20
11.07481857859185
 30
0.0
 40
1.667550688305599
100
AcDbArc
 50
153.7879098895762
 51
157.1962323810944
  0
ARC
  5
1DC
330
2
100
AcDbEntity
  8
0
  6
Continuous
 62
     7
100
AcDbCircle
 10
29.12395641515823
 20
11.25792993347626
 30
0.0
 40
1.279613596976399
100
AcDbArc
 50
147.4373984960696
 51
148.6461657863415
  0
ARC
  5
1DD
330
2
100
AcDbEntity
  8
0
  6
Continuous
 62
     7
100
AcDbCircle
 10
28.79954158673811
 20
11.49997781196042
 30
0.0
 40
0.8743415799215998
100
AcDbArc
 50
137.1679588174965
 51
138.769588824362
  0
ARC
  5
1DE
330
2
100
AcDbEntity
  8
0
  6
Continuous
 62
     7
100
AcDbCircle
 10
32.64971036467861
 20
3.847979034479428
 30
0.0
 40
1.2229276504788
100
AcDbArc
 50
259.9852879880164
 51
260.289570563102
  0
ARC
  5
1DF
330
2
100
AcDbEntity
  8
0
  6
Continuous
 62
     7
100
AcDbCircle
 10
38.03234128791622
 20
10.09576828348459
 30
0.0
 40
1.948279976613599
100
AcDbArc
 50
249.8646478992344
 51
252.6779302783442
  0
ARC
  5
1E0
330
2
100
AcDbEntity
  8
0
  6
Continuous
 62
     7
100
AcDbCircle
 10
38.02196098537527
 20
10.06236555866651
 30
0.0
 40
1.913301534773999
100
AcDbArc
 50
252.6768552621735
 51
258.3698357973695
  0
ARC
  5
1E1
330
2
100
AcDbEntity
  8
0
  6
Continuous
 62
     7
100
AcDbCircle
 10
37.15143810837724
 20
2.998637626896316
 30
0.0
 40
1.767049290392399
100
AcDbArc
 50
337.5289178772809
 51
337.7047155523612
  0
ARC
  5
1E2
330
2
100
AcDbEntity
  8
0
  6
Continuous
 62
     7
100
AcDbCircle
 10
37.86156177081246
 20
9.606235613149069
 30
0.0
 40
1.1058317088168
100
AcDbArc
 50
161.7552818278672
 51
166.5157300146751
  0
ARC
  5
1E3
330
2
100
AcDbEntity
  8
0
  6
Continuous
 62
     7
100
AcDbCircle
 10
37.17330013548516
 20
11.86113085031125
 30
0.0
 40
0.7752415109796002
100
AcDbArc
 50
230.1299142547845
 51
235.8517609402594
  0
ARC
  5
1E4
330
2
100
AcDbEntity
  8
0
  6
Continuous
 62
     7
100
AcDbCircle
 10
37.23374766525606
 20
9.707117152515495
 30
0.0
 40
0.6993286989276001
100
AcDbArc
 50
342.6526945920651
 51
343.4780096377723
  0
ARC
  5
1E5
330
2
100
AcDbEntity
  8
0
  6
Continuous
 62
     7
100
AcDbCircle
 10
37.24593792718486
 20
9.703302307346133
 30
0.0
 40
0.6865554657864
100
AcDbArc
 50
341.7019320342841
 51
342.6532488088879
  0
ARC
  5
1E6
330
2
100
AcDbEntity
  8
0
  6
Continuous
 62
     7
100
AcDbCircle
 10
37.31686080922774
 20
9.488564547292186
 30
0.0
 40
0.2393604659124
100
AcDbArc
 50
210.0441089463762
 51
214.0985624838981
  0
ARC
  5
1E7
330
2
100
AcDbEntity
  8
0
  6
Continuous
 62
     7
100
AcDbCircle
 10
37.37352214144042
 20
9.909689574914587
 30
0.0
 40
0.2183981513532
100
AcDbArc
 50
122.9130314006421
 51
127.0924006418971
  0
ARC
  5
1E8
330
2
100
AcDbEntity
  8
0
  6
Continuous
 62
     7
100
AcDbCircle
 10
37.29461040405035
 20
9.473332571701828
 30
0.0
 40
0.2123961975828
100
AcDbArc
 50
214.0610048755855
 51
218.1012291508828
  0
ARC
  5
1E9
330
2
100
AcDbEntity
  8
0
  6
Continuous
 62
     7
100
AcDbCircle
 10
29.51717441297392
 20
16.44321684790574
 30
0.0
 40
4.395150776965198
100
AcDbArc
 50
209.5103110336681
 51
211.474393841086
  0
ARC
  5
1EA
330
2
100
AcDbEntity
  8
0
  6
Continuous
 62
     7
100
AcDbCircle
 10
34.9912420800193
 20
15.2146567745713
 30
0.0
 40
3.964283598693598
100
AcDbArc
 50
213.2880927503821
 51
214.575661360207
  0
ARC
  5
1EB
330
2
100
AcDbEntity
  8
0
  6
Continuous
 62
     7
100
AcDbCircle
 10
34.31486022995655
 20
24.79209431241685
 30
0.0
 40
4.6907379050448
100
AcDbArc
 50
47.86158528109392
 51
50.17778539476061
  0
ARC
  5
1EC
330
2
100
AcDbEntity
  8
0
  6
Continuous
 62
     7
100
AcDbCircle
 10
33.69795876900715
 20
24.05191668292394
 30
0.0
 40
2.630288907010798
100
AcDbArc
 50
46.0354008815799
 51
50.17319092598486
  0
ARC
  5
1ED
330
2
100
AcDbEntity
  8
0
  6
Continuous
 62
     7
100
AcDbCircle
 10
33.69911632727325
 20
24.05318426916089
 30
0.0
 40
2.6285729454096
100
AcDbArc
 50
44.79873866676786
 51
46.03438073681114
  0
ARC
  5
1EE
330
2
100
AcDbEntity
  8
0
  6
Continuous
 62
     7
100
AcDbCircle
 10
35.4754720815573
 20
15.51367026403928
 30
0.0
 40
4.533509139129598
100
AcDbArc
 50
209.5257617137579
 51
209.9446096887028
  0
ARC
  5
1EF
330
2
100
AcDbEntity
  8
0
  6
Continuous
 62
     7
100
AcDbCircle
 10
35.30301445142834
 20
15.41418473618883
 30
0.0
 40
4.33441371171791
100
AcDbArc
 50
209.9430147923769
 51
213.230904391492
  0
ARC
  5
1F0
330
2
100
AcDbEntity
  8
0
  6
Continuous
 62
     7
100
AcDbCircle
 10
37.70091152949914
 20
14.839605365959
 30
0.0
 40
0.4415339436732002
100
AcDbArc
 50
79.16632827413306
 51
91.52434869490221
  0
ARC
  5
1F1
330
2
100
AcDbEntity
  8
0
  6
Continuous
 62
     7
100
AcDbCircle
 10
40.50463634445313
 20
12.87040782366644
 30
0.0
 40
4.346829862351199
100
AcDbArc
 50
164.1066545407819
 51
164.7607281539831
  0
ARC
  5
1F2
330
2
100
AcDbEntity
  8
0
  6
Continuous
 62
     7
100
AcDbCircle
 10
40.37832937974246
 20
12.9071538968726
 30
0.0
 40
4.215288464889598
100
AcDbArc
 50
161.7113416583766
 51
164.1168833042847
  0
ARC
  5
1F3
330
2
100
AcDbEntity
  8
0
  6
Continuous
 62
     7
100
AcDbCircle
 10
39.18197752548861
 20
14.50187729389433
 30
0.0
 40
0.4938972814356001
100
AcDbArc
 50
74.4214113764537
 51
79.12512572741028
  0
ARC
  5
1F4
330
2
100
AcDbEntity
  8
0
  6
Continuous
 62
     7
100
AcDbCircle
 10
47.9262268385821
 20
19.89888235265842
 30
0.0
 40
1.562172547353599
100
AcDbArc
 50
260.2399848323114
 51
262.4383091517278
  0
ARC
  5
1F5
330
2
100
AcDbEntity
  8
0
  6
Continuous
 62
     7
100
AcDbCircle
 10
49.05240023236867
 20
22.49632665381465
 30
0.0
 40
0.4515726343128001
100
AcDbArc
 50
83.15229110861018
 51
94.70374889232436
  0
ARC
  5
1F6
330
2
100
AcDbEntity
  8
0
  6
Continuous
 62
     7
100
AcDbCircle
 10
49.33720468506478
 20
22.44760650662787
 30
0.0
 40
0.4515726343128001
100
AcDbArc
 50
83.15229110861018
 51
94.70374889242931
  0
ARC
  5
1F7
330
2
100
AcDbEntity
  8
0
  6
Continuous
 62
     7
100
AcDbCircle
 10
47.86006977524094
 20
17.98239450640682
 30
0.0
 40
0.4514874287700001
100
AcDbArc
 50
83.1016855764594
 51
94.67947575888798
  0
SPLINE
  5
1F8
330
2
100
AcDbEntity
  8
0
  6
Continuous
 62
     7
100
AcDbSpline
210
0.0
220
0.0
230
1.0
 70
     8
 71
     3
 72
    18
 73
    14
 74
     0
 42
0.000000001
 43
0.0000000001
 40
0.0
 40
0.0
 40
0.0
 40
0.0
 40
0.1344026062
 40
0.2647716141
 40
0.3908973177
 40
0.4526444021
 40
0.5137189188
 40
0.6346624809
 40
0.7554859601999999
 40
0.8162868481
 40
0.8773587506
 40
0.9386228136999999
 40
1.0
 40
1.0
 40
1.0
 40
1.0
 10
-0.2965910564539227
 20
16.42073640765667
 30
0.0
 10
-0.2924333055795433
 20
16.43330847449193
 30
0.0
 10
-0.283035060099035
 20
16.45770022863124
 30
0.0
 10
-0.2654072325212327
 20
16.49202561507408
 30
0.0
 10
-0.2477713864964098
 20
16.5180696046972
 30
0.0
 10
-0.2319308597674026
 20
16.53682315440418
 30
0.0
 10
-0.2150619780420384
 20
16.55394535920027
 30
0.0
 10
-0.1915248641845973
 20
16.57254909248341
 30
0.0
 10
-0.1647812907709159
 20
16.58624793886161
 30
0.0
 10
-0.1419498715285372
 20
16.59350334233218
 30
0.0
 10
-0.1241932402881793
 20
16.59694485281335
 30
0.0
 10
-0.106097324425944
 20
16.59824137978358
 30
0.0
 10
-0.0939937501769018
 20
16.59761085055574
 30
0.0
 10
-0.0879861594623072
 20
16.5969210566806
 30
0.0
  0
SPLINE
  5
1F9
330
2
100
AcDbEntity
  8
0
  6
Continuous
 62
     7
100
AcDbSpline
210
0.0
220
0.0
230
1.0
 70
     8
 71
     3
 72
    15
 73
    11
 74
     0
 42
0.000000001
 43
0.0000000001
 40
0.0
 40
0.0
 40
0.0
 40
0.0
 40
0.1160128465
 40
0.2325892216
 40
0.3518208465999999
 40
0.4753152371000002
 40
0.6033758746000001
 40
0.7349354873000002
 40
0.8679451201
 40
1.0
 40
1.0
 40
1.0
 40
1.0
 10
-0.2471222661830179
 20
16.09424131119421
 30
0.0
 10
-0.2571475509547963
 20
16.10317658943775
 30
0.0
 10
-0.2750837259404579
 20
16.12363816313177
 30
0.0
 10
-0.2949715479989318
 20
16.15944619223047
 30
0.0
 10
-0.3085469807987902
 20
16.19895130592387
 30
0.0
 10
-0.3164431215473087
 20
16.2412698747298
 30
0.0
 10
-0.3190737974546064
 20
16.28564229405644
 30
0.0
 10
-0.3166641851362801
 20
16.33111775256023
 30
0.0
 10
-0.3094042157198855
 20
16.37653212305698
 30
0.0
 10
-0.3013907595656201
 20
16.40622322728659
 30
0.0
 10
-0.2965910564539227
 20
16.42073640765667
 30
0.0
  0
SPLINE
  5
1FA
330
2
100
AcDbEntity
  8
0
  6
Continuous
 62
     7
100
AcDbSpline
210
0.0
220
0.0
230
1.0
 70
     8
 71
     3
 72
    16
 73
    12
 74
     0
 42
0.000000001
 43
0.0000000001
 40
0.0
 40
0.0
 40
0.0
 40
0.0
 40
0.1527604644
 40
0.2983969714
 40
0.4352163359000001
 40
0.5624379104
 40
0.6804400990000002
 40
0.7908802065999999
 40
0.8964205584
 40
0.9482400959999999
 40
1.0
 40
1.0
 40
1.0
 40
1.0
 10
5.95796713786009
 20
24.24864932467053
 30
0.0
 10
5.964550983960806
 20
24.26855733644055
 30
0.0
 10
5.979117834002172
 20
24.30691148955763
 30
0.0
 10
6.005663149439476
 20
24.36054103252054
 30
0.0
 10
6.036044764744838
 20
24.40801754008516
 30
0.0
 10
6.069875012330928
 20
24.44831431580136
 30
0.0
 10
6.106939650848553
 20
24.48047205974337
 30
0.0
 10
6.147063429159882
 20
24.50336842600361
 30
0.0
 10
6.182938240870672
 20
24.51339328171884
 30
0.0
 10
6.211685089647516
 20
24.51501982326928
 30
0.0
 10
6.225906553142492
 20
24.51368707046906
 30
0.0
 10
6.232909576983439
 20
24.51248909638512
 30
0.0
  0
SPLINE
  5
1FB
330
2
100
AcDbEntity
  8
0
  6
Continuous
 62
     7
100
AcDbSpline
210
0.0
220
0.0
230
1.0
 70
     8
 71
     3
 72
    19
 73
    15
 74
     0
 42
0.000000001
 43
0.0000000001
 40
0.0
 40
0.0
 40
0.0
 40
0.0
 40
0.0477960902
 40
0.0960394056
 40
0.1454142929
 40
0.1965472563
 40
0.2500950429
 40
0.3065389251
 40
0.3661408045
 40
0.4289387688000001
 40
0.5632191961000002
 40
0.7064031196
 40
0.8537832933
 40
1.0
 40
1.0
 40
1.0
 40
1.0
 10
6.091272206858687
 20
23.68451635808111
 30
0.0
 10
6.081226320809182
 20
23.68623486016887
 30
0.0
 10
6.061354145798111
 20
23.69192373925127
 30
0.0
 10
6.033845767922844
 20
23.70667103091638
 30
0.0
 10
6.009144968374202
 20
23.72685199256745
 30
0.0
 10
5.987517744056765
 20
23.75175782162723
 30
0.0
 10
5.968929224229911
 20
23.78077425615309
 30
0.0
 10
5.95331114349141
 20
23.8134787429527
 30
0.0
 10
5.940611725021533
 20
23.84950512021189
 30
0.0
 10
5.927267846981878
 20
23.90265261610495
 30
0.0
 10
5.918472628807497
 20
23.97497736962824
 30
0.0
 10
5.919721713683872
 20
24.06579148437516
 30
0.0
 10
5.932344946144397
 20
24.15828439895812
 30
0.0
 10
5.948177436762962
 20
24.21904755671138
 30
0.0
 10
5.95796713786009
 20
24.24864932467053
 30
0.0
  0
LINE
  5
1FC
330
2
100
AcDbEntity
  8
0
  6
Continuous
 62
     7
100
AcDbLine
 10
36.21013107222074
 20
11.28170036861239
 30
0.0
 11
36.19396857790639
 21
11.28437067718374
 31
0.0
  0
LINE
  5
1FD
330
2
100
AcDbEntity
  8
0
  6
Continuous
 62
     7
100
AcDbLine
 10
36.19396857790639
 20
11.28437067718374
 30
0.0
 11
36.17781310026191
 21
11.28709757131145
 31
0.0
  0
LINE
  5
1FE
330
2
100
AcDbEntity
  8
0
  6
Continuous
 62
     7
100
AcDbLine
 10
36.17781310026191
 20
11.28709757131145
 30
0.0
 11
36.17612919508565
 21
11.28738512439485
 31
0.0
  0
LINE
  5
1FF
330
2
100
AcDbEntity
  8
0
  6
Continuous
 62
     7
100
AcDbLine
 10
36.17612919508565
 20
11.28738512439485
 30
0.0
 11
36.1756185503263
 21
11.28747244908385
 31
0.0
  0
SPLINE
  5
200
330
2
100
AcDbEntity
  8
0
  6
Continuous
 62
     7
100
AcDbSpline
210
0.0
220
0.0
230
1.0
 70
     8
 71
     3
 72
    14
 73
    10
 74
     0
 42
0.000000001
 43
0.0000000001
 40
0.0
 40
0.0
 40
0.0
 40
0.0
 40
0.0161568763
 40
0.0630926181
 40
0.1420187265
 40
0.2532769553
 40
0.395949847
 40
0.5687949133
 40
1.0
 40
1.0
 40
1.0
 40
1.0
 10
36.2254433277991
 20
11.27894916066758
 30
0.0
 10
36.21775700575922
 20
11.28059548319476
 30
0.0
 10
36.21750919244022
 20
11.28063114540885
 30
0.0
 10
36.21722618076268
 20
11.28062121077591
 30
0.0
 10
36.21657406322422
 20
11.28071340357882
 30
0.0
 10
36.21574685094628
 20
11.28081906923232
 30
0.0
 10
36.21465333598925
 20
11.28098244891099
 30
0.0
 10
36.21275987211487
 20
11.28127311337724
 30
0.0
 10
36.21122510623787
 20
11.28152156175669
 30
0.0
 10
36.21013107222074
 20
11.28170036861239
 30
0.0
  0
LINE
  5
201
330
2
100
AcDbEntity
  8
0
  6
Continuous
 62
     7
100
AcDbLine
 10
34.95623875214125
 20
14.66587118286826
 30
0.0
 11
34.95377118333745
 21
14.65775034836242
 31
0.0
  0
SPLINE
  5
202
330
2
100
AcDbEntity
  8
0
  6
Continuous
 62
     7
100
AcDbSpline
210
0.0
220
0.0
230
1.0
 70
     8
 71
     3
 72
    21
 73
    17
 74
     0
 42
0.000000001
 43
0.0000000001
 40
0.0
 40
0.0
 40
0.0
 40
0.0
 40
0.1530589678
 40
0.3064597104
 40
0.3815403452
 40
0.4546155451
 40
0.5250695516000002
 40
0.5923624584000002
 40
0.6560540963000002
 40
0.7158329311000001
 40
0.7715498612000001
 40
0.8232576179999997
 40
0.8712510820999998
 40
0.9161018215
 40
0.9586559735999999
 40
1.0
 40
1.0
 40
1.0
 40
1.0
 10
34.95377118333745
 20
14.65775034836242
 30
0.0
 10
34.89937375638451
 20
14.47812883013875
 30
0.0
 10
34.81223542791383
 20
14.11158702395927
 30
0.0
 10
34.75642111836489
 20
13.64598842669676
 30
0.0
 10
34.74541457106312
 20
13.27618798276498
 30
0.0
 10
34.75419100183958
 20
13.00808650753817
 30
0.0
 10
34.77983040761645
 20
12.75064938573147
 30
0.0
 10
34.82205464803899
 20
12.50704409895213
 30
0.0
 10
34.88040715272701
 20
12.28023908681595
 30
0.0
 10
34.95429229033933
 20
12.0729547302364
 30
0.0
 10
35.04301650775529
 20
11.88764992137265
 30
0.0
 10
35.14584650516513
 20
11.72655074510505
 30
0.0
 10
35.262007986176
 20
11.59174056000092
 30
0.0
 10
35.39065386572707
 20
11.48533746718031
 30
0.0
 10
35.5303723869889
 20
11.40959103093216
 30
0.0
 10
35.63015453496022
 20
11.38078239161785
 30
0.0
 10
35.68012388792143
 20
11.37223437136005
 30
0.0
  0
SPLINE
  5
203
330
2
100
AcDbEntity
  8
0
  6
Continuous
 62
     7
100
AcDbSpline
210
0.0
220
0.0
230
1.0
 70
     8
 71
     3
 72
    18
 73
    14
 74
     0
 42
0.000000001
 43
0.0000000001
 40
0.0
 40
0.0
 40
0.0
 40
0.0
 40
0.0450122866
 40
0.0907248169
 40
0.1378335208
 40
0.1869192292
 40
0.2384705634
 40
0.2928558558
 40
0.410889584
 40
0.5418532927000001
 40
0.6850021457
 40
0.8385471781999999
 40
1.0
 40
1.0
 40
1.0
 40
1.0
 10
36.52994810866122
 20
16.3400708012174
 30
0.0
 10
36.49345882204718
 20
16.34631285045234
 30
0.0
 10
36.4187535426996
 20
16.35292057585421
 30
0.0
 10
36.3052493960169
 20
16.34483094204419
 30
0.0
 10
36.19099328232326
 20
16.31907950824798
 30
0.0
 10
36.07695215057181
 20
16.27613939737082
 30
0.0
 10
35.96387828311118
 20
16.21659821448935
 30
0.0
 10
35.8111512508423
 20
16.11305998370089
 30
0.0
 10
35.62692526048219
 20
15.94263812576169
 30
0.0
 10
35.4261223708
 20
15.68905386339645
 30
0.0
 10
35.24380726530024
 20
15.38732812636486
 30
0.0
 10
35.08437568743071
 20
15.0452628365901
 30
0.0
 10
34.9976068311107
 20
14.80071325572306
 30
0.0
 10
34.95865519468534
 20
14.67377172311754
 30
0.0
  0
LINE
  5
204
330
2
100
AcDbEntity
  8
0
  6
Continuous
 62
     7
100
AcDbLine
 10
34.95865519468534
 20
14.67377172311754
 30
0.0
 11
34.95623875214125
 21
14.66587118286826
 31
0.0
  0
LINE
  5
205
330
2
100
AcDbEntity
  8
0
  6
Continuous
 62
     7
100
AcDbLine
 10
36.1763199491009
 20
11.28735246411481
 30
0.0
 11
36.17883945739665
 21
11.28692216722037
 31
0.0
  0
LINE
  5
206
330
2
100
AcDbEntity
  8
0
  6
Continuous
 62
     7
100
AcDbLine
 10
36.17883945739665
 20
11.28692216722037
 30
0.0
 11
36.18659753525786
 21
11.28560602730362
 31
0.0
  0
LINE
  5
207
330
2
100
AcDbEntity
  8
0
  6
Continuous
 62
     7
100
AcDbLine
 10
36.18659753525786
 20
11.28560602730362
 30
0.0
 11
36.18834322402425
 21
11.28531171184245
 31
0.0
  0
LINE
  5
208
330
2
100
AcDbEntity
  8
0
  6
Continuous
 62
     7
100
AcDbLine
 10
36.18834322402425
 20
11.28531171184245
 30
0.0
 11
36.19152266681381
 21
11.28477740420694
 31
0.0
  0
LINE
  5
209
330
2
100
AcDbEntity
  8
0
  6
Continuous
 62
     7
100
AcDbLine
 10
36.19152266681381
 20
11.28477740420694
 30
0.0
 11
36.19641721189859
 21
11.28395924258913
 31
0.0
  0
LINE
  5
20A
330
2
100
AcDbEntity
  8
0
  6
Continuous
 62
     7
100
AcDbLine
 10
36.19641721189859
 20
11.28395924258913
 30
0.0
 11
36.20275788027568
 21
11.28290722291185
 31
0.0
  0
LINE
  5
20B
330
2
100
AcDbEntity
  8
0
  6
Continuous
 62
     7
100
AcDbLine
 10
36.20275788027568
 20
11.28290722291185
 30
0.0
 11
36.20909670162682
 21
11.28186438485081
 31
0.0
  0
LINE
  5
20C
330
2
100
AcDbEntity
  8
0
  6
Continuous
 62
     7
100
AcDbLine
 10
36.20909670162682
 20
11.28186438485081
 30
0.0
 11
36.21013005559619
 21
11.28169522221376
 31
0.0
  0
SPLINE
  5
20D
330
2
100
AcDbEntity
  8
0
  6
Continuous
 62
     7
100
AcDbSpline
210
0.0
220
0.0
230
1.0
 70
     8
 71
     3
 72
    11
 73
     7
 74
     0
 42
0.000000001
 43
0.0000000001
 40
0.0
 40
0.0
 40
0.0
 40
0.0
 40
0.2080159487
 40
0.3892058968
 40
0.5877518456000001
 40
1.0
 40
1.0
 40
1.0
 40
1.0
 10
43.81504964706306
 20
8.668398882675807
 30
0.0
 10
43.80411423970541
 20
8.675649273476299
 30
0.0
 10
43.78756818655392
 20
8.695155042706861
 30
0.0
 10
43.77363514335028
 20
8.729772686381629
 30
0.0
 10
43.76542633572046
 20
8.779336819341782
 30
0.0
 10
43.77034721918074
 20
8.818812167403063
 30
0.0
 10
43.77851173715519
 20
8.843499761491983
 30
0.0
  0
SPLINE
  5
20E
330
2
100
AcDbEntity
  8
0
  6
Continuous
 62
     7
100
AcDbSpline
210
0.0
220
0.0
230
1.0
 70
     8
 71
     3
 72
     9
 73
     5
 74
     0
 42
0.000000001
 43
0.0000000001
 40
0.0
 40
0.0
 40
0.0
 40
0.0
 40
0.257833656
 40
1.0
 40
1.0
 40
1.0
 40
1.0
 10
44.02806802973496
 20
8.527163492663888
 30
0.0
 10
44.03065124123547
 20
8.525450772472197
 30
0.0
 10
44.04101657744377
 20
8.519354372765278
 30
0.0
 10
44.05285023655536
 20
8.51568695171775
 30
0.0
 10
44.06172298071875
 20
8.514754743752503
 30
0.0
  0
SPLINE
  5
20F
330
2
100
AcDbEntity
  8
0
  6
Continuous
 62
     7
100
AcDbSpline
210
0.0
220
0.0
230
1.0
 70
     8
 71
     3
 72
    12
 73
     8
 74
     0
 42
0.000000001
 43
0.0000000001
 40
0.0
 40
0.0
 40
0.0
 40
0.0
 40
0.2951961215
 40
0.5600631906000002
 40
0.7911189267000001
 40
0.8972107477999998
 40
1.0
 40
1.0
 40
1.0
 40
1.0
 10
43.7887425671943
 20
8.874435400290671
 30
0.0
 10
43.79384339000261
 20
8.889859096235788
 30
0.0
 10
43.80656064868971
 20
8.918275898300056
 30
0.0
 10
43.83376512378672
 20
8.952906164401234
 30
0.0
 10
43.86218620936694
 20
8.971605619204785
 30
0.0
 10
43.8858115340975
 20
8.97771409591332
 30
0.0
 10
43.89743626819369
 20
8.977914706872681
 30
0.0
 10
43.90306212674785
 20
8.97732471177194
 30
0.0
  0
SPLINE
  5
210
330
2
100
AcDbEntity
  8
0
  6
Continuous
 62
     7
100
AcDbSpline
210
0.0
220
0.0
230
1.0
 70
     8
 71
     3
 72
    11
 73
     7
 74
     0
 42
0.000000001
 43
0.0000000001
 40
0.0
 40
0.0
 40
0.0
 40
0.0
 40
0.2091318164
 40
0.4381936845000002
 40
0.700193746
 40
1.0
 40
1.0
 40
1.0
 40
1.0
 10
37.27281573517487
 20
10.30069770450267
 30
0.0
 10
37.29205574689539
 20
10.29740317612937
 30
0.0
 10
37.3312776763859
 20
10.28233103942918
 30
0.0
 10
37.38123676894768
 20
10.23867898690193
 30
0.0
 10
37.4224595516873
 20
10.17667972523073
 30
0.0
 10
37.44234554283911
 20
10.1278249465992
 30
0.0
 10
37.45097649811048
 20
10.10120577700041
 30
0.0
  0
SPLINE
  5
211
330
2
100
AcDbEntity
  8
0
  6
Continuous
 62
     7
100
AcDbSpline
210
0.0
220
0.0
230
1.0
 70
     8
 71
     3
 72
    16
 73
    12
 74
     0
 42
0.000000001
 43
0.0000000001
 40
0.0
 40
0.0
 40
0.0
 40
0.0
 40
0.0404672489
 40
0.0821919191
 40
0.1732264349
 40
0.2790628942
 40
0.4011754334000001
 40
0.5381330353
 40
0.6866505304000002
 40
0.8422669307999999
 40
1.0
 40
1.0
 40
1.0
 40
1.0
 10
36.96762405366337
 20
9.159827813066376
 30
0.0
 10
36.95711381354658
 20
9.161627514902793
 30
0.0
 10
36.93609269858941
 20
9.167563145295225
 30
0.0
 10
36.89534589445673
 20
9.188731607662699
 30
0.0
 10
36.84911105879671
 20
9.233188662203282
 30
0.0
 10
36.80652007316594
 20
9.306463136058653
 30
0.0
 10
36.77558713460656
 20
9.398036768667235
 30
0.0
 10
36.75742340345249
 20
9.504243471905427
 30
0.0
 10
36.75270120927971
 20
9.620659424660537
 30
0.0
 10
36.76162823126161
 20
9.742267378437148
 30
0.0
 10
36.77651261742233
 20
9.823676604827284
 30
0.0
 10
36.7862134476691
 20
9.864091681775866
 30
0.0
  0
SPLINE
  5
212
330
2
100
AcDbEntity
  8
0
  6
Continuous
 62
     7
100
AcDbSpline
210
0.0
220
0.0
230
1.0
 70
     8
 71
     3
 72
    14
 73
    10
 74
     0
 42
0.000000001
 43
0.0000000001
 40
0.0
 40
0.0
 40
0.0
 40
0.0
 40
0.2826091298
 40
0.414111284
 40
0.5386368375
 40
0.6574062757
 40
0.77259946
 40
0.8862677573999999
 40
1.0
 40
1.0
 40
1.0
 40
1.0
 10
37.89777844705954
 20
9.487751050664723
 30
0.0
 10
37.88500126618689
 20
9.449115841859779
 30
0.0
 10
37.86123505965785
 20
9.3938188826625
 30
0.0
 10
37.81869938046228
 20
9.328768556052516
 30
0.0
 10
37.78323442546057
 20
9.287829489712603
 30
0.0
 10
37.74337240403414
 20
9.25459543361698
 30
0.0
 10
37.69889132335617
 20
9.23075377941641
 30
0.0
 10
37.65061835260431
 20
9.218276974147542
 30
0.0
 10
37.61735178291214
 20
9.219119778218056
 30
0.0
 10
37.60120983645498
 20
9.221881104449206
 30
0.0
  0
SPLINE
  5
213
330
2
100
AcDbEntity
  8
0
  6
Continuous
 62
     7
100
AcDbSpline
210
0.0
220
0.0
230
1.0
 70
     8
 71
     3
 72
    15
 73
    11
 74
     0
 42
0.000000001
 43
0.0000000001
 40
0.0
 40
0.0
 40
0.0
 40
0.0
 40
0.0542897854
 40
0.1081016824
 40
0.2166131866
 40
0.3291025544
 40
0.4494037524000002
 40
0.5789641218
 40
0.7164232950000002
 40
1.0
 40
1.0
 40
1.0
 40
1.0
 10
37.74284720657958
 20
10.04985384276159
 30
0.0
 10
37.75402474200062
 20
10.04794175478465
 30
0.0
 10
37.77597022279225
 20
10.04190891708589
 30
0.0
 10
37.81664129074515
 20
10.02155290536486
 30
0.0
 10
37.86006147719528
 20
9.982246837083122
 30
0.0
 10
37.89710619893619
 20
9.920501341577873
 30
0.0
 10
37.92137235806115
 20
9.84834276786108
 30
0.0
 10
37.93396452839536
 20
9.768095545470368
 30
0.0
 10
37.93587774836973
 20
9.652881670541619
 30
0.0
 10
37.9210474254459
 20
9.565026459044801
 30
0.0
 10
37.90420154232909
 20
9.508239733354804
 30
0.0
  0
SPLINE
  5
214
330
2
100
AcDbEntity
  8
0
  6
Continuous
 62
     7
100
AcDbSpline
210
0.0
220
0.0
230
1.0
 70
     8
 71
     3
 72
     9
 73
     5
 74
     0
 42
0.000000001
 43
0.0000000001
 40
0.0
 40
0.0
 40
0.0
 40
0.0
 40
0.2405904243
 40
1.0
 40
1.0
 40
1.0
 40
1.0
 10
37.15253702357106
 20
9.316162191055461
 30
0.0
 10
37.15030530300955
 20
9.318023125442957
 30
0.0
 10
37.1412586303861
 20
9.32603190842315
 30
0.0
 10
37.1331333266799
 20
9.335057264336024
 30
0.0
 10
37.12747120918304
 20
9.34227291242966
 30
0.0
  0
SPLINE
  5
215
330
2
100
AcDbEntity
  8
0
  6
Continuous
 62
     7
100
AcDbSpline
210
0.0
220
0.0
230
1.0
 70
     8
 71
     3
 72
     9
 73
     5
 74
     0
 42
0.000000001
 43
0.0000000001
 40
0.0
 40
0.0
 40
0.0
 40
0.0
 40
0.5282204341
 40
1.0
 40
1.0
 40
1.0
 40
1.0
 10
37.25485214262354
 20
10.09303401550258
 30
0.0
 10
37.26980934837019
 20
10.10269105883288
 30
0.0
 10
37.30081921119813
 20
10.11756974143451
 30
0.0
 10
37.33561425412363
 20
10.11952702683476
 30
0.0
 10
37.35128663994587
 20
10.11683755096396
 30
0.0
  0
SPLINE
  5
216
330
2
100
AcDbEntity
  8
0
  6
Continuous
 62
     7
100
AcDbSpline
210
0.0
220
0.0
230
1.0
 70
     8
 71
     3
 72
    11
 73
     7
 74
     0
 42
0.000000001
 43
0.0000000001
 40
0.0
 40
0.0
 40
0.0
 40
0.0
 40
0.2997066926
 40
0.5616521509000001
 40
0.7907475036000001
 40
1.0
 40
1.0
 40
1.0
 40
1.0
 10
37.30833751696574
 20
9.269780510103
 30
0.0
 10
37.29136311189029
 20
9.247640668429793
 30
0.0
 10
37.25641943081134
 20
9.208339893014644
 30
0.0
 10
37.1970295041976
 20
9.163794929258717
 30
0.0
 10
37.13552256075186
 20
9.139385990573916
 30
0.0
 10
37.09362448383829
 20
9.138270293090336
 30
0.0
 10
37.074425723419
 20
9.141557757874355
 30
0.0
  0
SPLINE
  5
217
330
2
100
AcDbEntity
  8
0
  6
Continuous
 62
     7
100
AcDbSpline
210
0.0
220
0.0
230
1.0
 70
     8
 71
     3
 72
    14
 73
    10
 74
     0
 42
0.000000001
 43
0.0000000001
 40
0.0
 40
0.0
 40
0.0
 40
0.0
 40
0.3183048069
 40
0.46235532
 40
0.5937474527000001
 40
0.7116926417000001
 40
0.8167783609
 40
0.9113954701
 40
1.0
 40
1.0
 40
1.0
 40
1.0
 10
36.81132244332772
 20
9.95244526526867
 30
0.0
 10
36.8295645193681
 20
10.00760503951377
 30
0.0
 10
36.86266384312702
 20
10.08599530227779
 30
0.0
 10
36.92054606116378
 20
10.17785005161919
 30
0.0
 10
36.96629171287655
 20
10.23349736668594
 30
0.0
 10
37.01475790185428
 20
10.27681225944117
 30
0.0
 10
37.06499652617472
 20
10.30666394782127
 30
0.0
 10
37.11599135627029
 20
10.32197989763395
 30
0.0
 10
37.15007369878285
 20
10.32169727936445
 30
0.0
 10
37.16601406541909
 20
10.31896775970311
 30
0.0
  0
SPLINE
  5
218
330
2
100
AcDbEntity
  8
0
  6
Continuous
 62
     7
100
AcDbSpline
210
0.0
220
0.0
230
1.0
 70
     8
 71
     3
 72
     9
 73
     5
 74
     0
 42
0.000000001
 43
0.0000000001
 40
0.0
 40
0.0
 40
0.0
 40
0.0
 40
0.2579395097
 40
1.0
 40
1.0
 40
1.0
 40
1.0
 10
44.57374512544453
 20
8.898341415422397
 30
0.0
 10
44.57116040388615
 20
8.900055136808916
 30
0.0
 10
44.56079414380742
 20
8.906154123125407
 30
0.0
 10
44.54895719608104
 20
8.909819887270801
 30
0.0
 10
44.54008399722309
 20
8.910750437485621
 30
0.0
  0
SPLINE
  5
219
330
2
100
AcDbEntity
  8
0
  6
Continuous
 62
     7
100
AcDbSpline
210
0.0
220
0.0
230
1.0
 70
     8
 71
     3
 72
     9
 73
     5
 74
     0
 42
0.000000001
 43
0.0000000001
 40
0.0
 40
0.0
 40
0.0
 40
0.0
 40
0.2436167893
 40
1.0
 40
1.0
 40
1.0
 40
1.0
 10
44.80979258822979
 20
8.715187881540357
 30
0.0
 10
44.81075685610047
 20
8.712911440435799
 30
0.0
 10
44.81451029891735
 20
8.703481018130206
 30
0.0
 10
44.81746426504526
 20
8.693737978978781
 30
0.0
 10
44.8192871335703
 20
8.686281723048043
 30
0.0
  0
SPLINE
  5
21A
330
2
100
AcDbEntity
  8
0
  6
Continuous
 62
     7
100
AcDbSpline
210
0.0
220
0.0
230
1.0
 70
     8
 71
     3
 72
    11
 73
     7
 74
     0
 42
0.000000001
 43
0.0000000001
 40
0.0
 40
0.0
 40
0.0
 40
0.0
 40
0.2894119314
 40
0.5500321767000002
 40
0.7835218386000001
 40
1.0
 40
1.0
 40
1.0
 40
1.0
 10
44.79824795738006
 20
8.516354228228022
 30
0.0
 10
44.79243156736775
 20
8.505526963794912
 30
0.0
 10
44.77943499384886
 20
8.485879744001787
 30
0.0
 10
44.75492410662968
 20
8.462841673457237
 30
0.0
 10
44.72746284355424
 20
8.449116895914071
 30
0.0
 10
44.70788784916107
 20
8.447219867491027
 30
0.0
 10
44.69874485118544
 20
8.448180469465992
 30
0.0
  0
SPLINE
  5
21B
330
2
100
AcDbEntity
  8
0
  6
Continuous
 62
     7
100
AcDbSpline
210
0.0
220
0.0
230
1.0
 70
     8
 71
     3
 72
    13
 73
     9
 74
     0
 42
0.000000001
 43
0.0000000001
 40
0.0
 40
0.0
 40
0.0
 40
0.0
 40
0.0962419315
 40
0.1965256751
 40
0.3065078438
 40
0.4287805234000002
 40
0.7055500270000002
 40
1.0
 40
1.0
 40
1.0
 40
1.0
 10
44.50521663544352
 20
8.670380703254634
 30
0.0
 10
44.50052191959463
 20
8.670080086213552
 30
0.0
 10
44.4907208277142
 20
8.671302324462912
 30
0.0
 10
44.47729873898314
 20
8.678573668137747
 30
0.0
 10
44.46590173940209
 20
8.690461900453748
 30
0.0
 10
44.45360734657239
 20
8.712328780978031
 30
0.0
 10
44.4468612770697
 20
8.746392935437656
 30
0.0
 10
44.45068656540811
 20
8.774676063846325
 30
0.0
 10
44.45520573191936
 20
8.788340967107522
 30
0.0
  0
SPLINE
  5
21C
330
2
100
AcDbEntity
  8
0
  6
Continuous
 62
     7
100
AcDbSpline
210
0.0
220
0.0
230
1.0
 70
     8
 71
     3
 72
    13
 73
     9
 74
     0
 42
0.000000001
 43
0.0000000001
 40
0.0
 40
0.0
 40
0.0
 40
0.0
 40
0.096130227
 40
0.1992460983
 40
0.3124693646
 40
0.4367879384
 40
0.7121181797000001
 40
1.0
 40
1.0
 40
1.0
 40
1.0
 10
44.68411547460194
 20
8.54556512389283
 30
0.0
 10
44.67984231921398
 20
8.546527263006485
 30
0.0
 10
44.67127808403866
 20
8.550035841702282
 30
0.0
 10
44.66012239774902
 20
8.559145144422227
 30
0.0
 10
44.65080518108496
 20
8.571732227740877
 30
0.0
 10
44.64106785973828
 20
8.593126848814822
 30
0.0
 10
44.63622158637524
 20
8.624688325894016
 30
0.0
 10
44.64014437269435
 20
8.650538417645041
 30
0.0
 10
44.64426302299956
 20
8.662992253515902
 30
0.0
  0
SPLINE
  5
21D
330
2
100
AcDbEntity
  8
0
  6
Continuous
 62
     7
100
AcDbSpline
210
0.0
220
0.0
230
1.0
 70
     8
 71
     3
 72
     9
 73
     5
 74
     0
 42
0.000000001
 43
0.0000000001
 40
0.0
 40
0.0
 40
0.0
 40
0.0
 40
0.2629066836
 40
1.0
 40
1.0
 40
1.0
 40
1.0
 10
44.64426302299956
 20
8.662992253515902
 30
0.0
 10
44.64521377492864
 20
8.665867105139604
 30
0.0
 10
44.64927550775636
 20
8.676640469688432
 30
0.0
 10
44.65512201822757
 20
8.686810944393712
 30
0.0
 10
44.66052296185877
 20
8.693360675365758
 30
0.0
  0
SPLINE
  5
21E
330
2
100
AcDbEntity
  8
0
  6
Continuous
 62
     7
100
AcDbSpline
210
0.0
220
0.0
230
1.0
 70
     8
 71
     3
 72
    11
 73
     7
 74
     0
 42
0.000000001
 43
0.0000000001
 40
0.0
 40
0.0
 40
0.0
 40
0.0
 40
0.2918964791
 40
0.5563829503
 40
0.7900143172
 40
1.0
 40
1.0
 40
1.0
 40
1.0
 10
44.45520573191936
 20
8.788340967107522
 30
0.0
 10
44.4575197635681
 20
8.795338057949951
 30
0.0
 10
44.46325614577925
 20
8.808298096958115
 30
0.0
 10
44.47542133748611
 20
8.82437200455946
 30
0.0
 10
44.48998986626229
 20
8.835219989560689
 30
0.0
 10
44.50105095619118
 20
8.838453742100117
 30
0.0
 10
44.50633778680273
 20
8.83885080680406
 30
0.0
  0
SPLINE
  5
21F
330
2
100
AcDbEntity
  8
0
  6
Continuous
 62
     7
100
AcDbSpline
210
0.0
220
0.0
230
1.0
 70
     8
 71
     3
 72
    13
 73
     9
 74
     0
 42
0.000000001
 43
0.0000000001
 40
0.0
 40
0.0
 40
0.0
 40
0.0
 40
0.1635559504
 40
0.3187965852
 40
0.5299485611
 40
0.711649015
 40
0.8650710672
 40
1.0
 40
1.0
 40
1.0
 40
1.0
 10
6.733539981538932
 20
24.74476852393347
 30
0.0
 10
6.734890649546831
 20
24.74872599709368
 30
0.0
 10
6.737853913268335
 20
24.75633357153282
 30
0.0
 10
6.743929192716866
 20
24.76846258924122
 30
0.0
 10
6.751813883742892
 20
24.78013961081382
 30
0.0
 10
6.761901196860861
 20
24.7899801490796
 30
0.0
 10
6.772690627977723
 20
24.79576735006991
 30
0.0
 10
6.780335627737244
 20
24.7963697202264
 30
0.0
 10
6.783735791921652
 20
24.79578714913872
 30
0.0
  0
SPLINE
  5
220
330
2
100
AcDbEntity
  8
0
  6
Continuous
 62
     7
100
AcDbSpline
210
0.0
220
0.0
230
1.0
 70
     8
 71
     3
 72
    13
 73
     9
 74
     0
 42
0.000000001
 43
0.0000000001
 40
0.0
 40
0.0
 40
0.0
 40
0.0
 40
0.0882608406
 40
0.1826710181
 40
0.3447285616
 40
0.5369340260000001
 40
0.7575759297
 40
1.0
 40
1.0
 40
1.0
 40
1.0
 10
36.66570840763615
 20
8.693703771841768
 30
0.0
 10
36.67725049450765
 20
8.691725933960745
 30
0.0
 10
36.70196522265544
 20
8.691580706142612
 30
0.0
 10
36.74621146585172
 20
8.705168116580509
 30
0.0
 10
36.7958244620519
 20
8.739961555111115
 30
0.0
 10
36.84557401214193
 20
8.798457512489735
 30
0.0
 10
36.88901380331075
 20
8.874215715491882
 30
0.0
 10
36.91145581854793
 20
8.931647757638394
 30
0.0
 10
36.92126642793247
 20
8.96227952885088
 30
0.0
  0
SPLINE
  5
221
330
2
100
AcDbEntity
  8
0
  6
Continuous
 62
     7
100
AcDbSpline
210
0.0
220
0.0
230
1.0
 70
     8
 71
     3
 72
    13
 73
     9
 74
     0
 42
0.000000001
 43
0.0000000001
 40
0.0
 40
0.0
 40
0.0
 40
0.0
 40
0.288116453
 40
0.4315322692000001
 40
0.5689404768000001
 40
0.6967071365000001
 40
0.8120314073999999
 40
1.0
 40
1.0
 40
1.0
 40
1.0
 10
33.04545917970393
 20
12.19414606043371
 30
0.0
 10
33.02769620598287
 20
12.14210033827003
 30
0.0
 10
33.00945001170465
 20
12.06099611719733
 30
0.0
 10
33.00157308987632
 20
11.95255620565541
 30
0.0
 10
33.00420512118151
 20
11.87447317001933
 30
0.0
 10
33.01535812996299
 20
11.80237606040945
 30
0.0
 10
33.0390957556758
 20
11.72381145352874
 30
0.0
 10
33.07025652841121
 20
11.67152525748734
 30
0.0
 10
33.09781168440654
 20
11.64854821535855
 30
0.0
  0
SPLINE
  5
222
330
2
100
AcDbEntity
  8
0
  6
Continuous
 62
     7
100
AcDbSpline
210
0.0
220
0.0
230
1.0
 70
     8
 71
     3
 72
     9
 73
     5
 74
     0
 42
0.000000001
 43
0.0000000001
 40
0.0
 40
0.0
 40
0.0
 40
0.0
 40
0.5132253890000002
 40
1.0
 40
1.0
 40
1.0
 40
1.0
 10
36.60867935714324
 20
8.720988870521502
 30
0.0
 10
36.6170591959558
 20
8.714001288618746
 30
0.0
 10
36.63498830863596
 20
8.702127294897852
 30
0.0
 10
36.65550849659223
 20
8.695451616119596
 30
0.0
 10
36.66570840763615
 20
8.693703771841768
 30
0.0
  0
SPLINE
  5
223
330
2
100
AcDbEntity
  8
0
  6
Continuous
 62
     7
100
AcDbSpline
210
0.0
220
0.0
230
1.0
 70
     8
 71
     3
 72
    11
 73
     7
 74
     0
 42
0.000000001
 43
0.0000000001
 40
0.0
 40
0.0
 40
0.0
 40
0.0
 40
0.0894558861
 40
0.1847745659
 40
0.5370537333
 40
1.0
 40
1.0
 40
1.0
 40
1.0
 10
35.6913877406345
 20
19.85069220939184
 30
0.0
 10
35.68914177329558
 20
19.85107702482154
 30
0.0
 10
35.68434728355761
 20
19.8511246208735
 30
0.0
 10
35.67106906881978
 20
19.84717331158607
 30
0.0
 10
35.65381024291327
 20
19.82975030841025
 30
0.0
 10
35.64500094421067
 20
19.81083403991444
 30
0.0
 10
35.64119193026017
 20
19.79967358418685
 30
0.0
  0
SPLINE
  5
224
330
2
100
AcDbEntity
  8
0
  6
Continuous
 62
     7
100
AcDbSpline
210
0.0
220
0.0
230
1.0
 70
     8
 71
     3
 72
    12
 73
     8
 74
     0
 42
0.000000001
 43
0.0000000001
 40
0.0
 40
0.0
 40
0.0
 40
0.0
 40
0.2615646797
 40
0.537930714
 40
0.793902206
 40
0.9045936706
 40
1.0
 40
1.0
 40
1.0
 40
1.0
 10
9.652685753744918
 20
6.541296745896811
 30
0.0
 10
9.598565422358689
 20
6.550853210917179
 30
0.0
 10
9.488456197957695
 20
6.577456222513641
 30
0.0
 10
9.330314026562993
 20
6.630998065804717
 30
0.0
 10
9.206470320335867
 20
6.685795147696114
 30
0.0
 10
9.121879458291887
 20
6.733566412798626
 30
0.0
 10
9.086008430906783
 20
6.757995888046196
 30
0.0
 10
9.070227394536683
 20
6.770357009798448
 30
0.0
  0
SPLINE
  5
225
330
2
100
AcDbEntity
  8
0
  6
Continuous
 62
     7
100
AcDbSpline
210
0.0
220
0.0
230
1.0
 70
     8
 71
     3
 72
     9
 73
     5
 74
     0
 42
0.000000001
 43
0.0000000001
 40
0.0
 40
0.0
 40
0.0
 40
0.0
 40
0.2675584667
 40
1.0
 40
1.0
 40
1.0
 40
1.0
 10
0.9578949989241444
 20
13.53462964667173
 30
0.0
 10
0.9541677946600394
 20
13.53773804707225
 30
0.0
 10
0.9404716442784849
 20
13.54961850430498
 30
0.0
 10
0.9277701875854036
 20
13.56275821120009
 30
0.0
 10
0.9197118101984159
 20
13.57332114956823
 30
0.0
  0
SPLINE
  5
226
330
2
100
AcDbEntity
  8
0
  6
Continuous
 62
     7
100
AcDbSpline
210
0.0
220
0.0
230
1.0
 70
     8
 71
     3
 72
    10
 73
     6
 74
     0
 42
0.000000001
 43
0.0000000001
 40
0.0
 40
0.0
 40
0.0
 40
0.0
 40
0.4949060534000001
 40
0.7405777488
 40
1.0
 40
1.0
 40
1.0
 40
1.0
 10
0.9197118101984159
 20
13.57332114956823
 30
0.0
 10
0.9117560899733943
 20
13.58374952469487
 30
0.0
 10
0.901561263834461
 20
13.60123230172352
 30
0.0
 10
0.8971094025203274
 20
13.62766424493978
 30
0.0
 10
0.8991295299125486
 20
13.64121027317481
 30
0.0
 10
0.90128835846523
 20
13.64773806614428
 30
0.0
  0
SPLINE
  5
227
330
2
100
AcDbEntity
  8
0
  6
Continuous
 62
     7
100
AcDbSpline
210
0.0
220
0.0
230
1.0
 70
     8
 71
     3
 72
    10
 73
     6
 74
     0
 42
0.000000001
 43
0.0000000001
 40
0.0
 40
0.0
 40
0.0
 40
0.0
 40
0.531350388
 40
0.7801691985
 40
1.0
 40
1.0
 40
1.0
 40
1.0
 10
5.139767844390931
 20
12.92551377270483
 30
0.0
 10
5.246096767429998
 20
12.89606965969738
 30
0.0
 10
5.399996179428476
 20
12.84394756158713
 30
0.0
 10
5.590087789508106
 20
12.76020838038142
 30
0.0
 10
5.676288547645476
 20
12.71474468127967
 30
0.0
 10
5.715508185175115
 20
12.69139136952273
 30
0.0
  0
SPLINE
  5
228
330
2
100
AcDbEntity
  8
0
  6
Continuous
 62
     7
100
AcDbSpline
210
0.0
220
0.0
230
1.0
 70
     8
 71
     3
 72
     9
 73
     5
 74
     0
 42
0.000000001
 43
0.0000000001
 40
0.0
 40
0.0
 40
0.0
 40
0.0
 40
0.2746625861
 40
1.0
 40
1.0
 40
1.0
 40
1.0
 10
5.742619513070923
 20
12.67475544884726
 30
0.0
 10
5.750180910059512
 20
12.66996775568033
 30
0.0
 10
5.777480074369181
 20
12.65218573116479
 30
0.0
 10
5.803909855967577
 20
12.63299177780798
 30
0.0
 10
5.822061776555621
 20
12.61785568333774
 30
0.0
  0
SPLINE
  5
229
330
2
100
AcDbEntity
  8
0
  6
Continuous
 62
     7
100
AcDbSpline
210
0.0
220
0.0
230
1.0
 70
     8
 71
     3
 72
    10
 73
     6
 74
     0
 42
0.000000001
 43
0.0000000001
 40
0.0
 40
0.0
 40
0.0
 40
0.0
 40
0.187259113
 40
0.4196562416
 40
1.0
 40
1.0
 40
1.0
 40
1.0
 10
0.9197118101984159
 20
13.57332114956823
 30
0.0
 10
1.159492128691657
 20
13.5911451008409
 30
0.0
 10
1.196104790387791
 20
13.59455257562045
 30
0.0
 10
1.283492558710146
 20
13.59394051358779
 30
0.0
 10
1.354192809187974
 20
13.58533420451165
 30
0.0
 10
1.404225196672858
 20
13.57727330093688
 30
0.0
  0
SPLINE
  5
22A
330
2
100
AcDbEntity
  8
0
  6
Continuous
 62
     7
100
AcDbSpline
210
0.0
220
0.0
230
1.0
 70
     8
 71
     3
 72
    13
 73
     9
 74
     0
 42
0.000000001
 43
0.0000000001
 40
0.0
 40
0.0
 40
0.0
 40
0.0
 40
0.0994410363
 40
0.1944941265
 40
0.2940528388
 40
0.4040065966000002
 40
0.6704358616000002
 40
1.0
 40
1.0
 40
1.0
 40
1.0
 10
13.917880275543
 20
5.902622301906213
 30
0.0
 10
13.91482905621813
 20
5.893396127822248
 30
0.0
 10
13.90414918037464
 20
5.876668346360596
 30
0.0
 10
13.87983257929418
 20
5.860448926123773
 30
0.0
 10
13.85137283537571
 20
5.851030798341763
 30
0.0
 10
13.80528794167807
 20
5.843883110659481
 30
0.0
 10
13.73593237636282
 20
5.845064772766622
 30
0.0
 10
13.67813940965657
 20
5.852663626903612
 30
0.0
 10
13.64639471348173
 20
5.858094041542022
 30
0.0
  0
SPLINE
  5
22B
330
2
100
AcDbEntity
  8
0
  6
Continuous
 62
     7
100
AcDbSpline
210
0.0
220
0.0
230
1.0
 70
     8
 71
     3
 72
     9
 73
     5
 74
     0
 42
0.000000001
 43
0.0000000001
 40
0.0
 40
0.0
 40
0.0
 40
0.0
 40
0.5189659592
 40
1.0
 40
1.0
 40
1.0
 40
1.0
 10
5.892483907589157
 20
12.63529550883286
 30
0.0
 10
5.889793134243227
 20
12.62716042658107
 30
0.0
 10
5.879195233302874
 20
12.61289143434603
 30
0.0
 10
5.861565637574102
 20
12.60791479878127
 30
0.0
 10
5.85373823344244
 20
12.60926056844557
 30
0.0
  0
SPLINE
  5
22C
330
2
100
AcDbEntity
  8
0
  6
Continuous
 62
     7
100
AcDbSpline
210
0.0
220
0.0
230
1.0
 70
     8
 71
     3
 72
    14
 73
    10
 74
     0
 42
0.000000001
 43
0.0000000001
 40
0.0
 40
0.0
 40
0.0
 40
0.0
 40
0.0591180287
 40
0.1308478591
 40
0.2222194244
 40
0.3356860812
 40
0.4715587212
 40
0.6289123133
 40
1.0
 40
1.0
 40
1.0
 40
1.0
 10
0.9550022191959868
 20
13.81014950729344
 30
0.0
 10
0.9566383086005807
 20
13.81508475705629
 30
0.0
 10
0.9634892265536983
 20
13.82499493590638
 30
0.0
 10
0.9805419637964806
 20
13.83519273943092
 30
0.0
 10
1.003929631613892
 20
13.84233768026074
 30
0.0
 10
1.033676237072147
 20
13.84657327539914
 30
0.0
 10
1.069467134827194
 20
13.84785998887633
 30
0.0
 10
1.127882391700281
 20
13.8454436129295
 30
0.0
 10
1.174050976243619
 20
13.83923674621041
 30
0.0
 10
1.20622047685267
 20
13.83373366228437
 30
0.0
  0
SPLINE
  5
22D
330
2
100
AcDbEntity
  8
0
  6
Continuous
 62
     7
100
AcDbSpline
210
0.0
220
0.0
230
1.0
 70
     8
 71
     3
 72
    11
 73
     7
 74
     0
 42
0.000000001
 43
0.0000000001
 40
0.0
 40
0.0
 40
0.0
 40
0.0
 40
0.3438985768
 40
0.6188997554000001
 40
0.8304056598
 40
1.0
 40
1.0
 40
1.0
 40
1.0
 10
13.92192729619178
 20
6.147482294399902
 30
0.0
 10
13.9308031493063
 20
6.140081107806862
 30
0.0
 10
13.94619983504859
 20
6.126002815413221
 30
0.0
 10
13.9638247767361
 20
6.104198511355627
 30
0.0
 10
13.97344220390049
 20
6.083946256372572
 30
0.0
 10
13.97338351109721
 20
6.070444786228873
 30
0.0
 10
13.97159013022785
 20
6.065035068101085
 30
0.0
  0
SPLINE
  5
22E
330
2
100
AcDbEntity
  8
0
  6
Continuous
 62
     7
100
AcDbSpline
210
0.0
220
0.0
230
1.0
 70
     8
 71
     3
 72
    12
 73
     8
 74
     0
 42
0.000000001
 43
0.0000000001
 40
0.0
 40
0.0
 40
0.0
 40
0.0
 40
0.2641059314
 40
0.5447088322
 40
0.8017817448
 40
0.9101096422999999
 40
1.0
 40
1.0
 40
1.0
 40
1.0
 10
5.193482814607013
 20
13.1516516016276
 30
0.0
 10
5.252314587286724
 20
13.14158752925539
 30
0.0
 10
5.372311632501208
 20
13.11279586536276
 30
0.0
 10
5.544035039785137
 20
13.05445387037812
 30
0.0
 10
5.677663518774782
 20
12.99469557525687
 30
0.0
 10
5.766766935054715
 20
12.94310086994001
 30
0.0
 10
5.803432449728382
 20
12.91714087149068
 30
0.0
 10
5.819034610582266
 20
12.90413091039769
 30
0.0
  0
SPLINE
  5
22F
330
2
100
AcDbEntity
  8
0
  6
Continuous
 62
     7
100
AcDbSpline
210
0.0
220
0.0
230
1.0
 70
     8
 71
     3
 72
    11
 73
     7
 74
     0
 42
0.000000001
 43
0.0000000001
 40
0.0
 40
0.0
 40
0.0
 40
0.0
 40
0.2327365924
 40
0.4751316381000001
 40
0.7301415385
 40
1.0
 40
1.0
 40
1.0
 40
1.0
 10
3.375821471544615
 20
18.14517574705625
 30
0.0
 10
3.113606232066397
 20
18.128668875642
 30
0.0
 10
2.580215176135926
 20
18.05289933507764
 30
0.0
 10
1.786922929758699
 20
17.82019336363403
 30
0.0
 10
0.9927323775484547
 20
17.46908035607766
 30
0.0
 10
0.4813883851728971
 20
17.16697496154601
 30
0.0
 10
0.2272727103533325
 20
16.99895333232757
 30
0.0
  0
SPLINE
  5
230
330
2
100
AcDbEntity
  8
0
  6
Continuous
 62
     7
100
AcDbSpline
210
0.0
220
0.0
230
1.0
 70
     8
 71
     3
 72
     9
 73
     5
 74
     0
 42
0.000000001
 43
0.0000000001
 40
0.0
 40
0.0
 40
0.0
 40
0.0
 40
0.4541375813000001
 40
1.0
 40
1.0
 40
1.0
 40
1.0
 10
0.2272727103533325
 20
16.99895333232757
 30
0.0
 10
0.1626870691685326
 20
16.95624921868273
 30
0.0
 10
0.0403038352594595
 20
16.83276552049823
 30
0.0
 10
-0.0472665422979844
 20
16.68526210739734
 30
0.0
 10
-0.0879223205900198
 20
16.60154662155864
 30
0.0
  0
SPLINE
  5
231
330
2
100
AcDbEntity
  8
0
  6
Continuous
 62
     7
100
AcDbSpline
210
0.0
220
0.0
230
1.0
 70
     8
 71
     3
 72
     9
 73
     5
 74
     0
 42
0.000000001
 43
0.0000000001
 40
0.0
 40
0.0
 40
0.0
 40
0.0
 40
0.4909786983
 40
1.0
 40
1.0
 40
1.0
 40
1.0
 10
-0.106167740195051
 20
16.56266539636535
 30
0.0
 10
-0.1530709812578062
 20
16.45919855202714
 30
0.0
 10
-0.2276044202674311
 20
16.23868716999433
 30
0.0
 10
-0.2652926999173578
 20
16.00925897693248
 30
0.0
 10
-0.2745873929534283
 20
15.89185015012071
 30
0.0
  0
SPLINE
  5
232
330
2
100
AcDbEntity
  8
0
  6
Continuous
 62
     7
100
AcDbSpline
210
0.0
220
0.0
230
1.0
 70
     8
 71
     3
 72
    11
 73
     7
 74
     0
 42
0.000000001
 43
0.0000000001
 40
0.0
 40
0.0
 40
0.0
 40
0.0
 40
0.2995351636
 40
0.5722425794000002
 40
0.8067322437000001
 40
1.0
 40
1.0
 40
1.0
 40
1.0
 10
-0.3669726868074941
 20
14.72485636911804
 30
0.0
 10
-0.3699114402799168
 20
14.68773458407195
 30
0.0
 10
-0.3706337365232612
 20
14.61629608131906
 30
0.0
 10
-0.3555423249450032
 20
14.51659811450357
 30
0.0
 10
-0.3254881082425199
 20
14.43418197594973
 30
0.0
 10
-0.292888355756404
 20
14.39037299222708
 30
0.0
 10
-0.2744351552549124
 20
14.37498567358614
 30
0.0
  0
SPLINE
  5
233
330
2
100
AcDbEntity
  8
0
  6
Continuous
 62
     7
100
AcDbSpline
210
0.0
220
0.0
230
1.0
 70
     8
 71
     3
 72
    12
 73
     8
 74
     0
 42
0.000000001
 43
0.0000000001
 40
0.0
 40
0.0
 40
0.0
 40
0.0
 40
0.2615646797
 40
0.537930714
 40
0.793902206
 40
0.9045936706
 40
1.0
 40
1.0
 40
1.0
 40
1.0
 10
15.34877480768469
 20
5.566893802102799
 30
0.0
 10
15.29465447628991
 20
5.576450267122957
 30
0.0
 10
15.18454525189716
 20
5.603053278719631
 30
0.0
 10
15.02640308049421
 20
5.656595122010457
 30
0.0
 10
14.90255937427533
 20
5.711392203902083
 30
0.0
 10
14.8179685122315
 20
5.759163469004596
 30
0.0
 10
14.78209748483815
 20
5.783592944251957
 30
0.0
 10
14.76631644846775
 20
5.795954066004207
 30
0.0
  0
SPLINE
  5
234
330
2
100
AcDbEntity
  8
0
  6
Continuous
 62
     7
100
AcDbSpline
210
0.0
220
0.0
230
1.0
 70
     8
 71
     3
 72
     9
 73
     5
 74
     0
 42
0.000000001
 43
0.0000000001
 40
0.0
 40
0.0
 40
0.0
 40
0.0
 40
0.2675584667
 40
1.0
 40
1.0
 40
1.0
 40
1.0
 10
6.653984052855513
 20
12.56022670287749
 30
0.0
 10
6.650256848591256
 20
12.56333510327801
 30
0.0
 10
6.636560698209396
 20
12.57521556051914
 30
0.0
 10
6.623859241525025
 20
12.58835526740608
 30
0.0
 10
6.615800864129632
 20
12.59891820577401
 30
0.0
  0
SPLINE
  5
235
330
2
100
AcDbEntity
  8
0
  6
Continuous
 62
     7
100
AcDbSpline
210
0.0
220
0.0
230
1.0
 70
     8
 71
     3
 72
    10
 73
     6
 74
     0
 42
0.000000001
 43
0.0000000001
 40
0.0
 40
0.0
 40
0.0
 40
0.0
 40
0.4949060534000001
 40
0.7405777488
 40
1.0
 40
1.0
 40
1.0
 40
1.0
 10
6.615800864129632
 20
12.59891820577401
 30
0.0
 10
6.607845143904611
 20
12.60934658090062
 30
0.0
 10
6.597650317765525
 20
12.62682935792928
 30
0.0
 10
6.593198456459796
 20
12.65326130114577
 30
0.0
 10
6.595218583852322
 20
12.66680732938081
 30
0.0
 10
6.597377412404852
 20
12.67333512235028
 30
0.0
  0
SPLINE
  5
236
330
2
100
AcDbEntity
  8
0
  6
Continuous
 62
     7
100
AcDbSpline
210
0.0
220
0.0
230
1.0
 70
     8
 71
     3
 72
    13
 73
     9
 74
     0
 42
0.000000001
 43
0.0000000001
 40
0.0
 40
0.0
 40
0.0
 40
0.0
 40
0.0994410363
 40
0.1944941265
 40
0.2940528388
 40
0.4040065966000002
 40
0.6704358616000002
 40
1.0
 40
1.0
 40
1.0
 40
1.0
 10
19.61396932947391
 20
4.928219358111954
 30
0.0
 10
19.61091811014934
 20
4.918993184028008
 30
0.0
 10
19.60023823430601
 20
4.902265402566355
 30
0.0
 10
19.57592163322539
 20
4.886045982329513
 30
0.0
 10
19.54746188930677
 20
4.876627854555925
 30
0.0
 10
19.50137699560898
 20
4.869480166873643
 30
0.0
 10
19.43202143030244
 20
4.870661828980995
 30
0.0
 10
19.37422846359634
 20
4.87826068310958
 30
0.0
 10
19.34248376741294
 20
4.883691097747781
 30
0.0
  0
SPLINE
  5
237
330
2
100
AcDbEntity
  8
0
  6
Continuous
 62
     7
100
AcDbSpline
210
0.0
220
0.0
230
1.0
 70
     8
 71
     3
 72
    10
 73
     6
 74
     0
 42
0.000000001
 43
0.0000000001
 40
0.0
 40
0.0
 40
0.0
 40
0.0
 40
0.5684063891
 40
0.8114221985
 40
1.0
 40
1.0
 40
1.0
 40
1.0
 10
10.58695710461032
 20
12.05721570062959
 30
0.0
 10
10.5842757148034
 20
12.04910971330014
 30
0.0
 10
10.58264311862643
 20
12.03653115132151
 30
0.0
 10
10.58567478726953
 20
12.02174873501444
 30
0.0
 10
10.58915088194601
 20
12.01592026939131
 30
0.0
 10
10.59132612174931
 20
12.01410588638476
 30
0.0
  0
SPLINE
  5
238
330
2
100
AcDbEntity
  8
0
  6
Continuous
 62
     7
100
AcDbSpline
210
0.0
220
0.0
230
1.0
 70
     8
 71
     3
 72
     9
 73
     5
 74
     0
 42
0.000000001
 43
0.0000000001
 40
0.0
 40
0.0
 40
0.0
 40
0.0
 40
0.5189659592
 40
1.0
 40
1.0
 40
1.0
 40
1.0
 10
11.58857296152878
 20
11.66089256503885
 30
0.0
 10
11.58588218817444
 20
11.65275748278681
 30
0.0
 10
11.57528428724249
 20
11.63848849055204
 30
0.0
 10
11.55765469151372
 20
11.63351185498724
 30
0.0
 10
11.54982728738206
 20
11.63485762465154
 30
0.0
  0
SPLINE
  5
239
330
2
100
AcDbEntity
  8
0
  6
Continuous
 62
     7
100
AcDbSpline
210
0.0
220
0.0
230
1.0
 70
     8
 71
     3
 72
    14
 73
    10
 74
     0
 42
0.000000001
 43
0.0000000001
 40
0.0
 40
0.0
 40
0.0
 40
0.0
 40
0.0591180287
 40
0.1308478591
 40
0.2222194244
 40
0.3356860812
 40
0.4715587212
 40
0.6289123133
 40
1.0
 40
1.0
 40
1.0
 40
1.0
 10
6.651091273126898
 20
12.83574656350758
 30
0.0
 10
6.65272736253195
 20
12.84068181326205
 30
0.0
 10
6.659578280484915
 20
12.85059199211216
 30
0.0
 10
6.676631017727697
 20
12.86078979563664
 30
0.0
 10
6.700018685553513
 20
12.86793473646671
 30
0.0
 10
6.729765291003517
 20
12.87217033160488
 30
0.0
 10
6.765556188766661
 20
12.87345704508232
 30
0.0
 10
6.82397144563165
 20
12.87104066913525
 30
0.0
 10
6.870140030174836
 20
12.86483380241617
 30
0.0
 10
6.902309530792293
 20
12.85933071849034
 30
0.0
  0
SPLINE
  5
23A
330
2
100
AcDbEntity
  8
0
  6
Continuous
 62
     7
100
AcDbSpline
210
0.0
220
0.0
230
1.0
 70
     8
 71
     3
 72
    11
 73
     7
 74
     0
 42
0.000000001
 43
0.0000000001
 40
0.0
 40
0.0
 40
0.0
 40
0.0
 40
0.3438985768
 40
0.6188997554000001
 40
0.8304056598
 40
1.0
 40
1.0
 40
1.0
 40
1.0
 10
19.61801635012315
 20
5.173079350605663
 30
0.0
 10
19.62689220324607
 20
5.165678164012851
 30
0.0
 10
19.64228888898805
 20
5.15159987161919
 30
0.0
 10
19.65991383067572
 20
5.129795567561597
 30
0.0
 10
19.6695312578317
 20
5.109543312578312
 30
0.0
 10
19.66947256503699
 20
5.096041842434842
 30
0.0
 10
19.66767918416762
 20
5.090632124307053
 30
0.0
  0
SPLINE
  5
23B
330
2
100
AcDbEntity
  8
0
  6
Continuous
 62
     7
100
AcDbSpline
210
0.0
220
0.0
230
1.0
 70
     8
 71
     3
 72
    12
 73
     8
 74
     0
 42
0.000000001
 43
0.0000000001
 40
0.0
 40
0.0
 40
0.0
 40
0.0
 40
0.2641059314
 40
0.5447088322
 40
0.8017817448
 40
0.9101096422999999
 40
1.0
 40
1.0
 40
1.0
 40
1.0
 10
10.88957186854633
 20
12.177248657842
 30
0.0
 10
10.94840364121809
 20
12.16718458546119
 30
0.0
 10
11.06840068644098
 20
12.13839292156876
 30
0.0
 10
11.24012409372491
 20
12.08005092658411
 30
0.0
 10
11.37375257271425
 20
12.02029263147126
 30
0.0
 10
11.46285598899418
 20
11.968697926146
 30
0.0
 10
11.4995215036596
 20
11.94273792769644
 30
0.0
 10
11.51512366451348
 20
11.92972796660341
 30
0.0
  0
SPLINE
  5
23C
330
2
100
AcDbEntity
  8
0
  6
Continuous
 62
     7
100
AcDbSpline
210
0.0
220
0.0
230
1.0
 70
     8
 71
     3
 72
    12
 73
     8
 74
     0
 42
0.000000001
 43
0.0000000001
 40
0.0
 40
0.0
 40
0.0
 40
0.0
 40
0.2615646797
 40
0.537930714
 40
0.793902206
 40
0.9045936706
 40
1.0
 40
1.0
 40
1.0
 40
1.0
 10
21.04486386161591
 20
4.592490858308558
 30
0.0
 10
20.99074353022952
 20
4.602047323328926
 30
0.0
 10
20.88063430582823
 20
4.628650334933754
 30
0.0
 10
20.72249213443383
 20
4.682192178216427
 30
0.0
 10
20.59864842820671
 20
4.736989260107844
 30
0.0
 10
20.51405756616272
 20
4.784760525210355
 30
0.0
 10
20.47818653877747
 20
4.80919000046633
 30
0.0
 10
20.46240550240752
 20
4.821551122210177
 30
0.0
  0
SPLINE
  5
23D
330
2
100
AcDbEntity
  8
0
  6
Continuous
 62
     7
100
AcDbSpline
210
0.0
220
0.0
230
1.0
 70
     8
 71
     3
 72
     9
 73
     5
 74
     0
 42
0.000000001
 43
0.0000000001
 40
0.0
 40
0.0
 40
0.0
 40
0.0
 40
0.2675584667
 40
1.0
 40
1.0
 40
1.0
 40
1.0
 10
12.35007310679513
 20
11.58582375908346
 30
0.0
 10
12.34634590253072
 20
11.58893215949238
 30
0.0
 10
12.33264975214061
 20
11.60081261672492
 30
0.0
 10
12.31994829545609
 20
11.61395232362025
 30
0.0
 10
12.31188991806925
 20
11.62451526197998
 30
0.0
  0
SPLINE
  5
23E
330
2
100
AcDbEntity
  8
0
  6
Continuous
 62
     7
100
AcDbSpline
210
0.0
220
0.0
230
1.0
 70
     8
 71
     3
 72
    10
 73
     6
 74
     0
 42
0.000000001
 43
0.0000000001
 40
0.0
 40
0.0
 40
0.0
 40
0.0
 40
0.4949060534000001
 40
0.7405777488
 40
1.0
 40
1.0
 40
1.0
 40
1.0
 10
12.31188991806925
 20
11.62451526197998
 30
0.0
 10
12.30393419784408
 20
11.634943637115
 30
0.0
 10
12.2937393717053
 20
11.65242641413525
 30
0.0
 10
12.28928751039116
 20
11.67885835735153
 30
0.0
 10
12.29130763778354
 20
11.69240438558657
 30
0.0
 10
12.29346646633622
 20
11.698932178556
 30
0.0
  0
SPLINE
  5
23F
330
2
100
AcDbEntity
  8
0
  6
Continuous
 62
     7
100
AcDbSpline
210
0.0
220
0.0
230
1.0
 70
     8
 71
     3
 72
    10
 73
     6
 74
     0
 42
0.000000001
 43
0.0000000001
 40
0.0
 40
0.0
 40
0.0
 40
0.0
 40
0.531350388
 40
0.7801691985
 40
1.0
 40
1.0
 40
1.0
 40
1.0
 10
16.53194595226161
 20
10.97670788512496
 30
0.0
 10
16.63827487530068
 20
10.94726377211751
 30
0.0
 10
16.79217428729931
 20
10.89514167399885
 30
0.0
 10
16.98226589737864
 20
10.81140249280155
 30
0.0
 10
17.06846665551647
 20
10.7659387936914
 30
0.0
 10
17.10768629304611
 20
10.74258548193446
 30
0.0
  0
SPLINE
  5
240
330
2
100
AcDbEntity
  8
0
  6
Continuous
 62
     7
100
AcDbSpline
210
0.0
220
0.0
230
1.0
 70
     8
 71
     3
 72
     9
 73
     5
 74
     0
 42
0.000000001
 43
0.0000000001
 40
0.0
 40
0.0
 40
0.0
 40
0.0
 40
0.2746625861
 40
1.0
 40
1.0
 40
1.0
 40
1.0
 10
17.13479762094176
 20
10.72594956125901
 30
0.0
 10
17.1423590179302
 20
10.72116186810049
 30
0.0
 10
17.16965818224001
 20
10.70337984357652
 30
0.0
 10
17.19608796383841
 20
10.68418589021973
 30
0.0
 10
17.21423988442631
 20
10.66904979575789
 30
0.0
  0
SPLINE
  5
241
330
2
100
AcDbEntity
  8
0
  6
Continuous
 62
     7
100
AcDbSpline
210
0.0
220
0.0
230
1.0
 70
     8
 71
     3
 72
    10
 73
     6
 74
     0
 42
0.000000001
 43
0.0000000001
 40
0.0
 40
0.0
 40
0.0
 40
0.0
 40
0.187259113
 40
0.4196562416
 40
1.0
 40
1.0
 40
1.0
 40
1.0
 10
12.35007300712765
 20
11.58582381122202
 30
0.0
 10
12.55167023655394
 20
11.6423392132608
 30
0.0
 10
12.58828289825863
 20
11.64574668803217
 30
0.0
 10
12.67567066658098
 20
11.64513462599952
 30
0.0
 10
12.74637091705881
 20
11.63652831692338
 30
0.0
 10
12.79640330454354
 20
11.62846741335699
 30
0.0
  0
SPLINE
  5
242
330
2
100
AcDbEntity
  8
0
  6
Continuous
 62
     7
100
AcDbSpline
210
0.0
220
0.0
230
1.0
 70
     8
 71
     3
 72
    13
 73
     9
 74
     0
 42
0.000000001
 43
0.0000000001
 40
0.0
 40
0.0
 40
0.0
 40
0.0
 40
0.0994410363
 40
0.1944941265
 40
0.2940528388
 40
0.4040065966000002
 40
0.6704358616000002
 40
1.0
 40
1.0
 40
1.0
 40
1.0
 10
25.31005838341354
 20
3.953816414317943
 30
0.0
 10
25.30700716408072
 20
3.944590240233768
 30
0.0
 10
25.29632728823723
 20
3.927862458772113
 30
0.0
 10
25.27201068716517
 20
3.911643038535502
 30
0.0
 10
25.2435509432464
 20
3.902224910761895
 30
0.0
 10
25.19746604954876
 20
3.895077223079614
 30
0.0
 10
25.12811048423352
 20
3.896258885186753
 30
0.0
 10
25.07031751752756
 20
3.903857739315339
 30
0.0
 10
25.03857282135272
 20
3.909288153953768
 30
0.0
  0
SPLINE
  5
243
330
2
100
AcDbEntity
  8
0
  6
Continuous
 62
     7
100
AcDbSpline
210
0.0
220
0.0
230
1.0
 70
     8
 71
     3
 72
    10
 73
     6
 74
     0
 42
0.000000001
 43
0.0000000001
 40
0.0
 40
0.0
 40
0.0
 40
0.0
 40
0.5684063891
 40
0.8114221985
 40
1.0
 40
1.0
 40
1.0
 40
1.0
 10
16.28304615854994
 20
11.08281275683558
 30
0.0
 10
16.28036476874286
 20
11.07470676950611
 30
0.0
 10
16.27873217256605
 20
11.06212820752747
 30
0.0
 10
16.28176384120089
 20
11.04734579122022
 30
0.0
 10
16.28523993587723
 20
11.04151732559706
 30
0.0
 10
16.28741517568022
 20
11.03970294259892
 30
0.0
  0
SPLINE
  5
244
330
2
100
AcDbEntity
  8
0
  6
Continuous
 62
     7
100
AcDbSpline
210
0.0
220
0.0
230
1.0
 70
     8
 71
     3
 72
     9
 73
     5
 74
     0
 42
0.000000001
 43
0.0000000001
 40
0.0
 40
0.0
 40
0.0
 40
0.0
 40
0.5189659592
 40
1.0
 40
1.0
 40
1.0
 40
1.0
 10
17.28466201545999
 20
10.68648962124461
 30
0.0
 10
17.28197124211376
 20
10.6783545389928
 30
0.0
 10
17.27137334117356
 20
10.66408554675778
 30
0.0
 10
17.25374374544509
 20
10.659108911193
 30
0.0
 10
17.24591634131327
 20
10.66045468085734
 30
0.0
  0
SPLINE
  5
245
330
2
100
AcDbEntity
  8
0
  6
Continuous
 62
     7
100
AcDbSpline
210
0.0
220
0.0
230
1.0
 70
     8
 71
     3
 72
    14
 73
    10
 74
     0
 42
0.000000001
 43
0.0000000001
 40
0.0
 40
0.0
 40
0.0
 40
0.0
 40
0.0591180287
 40
0.1308478591
 40
0.2222194244
 40
0.3356860812
 40
0.4715587212
 40
0.6289123133
 40
1.0
 40
1.0
 40
1.0
 40
1.0
 10
12.34718032706667
 20
11.86134361971359
 30
0.0
 10
12.34881641647157
 20
11.86627886946804
 30
0.0
 10
12.35566733442438
 20
11.87618904832655
 30
0.0
 10
12.37272007166747
 20
11.88638685184265
 30
0.0
 10
12.39610773948488
 20
11.89353179267246
 30
0.0
 10
12.42585434494314
 20
11.89776738781085
 30
0.0
 10
12.46164524269803
 20
11.89905410128807
 30
0.0
 10
12.52006049957097
 20
11.89663772534963
 30
0.0
 10
12.56622908411461
 20
11.89043085862214
 30
0.0
 10
12.59839858472336
 20
11.8849277747045
 30
0.0
  0
SPLINE
  5
246
330
2
100
AcDbEntity
  8
0
  6
Continuous
 62
     7
100
AcDbSpline
210
0.0
220
0.0
230
1.0
 70
     8
 71
     3
 72
    11
 73
     7
 74
     0
 42
0.000000001
 43
0.0000000001
 40
0.0
 40
0.0
 40
0.0
 40
0.0
 40
0.3438985768
 40
0.6188997554000001
 40
0.8304056598
 40
1.0
 40
1.0
 40
1.0
 40
1.0
 10
25.31410540406277
 20
4.198676406811632
 30
0.0
 10
25.32298125717714
 20
4.191275220227013
 30
0.0
 10
25.33837794291943
 20
4.177196927824948
 30
0.0
 10
25.35600288460679
 20
4.155392623775759
 30
0.0
 10
25.36562031177148
 20
4.135140368784301
 30
0.0
 10
25.36556161896805
 20
4.121638898640601
 30
0.0
 10
25.36376823809884
 20
4.116229180512831
 30
0.0
  0
SPLINE
  5
247
330
2
100
AcDbEntity
  8
0
  6
Continuous
 62
     7
100
AcDbSpline
210
0.0
220
0.0
230
1.0
 70
     8
 71
     3
 72
     9
 73
     5
 74
     0
 42
0.000000001
 43
0.0000000001
 40
0.0
 40
0.0
 40
0.0
 40
0.0
 40
0.2200930362
 40
1.0
 40
1.0
 40
1.0
 40
1.0
 10
18.37274020663507
 20
9.986016247871033
 30
0.0
 10
18.3731987525558
 20
9.98563388643573
 30
0.0
 10
18.37550373875755
 20
9.984164240827011
 30
0.0
 10
18.37821654304578
 20
9.983513173786688
 30
0.0
 10
18.38030610285216
 20
9.983181913710879
 30
0.0
  0
SPLINE
  5
248
330
2
100
AcDbEntity
  8
0
  6
Continuous
 62
     7
100
AcDbSpline
210
0.0
220
0.0
230
1.0
 70
     8
 71
     3
 72
    12
 73
     8
 74
     0
 42
0.000000001
 43
0.0000000001
 40
0.0
 40
0.0
 40
0.0
 40
0.0
 40
0.2641059314
 40
0.5447088322
 40
0.8017817448
 40
0.9101096422999999
 40
1.0
 40
1.0
 40
1.0
 40
1.0
 10
16.5856609224777
 20
11.20284571404775
 30
0.0
 10
16.6444926951574
 20
11.19278164167554
 30
0.0
 10
16.76448974037174
 20
11.16398997778291
 30
0.0
 10
16.93621314765597
 20
11.10564798278987
 30
0.0
 10
17.06984162664547
 20
11.04588968767702
 30
0.0
 10
17.15894504292555
 20
10.99429498235176
 30
0.0
 10
17.19561055759921
 20
10.96833498390243
 30
0.0
 10
17.2112127184531
 20
10.9553250228178
 30
0.0
  0
SPLINE
  5
249
330
2
100
AcDbEntity
  8
0
  6
Continuous
 62
     7
100
AcDbSpline
210
0.0
220
0.0
230
1.0
 70
     8
 71
     3
 72
    12
 73
     8
 74
     0
 42
0.000000001
 43
0.0000000001
 40
0.0
 40
0.0
 40
0.0
 40
0.0
 40
0.2615646797
 40
0.537930714
 40
0.793902206
 40
0.9045936706
 40
1.0
 40
1.0
 40
1.0
 40
1.0
 10
26.99630244362678
 20
3.574588124382643
 30
0.0
 10
26.6868325841609
 20
3.627644379534686
 30
0.0
 10
26.576723359768
 20
3.654247391139743
 30
0.0
 10
26.4185811883652
 20
3.707789234422186
 30
0.0
 10
26.29473748214617
 20
3.762586316322234
 30
0.0
 10
26.21014662010219
 20
3.810357581424728
 30
0.0
 10
26.17427559270884
 20
3.834787056672089
 30
0.0
 10
26.15849455633874
 20
3.847148178415936
 30
0.0
  0
SPLINE
  5
24A
330
2
100
AcDbEntity
  8
0
  6
Continuous
 62
     7
100
AcDbSpline
210
0.0
220
0.0
230
1.0
 70
     8
 71
     3
 72
    12
 73
     8
 74
     0
 42
0.000000001
 43
0.0000000001
 40
0.0
 40
0.0
 40
0.0
 40
0.0
 40
0.2615646797
 40
0.537930714
 40
0.793902206
 40
0.9045936706
 40
1.0
 40
1.0
 40
1.0
 40
1.0
 10
32.43704196948659
 20
2.643684970728691
 30
0.0
 10
32.38292163810037
 20
2.653241435740655
 30
0.0
 10
32.27281241369907
 20
2.679844447345502
 30
0.0
 10
32.11467024230451
 20
2.73338629063654
 30
0.0
 10
31.99082653607739
 20
2.788183372527995
 30
0.0
 10
31.90623567403341
 20
2.835954637630506
 30
0.0
 10
31.87036464664846
 20
2.860384112878078
 30
0.0
 10
31.85458361026995
 20
2.872745234621715
 30
0.0
  0
SPLINE
  5
24B
330
2
100
AcDbEntity
  8
0
  6
Continuous
 62
     7
100
AcDbSpline
210
0.0
220
0.0
230
1.0
 70
     8
 71
     3
 72
    10
 73
     6
 74
     0
 42
0.000000001
 43
0.0000000001
 40
0.0
 40
0.0
 40
0.0
 40
0.0
 40
0.2039632048
 40
0.4508422100000001
 40
1.0
 40
1.0
 40
1.0
 40
1.0
 10
31.72714012847094
 20
12.96494948232945
 30
0.0
 10
31.73310763851274
 20
12.95629336163355
 30
0.0
 10
31.74197414671852
 20
12.93424252975608
 30
0.0
 10
31.74874190878653
 20
12.8829532122819
 30
0.0
 10
31.74256731372074
 20
12.84115524358321
 30
0.0
 10
31.7336790367819
 20
12.81427917155842
 30
0.0
  0
SPLINE
  5
24C
330
2
100
AcDbEntity
  8
0
  6
Continuous
 62
     7
100
AcDbSpline
210
0.0
220
0.0
230
1.0
 70
     8
 71
     3
 72
     9
 73
     5
 74
     0
 42
0.000000001
 43
0.0000000001
 40
0.0
 40
0.0
 40
0.0
 40
0.0
 40
0.5724776767000001
 40
1.0
 40
1.0
 40
1.0
 40
1.0
 10
31.65295858133545
 20
12.5701993810219
 30
0.0
 10
31.65094801737876
 20
12.5641199055593
 30
0.0
 10
31.64943950843822
 20
12.55308490463165
 30
0.0
 10
31.65256266467566
 20
12.54092950750488
 30
0.0
 10
31.65623531378713
 20
12.53786704568343
 30
0.0
  0
SPLINE
  5
24D
330
2
100
AcDbEntity
  8
0
  6
Continuous
 62
     7
100
AcDbSpline
210
0.0
220
0.0
230
1.0
 70
     8
 71
     3
 72
    11
 73
     7
 74
     0
 42
0.000000001
 43
0.0000000001
 40
0.0
 40
0.0
 40
0.0
 40
0.0
 40
0.2142437481
 40
0.4460515566
 40
0.7063360437
 40
1.0
 40
1.0
 40
1.0
 40
1.0
 10
37.63625163153486
 20
8.188345532812411
 30
0.0
 10
37.64587837086367
 20
8.186366286910411
 30
0.0
 10
37.66531583110815
 20
8.178710932634581
 30
0.0
 10
37.69073930779405
 20
8.157990785232701
 30
0.0
 10
37.71245489858686
 20
8.128874511287763
 30
0.0
 10
37.72357873307939
 20
8.105873946374629
 30
0.0
 10
37.72856470006764
 20
8.093359229513097
 30
0.0
  0
LINE
  5
24E
330
2
100
AcDbEntity
  8
0
  6
Continuous
 62
     7
100
AcDbLine
 10
37.72856470006764
 20
8.093359229513097
 30
0.0
 11
37.87182016302268
 21
7.71979414625658
 31
0.0
  0
LINE
  5
24F
330
2
100
AcDbEntity
  8
0
  6
Continuous
 62
     7
100
AcDbLine
 10
37.87058142075622
 20
7.723151353066652
 30
0.0
 11
37.87305890528914
 21
7.716436939446507
 31
0.0
  0
SPLINE
  5
250
330
2
100
AcDbEntity
  8
0
  6
Continuous
 62
     7
100
AcDbSpline
210
0.0
220
0.0
230
1.0
 70
     8
 71
     3
 72
     9
 73
     5
 74
     0
 42
0.000000001
 43
0.0000000001
 40
0.0
 40
0.0
 40
0.0
 40
0.0
 40
0.480562763
 40
1.0
 40
1.0
 40
1.0
 40
1.0
 10
37.87305890528914
 20
7.716436939446507
 30
0.0
 10
38.12354290938057
 20
7.0371152714414
 30
0.0
 10
38.55023391088071
 20
5.587877407889983
 30
0.0
 10
38.818006309052
 20
4.10251400096131
 30
0.0
 10
38.92168122268485
 20
3.326811596469319
 30
0.0
  0
SPLINE
  5
251
330
2
100
AcDbEntity
  8
0
  6
Continuous
 62
     7
100
AcDbSpline
210
0.0
220
0.0
230
1.0
 70
     8
 71
     3
 72
     9
 73
     5
 74
     0
 42
0.000000001
 43
0.0000000001
 40
0.0
 40
0.0
 40
0.0
 40
0.0
 40
0.4863665768
 40
1.0
 40
1.0
 40
1.0
 40
1.0
 10
38.92168122268485
 20
3.326811596469319
 30
0.0
 10
38.9320408844102
 20
3.249299937885957
 30
0.0
 10
38.94128894227642
 20
3.088212509801511
 30
0.0
 10
38.93044930105521
 20
2.927374641646211
 30
0.0
 10
38.78638446407154
 20
2.328254446410547
 30
0.0
  0
SPLINE
  5
252
330
2
100
AcDbEntity
  8
0
  6
Continuous
 62
     7
100
AcDbSpline
210
0.0
220
0.0
230
1.0
 70
     8
 71
     3
 72
     9
 73
     5
 74
     0
 42
0.000000001
 43
0.0000000001
 40
0.0
 40
0.0
 40
0.0
 40
0.0
 40
0.2634161130999999
 40
1.0
 40
1.0
 40
1.0
 40
1.0
 10
38.78431986946814
 20
2.323241188532978
 30
0.0
 10
38.77359189509096
 20
2.297304641744045
 30
0.0
 10
38.73052261129176
 20
2.199860650374463
 30
0.0
 10
38.67784169524682
 20
2.106415005316338
 30
0.0
 10
38.63259697118951
 20
2.042283916566831
 30
0.0
  0
SPLINE
  5
253
330
2
100
AcDbEntity
  8
0
  6
Continuous
 62
     7
100
AcDbSpline
210
0.0
220
0.0
230
1.0
 70
     8
 71
     3
 72
    11
 73
     7
 74
     0
 42
0.000000001
 43
0.0000000001
 40
0.0
 40
0.0
 40
0.0
 40
0.0
 40
0.3027587361
 40
0.5661945331
 40
0.7939713136
 40
1.0
 40
1.0
 40
1.0
 40
1.0
 10
38.08000997797937
 20
1.259032250348834
 30
0.0
 10
38.06744886584129
 20
1.241227792164981
 30
0.0
 10
38.04142860857449
 20
1.209555464539194
 30
0.0
 10
37.99667273478037
 20
1.173227528039225
 30
0.0
 10
37.94990084200274
 20
1.152908518272143
 30
0.0
 10
37.91775150245219
 20
1.15159062690158
 30
0.0
 10
37.90313688925812
 20
1.154096093639823
 30
0.0
  0
SPLINE
  5
254
330
2
100
AcDbEntity
  8
0
  6
Continuous
 62
     7
100
AcDbSpline
210
0.0
220
0.0
230
1.0
 70
     8
 71
     3
 72
     9
 73
     5
 74
     0
 42
0.000000001
 43
0.0000000001
 40
0.0
 40
0.0
 40
0.0
 40
0.0
 40
0.4586933559000001
 40
1.0
 40
1.0
 40
1.0
 40
1.0
 10
31.44984740870052
 20
13.34513669542862
 30
0.0
 10
31.46594022845056
 20
13.34236048809936
 30
0.0
 10
31.49941482907739
 20
13.32554829651165
 30
0.0
 10
31.52121317975013
 20
13.2962585856205
 30
0.0
 10
31.53071072825207
 20
13.27948965808529
 30
0.0
  0
SPLINE
  5
255
330
2
100
AcDbEntity
  8
0
  6
Continuous
 62
     7
100
AcDbSpline
210
0.0
220
0.0
230
1.0
 70
     8
 71
     3
 72
    13
 73
     9
 74
     0
 42
0.000000001
 43
0.0000000001
 40
0.0
 40
0.0
 40
0.0
 40
0.0
 40
0.1633662089
 40
0.3187514395
 40
0.5302666456000002
 40
0.712136508
 40
0.8655052182999998
 40
1.0
 40
1.0
 40
1.0
 40
1.0
 10
37.27983955757205
 20
8.189577936963445
 30
0.0
 10
37.28184043124835
 20
8.195628111295722
 30
0.0
 10
37.28625496531929
 20
8.207273993209803
 30
0.0
 10
37.29535605671264
 20
8.225876076809958
 30
0.0
 10
37.30723695312125
 20
8.243823107882718
 30
0.0
 10
37.32248352192416
 20
8.259003649994108
 30
0.0
 10
37.33884612717158
 20
8.268003774093516
 30
0.0
 10
37.35048789741312
 20
8.268993559933537
 30
0.0
 10
37.35566472524956
 20
8.268142874055897
 30
0.0
  0
SPLINE
  5
256
330
2
100
AcDbEntity
  8
0
  6
Continuous
 62
     7
100
AcDbSpline
210
0.0
220
0.0
230
1.0
 70
     8
 71
     3
 72
     9
 73
     5
 74
     0
 42
0.000000001
 43
0.0000000001
 40
0.0
 40
0.0
 40
0.0
 40
0.0
 40
0.2555599759
 40
1.0
 40
1.0
 40
1.0
 40
1.0
 10
27.96960177065207
 20
11.81136767244713
 30
0.0
 10
27.97443225097655
 20
11.82115974799602
 30
0.0
 10
27.99373341021672
 20
11.85927663061117
 30
0.0
 10
28.01465280066349
 20
11.89658072068687
 30
0.0
 10
28.03120438093224
 20
11.92374067930432
 30
0.0
  0
SPLINE
  5
257
330
2
100
AcDbEntity
  8
0
  6
Continuous
 62
     7
100
AcDbSpline
210
0.0
220
0.0
230
1.0
 70
     8
 71
     3
 72
     9
 73
     5
 74
     0
 42
0.000000001
 43
0.0000000001
 40
0.0
 40
0.0
 40
0.0
 40
0.0
 40
0.2601874174
 40
1.0
 40
1.0
 40
1.0
 40
1.0
 10
28.04549310087995
 20
11.94664456038435
 30
0.0
 10
28.05304020915836
 20
11.95846045378726
 30
0.0
 10
28.08280753063552
 20
12.00337689072722
 30
0.0
 10
28.11570043326826
 20
12.04626870887214
 30
0.0
 10
28.14197972299652
 20
12.07624649384876
 30
0.0
  0
SPLINE
  5
258
330
2
100
AcDbEntity
  8
0
  6
Continuous
 62
     7
100
AcDbSpline
210
0.0
220
0.0
230
1.0
 70
     8
 71
     3
 72
     9
 73
     5
 74
     0
 42
0.000000001
 43
0.0000000001
 40
0.0
 40
0.0
 40
0.0
 40
0.0
 40
0.2648484208
 40
1.0
 40
1.0
 40
1.0
 40
1.0
 10
28.1583433728795
 20
12.09440026183057
 30
0.0
 10
28.16804997191099
 20
12.10486764316113
 30
0.0
 10
28.2056809722646
 20
12.1434433924591
 30
0.0
 10
28.24745851906904
 20
12.17816428987282
 30
0.0
 10
28.28051130097773
 20
12.20001883414944
 30
0.0
  0
SPLINE
  5
259
330
2
100
AcDbEntity
  8
0
  6
Continuous
 62
     7
100
AcDbSpline
210
0.0
220
0.0
230
1.0
 70
     8
 71
     3
 72
     9
 73
     5
 74
     0
 42
0.000000001
 43
0.0000000001
 40
0.0
 40
0.0
 40
0.0
 40
0.0
 40
0.2566712645
 40
1.0
 40
1.0
 40
1.0
 40
1.0
 10
28.28051130097773
 20
12.20001883414944
 30
0.0
 10
28.35898028466146
 20
12.25190263269731
 30
0.0
 10
28.66783408797211
 20
12.44922913472445
 30
0.0
 10
28.98950948267368
 20
12.6267335869211
 30
0.0
 10
29.23501850119366
 20
12.74482086020891
 30
0.0
  0
SPLINE
  5
25A
330
2
100
AcDbEntity
  8
0
  6
Continuous
 62
     7
100
AcDbSpline
210
0.0
220
0.0
230
1.0
 70
     8
 71
     3
 72
     9
 73
     5
 74
     0
 42
0.000000001
 43
0.0000000001
 40
0.0
 40
0.0
 40
0.0
 40
0.0
 40
0.5148681202000001
 40
1.0
 40
1.0
 40
1.0
 40
1.0
 10
29.32242869554353
 20
12.78614920082375
 30
0.0
 10
29.66318252532745
 20
12.94447390995321
 30
0.0
 10
30.35083969276836
 20
13.20069833297236
 30
0.0
 10
31.07572121070288
 20
13.32399799941107
 30
0.0
 10
31.42906006217741
 20
13.34624124887838
 30
0.0
  0
SPLINE
  5
25B
330
2
100
AcDbEntity
  8
0
  6
Continuous
 62
     7
100
AcDbSpline
210
0.0
220
0.0
230
1.0
 70
     8
 71
     3
 72
    10
 73
     6
 74
     0
 42
0.000000001
 43
0.0000000001
 40
0.0
 40
0.0
 40
0.0
 40
0.0
 40
0.1829642832
 40
0.5367392772999999
 40
1.0
 40
1.0
 40
1.0
 40
1.0
 10
37.18403623272833
 20
7.929784346288318
 30
0.0
 10
37.18543430911718
 20
7.929569782306137
 30
0.0
 10
37.18976888245717
 20
7.930409015320139
 30
0.0
 10
37.19532872864434
 20
7.936339985848219
 30
0.0
 10
37.19799460434782
 20
7.942097927948178
 30
0.0
 10
37.19911910212605
 20
7.945498146418509
 30
0.0
  0
SPLINE
  5
25C
330
2
100
AcDbEntity
  8
0
  6
Continuous
 62
     7
100
AcDbSpline
210
0.0
220
0.0
230
1.0
 70
     8
 71
     3
 72
    10
 73
     6
 74
     0
 42
0.000000001
 43
0.0000000001
 40
0.0
 40
0.0
 40
0.0
 40
0.0
 40
0.4343769469
 40
0.7025863834
 40
1.0
 40
1.0
 40
1.0
 40
1.0
 10
27.77880343536948
 20
9.576051175408061
 30
0.0
 10
27.74986080395312
 20
9.600185172752107
 30
0.0
 10
27.71776031535791
 20
9.655908746884788
 30
0.0
 10
27.69422853262469
 20
9.739119929607275
 30
0.0
 10
27.687652733195
 20
9.788040110594984
 30
0.0
 10
27.6857344659005
 20
9.813770949112232
 30
0.0
  0
SPLINE
  5
25D
330
2
100
AcDbEntity
  8
0
  6
Continuous
 62
     7
100
AcDbSpline
210
0.0
220
0.0
230
1.0
 70
     8
 71
     3
 72
     9
 73
     5
 74
     0
 42
0.000000001
 43
0.0000000001
 40
0.0
 40
0.0
 40
0.0
 40
0.0
 40
0.243847138
 40
1.0
 40
1.0
 40
1.0
 40
1.0
 10
27.6857344659005
 20
9.813770949112232
 30
0.0
 10
27.68505636174229
 20
9.822866755789293
 30
0.0
 10
27.68306354338355
 20
9.860224208925359
 30
0.0
 10
27.68403380016031
 20
9.897726354365527
 30
0.0
 10
27.68626590381705
 20
9.925921870939923
 30
0.0
  0
SPLINE
  5
25E
330
2
100
AcDbEntity
  8
0
  6
Continuous
 62
     7
100
AcDbSpline
210
0.0
220
0.0
230
1.0
 70
     8
 71
     3
 72
     9
 73
     5
 74
     0
 42
0.000000001
 43
0.0000000001
 40
0.0
 40
0.0
 40
0.0
 40
0.0
 40
0.2814991619
 40
1.0
 40
1.0
 40
1.0
 40
1.0
 10
5.06422292877132
 20
13.48953170190919
 30
0.0
 10
5.065960641536556
 20
13.49084468045093
 30
0.0
 10
5.072393716044811
 20
13.49508849368165
 30
0.0
 10
5.080640369312662
 20
13.49706127309389
 30
0.0
 10
5.086119147502285
 20
13.49611985368047
 30
0.0
  0
SPLINE
  5
25F
330
2
100
AcDbEntity
  8
0
  6
Continuous
 62
     7
100
AcDbSpline
210
0.0
220
0.0
230
1.0
 70
     8
 71
     3
 72
    11
 73
     7
 74
     0
 42
0.000000001
 43
0.0000000001
 40
0.0
 40
0.0
 40
0.0
 40
0.0
 40
0.2060298398
 40
0.4338119979
 40
0.6972455425000002
 40
1.0
 40
1.0
 40
1.0
 40
1.0
 10
14.97636874376009
 20
5.076067630450205
 30
0.0
 10
14.99098402687377
 20
5.073560647143773
 30
0.0
 10
15.02313600908511
 20
5.074874855382255
 30
0.0
 10
15.06991149514427
 20
5.095194636190053
 30
0.0
 10
15.11467025179707
 20
5.131523981478316
 30
0.0
 10
15.14069089955484
 20
5.163198431585961
 30
0.0
 10
15.15325252850758
 20
5.181003647409066
 30
0.0
  0
SPLINE
  5
260
330
2
100
AcDbEntity
  8
0
  6
Continuous
 62
     7
100
AcDbSpline
210
0.0
220
0.0
230
1.0
 70
     8
 71
     3
 72
     8
 73
     4
 74
     0
 42
0.000000001
 43
0.0000000001
 40
0.0
 40
0.0
 40
0.0
 40
0.0
 40
1.0
 40
1.0
 40
1.0
 40
1.0
 10
4.954537152139506
 20
13.41661164084722
 30
0.0
 10
4.957917547112892
 20
13.4160307869931
 30
0.0
 10
4.961504641672981
 20
13.41629436916475
 30
0.0
 10
4.964809399932682
 20
13.4172125380896
 30
0.0
  0
SPLINE
  5
261
330
2
100
AcDbEntity
  8
0
  6
Continuous
 62
     7
100
AcDbSpline
210
0.0
220
0.0
230
1.0
 70
     8
 71
     3
 72
     9
 73
     5
 74
     0
 42
0.000000001
 43
0.0000000001
 40
0.0
 40
0.0
 40
0.0
 40
0.0
 40
0.2344602208
 40
1.0
 40
1.0
 40
1.0
 40
1.0
 10
4.964809399932682
 20
13.4172125380896
 30
0.0
 10
4.965797381106145
 20
13.41748703126392
 30
0.0
 10
4.969944603615906
 20
13.41889788929787
 30
0.0
 10
4.973762090621356
 20
13.42118143048161
 30
0.0
 10
4.976433370878571
 20
13.42319979262711
 30
0.0
  0
SPLINE
  5
262
330
2
100
AcDbEntity
  8
0
  6
Continuous
 62
     7
100
AcDbSpline
210
0.0
220
0.0
230
1.0
 70
     8
 71
     3
 72
    10
 73
     6
 74
     0
 42
0.000000001
 43
0.0000000001
 40
0.0
 40
0.0
 40
0.0
 40
0.0
 40
0.4079527196
 40
0.6852157551000003
 40
1.0
 40
1.0
 40
1.0
 40
1.0
 10
5.406230272749468
 20
13.24826662199139
 30
0.0
 10
5.426053873415999
 20
13.24891959540982
 30
0.0
 10
5.456519712526795
 20
13.27187339903947
 30
0.0
 10
5.482420597681326
 20
13.31221108463781
 30
0.0
 10
5.493748603129534
 20
13.33906357127756
 30
0.0
 10
5.498554057739478
 20
13.35359414283905
 30
0.0
  0
SPLINE
  5
263
330
2
100
AcDbEntity
  8
0
  6
Continuous
 62
     7
100
AcDbSpline
210
0.0
220
0.0
230
1.0
 70
     8
 71
     3
 72
     9
 73
     5
 74
     0
 42
0.000000001
 43
0.0000000001
 40
0.0
 40
0.0
 40
0.0
 40
0.0
 40
0.5413083083
 40
1.0
 40
1.0
 40
1.0
 40
1.0
 10
8.603952286157991
 20
17.20146150685928
 30
0.0
 10
8.594454741231906
 20
17.21823042806763
 30
0.0
 10
8.572657157391686
 20
17.24752056341666
 30
0.0
 10
8.539182443272782
 20
17.26433262153494
 30
0.0
 10
8.523089709732943
 20
17.26710864848489
 30
0.0
  0
SPLINE
  5
264
330
2
100
AcDbEntity
  8
0
  6
Continuous
 62
     7
100
AcDbSpline
210
0.0
220
0.0
230
1.0
 70
     8
 71
     3
 72
     9
 73
     5
 74
     0
 42
0.000000001
 43
0.0000000001
 40
0.0
 40
0.0
 40
0.0
 40
0.0
 40
0.4371318631000002
 40
1.0
 40
1.0
 40
1.0
 40
1.0
 10
14.77615756281597
 20
5.420072029032247
 30
0.0
 10
14.78159997271185
 20
5.415533840920931
 30
0.0
 10
14.79032666977114
 20
5.400991141840265
 30
0.0
 10
14.79355524972847
 20
5.384976922989633
 30
0.0
 10
14.79447526666436
 20
5.375898886689268
 30
0.0
  0
SPLINE
  5
265
330
2
100
AcDbEntity
  8
0
  6
Continuous
 62
     7
100
AcDbSpline
210
0.0
220
0.0
230
1.0
 70
     8
 71
     3
 72
     9
 73
     5
 74
     0
 42
0.000000001
 43
0.0000000001
 40
0.0
 40
0.0
 40
0.0
 40
0.0
 40
0.5628681368999999
 40
1.0
 40
1.0
 40
1.0
 40
1.0
 10
14.80992193157067
 20
5.22348279624104
 30
0.0
 10
14.81084194851511
 20
5.214404759940888
 30
0.0
 10
14.81407052846419
 20
5.198390541090026
 30
0.0
 10
14.82279722553158
 20
5.183847842009551
 30
0.0
 10
14.82823963541906
 20
5.179309653898025
 30
0.0
  0
SPLINE
  5
266
330
2
100
AcDbEntity
  8
0
  6
Continuous
 62
     7
100
AcDbSpline
210
0.0
220
0.0
230
1.0
 70
     8
 71
     3
 72
    11
 73
     7
 74
     0
 42
0.000000001
 43
0.0000000001
 40
0.0
 40
0.0
 40
0.0
 40
0.0
 40
0.2891583154
 40
0.5696139434000001
 40
0.8118608421999999
 40
1.0
 40
1.0
 40
1.0
 40
1.0
 10
14.47743514179118
 20
5.866497027815348
 30
0.0
 10
14.47059566586045
 20
5.845816051175142
 30
0.0
 10
14.46140649118158
 20
5.803567842509968
 30
0.0
 10
14.46020017462274
 20
5.74196050239695
 30
0.0
 10
14.4709594095591
 20
5.689121198553983
 30
0.0
 10
14.48839504467595
 20
5.660024635515268
 30
0.0
 10
14.4992800248051
 20
5.650948125584061
 30
0.0
  0
SPLINE
  5
267
330
2
100
AcDbEntity
  8
0
  6
Continuous
 62
     7
100
AcDbSpline
210
0.0
220
0.0
230
1.0
 70
     8
 71
     3
 72
    11
 73
     7
 74
     0
 42
0.000000001
 43
0.0000000001
 40
0.0
 40
0.0
 40
0.0
 40
0.0
 40
0.29952972
 40
0.5722448418
 40
0.8067385574999999
 40
1.0
 40
1.0
 40
1.0
 40
1.0
 10
4.759506664044493
 20
13.84789476085851
 30
0.0
 10
4.75656793875192
 20
13.81077354167704
 30
0.0
 10
4.755844692016951
 20
13.73933458626822
 30
0.0
 10
4.77093546562169
 20
13.63963541893743
 30
0.0
 10
4.800990437243251
 20
13.55721820096253
 30
0.0
 10
4.833591515301661
 20
13.51341057418826
 30
0.0
 10
4.852044167677741
 20
13.49802371261507
 30
0.0
  0
SPLINE
  5
268
330
2
100
AcDbEntity
  8
0
  6
Continuous
 62
     7
100
AcDbSpline
210
0.0
220
0.0
230
1.0
 70
     8
 71
     3
 72
    12
 73
     8
 74
     0
 42
0.000000001
 43
0.0000000001
 40
0.0
 40
0.0
 40
0.0
 40
0.0
 40
0.2006022878
 40
0.31763597
 40
0.4441470421
 40
0.7170608484000001
 40
1.0
 40
1.0
 40
1.0
 40
1.0
 10
5.35375245760045
 20
16.12199041758244
 30
0.0
 10
5.2841002791711
 20
16.07593629728626
 30
0.0
 10
5.190175044430398
 20
15.97839041902819
 30
0.0
 10
5.088334416745412
 20
15.82417767442445
 30
0.0
 10
4.990260375550403
 20
15.63230354379504
 30
0.0
 10
4.898915140631718
 20
15.36176298215063
 30
0.0
 10
4.861187007144952
 20
15.13229460343668
 30
0.0
 10
4.851892450867686
 20
15.01488816824606
 30
0.0
  0
SPLINE
  5
269
330
2
100
AcDbEntity
  8
0
  6
Continuous
 62
     7
100
AcDbSpline
210
0.0
220
0.0
230
1.0
 70
     8
 71
     3
 72
    11
 73
     7
 74
     0
 42
0.000000001
 43
0.0000000001
 40
0.0
 40
0.0
 40
0.0
 40
0.0
 40
0.232736595
 40
0.4751316297
 40
0.7301415631000002
 40
1.0
 40
1.0
 40
1.0
 40
1.0
 10
8.502301620083491
 20
17.26821309764399
 30
0.0
 10
8.240086326067656
 20
17.2517062227963
 30
0.0
 10
7.706695129858744
 20
17.17593711897203
 30
0.0
 10
6.913402573656428
 20
16.94323138576705
 30
0.0
 10
6.119212032139855
 20
16.59211787662919
 30
0.0
 10
5.607868150269235
 20
16.29001207811137
 30
0.0
 10
5.35375245760045
 20
16.12199041758244
 30
0.0
  0
SPLINE
  5
26A
330
2
100
AcDbEntity
  8
0
  6
Continuous
 62
     7
100
AcDbSpline
210
0.0
220
0.0
230
1.0
 70
     8
 71
     3
 72
     9
 73
     5
 74
     0
 42
0.000000001
 43
0.0000000001
 40
0.0
 40
0.0
 40
0.0
 40
0.0
 40
0.2814991619
 40
1.0
 40
1.0
 40
1.0
 40
1.0
 10
10.76031198270269
 20
12.51512875811495
 30
0.0
 10
10.76204969547633
 20
12.51644173665691
 30
0.0
 10
10.76848276998443
 20
12.52068554988766
 30
0.0
 10
10.77672942324403
 20
12.52265832929964
 30
0.0
 10
10.7822082014419
 20
12.52171690989483
 30
0.0
  0
SPLINE
  5
26B
330
2
100
AcDbEntity
  8
0
  6
Continuous
 62
     7
100
AcDbSpline
210
0.0
220
0.0
230
1.0
 70
     8
 71
     3
 72
     9
 73
     5
 74
     0
 42
0.000000001
 43
0.0000000001
 40
0.0
 40
0.0
 40
0.0
 40
0.0
 40
0.5628681368999999
 40
1.0
 40
1.0
 40
1.0
 40
1.0
 10
15.50648639840926
 20
5.254098518709803
 30
0.0
 10
15.50556638147291
 20
5.26317655501861
 30
0.0
 10
15.50233780151543
 20
5.279190773869221
 30
0.0
 10
15.49361110444804
 20
5.293733472949678
 30
0.0
 10
15.48816869456071
 20
5.298271661061205
 30
0.0
  0
SPLINE
  5
26C
330
2
100
AcDbEntity
  8
0
  6
Continuous
 62
     7
100
AcDbSpline
210
0.0
220
0.0
230
1.0
 70
     8
 71
     3
 72
    11
 73
     7
 74
     0
 42
0.000000001
 43
0.0000000001
 40
0.0
 40
0.0
 40
0.0
 40
0.0
 40
0.2060298398
 40
0.4338119979
 40
0.6972455425000002
 40
1.0
 40
1.0
 40
1.0
 40
1.0
 10
20.6724577976994
 20
4.101664686664578
 30
0.0
 10
20.68707308080515
 20
4.099157703349533
 30
0.0
 10
20.71922506301648
 20
4.100471911588031
 30
0.0
 10
20.76600054907534
 20
4.120791692395814
 30
0.0
 10
20.81075930572844
 20
4.157121037684076
 30
0.0
 10
20.83677995348621
 20
4.188795487791719
 30
0.0
 10
20.84934158244735
 20
4.206600703615035
 30
0.0
  0
SPLINE
  5
26D
330
2
100
AcDbEntity
  8
0
  6
Continuous
 62
     7
100
AcDbSpline
210
0.0
220
0.0
230
1.0
 70
     8
 71
     3
 72
     8
 73
     4
 74
     0
 42
0.000000001
 43
0.0000000001
 40
0.0
 40
0.0
 40
0.0
 40
0.0
 40
1.0
 40
1.0
 40
1.0
 40
1.0
 10
10.65062620607913
 20
12.44220869705318
 30
0.0
 10
10.65400660105251
 20
12.44162784319909
 30
0.0
 10
10.65759369560405
 20
12.44189142537051
 30
0.0
 10
10.66089845387245
 20
12.44280959429557
 30
0.0
  0
SPLINE
  5
26E
330
2
100
AcDbEntity
  8
0
  6
Continuous
 62
     7
100
AcDbSpline
210
0.0
220
0.0
230
1.0
 70
     8
 71
     3
 72
     9
 73
     5
 74
     0
 42
0.000000001
 43
0.0000000001
 40
0.0
 40
0.0
 40
0.0
 40
0.0
 40
0.2344602208
 40
1.0
 40
1.0
 40
1.0
 40
1.0
 10
10.66089845387245
 20
12.44280959429557
 30
0.0
 10
10.66188643503735
 20
12.44308408747808
 30
0.0
 10
10.66603365755552
 20
12.44449494550384
 30
0.0
 10
10.66985114455227
 20
12.44677848669577
 30
0.0
 10
10.67252242481819
 20
12.4487968488331
 30
0.0
  0
SPLINE
  5
26F
330
2
100
AcDbEntity
  8
0
  6
Continuous
 62
     7
100
AcDbSpline
210
0.0
220
0.0
230
1.0
 70
     8
 71
     3
 72
    10
 73
     6
 74
     0
 42
0.000000001
 43
0.0000000001
 40
0.0
 40
0.0
 40
0.0
 40
0.0
 40
0.4079527196
 40
0.6852157551000003
 40
1.0
 40
1.0
 40
1.0
 40
1.0
 10
11.10231932668924
 20
12.27386367819736
 30
0.0
 10
11.12214292734722
 20
12.27451665161557
 30
0.0
 10
11.15260876645801
 20
12.29747045524523
 30
0.0
 10
11.17850965161254
 20
12.33780814084357
 30
0.0
 10
11.1898376570609
 20
12.36466062748332
 30
0.0
 10
11.19464311167069
 20
12.37919119904481
 30
0.0
  0
SPLINE
  5
270
330
2
100
AcDbEntity
  8
0
  6
Continuous
 62
     7
100
AcDbSpline
210
0.0
220
0.0
230
1.0
 70
     8
 71
     3
 72
    12
 73
     8
 74
     0
 42
0.000000001
 43
0.0000000001
 40
0.0
 40
0.0
 40
0.0
 40
0.0
 40
0.2829391516
 40
0.5558529579
 40
0.68236403
 40
0.7993977122000002
 40
1.0
 40
1.0
 40
1.0
 40
1.0
 10
5.563903582612125
 20
14.89308780027502
 30
0.0
 10
5.573198138880988
 20
15.01049423546541
 30
0.0
 10
5.6109262723676
 20
15.23996261417936
 30
0.0
 10
5.702271507295146
 20
15.51050317582399
 30
0.0
 10
5.800345548489851
 20
15.70237730645341
 30
0.0
 10
5.902186176174683
 20
15.85659005105713
 30
0.0
 10
5.996111410915691
 20
15.95413592930682
 30
0.0
 10
6.065763589345042
 20
16.00019004960299
 30
0.0
  0
SPLINE
  5
271
330
2
100
AcDbEntity
  8
0
  6
Continuous
 62
     7
100
AcDbSpline
210
0.0
220
0.0
230
1.0
 70
     8
 71
     3
 72
    11
 73
     7
 74
     0
 42
0.000000001
 43
0.0000000001
 40
0.0
 40
0.0
 40
0.0
 40
0.0
 40
0.1932614425
 40
0.4277551582
 40
0.7004702800000002
 40
1.0
 40
1.0
 40
1.0
 40
1.0
 10
5.564055299422485
 20
13.37622334463562
 30
0.0
 10
5.545602647037847
 20
13.39161020621699
 30
0.0
 10
5.513001568988148
 20
13.43541783298308
 30
0.0
 10
5.482946597366281
 20
13.517835050958
 30
0.0
 10
5.467855823761391
 20
13.61753421829717
 30
0.0
 10
5.468579070496816
 20
13.68897317369761
 30
0.0
 10
5.471517795788932
 20
13.72609439288747
 30
0.0
  0
SPLINE
  5
272
330
2
100
AcDbEntity
  8
0
  6
Continuous
 62
     7
100
AcDbSpline
210
0.0
220
0.0
230
1.0
 70
     8
 71
     3
 72
     9
 73
     5
 74
     0
 42
0.000000001
 43
0.0000000001
 40
0.0
 40
0.0
 40
0.0
 40
0.0
 40
0.4404679908000002
 40
1.0
 40
1.0
 40
1.0
 40
1.0
 10
15.21129115654113
 20
5.529147757612808
 30
0.0
 10
15.2013734520767
 20
5.537417698577408
 30
0.0
 10
15.18499387299593
 20
5.563160181730268
 30
0.0
 10
15.17808208225915
 20
5.591899339691845
 30
0.0
 10
15.17578765939834
 20
5.608141986695216
 30
0.0
  0
SPLINE
  5
273
330
2
100
AcDbEntity
  8
0
  6
Continuous
 62
     7
100
AcDbSpline
210
0.0
220
0.0
230
1.0
 70
     8
 71
     3
 72
     9
 73
     5
 74
     0
 42
0.000000001
 43
0.0000000001
 40
0.0
 40
0.0
 40
0.0
 40
0.0
 40
0.4371318631000002
 40
1.0
 40
1.0
 40
1.0
 40
1.0
 10
15.5402507671638
 20
5.057509285918578
 30
0.0
 10
15.53480835726807
 20
5.062047474029894
 30
0.0
 10
15.52608166020878
 20
5.07659017311056
 30
0.0
 10
15.5228530802513
 20
5.092604391969596
 30
0.0
 10
15.52193306331526
 20
5.101682428270016
 30
0.0
  0
SPLINE
  5
274
330
2
100
AcDbEntity
  8
0
  6
Continuous
 62
     7
100
AcDbSpline
210
0.0
220
0.0
230
1.0
 70
     8
 71
     3
 72
     9
 73
     5
 74
     0
 42
0.000000001
 43
0.0000000001
 40
0.0
 40
0.0
 40
0.0
 40
0.0
 40
0.5413083083
 40
1.0
 40
1.0
 40
1.0
 40
1.0
 10
14.30004134008921
 20
16.22705856306504
 30
0.0
 10
14.29054379517168
 20
16.24382748427362
 30
0.0
 10
14.26874621132306
 20
16.27311761962242
 30
0.0
 10
14.23527149720415
 20
16.2899296777407
 30
0.0
 10
14.21917876367241
 20
16.29270570469928
 30
0.0
  0
SPLINE
  5
275
330
2
100
AcDbEntity
  8
0
  6
Continuous
 62
     7
100
AcDbSpline
210
0.0
220
0.0
230
1.0
 70
     8
 71
     3
 72
     9
 73
     5
 74
     0
 42
0.000000001
 43
0.0000000001
 40
0.0
 40
0.0
 40
0.0
 40
0.0
 40
0.5192709989999999
 40
1.0
 40
1.0
 40
1.0
 40
1.0
 10
6.065763589345042
 20
16.00019004960299
 30
0.0
 10
6.42098740536483
 20
16.23506454634067
 30
0.0
 10
7.138425339503264
 20
16.64004388971363
 30
0.0
 10
7.917022693764694
 20
16.91499459688898
 30
0.0
 10
8.300342029951091
 20
17.0071605708848
 30
0.0
  0
SPLINE
  5
276
330
2
100
AcDbEntity
  8
0
  6
Continuous
 62
     7
100
AcDbSpline
210
0.0
220
0.0
230
1.0
 70
     8
 71
     3
 72
     9
 73
     5
 74
     0
 42
0.000000001
 43
0.0000000001
 40
0.0
 40
0.0
 40
0.0
 40
0.0
 40
0.2541665357
 40
1.0
 40
1.0
 40
1.0
 40
1.0
 10
8.300342029951091
 20
17.0071605708848
 30
0.0
 10
8.376551796050815
 20
17.02548458081342
 30
0.0
 10
8.677830387889967
 20
17.09141168093126
 30
0.0
 10
8.984761542555688
 20
17.13196211153472
 30
0.0
 10
9.214312751828234
 20
17.14641272966455
 30
0.0
  0
SPLINE
  5
277
330
2
100
AcDbEntity
  8
0
  6
Continuous
 62
     7
100
AcDbSpline
210
0.0
220
0.0
230
1.0
 70
     8
 71
     3
 72
     9
 73
     5
 74
     0
 42
0.000000001
 43
0.0000000001
 40
0.0
 40
0.0
 40
0.0
 40
0.0
 40
0.4371318631000002
 40
1.0
 40
1.0
 40
1.0
 40
1.0
 10
20.47224661675574
 20
4.445669085238256
 30
0.0
 10
20.47768902664322
 20
4.44113089712671
 30
0.0
 10
20.48641572370252
 20
4.426588198046022
 30
0.0
 10
20.48964430365969
 20
4.410573979195391
 30
0.0
 10
20.49056432060398
 20
4.401495942895238
 30
0.0
  0
SPLINE
  5
278
330
2
100
AcDbEntity
  8
0
  6
Continuous
 62
     7
100
AcDbSpline
210
0.0
220
0.0
230
1.0
 70
     8
 71
     3
 72
     9
 73
     5
 74
     0
 42
0.000000001
 43
0.0000000001
 40
0.0
 40
0.0
 40
0.0
 40
0.0
 40
0.5628681368999999
 40
1.0
 40
1.0
 40
1.0
 40
1.0
 10
20.50601098551029
 20
4.249079852455433
 30
0.0
 10
20.50693100244648
 20
4.240001816146646
 30
0.0
 10
20.51015958240366
 20
4.223987597296016
 30
0.0
 10
20.51888627946295
 20
4.20944489821533
 30
0.0
 10
20.52432868935043
 20
4.204906710103801
 30
0.0
  0
SPLINE
  5
279
330
2
100
AcDbEntity
  8
0
  6
Continuous
 62
     7
100
AcDbSpline
210
0.0
220
0.0
230
1.0
 70
     8
 71
     3
 72
    11
 73
     7
 74
     0
 42
0.000000001
 43
0.0000000001
 40
0.0
 40
0.0
 40
0.0
 40
0.0
 40
0.2891583154
 40
0.5696139434000001
 40
0.8118608421999999
 40
1.0
 40
1.0
 40
1.0
 40
1.0
 10
20.1735241957308
 20
4.892094084021334
 30
0.0
 10
20.16668471979182
 20
4.871413107380901
 30
0.0
 10
20.1574955451209
 20
4.829164898724322
 30
0.0
 10
20.15628922856236
 20
4.767557558602939
 30
0.0
 10
20.16704846349032
 20
4.714718254759761
 30
0.0
 10
20.18448409860732
 20
4.68562169172103
 30
0.0
 10
20.19536907873601
 20
4.676545181798223
 30
0.0
  0
SPLINE
  5
27A
330
2
100
AcDbEntity
  8
0
  6
Continuous
 62
     7
100
AcDbSpline
210
0.0
220
0.0
230
1.0
 70
     8
 71
     3
 72
    11
 73
     7
 74
     0
 42
0.000000001
 43
0.0000000001
 40
0.0
 40
0.0
 40
0.0
 40
0.0
 40
0.29952972
 40
0.5722448418
 40
0.8067385574999999
 40
1.0
 40
1.0
 40
1.0
 40
1.0
 10
10.45559571798411
 20
12.8734918170645
 30
0.0
 10
10.45265699269154
 20
12.83637059788303
 30
0.0
 10
10.45193374594832
 20
12.76493164247398
 30
0.0
 10
10.4670245195529
 20
12.66523247514319
 30
0.0
 10
10.49707949117447
 20
12.58281525716829
 30
0.0
 10
10.52968056923272
 20
12.53900763040241
 30
0.0
 10
10.54813322160896
 20
12.52362076882082
 30
0.0
  0
SPLINE
  5
27B
330
2
100
AcDbEntity
  8
0
  6
Continuous
 62
     7
100
AcDbSpline
210
0.0
220
0.0
230
1.0
 70
     8
 71
     3
 72
    12
 73
     8
 74
     0
 42
0.000000001
 43
0.0000000001
 40
0.0
 40
0.0
 40
0.0
 40
0.0
 40
0.2006022878
 40
0.31763597
 40
0.4441470421
 40
0.7170608484000001
 40
1.0
 40
1.0
 40
1.0
 40
1.0
 10
11.04984151153182
 20
15.1475874737882
 30
0.0
 10
10.98018933311057
 20
15.10153335349223
 30
0.0
 10
10.88626409836987
 20
15.00398747523416
 30
0.0
 10
10.78442347068518
 20
14.84977473063044
 30
0.0
 10
10.68634942949017
 20
14.65790060000101
 30
0.0
 10
10.59500419456278
 20
14.38736003835639
 30
0.0
 10
10.55727606107601
 20
14.15789165965084
 30
0.0
 10
10.54798150480746
 20
14.04048522445203
 30
0.0
  0
SPLINE
  5
27C
330
2
100
AcDbEntity
  8
0
  6
Continuous
 62
     7
100
AcDbSpline
210
0.0
220
0.0
230
1.0
 70
     8
 71
     3
 72
    11
 73
     7
 74
     0
 42
0.000000001
 43
0.0000000001
 40
0.0
 40
0.0
 40
0.0
 40
0.0
 40
0.232736595
 40
0.4751316297
 40
0.7301415631000002
 40
1.0
 40
1.0
 40
1.0
 40
1.0
 10
14.19839067402326
 20
16.29381015384996
 30
0.0
 10
13.93617538000697
 20
16.27730327901067
 30
0.0
 10
13.40278418379821
 20
16.2015341751864
 30
0.0
 10
12.60949162759605
 20
15.96882844197302
 30
0.0
 10
11.81530108607107
 20
15.61771493283495
 30
0.0
 10
11.30395720420901
 20
15.31560913431734
 30
0.0
 10
11.04984151153182
 20
15.1475874737882
 30
0.0
  0
SPLINE
  5
27D
330
2
100
AcDbEntity
  8
0
  6
Continuous
 62
     7
100
AcDbSpline
210
0.0
220
0.0
230
1.0
 70
     8
 71
     3
 72
     9
 73
     5
 74
     0
 42
0.000000001
 43
0.0000000001
 40
0.0
 40
0.0
 40
0.0
 40
0.0
 40
0.2814991619
 40
1.0
 40
1.0
 40
1.0
 40
1.0
 10
16.4564010366339
 20
11.54072581432069
 30
0.0
 10
16.45813874940754
 20
11.54203879286267
 30
0.0
 10
16.46457182391564
 20
11.54628260609338
 30
0.0
 10
16.47281847718334
 20
11.54825538551404
 30
0.0
 10
16.47829725537297
 20
11.54731396610058
 30
0.0
  0
SPLINE
  5
27E
330
2
100
AcDbEntity
  8
0
  6
Continuous
 62
     7
100
AcDbSpline
210
0.0
220
0.0
230
1.0
 70
     8
 71
     3
 72
     9
 73
     5
 74
     0
 42
0.000000001
 43
0.0000000001
 40
0.0
 40
0.0
 40
0.0
 40
0.0
 40
0.5628681368999999
 40
1.0
 40
1.0
 40
1.0
 40
1.0
 10
21.20257545234032
 20
4.279695574915562
 30
0.0
 10
21.20165543540413
 20
4.288773611224367
 30
0.0
 10
21.1984268554468
 20
4.304787830074981
 30
0.0
 10
21.18970015838751
 20
4.319330529155648
 30
0.0
 10
21.18425774850019
 20
4.323868717267194
 30
0.0
  0
SPLINE
  5
27F
330
2
100
AcDbEntity
  8
0
  6
Continuous
 62
     7
100
AcDbSpline
210
0.0
220
0.0
230
1.0
 70
     8
 71
     3
 72
    11
 73
     7
 74
     0
 42
0.000000001
 43
0.0000000001
 40
0.0
 40
0.0
 40
0.0
 40
0.0
 40
0.2060298398
 40
0.4338119979
 40
0.6972455425000002
 40
1.0
 40
1.0
 40
1.0
 40
1.0
 10
26.36854685163078
 20
3.127261742870336
 30
0.0
 10
26.38316213474477
 20
3.124754759555482
 30
0.0
 10
26.41531411695595
 20
3.126068967794001
 30
0.0
 10
26.46208960300671
 20
3.146388748601573
 30
0.0
 10
26.50684835966806
 20
3.182718093890044
 30
0.0
 10
26.53286900741743
 20
3.214392543997478
 30
0.0
 10
26.54543063637841
 20
3.232197759820794
 30
0.0
  0
SPLINE
  5
280
330
2
100
AcDbEntity
  8
0
  6
Continuous
 62
     7
100
AcDbSpline
210
0.0
220
0.0
230
1.0
 70
     8
 71
     3
 72
     8
 73
     4
 74
     0
 42
0.000000001
 43
0.0000000001
 40
0.0
 40
0.0
 40
0.0
 40
0.0
 40
1.0
 40
1.0
 40
1.0
 40
1.0
 10
16.34671526001034
 20
11.46780575325895
 30
0.0
 10
16.35009565498373
 20
11.46722489940485
 30
0.0
 10
16.35368274954382
 20
11.46748848157649
 30
0.0
 10
16.35698750780367
 20
11.46840665050133
 30
0.0
  0
SPLINE
  5
281
330
2
100
AcDbEntity
  8
0
  6
Continuous
 62
     7
100
AcDbSpline
210
0.0
220
0.0
230
1.0
 70
     8
 71
     3
 72
     9
 73
     5
 74
     0
 42
0.000000001
 43
0.0000000001
 40
0.0
 40
0.0
 40
0.0
 40
0.0
 40
0.2344602208
 40
1.0
 40
1.0
 40
1.0
 40
1.0
 10
16.35698750780367
 20
11.46840665050133
 30
0.0
 10
16.35797548896842
 20
11.46868114368384
 30
0.0
 10
16.36212271148689
 20
11.4700920017096
 30
0.0
 10
16.36594019848364
 20
11.47237554290153
 30
0.0
 10
16.36861147874956
 20
11.47439390503884
 30
0.0
  0
SPLINE
  5
282
330
2
100
AcDbEntity
  8
0
  6
Continuous
 62
     7
100
AcDbSpline
210
0.0
220
0.0
230
1.0
 70
     8
 71
     3
 72
    10
 73
     6
 74
     0
 42
0.000000001
 43
0.0000000001
 40
0.0
 40
0.0
 40
0.0
 40
0.0
 40
0.4079527196
 40
0.6852157551000003
 40
1.0
 40
1.0
 40
1.0
 40
1.0
 10
16.7984083806203
 20
11.29946073440312
 30
0.0
 10
16.81823198127858
 20
11.30011370782133
 30
0.0
 10
16.84869782039778
 20
11.32306751145122
 30
0.0
 10
16.87459870555185
 20
11.36340519705792
 30
0.0
 10
16.88592671100052
 20
11.39025768368929
 30
0.0
 10
16.89073216561031
 20
11.40478825525918
 30
0.0
  0
SPLINE
  5
283
330
2
100
AcDbEntity
  8
0
  6
Continuous
 62
     7
100
AcDbSpline
210
0.0
220
0.0
230
1.0
 70
     8
 71
     3
 72
    12
 73
     8
 74
     0
 42
0.000000001
 43
0.0000000001
 40
0.0
 40
0.0
 40
0.0
 40
0.0
 40
0.2829391516
 40
0.5558529579
 40
0.68236403
 40
0.7993977122000002
 40
1.0
 40
1.0
 40
1.0
 40
1.0
 10
11.25999263654334
 20
13.91868485648078
 30
0.0
 10
11.26928719282076
 20
14.03609129167139
 30
0.0
 10
11.30701532630737
 20
14.26555967038533
 30
0.0
 10
11.39836056123477
 20
14.53610023202996
 30
0.0
 10
11.49643460242107
 20
14.72797436265917
 30
0.0
 10
11.59827523010605
 20
14.88218710726289
 30
0.0
 10
11.69220046484691
 20
14.97973298551258
 30
0.0
 10
11.76185264327641
 20
15.02578710580875
 30
0.0
  0
SPLINE
  5
284
330
2
100
AcDbEntity
  8
0
  6
Continuous
 62
     7
100
AcDbSpline
210
0.0
220
0.0
230
1.0
 70
     8
 71
     3
 72
    11
 73
     7
 74
     0
 42
0.000000001
 43
0.0000000001
 40
0.0
 40
0.0
 40
0.0
 40
0.0
 40
0.1932614425
 40
0.4277551582
 40
0.7004702800000002
 40
1.0
 40
1.0
 40
1.0
 40
1.0
 10
11.2601443533534
 20
12.40182040084976
 30
0.0
 10
11.24169170097747
 20
12.41720726242296
 30
0.0
 10
11.2090906229189
 20
12.46101488919724
 30
0.0
 10
11.17903565129719
 20
12.54343210717216
 30
0.0
 10
11.16394487769276
 20
12.64313127450293
 30
0.0
 10
11.16466812443598
 20
12.71457022991199
 30
0.0
 10
11.16760684972855
 20
12.75169144909342
 30
0.0
  0
SPLINE
  5
285
330
2
100
AcDbEntity
  8
0
  6
Continuous
 62
     7
100
AcDbSpline
210
0.0
220
0.0
230
1.0
 70
     8
 71
     3
 72
     9
 73
     5
 74
     0
 42
0.000000001
 43
0.0000000001
 40
0.0
 40
0.0
 40
0.0
 40
0.0
 40
0.4404679908000002
 40
1.0
 40
1.0
 40
1.0
 40
1.0
 10
20.90738021048091
 20
4.554744813818777
 30
0.0
 10
20.89746250601633
 20
4.563014754783377
 30
0.0
 10
20.88108292693555
 20
4.588757237936238
 30
0.0
 10
20.87417113619892
 20
4.617496395897833
 30
0.0
 10
20.87187671332956
 20
4.633739042900974
 30
0.0
  0
SPLINE
  5
286
330
2
100
AcDbEntity
  8
0
  6
Continuous
 62
     7
100
AcDbSpline
210
0.0
220
0.0
230
1.0
 70
     8
 71
     3
 72
     9
 73
     5
 74
     0
 42
0.000000001
 43
0.0000000001
 40
0.0
 40
0.0
 40
0.0
 40
0.0
 40
0.4371318631000002
 40
1.0
 40
1.0
 40
1.0
 40
1.0
 10
21.23633982109471
 20
4.083106342132739
 30
0.0
 10
21.23089741120738
 20
4.087644530244287
 30
0.0
 10
21.2221707141481
 20
4.102187229324953
 30
0.0
 10
21.21894213419077
 20
4.118201448175565
 30
0.0
 10
21.21802211725487
 20
4.127279484475987
 30
0.0
  0
SPLINE
  5
287
330
2
100
AcDbEntity
  8
0
  6
Continuous
 62
     7
100
AcDbSpline
210
0.0
220
0.0
230
1.0
 70
     8
 71
     3
 72
     9
 73
     5
 74
     0
 42
0.000000001
 43
0.0000000001
 40
0.0
 40
0.0
 40
0.0
 40
0.0
 40
0.5413083083
 40
1.0
 40
1.0
 40
1.0
 40
1.0
 10
19.99613039402867
 20
15.25265561927943
 30
0.0
 10
19.98663284910259
 20
15.26942454048778
 30
0.0
 10
19.96483526526268
 20
15.29871467582838
 30
0.0
 10
19.93136055114377
 20
15.31552673394667
 30
0.0
 10
19.91526781760363
 20
15.31830276090502
 30
0.0
  0
SPLINE
  5
288
330
2
100
AcDbEntity
  8
0
  6
Continuous
 62
     7
100
AcDbSpline
210
0.0
220
0.0
230
1.0
 70
     8
 71
     3
 72
     9
 73
     5
 74
     0
 42
0.000000001
 43
0.0000000001
 40
0.0
 40
0.0
 40
0.0
 40
0.0
 40
0.5192709989999999
 40
1.0
 40
1.0
 40
1.0
 40
1.0
 10
11.76185264327641
 20
15.02578710580875
 30
0.0
 10
12.11707645930415
 20
15.26066160255503
 30
0.0
 10
12.83451439343448
 20
15.66564094591939
 30
0.0
 10
13.61311174769591
 20
15.94059165309474
 30
0.0
 10
13.99643108389071
 20
16.03275762709077
 30
0.0
  0
SPLINE
  5
289
330
2
100
AcDbEntity
  8
0
  6
Continuous
 62
     7
100
AcDbSpline
210
0.0
220
0.0
230
1.0
 70
     8
 71
     3
 72
     9
 73
     5
 74
     0
 42
0.000000001
 43
0.0000000001
 40
0.0
 40
0.0
 40
0.0
 40
0.0
 40
0.2541665357
 40
1.0
 40
1.0
 40
1.0
 40
1.0
 10
13.99643108389071
 20
16.03275762709077
 30
0.0
 10
14.07264084999044
 20
16.05108163701938
 30
0.0
 10
14.37391944182134
 20
16.11700873713702
 30
0.0
 10
14.6808505964869
 20
16.15755916774886
 30
0.0
 10
14.9104018057593
 20
16.1720097858787
 30
0.0
  0
SPLINE
  5
28A
330
2
100
AcDbEntity
  8
0
  6
Continuous
 62
     7
100
AcDbSpline
210
0.0
220
0.0
230
1.0
 70
     8
 71
     3
 72
     9
 73
     5
 74
     0
 42
0.000000001
 43
0.0000000001
 40
0.0
 40
0.0
 40
0.0
 40
0.0
 40
0.4371318631000002
 40
1.0
 40
1.0
 40
1.0
 40
1.0
 10
26.16833567068696
 20
3.471266141443996
 30
0.0
 10
26.17377808058254
 20
3.466727953341063
 30
0.0
 10
26.18250477764183
 20
3.452185254260396
 30
0.0
 10
26.18573335759931
 20
3.436171035401379
 30
0.0
 10
26.1866533745352
 20
3.427092999100997
 30
0.0
  0
SPLINE
  5
28B
330
2
100
AcDbEntity
  8
0
  6
Continuous
 62
     7
100
AcDbSpline
210
0.0
220
0.0
230
1.0
 70
     8
 71
     3
 72
     9
 73
     5
 74
     0
 42
0.000000001
 43
0.0000000001
 40
0.0
 40
0.0
 40
0.0
 40
0.0
 40
0.5628681368999999
 40
1.0
 40
1.0
 40
1.0
 40
1.0
 10
26.20210003944135
 20
3.274676908661191
 30
0.0
 10
26.20302005638611
 20
3.265598872352616
 30
0.0
 10
26.20624863633503
 20
3.249584653501774
 30
0.0
 10
26.21497533340241
 20
3.235041954421299
 30
0.0
 10
26.2204177432899
 20
3.230503766309772
 30
0.0
  0
SPLINE
  5
28C
330
2
100
AcDbEntity
  8
0
  6
Continuous
 62
     7
100
AcDbSpline
210
0.0
220
0.0
230
1.0
 70
     8
 71
     3
 72
    11
 73
     7
 74
     0
 42
0.000000001
 43
0.0000000001
 40
0.0
 40
0.0
 40
0.0
 40
0.0
 40
0.2891583154
 40
0.5696139434000001
 40
0.8118608421999999
 40
1.0
 40
1.0
 40
1.0
 40
1.0
 10
25.86961324966202
 20
3.917691140227075
 30
0.0
 10
25.86277377373144
 20
3.89701016358689
 30
0.0
 10
25.85358459905227
 20
3.85476195493008
 30
0.0
 10
25.85237828249358
 20
3.793154614817082
 30
0.0
 10
25.86313751742979
 20
3.740315310974115
 30
0.0
 10
25.88057315254694
 20
3.711218747926998
 30
0.0
 10
25.89145813266738
 20
3.702142238003983
 30
0.0
  0
SPLINE
  5
28D
330
2
100
AcDbEntity
  8
0
  6
Continuous
 62
     7
100
AcDbSpline
210
0.0
220
0.0
230
1.0
 70
     8
 71
     3
 72
    11
 73
     7
 74
     0
 42
0.000000001
 43
0.0000000001
 40
0.0
 40
0.0
 40
0.0
 40
0.0
 40
0.29952972
 40
0.5722448418
 40
0.8067385574999999
 40
1.0
 40
1.0
 40
1.0
 40
1.0
 10
16.15168477191518
 20
11.89908887327026
 30
0.0
 10
16.14874604662276
 20
11.86196765408877
 30
0.0
 10
16.14802279988763
 20
11.79052869868837
 30
0.0
 10
16.16311357349268
 20
11.69082953134918
 30
0.0
 10
16.19316854511408
 20
11.60841231337427
 30
0.0
 10
16.22576962317235
 20
11.56460468660841
 30
0.0
 10
16.24422227554858
 20
11.54921782502679
 30
0.0
  0
SPLINE
  5
28E
330
2
100
AcDbEntity
  8
0
  6
Continuous
 62
     7
100
AcDbSpline
210
0.0
220
0.0
230
1.0
 70
     8
 71
     3
 72
    12
 73
     8
 74
     0
 42
0.000000001
 43
0.0000000001
 40
0.0
 40
0.0
 40
0.0
 40
0.0
 40
0.2006022878
 40
0.31763597
 40
0.4441470421
 40
0.7170608484000001
 40
1.0
 40
1.0
 40
1.0
 40
1.0
 10
16.74593056547144
 20
14.17318452999419
 30
0.0
 10
16.67627838704163
 20
14.12713040969799
 30
0.0
 10
16.58235315230123
 20
14.02958453143992
 30
0.0
 10
16.48051252461609
 20
13.8753717868446
 30
0.0
 10
16.38243848342108
 20
13.68349765621517
 30
0.0
 10
16.2910932485024
 20
13.41295709457076
 30
0.0
 10
16.25336511501563
 20
13.18348871585681
 30
0.0
 10
16.24407055873852
 20
13.06608228065781
 30
0.0
  0
SPLINE
  5
28F
330
2
100
AcDbEntity
  8
0
  6
Continuous
 62
     7
100
AcDbSpline
210
0.0
220
0.0
230
1.0
 70
     8
 71
     3
 72
    11
 73
     7
 74
     0
 42
0.000000001
 43
0.0000000001
 40
0.0
 40
0.0
 40
0.0
 40
0.0
 40
0.232736595
 40
0.4751316297
 40
0.7301415631000002
 40
1.0
 40
1.0
 40
1.0
 40
1.0
 10
19.89447972795448
 20
15.31940721005572
 30
0.0
 10
19.63226443393834
 20
15.30290033521643
 30
0.0
 10
19.09887323772943
 20
15.22713123139214
 30
0.0
 10
18.30558068152727
 20
14.99442549817878
 30
0.0
 10
17.51139014001084
 20
14.64331198904092
 30
0.0
 10
17.00004625813992
 20
14.3412061905315
 30
0.0
 10
16.74593056547144
 20
14.17318452999419
 30
0.0
  0
SPLINE
  5
290
330
2
100
AcDbEntity
  8
0
  6
Continuous
 62
     7
100
AcDbSpline
210
0.0
220
0.0
230
1.0
 70
     8
 71
     3
 72
     9
 73
     5
 74
     0
 42
0.000000001
 43
0.0000000001
 40
0.0
 40
0.0
 40
0.0
 40
0.0
 40
0.2814991619
 40
1.0
 40
1.0
 40
1.0
 40
1.0
 10
22.15249009057368
 20
10.56632287052668
 30
0.0
 10
22.15422780334717
 20
10.56763584906864
 30
0.0
 10
22.16066087785542
 20
10.57187966229937
 30
0.0
 10
22.16890753111472
 20
10.5738524417198
 30
0.0
 10
22.17438630931274
 20
10.57291102230657
 30
0.0
  0
SPLINE
  5
291
330
2
100
AcDbEntity
  8
0
  6
Continuous
 62
     7
100
AcDbSpline
210
0.0
220
0.0
230
1.0
 70
     8
 71
     3
 72
     9
 73
     5
 74
     0
 42
0.000000001
 43
0.0000000001
 40
0.0
 40
0.0
 40
0.0
 40
0.0
 40
0.5628681368999999
 40
1.0
 40
1.0
 40
1.0
 40
1.0
 10
26.89866450627994
 20
3.305292631129935
 30
0.0
 10
26.8977444893355
 20
3.314370667430126
 30
0.0
 10
26.89451590938642
 20
3.330384886280968
 30
0.0
 10
26.88578921231888
 20
3.344927585361406
 30
0.0
 10
26.88034680243156
 20
3.349465773472971
 30
0.0
  0
SPLINE
  5
292
330
2
100
AcDbEntity
  8
0
  6
Continuous
 62
     7
100
AcDbSpline
210
0.0
220
0.0
230
1.0
 70
     8
 71
     3
 72
    11
 73
     7
 74
     0
 42
0.000000001
 43
0.0000000001
 40
0.0
 40
0.0
 40
0.0
 40
0.0
 40
0.2060298398
 40
0.4338119979
 40
0.6972455425000002
 40
1.0
 40
1.0
 40
1.0
 40
1.0
 10
32.0646359055704
 20
2.152858799076305
 30
0.0
 10
32.07925118867615
 20
2.150351815761241
 30
0.0
 10
32.11140317088716
 20
2.151666024008163
 30
0.0
 10
32.15817865694634
 20
2.17198580480756
 30
0.0
 10
32.20293741359912
 20
2.208315150104207
 30
0.0
 10
32.22895806135721
 20
2.239989600203448
 30
0.0
 10
32.24151969031819
 20
2.257794816026763
 30
0.0
  0
SPLINE
  5
293
330
2
100
AcDbEntity
  8
0
  6
Continuous
 62
     7
100
AcDbSpline
210
0.0
220
0.0
230
1.0
 70
     8
 71
     3
 72
     8
 73
     4
 74
     0
 42
0.000000001
 43
0.0000000001
 40
0.0
 40
0.0
 40
0.0
 40
0.0
 40
1.0
 40
1.0
 40
1.0
 40
1.0
 10
22.04280431394981
 20
10.49340280947332
 30
0.0
 10
22.0461847089151
 20
10.49282195561061
 30
0.0
 10
22.04977180347504
 20
10.49308553778225
 30
0.0
 10
22.05307656174344
 20
10.49400370670732
 30
0.0
  0
SPLINE
  5
294
330
2
100
AcDbEntity
  8
0
  6
Continuous
 62
     7
100
AcDbSpline
210
0.0
220
0.0
230
1.0
 70
     8
 71
     3
 72
     9
 73
     5
 74
     0
 42
0.000000001
 43
0.0000000001
 40
0.0
 40
0.0
 40
0.0
 40
0.0
 40
0.2344602208
 40
1.0
 40
1.0
 40
1.0
 40
1.0
 10
22.05307656174344
 20
10.49400370670732
 30
0.0
 10
22.0540645429082
 20
10.49427819988983
 30
0.0
 10
22.05821176542652
 20
10.49568905791557
 30
0.0
 10
22.06202925242326
 20
10.4979725991075
 30
0.0
 10
22.06470053268079
 20
10.49999096124464
 30
0.0
  0
SPLINE
  5
295
330
2
100
AcDbEntity
  8
0
  6
Continuous
 62
     7
100
AcDbSpline
210
0.0
220
0.0
230
1.0
 70
     8
 71
     3
 72
    10
 73
     6
 74
     0
 42
0.000000001
 43
0.0000000001
 40
0.0
 40
0.0
 40
0.0
 40
0.0
 40
0.4079527196
 40
0.6852157551000003
 40
1.0
 40
1.0
 40
1.0
 40
1.0
 10
22.49449743456008
 20
10.32505779060911
 30
0.0
 10
22.51432103521821
 20
10.3257107640273
 30
0.0
 10
22.544786874329
 20
10.34866456765698
 30
0.0
 10
22.57068775948322
 20
10.38900225326368
 30
0.0
 10
22.58201576493189
 20
10.41585473989508
 30
0.0
 10
22.58682121954138
 20
10.43038531146494
 30
0.0
  0
SPLINE
  5
296
330
2
100
AcDbEntity
  8
0
  6
Continuous
 62
     7
100
AcDbSpline
210
0.0
220
0.0
230
1.0
 70
     8
 71
     3
 72
    12
 73
     8
 74
     0
 42
0.000000001
 43
0.0000000001
 40
0.0
 40
0.0
 40
0.0
 40
0.0
 40
0.2829391516
 40
0.5558529579
 40
0.68236403
 40
0.7993977122000002
 40
1.0
 40
1.0
 40
1.0
 40
1.0
 10
16.95608169048296
 20
12.94428191268677
 30
0.0
 10
16.96537624675182
 20
13.06168834787715
 30
0.0
 10
17.00310438023859
 20
13.2911567265911
 30
0.0
 10
17.09444961516568
 20
13.56169728823572
 30
0.0
 10
17.19252365636069
 20
13.75357141886516
 30
0.0
 10
17.29436428404567
 20
13.90778416346886
 30
0.0
 10
17.38828951878637
 20
14.00533004172695
 30
0.0
 10
17.45794169721573
 20
14.05138416202311
 30
0.0
  0
SPLINE
  5
297
330
2
100
AcDbEntity
  8
0
  6
Continuous
 62
     7
100
AcDbSpline
210
0.0
220
0.0
230
1.0
 70
     8
 71
     3
 72
    11
 73
     7
 74
     0
 42
0.000000001
 43
0.0000000001
 40
0.0
 40
0.0
 40
0.0
 40
0.0
 40
0.1932614425
 40
0.4277551582
 40
0.7004702800000002
 40
1.0
 40
1.0
 40
1.0
 40
1.0
 10
16.95623340728477
 20
11.42741745705552
 30
0.0
 10
16.93778075490852
 20
11.44280431863712
 30
0.0
 10
16.90517967685868
 20
11.48661194540321
 30
0.0
 10
16.87512470523696
 20
11.56902916337811
 30
0.0
 10
16.86003393163238
 20
11.6687283307089
 30
0.0
 10
16.86075717836719
 20
11.74016728611774
 30
0.0
 10
16.86369590365977
 20
11.77728850529922
 30
0.0
  0
SPLINE
  5
298
330
2
100
AcDbEntity
  8
0
  6
Continuous
 62
     7
100
AcDbSpline
210
0.0
220
0.0
230
1.0
 70
     8
 71
     3
 72
     9
 73
     5
 74
     0
 42
0.000000001
 43
0.0000000001
 40
0.0
 40
0.0
 40
0.0
 40
0.0
 40
0.4404679908000002
 40
1.0
 40
1.0
 40
1.0
 40
1.0
 10
26.60346926441197
 20
3.580341870024536
 30
0.0
 10
26.59355155994769
 20
3.588611810989137
 30
0.0
 10
26.57717198086662
 20
3.614354294150401
 30
0.0
 10
26.57026019013014
 20
3.643093452103573
 30
0.0
 10
26.56796576726934
 20
3.659336099106962
 30
0.0
  0
SPLINE
  5
299
330
2
100
AcDbEntity
  8
0
  6
Continuous
 62
     7
100
AcDbSpline
210
0.0
220
0.0
230
1.0
 70
     8
 71
     3
 72
     9
 73
     5
 74
     0
 42
0.000000001
 43
0.0000000001
 40
0.0
 40
0.0
 40
0.0
 40
0.0
 40
0.4371318631000002
 40
1.0
 40
1.0
 40
1.0
 40
1.0
 10
26.93242887503449
 20
3.108703398338728
 30
0.0
 10
26.92698646513875
 20
3.113241586450046
 30
0.0
 10
26.91825976807947
 20
3.127784285530712
 30
0.0
 10
26.91503118812214
 20
3.143798504381343
 30
0.0
 10
26.91411117118609
 20
3.152876540681746
 30
0.0
  0
SPLINE
  5
29A
330
2
100
AcDbEntity
  8
0
  6
Continuous
 62
     7
100
AcDbSpline
210
0.0
220
0.0
230
1.0
 70
     8
 71
     3
 72
     9
 73
     5
 74
     0
 42
0.000000001
 43
0.0000000001
 40
0.0
 40
0.0
 40
0.0
 40
0.0
 40
0.5413083083
 40
1.0
 40
1.0
 40
1.0
 40
1.0
 10
25.6922194479599
 20
14.27825267548519
 30
0.0
 10
25.68272190304237
 20
14.29502159669375
 30
0.0
 10
25.6609243191939
 20
14.32431173203414
 30
0.0
 10
25.62744960507484
 20
14.34112379016083
 30
0.0
 10
25.611356871535
 20
14.34389981711078
 30
0.0
  0
SPLINE
  5
29B
330
2
100
AcDbEntity
  8
0
  6
Continuous
 62
     7
100
AcDbSpline
210
0.0
220
0.0
230
1.0
 70
     8
 71
     3
 72
     9
 73
     5
 74
     0
 42
0.000000001
 43
0.0000000001
 40
0.0
 40
0.0
 40
0.0
 40
0.0
 40
0.5192709989999999
 40
1.0
 40
1.0
 40
1.0
 40
1.0
 10
17.45794169721573
 20
14.05138416202311
 30
0.0
 10
17.81316551323551
 20
14.28625865876082
 30
0.0
 10
18.53060344737395
 20
14.69123800213378
 30
0.0
 10
19.30920080163568
 20
14.96618870930073
 30
0.0
 10
19.69252013782162
 20
15.05835468330493
 30
0.0
  0
SPLINE
  5
29C
330
2
100
AcDbEntity
  8
0
  6
Continuous
 62
     7
100
AcDbSpline
210
0.0
220
0.0
230
1.0
 70
     8
 71
     3
 72
     9
 73
     5
 74
     0
 42
0.000000001
 43
0.0000000001
 40
0.0
 40
0.0
 40
0.0
 40
0.0
 40
0.2541665357
 40
1.0
 40
1.0
 40
1.0
 40
1.0
 10
19.69252013782162
 20
15.05835468330493
 30
0.0
 10
19.76872990392165
 20
15.07667869322515
 30
0.0
 10
20.07000849576096
 20
15.14260579334297
 30
0.0
 10
20.37693965042637
 20
15.18315622395483
 30
0.0
 10
20.60649085969892
 20
15.19760684208468
 30
0.0
  0
SPLINE
  5
29D
330
2
100
AcDbEntity
  8
0
  6
Continuous
 62
     7
100
AcDbSpline
210
0.0
220
0.0
230
1.0
 70
     8
 71
     3
 72
     9
 73
     5
 74
     0
 42
0.000000001
 43
0.0000000001
 40
0.0
 40
0.0
 40
0.0
 40
0.0
 40
0.4371318631000002
 40
1.0
 40
1.0
 40
1.0
 40
1.0
 10
31.86442472462643
 20
2.496863197658386
 30
0.0
 10
31.86986713451391
 20
2.492325009546821
 30
0.0
 10
31.87859383157304
 20
2.477782310466154
 30
0.0
 10
31.88182241153038
 20
2.461768091615542
 30
0.0
 10
31.88274242847497
 20
2.452690055306967
 30
0.0
  0
SPLINE
  5
29E
330
2
100
AcDbEntity
  8
0
  6
Continuous
 62
     7
100
AcDbSpline
210
0.0
220
0.0
230
1.0
 70
     8
 71
     3
 72
     9
 73
     5
 74
     0
 42
0.000000001
 43
0.0000000001
 40
0.0
 40
0.0
 40
0.0
 40
0.0
 40
0.5628681368999999
 40
1.0
 40
1.0
 40
1.0
 40
1.0
 10
31.89818909338113
 20
2.300273964867161
 30
0.0
 10
31.89910911031716
 20
2.29119592856676
 30
0.0
 10
31.90233769027449
 20
2.275181709707763
 30
0.0
 10
31.91106438733378
 20
2.260639010627058
 30
0.0
 10
31.91650679722127
 20
2.25610082251553
 30
0.0
  0
SPLINE
  5
29F
330
2
100
AcDbEntity
  8
0
  6
Continuous
 62
     7
100
AcDbSpline
210
0.0
220
0.0
230
1.0
 70
     8
 71
     3
 72
    11
 73
     7
 74
     0
 42
0.000000001
 43
0.0000000001
 40
0.0
 40
0.0
 40
0.0
 40
0.0
 40
0.2891583154
 40
0.5696139434000001
 40
0.8118608421999999
 40
1.0
 40
1.0
 40
1.0
 40
1.0
 10
31.56570230360165
 20
2.943288196433064
 30
0.0
 10
31.55886282766281
 20
2.922607219792649
 30
0.0
 10
31.54967365299189
 20
2.880359011136049
 30
0.0
 10
31.54846733643305
 20
2.818751671023051
 30
0.0
 10
31.55922657136116
 20
2.765912367179874
 30
0.0
 10
31.57666220647785
 20
2.73681580414116
 30
0.0
 10
31.587547186607
 20
2.727739294209951
 30
0.0
  0
SPLINE
  5
2A0
330
2
100
AcDbEntity
  8
0
  6
Continuous
 62
     7
100
AcDbSpline
210
0.0
220
0.0
230
1.0
 70
     8
 71
     3
 72
    11
 73
     7
 74
     0
 42
0.000000001
 43
0.0000000001
 40
0.0
 40
0.0
 40
0.0
 40
0.0
 40
0.29952972
 40
0.5722448418
 40
0.8067385574999999
 40
1.0
 40
1.0
 40
1.0
 40
1.0
 10
21.8477738258548
 20
10.92468592948463
 30
0.0
 10
21.84483510056253
 20
10.88756471029477
 30
0.0
 10
21.844111853819
 20
10.81612575489411
 30
0.0
 10
21.85920262742374
 20
10.71642658755493
 30
0.0
 10
21.88925759904546
 20
10.63400936958
 30
0.0
 10
21.92185867710356
 20
10.59020174281414
 30
0.0
 10
21.94031132947995
 20
10.57481488123255
 30
0.0
  0
SPLINE
  5
2A1
330
2
100
AcDbEntity
  8
0
  6
Continuous
 62
     7
100
AcDbSpline
210
0.0
220
0.0
230
1.0
 70
     8
 71
     3
 72
    12
 73
     8
 74
     0
 42
0.000000001
 43
0.0000000001
 40
0.0
 40
0.0
 40
0.0
 40
0.0
 40
0.2006022878
 40
0.31763597
 40
0.4441470421
 40
0.7170608484000001
 40
1.0
 40
1.0
 40
1.0
 40
1.0
 10
22.4420196194025
 20
13.19878158619995
 30
0.0
 10
22.3723674409814
 20
13.15272746590396
 30
0.0
 10
22.27844220624055
 20
13.05518158765428
 30
0.0
 10
22.17660157855587
 20
12.90096884305059
 30
0.0
 10
22.07852753736086
 20
12.70909471242114
 30
0.0
 10
21.98718230243362
 20
12.43855415077652
 30
0.0
 10
21.94945416894686
 20
12.20908577206257
 30
0.0
 10
21.94015961267814
 20
12.0916793368722
 30
0.0
  0
SPLINE
  5
2A2
330
2
100
AcDbEntity
  8
0
  6
Continuous
 62
     7
100
AcDbSpline
210
0.0
220
0.0
230
1.0
 70
     8
 71
     3
 72
    11
 73
     7
 74
     0
 42
0.000000001
 43
0.0000000001
 40
0.0
 40
0.0
 40
0.0
 40
0.0
 40
0.232736595
 40
0.4751316297
 40
0.7301415631000002
 40
1.0
 40
1.0
 40
1.0
 40
1.0
 10
25.59056878189425
 20
14.34500426626169
 30
0.0
 10
25.32835348787796
 20
14.3284973914224
 30
0.0
 10
24.7949622916692
 20
14.25272828759813
 30
0.0
 10
24.00166973546704
 20
14.02002255438475
 30
0.0
 10
23.20747919394206
 20
13.66890904524668
 30
0.0
 10
22.69613531207969
 20
13.36680324673751
 30
0.0
 10
22.4420196194025
 20
13.19878158619995
 30
0.0
  0
SPLINE
  5
2A3
330
2
100
AcDbEntity
  8
0
  6
Continuous
 62
     7
100
AcDbSpline
210
0.0
220
0.0
230
1.0
 70
     8
 71
     3
 72
     9
 73
     5
 74
     0
 42
0.000000001
 43
0.0000000001
 40
0.0
 40
0.0
 40
0.0
 40
0.0
 40
0.5628681368999999
 40
1.0
 40
1.0
 40
1.0
 40
1.0
 10
32.59475356021101
 20
2.330889687335694
 30
0.0
 10
32.59383354327513
 20
2.339967723636095
 30
0.0
 10
32.59060496331779
 20
2.355981942486728
 30
0.0
 10
32.5818782662585
 20
2.370524641567393
 30
0.0
 10
32.57643585637102
 20
2.37506282967894
 30
0.0
  0
SPLINE
  5
2A4
330
2
100
AcDbEntity
  8
0
  6
Continuous
 62
     7
100
AcDbSpline
210
0.0
220
0.0
230
1.0
 70
     8
 71
     3
 72
    12
 73
     8
 74
     0
 42
0.000000001
 43
0.0000000001
 40
0.0
 40
0.0
 40
0.0
 40
0.0
 40
0.2829391516
 40
0.5558529579
 40
0.68236403
 40
0.7993977122000002
 40
1.0
 40
1.0
 40
1.0
 40
1.0
 10
22.65217074441433
 20
11.96987896889253
 30
0.0
 10
22.66146530069145
 20
12.08728540409151
 30
0.0
 10
22.69919343417836
 20
12.31675378279705
 30
0.0
 10
22.79053866909706
 20
12.58729434444148
 30
0.0
 10
22.88861271029175
 20
12.77916847507932
 30
0.0
 10
22.99045333797689
 20
12.93338121967462
 30
0.0
 10
23.08437857271759
 20
13.03092709793271
 30
0.0
 10
23.1540307511471
 20
13.07698121822888
 30
0.0
  0
SPLINE
  5
2A5
330
2
100
AcDbEntity
  8
0
  6
Continuous
 62
     7
100
AcDbSpline
210
0.0
220
0.0
230
1.0
 70
     8
 71
     3
 72
    11
 73
     7
 74
     0
 42
0.000000001
 43
0.0000000001
 40
0.0
 40
0.0
 40
0.0
 40
0.0
 40
0.1932614425
 40
0.4277551582
 40
0.7004702800000002
 40
1.0
 40
1.0
 40
1.0
 40
1.0
 10
22.65232246122439
 20
10.45301451326149
 30
0.0
 10
22.63386980884815
 20
10.46840137484311
 30
0.0
 10
22.60126873078974
 20
10.51220900160897
 30
0.0
 10
22.57121375916818
 20
10.59462621958387
 30
0.0
 10
22.5561229855636
 20
10.69432538691466
 30
0.0
 10
22.55684623229841
 20
10.7657643423235
 30
0.0
 10
22.55978495759098
 20
10.80288556150496
 30
0.0
  0
SPLINE
  5
2A6
330
2
100
AcDbEntity
  8
0
  6
Continuous
 62
     7
100
AcDbSpline
210
0.0
220
0.0
230
1.0
 70
     8
 71
     3
 72
     9
 73
     5
 74
     0
 42
0.000000001
 43
0.0000000001
 40
0.0
 40
0.0
 40
0.0
 40
0.0
 40
0.4404679908000002
 40
1.0
 40
1.0
 40
1.0
 40
1.0
 10
32.29955831835145
 20
2.605938926238909
 30
0.0
 10
32.28964061388701
 20
2.614208867203509
 30
0.0
 10
32.27326103480624
 20
2.63995135035637
 30
0.0
 10
32.26634924406136
 20
2.668690508309333
 30
0.0
 10
32.2640548212004
 20
2.684933155312721
 30
0.0
  0
SPLINE
  5
2A7
330
2
100
AcDbEntity
  8
0
  6
Continuous
 62
     7
100
AcDbSpline
210
0.0
220
0.0
230
1.0
 70
     8
 71
     3
 72
     9
 73
     5
 74
     0
 42
0.000000001
 43
0.0000000001
 40
0.0
 40
0.0
 40
0.0
 40
0.0
 40
0.4371318631000002
 40
1.0
 40
1.0
 40
1.0
 40
1.0
 10
32.62851792896571
 20
2.134300454544469
 30
0.0
 10
32.62307551907821
 20
2.138838642656034
 30
0.0
 10
32.61434882201907
 20
2.1533813417367
 30
0.0
 10
32.61112024206177
 20
2.169395560587313
 30
0.0
 10
32.61020022511716
 20
2.178473596895908
 30
0.0
  0
SPLINE
  5
2A8
330
2
100
AcDbEntity
  8
0
  6
Continuous
 62
     7
100
AcDbSpline
210
0.0
220
0.0
230
1.0
 70
     8
 71
     3
 72
     9
 73
     5
 74
     0
 42
0.000000001
 43
0.0000000001
 40
0.0
 40
0.0
 40
0.0
 40
0.0
 40
0.5192709989999999
 40
1.0
 40
1.0
 40
1.0
 40
1.0
 10
23.1540307511471
 20
13.07698121822888
 30
0.0
 10
23.50925456717514
 20
13.31185571496681
 30
0.0
 10
24.22669250130517
 20
13.71683505833954
 30
0.0
 10
25.00528985556675
 20
13.99178576550647
 30
0.0
 10
25.3886091917614
 20
14.0839517395109
 30
0.0
  0
SPLINE
  5
2A9
330
2
100
AcDbEntity
  8
0
  6
Continuous
 62
     7
100
AcDbSpline
210
0.0
220
0.0
230
1.0
 70
     8
 71
     3
 72
     9
 73
     5
 74
     0
 42
0.000000001
 43
0.0000000001
 40
0.0
 40
0.0
 40
0.0
 40
0.0
 40
0.2541665357
 40
1.0
 40
1.0
 40
1.0
 40
1.0
 10
25.3886091917614
 20
14.0839517395109
 30
0.0
 10
25.46481895786127
 20
14.10227574943111
 30
0.0
 10
25.76609754969203
 20
14.16820284955713
 30
0.0
 10
26.07302870435774
 20
14.20875328016059
 30
0.0
 10
26.30257991363015
 20
14.22320389829043
 30
0.0
  0
SPLINE
  5
2AA
330
2
100
AcDbEntity
  8
0
  6
Continuous
 62
     7
100
AcDbSpline
210
0.0
220
0.0
230
1.0
 70
     8
 71
     3
 72
     9
 73
     5
 74
     0
 42
0.000000001
 43
0.0000000001
 40
0.0
 40
0.0
 40
0.0
 40
0.0
 40
0.5477605375
 40
1.0
 40
1.0
 40
1.0
 40
1.0
 10
18.32311743938898
 20
28.20084459235756
 30
0.0
 10
18.27119243355294
 20
28.21591904580087
 30
0.0
 10
18.17591774979394
 20
28.24140849640262
 30
0.0
 10
18.07894604045596
 20
28.26188315735532
 30
0.0
 10
18.03449811362949
 20
28.26602088280913
 30
0.0
  0
SPLINE
  5
2AB
330
2
100
AcDbEntity
  8
0
  6
Continuous
 62
     7
100
AcDbSpline
210
0.0
220
0.0
230
1.0
 70
     8
 71
     3
 72
     9
 73
     5
 74
     0
 42
0.000000001
 43
0.0000000001
 40
0.0
 40
0.0
 40
0.0
 40
0.0
 40
0.2618570901
 40
1.0
 40
1.0
 40
1.0
 40
1.0
 10
18.32311743938898
 20
28.20084459235756
 30
0.0
 10
18.33378123425216
 20
28.19774876451608
 30
0.0
 10
18.37464965939972
 20
28.18644213787761
 30
0.0
 10
18.41609640366391
 20
28.17713451713634
 30
0.0
 10
18.44694927488351
 20
28.17185666276495
 30
0.0
  0
SPLINE
  5
2AC
330
2
100
AcDbEntity
  8
0
  6
Continuous
 62
     7
100
AcDbSpline
210
0.0
220
0.0
230
1.0
 70
     8
 71
     3
 72
    10
 73
     6
 74
     0
 42
0.000000001
 43
0.0000000001
 40
0.0
 40
0.0
 40
0.0
 40
0.0
 40
0.2342045911
 40
0.481055998
 40
1.0
 40
1.0
 40
1.0
 40
1.0
 10
27.88206397008468
 20
26.55783633284972
 30
0.0
 10
27.94875311988981
 20
26.54642813623335
 30
0.0
 10
28.09016174345138
 20
26.54473330682701
 30
0.0
 10
28.37143232724747
 20
26.62050397754302
 30
0.0
 10
28.55796540365571
 20
26.75864765351834
 30
0.0
 10
28.65630613041874
 20
26.87179996887703
 30
0.0
  0
SPLINE
  5
2AD
330
2
100
AcDbEntity
  8
0
  6
Continuous
 62
     7
100
AcDbSpline
210
0.0
220
0.0
230
1.0
 70
     8
 71
     3
 72
    15
 73
    11
 74
     0
 42
0.000000001
 43
0.0000000001
 40
0.0
 40
0.0
 40
0.0
 40
0.0
 40
0.1365886797
 40
0.2713791992
 40
0.4030050088000002
 40
0.5304694923
 40
0.6533330735
 40
0.7718204434999999
 40
0.8868623321999999
 40
1.0
 40
1.0
 40
1.0
 40
1.0
 10
28.65630613041874
 20
26.87179996887703
 30
0.0
 10
28.94623022999864
 20
27.20539098682556
 30
0.0
 10
29.57602038377618
 20
27.82365002795193
 30
0.0
 10
30.64563554920257
 20
28.57928722874065
 30
0.0
 10
31.8001007803792
 20
29.13407788885353
 30
0.0
 10
32.99763160433337
 20
29.46661631464331
 30
0.0
 10
34.19488636393412
 20
29.56347838721177
 30
0.0
 10
35.34792741561604
 20
29.41886310102328
 30
0.0
 10
36.41221463831623
 20
29.03640062832463
 30
0.0
 10
37.03767371254139
 20
28.62919168455397
 30
0.0
 10
37.31884409959575
 20
28.39474653054725
 30
0.0
  0
SPLINE
  5
2AE
330
2
100
AcDbEntity
  8
0
  6
Continuous
 62
     7
100
AcDbSpline
210
0.0
220
0.0
230
1.0
 70
     8
 71
     3
 72
    13
 73
     9
 74
     0
 42
0.000000001
 43
0.0000000001
 40
0.0
 40
0.0
 40
0.0
 40
0.0
 40
0.2656677931
 40
0.3996006576
 40
0.5303908210000002
 40
0.7739615692
 40
0.8885301935999997
 40
1.0
 40
1.0
 40
1.0
 40
1.0
 10
33.54858170569336
 20
22.99487550016038
 30
0.0
 10
33.50934194100312
 20
22.87622362322188
 30
0.0
 10
33.4089762631999
 20
22.70869938461576
 30
0.0
 10
33.22089823411618
 20
22.54269300838224
 30
0.0
 10
33.01175379990411
 20
22.42435320183462
 30
0.0
 10
32.77405469010731
 20
22.38118749228964
 30
0.0
 10
32.55690965406795
 20
22.43455829614704
 30
0.0
 10
32.46399783239844
 20
22.49022581287043
 30
0.0
 10
32.42372082261836
 20
22.52380140286757
 30
0.0
  0
SPLINE
  5
2AF
330
2
100
AcDbEntity
  8
0
  6
Continuous
 62
     7
100
AcDbSpline
210
0.0
220
0.0
230
1.0
 70
     8
 71
     3
 72
    13
 73
     9
 74
     0
 42
0.000000001
 43
0.0000000001
 40
0.0
 40
0.0
 40
0.0
 40
0.0
 40
0.2656677931
 40
0.3996006576
 40
0.5303908210000002
 40
0.7739615692
 40
0.8885301935999997
 40
1.0
 40
1.0
 40
1.0
 40
1.0
 10
29.63252048110691
 20
23.66477752401396
 30
0.0
 10
29.59328071642461
 20
23.54612564708405
 30
0.0
 10
29.49291503861328
 20
23.37860140846935
 30
0.0
 10
29.30483700952955
 20
23.21259503223581
 30
0.0
 10
29.09569257531764
 20
23.09425522568818
 30
0.0
 10
28.85799346552893
 20
23.05108951615185
 30
0.0
 10
28.64084842948118
 20
23.10446032000903
 30
0.0
 10
28.54793660781992
 20
23.16012783673262
 30
0.0
 10
28.50765959803175
 20
23.19370342672117
 30
0.0
  0
SPLINE
  5
2B0
330
2
100
AcDbEntity
  8
0
  6
Continuous
 62
     7
100
AcDbSpline
210
0.0
220
0.0
230
1.0
 70
     8
 71
     3
 72
    15
 73
    11
 74
     0
 42
0.000000001
 43
0.0000000001
 40
0.0
 40
0.0
 40
0.0
 40
0.0
 40
0.1320965846
 40
0.2662213185
 40
0.3997341584
 40
0.5300736856000002
 40
0.6553354209000001
 40
0.7747257922000001
 40
0.8889052127999999
 40
1.0
 40
1.0
 40
1.0
 40
1.0
 10
29.63252048110691
 20
23.66477752401396
 30
0.0
 10
29.73259643391051
 20
23.9673838145974
 30
0.0
 10
30.00324376798325
 20
24.55637676095037
 30
0.0
 10
30.5829340347882
 20
25.33534349394458
 30
0.0
 10
31.3069941176242
 20
25.97678470241871
 30
0.0
 10
32.13186800385255
 20
26.44068446764457
 30
0.0
 10
33.00825275295603
 20
26.69769742962549
 30
0.0
 10
33.88359921424285
 20
26.72892888842121
 30
0.0
 10
34.702143388379
 20
26.52855754383776
 30
0.0
 10
35.17671715704409
 20
26.24361385242418
 30
0.0
 10
35.38257757573864
 20
26.07193628934624
 30
0.0
  0
SPLINE
  5
2B1
330
2
100
AcDbEntity
  8
0
  6
Continuous
 62
     7
100
AcDbSpline
210
0.0
220
0.0
230
1.0
 70
     8
 71
     3
 72
    13
 73
     9
 74
     0
 42
0.000000001
 43
0.0000000001
 40
0.0
 40
0.0
 40
0.0
 40
0.0
 40
0.2656677931
 40
0.3996006576
 40
0.5303908210000002
 40
0.7739615692
 40
0.8885301935999997
 40
1.0
 40
1.0
 40
1.0
 40
1.0
 10
37.46464293027159
 20
22.3249734763066
 30
0.0
 10
37.42540316558103
 20
22.20632159936807
 30
0.0
 10
37.32503748777828
 20
22.03879736075357
 30
0.0
 10
37.13695945869439
 20
21.87279098452844
 30
0.0
 10
36.92781502448247
 20
21.75445117797242
 30
0.0
 10
36.69011591468552
 20
21.71128546843583
 30
0.0
 10
36.47297087864617
 20
21.76465627229326
 30
0.0
 10
36.38005905697635
 20
21.8203237890166
 30
0.0
 10
36.33978204719659
 20
21.85389937900538
 30
0.0
  0
SPLINE
  5
2B2
330
2
100
AcDbEntity
  8
0
  6
Continuous
 62
     7
100
AcDbSpline
210
0.0
220
0.0
230
1.0
 70
     8
 71
     3
 72
    10
 73
     6
 74
     0
 42
0.000000001
 43
0.0000000001
 40
0.0
 40
0.0
 40
0.0
 40
0.0
 40
0.5213624629
 40
0.7646368338
 40
1.0
 40
1.0
 40
1.0
 40
1.0
 10
39.95460840586078
 20
20.75502464658644
 30
0.0
 10
39.97268245122933
 20
20.80967633534046
 30
0.0
 10
39.98054136921061
 20
20.89937982645768
 30
0.0
 10
39.93995231894793
 20
21.00369027156765
 30
0.0
 10
39.90507873280897
 20
21.04502450247434
 30
0.0
 10
39.88512823961622
 20
21.06167545606711
 30
0.0
  0
SPLINE
  5
2B3
330
2
100
AcDbEntity
  8
0
  6
Continuous
 62
     7
100
AcDbSpline
210
0.0
220
0.0
230
1.0
 70
     8
 71
     3
 72
    10
 73
     6
 74
     0
 42
0.000000001
 43
0.0000000001
 40
0.0
 40
0.0
 40
0.0
 40
0.0
 40
0.5213624629
 40
0.7646368338
 40
1.0
 40
1.0
 40
1.0
 40
1.0
 10
25.71438577102029
 20
23.19103200606752
 30
0.0
 10
25.73245981638868
 20
23.24568369482154
 30
0.0
 10
25.74031873437853
 20
23.33538718593896
 30
0.0
 10
25.69972968411567
 20
23.43969763104895
 30
0.0
 10
25.66485609796834
 20
23.48103186195542
 30
0.0
 10
25.64490560477573
 20
23.49768281554817
 30
0.0
  0
SPLINE
  5
2B4
330
2
100
AcDbEntity
  8
0
  6
Continuous
 62
     7
100
AcDbSpline
210
0.0
220
0.0
230
1.0
 70
     8
 71
     3
 72
    10
 73
     6
 74
     0
 42
0.000000001
 43
0.0000000001
 40
0.0
 40
0.0
 40
0.0
 40
0.0
 40
0.5213624629
 40
0.7646368338
 40
1.0
 40
1.0
 40
1.0
 40
1.0
 10
33.85758009237772
 20
25.06659220581965
 30
0.0
 10
33.87565413774612
 20
25.12124389458203
 30
0.0
 10
33.88351305572741
 20
25.21094738569928
 30
0.0
 10
33.84292400546516
 20
25.31525783080083
 30
0.0
 10
33.80805041932593
 20
25.35659206170752
 30
0.0
 10
33.7880999261246
 20
25.37324301530848
 30
0.0
  0
SPLINE
  5
2B5
330
2
100
AcDbEntity
  8
0
  6
Continuous
 62
     7
100
AcDbSpline
210
0.0
220
0.0
230
1.0
 70
     8
 71
     3
 72
     9
 73
     5
 74
     0
 42
0.000000001
 43
0.0000000001
 40
0.0
 40
0.0
 40
0.0
 40
0.0
 40
0.2550664589
 40
1.0
 40
1.0
 40
1.0
 40
1.0
 10
24.04295622348531
 20
25.8711887989095
 30
0.0
 10
24.03251326619047
 20
25.87297522609497
 30
0.0
 10
23.99204902343439
 20
25.88248246327188
 30
0.0
 10
23.9539933913301
 20
25.90257285696347
 30
0.0
 10
23.93021709676597
 20
25.92237453369242
 30
0.0
  0
SPLINE
  5
2B6
330
2
100
AcDbEntity
  8
0
  6
Continuous
 62
     7
100
AcDbSpline
210
0.0
220
0.0
230
1.0
 70
     8
 71
     3
 72
     9
 73
     5
 74
     0
 42
0.000000001
 43
0.0000000001
 40
0.0
 40
0.0
 40
0.0
 40
0.0
 40
0.2550664589
 40
1.0
 40
1.0
 40
1.0
 40
1.0
 10
41.13122338528736
 20
22.947979967527
 30
0.0
 10
41.12078042800093
 20
22.9497663947127
 30
0.0
 10
41.08031618523644
 20
22.95927363189776
 30
0.0
 10
41.04226055314041
 20
22.97936402558957
 30
0.0
 10
41.01848425856788
 20
22.99916570231831
 30
0.0
  0
SPLINE
  5
2B7
330
2
100
AcDbEntity
  8
0
  6
Continuous
 62
     7
100
AcDbSpline
210
0.0
220
0.0
230
1.0
 70
     8
 71
     3
 72
     8
 73
     4
 74
     0
 42
0.000000001
 43
0.0000000001
 40
0.0
 40
0.0
 40
0.0
 40
0.0
 40
1.0
 40
1.0
 40
1.0
 40
1.0
 10
25.78433421447784
 20
26.19511510407368
 30
0.0
 10
25.80523254579099
 20
26.17771028938124
 30
0.0
 10
25.8232080330222
 20
26.15619109879238
 30
0.0
 10
25.83681499046895
 20
26.13264288154615
 30
0.0
  0
SPLINE
  5
2B8
330
2
100
AcDbEntity
  8
0
  6
Continuous
 62
     7
100
AcDbSpline
210
0.0
220
0.0
230
1.0
 70
     8
 71
     3
 72
    13
 73
     9
 74
     0
 42
0.000000001
 43
0.0000000001
 40
0.0
 40
0.0
 40
0.0
 40
0.0
 40
0.1149187848
 40
0.2364724003
 40
0.3646395912
 40
0.4972394279
 40
0.7594957125000002
 40
1.0
 40
1.0
 40
1.0
 40
1.0
 10
25.83681499046895
 20
26.13264288154615
 30
0.0
 10
25.85122307886536
 20
26.10770822609229
 30
0.0
 10
25.87173586743622
 20
26.05069948297372
 30
0.0
 10
25.87414450238764
 20
25.9580744290984
 30
0.0
 10
25.84976226063141
 20
25.86417394842969
 30
0.0
 10
25.78518446487838
 20
25.74886145038878
 30
0.0
 10
25.65910004062119
 20
25.64112518169968
 30
0.0
 10
25.52638475243108
 20
25.61742571482642
 30
0.0
 10
25.46697848696609
 20
25.62758806295878
 30
0.0
  0
SPLINE
  5
2B9
330
2
100
AcDbEntity
  8
0
  6
Continuous
 62
     7
100
AcDbSpline
210
0.0
220
0.0
230
1.0
 70
     8
 71
     3
 72
     8
 73
     4
 74
     0
 42
0.000000001
 43
0.0000000001
 40
0.0
 40
0.0
 40
0.0
 40
0.0
 40
1.0
 40
1.0
 40
1.0
 40
1.0
 10
42.87260137628003
 20
23.27190627269116
 30
0.0
 10
42.89349970760127
 20
23.25450145800738
 30
0.0
 10
42.91147519483265
 20
23.23298226741009
 30
0.0
 10
42.92508215227941
 20
23.20943405016386
 30
0.0
  0
SPLINE
  5
2BA
330
2
100
AcDbEntity
  8
0
  6
Continuous
 62
     7
100
AcDbSpline
210
0.0
220
0.0
230
1.0
 70
     8
 71
     3
 72
    13
 73
     9
 74
     0
 42
0.000000001
 43
0.0000000001
 40
0.0
 40
0.0
 40
0.0
 40
0.0
 40
0.1149187848
 40
0.2364724003
 40
0.3646395912
 40
0.4972394279
 40
0.7594957125000002
 40
1.0
 40
1.0
 40
1.0
 40
1.0
 10
42.92508215227941
 20
23.20943405016386
 30
0.0
 10
42.93949024066711
 20
23.1844993947182
 30
0.0
 10
42.96000302924652
 20
23.12749065159983
 30
0.0
 10
42.96241166418969
 20
23.0348655977159
 30
0.0
 10
42.93802942243329
 20
22.9409651170556
 30
0.0
 10
42.87345162668072
 20
22.82565261900629
 30
0.0
 10
42.74736720242309
 20
22.71791635031718
 30
0.0
 10
42.61465191423313
 20
22.6942168834523
 30
0.0
 10
42.55524564877639
 20
22.70437923158489
 30
0.0
  0
SPLINE
  5
2BB
330
2
100
AcDbEntity
  8
0
  6
Continuous
 62
     7
100
AcDbSpline
210
0.0
220
0.0
230
1.0
 70
     8
 71
     3
 72
    12
 73
     8
 74
     0
 42
0.000000001
 43
0.0000000001
 40
0.0
 40
0.0
 40
0.0
 40
0.0
 40
0.1116450549
 40
0.226386153
 40
0.4703045581000002
 40
0.7339002029000002
 40
1.0
 40
1.0
 40
1.0
 40
1.0
 10
39.45447966672155
 20
20.5458141314796
 30
0.0
 10
39.47237951086142
 20
20.5308746775328
 30
0.0
 10
39.51364207242726
 20
20.50605675518476
 30
0.0
 10
39.61023260515514
 20
20.48229420216295
 30
0.0
 10
39.74412319478458
 20
20.50656746350477
 30
0.0
 10
39.8782821928256
 20
20.60412146908478
 30
0.0
 10
39.93716003951862
 20
20.70226486494821
 30
0.0
 10
39.95460840586078
 20
20.75502464658644
 30
0.0
  0
SPLINE
  5
2BC
330
2
100
AcDbEntity
  8
0
  6
Continuous
 62
     7
100
AcDbSpline
210
0.0
220
0.0
230
1.0
 70
     8
 71
     3
 72
    12
 73
     8
 74
     0
 42
0.000000001
 43
0.0000000001
 40
0.0
 40
0.0
 40
0.0
 40
0.0
 40
0.1116450549
 40
0.226386153
 40
0.4703045581000002
 40
0.7339002029000002
 40
1.0
 40
1.0
 40
1.0
 40
1.0
 10
25.21425703188091
 20
22.98182149096067
 30
0.0
 10
25.23215687602077
 20
22.96688203701389
 30
0.0
 10
25.27341943759502
 20
22.94206411466607
 30
0.0
 10
25.37000997032304
 20
22.91830156164421
 30
0.0
 10
25.50390055994393
 20
22.94257482298583
 30
0.0
 10
25.63805955798495
 20
23.04012882856584
 30
0.0
 10
25.69693740467797
 20
23.13827222442928
 30
0.0
 10
25.71438577102029
 20
23.19103200606752
 30
0.0
  0
SPLINE
  5
2BD
330
2
100
AcDbEntity
  8
0
  6
Continuous
 62
     7
100
AcDbSpline
210
0.0
220
0.0
230
1.0
 70
     8
 71
     3
 72
    12
 73
     8
 74
     0
 42
0.000000001
 43
0.0000000001
 40
0.0
 40
0.0
 40
0.0
 40
0.0
 40
0.1116450549
 40
0.226386153
 40
0.4703045581000002
 40
0.7339002029000002
 40
1.0
 40
1.0
 40
1.0
 40
1.0
 10
33.35745135323025
 20
24.85738169071255
 30
0.0
 10
33.37535119737821
 20
24.84244223677438
 30
0.0
 10
33.41661375894406
 20
24.81762431442632
 30
0.0
 10
33.51320429167208
 20
24.79386176139614
 30
0.0
 10
33.64709488129296
 20
24.81813502274611
 30
0.0
 10
33.78125387934269
 20
24.91568902831796
 30
0.0
 10
33.84013172603556
 20
25.01383242418139
 30
0.0
 10
33.85758009237772
 20
25.06659220581965
 30
0.0
  0
SPLINE
  5
2BE
330
2
100
AcDbEntity
  8
0
  6
Continuous
 62
     7
100
AcDbSpline
210
0.0
220
0.0
230
1.0
 70
     8
 71
     3
 72
    13
 73
     9
 74
     0
 42
0.000000001
 43
0.0000000001
 40
0.0
 40
0.0
 40
0.0
 40
0.0
 40
0.1168161649
 40
0.2346938637
 40
0.3545833377000001
 40
0.4772405393
 40
0.7318817959999999
 40
1.0
 40
1.0
 40
1.0
 40
1.0
 10
36.35028023975497
 20
27.23370537983564
 30
0.0
 10
36.50990003020861
 20
27.10062420167045
 30
0.0
 10
36.80833397458739
 20
26.80520402642128
 30
0.0
 10
37.17681639158422
 20
26.28974617495809
 30
0.0
 10
37.46029348803011
 20
25.71138389917975
 30
0.0
 10
37.72060727437125
 20
24.86269671700996
 30
0.0
 10
37.80160253550842
 20
23.70053626443
 30
0.0
 10
37.61441251666223
 20
22.77784170003132
 30
0.0
 10
37.46464293027159
 20
22.3249734763066
 30
0.0
  0
SPLINE
  5
2BF
330
2
100
AcDbEntity
  8
0
  6
Continuous
 62
     7
100
AcDbSpline
210
0.0
220
0.0
230
1.0
 70
     8
 71
     3
 72
    11
 73
     7
 74
     0
 42
0.000000001
 43
0.0000000001
 40
0.0
 40
0.0
 40
0.0
 40
0.0
 40
0.2342339663
 40
0.4763823257000002
 40
0.7315020222
 40
1.0
 40
1.0
 40
1.0
 40
1.0
 10
33.39182255163176
 20
23.68519025980621
 30
0.0
 10
33.43676490399268
 20
23.64772556209631
 30
0.0
 10
33.51547473745606
 20
23.55489186901839
 30
0.0
 10
33.58256716540326
 20
23.38173315719128
 30
0.0
 10
33.59592247470195
 20
23.18838224855781
 30
0.0
 10
33.56964054640705
 20
23.05855251240514
 30
0.0
 10
33.54858170569336
 20
22.99487550016038
 30
0.0
  0
SPLINE
  5
2C0
330
2
100
AcDbEntity
  8
0
  6
Continuous
 62
     7
100
AcDbSpline
210
0.0
220
0.0
230
1.0
 70
     8
 71
     3
 72
     9
 73
     5
 74
     0
 42
0.000000001
 43
0.0000000001
 40
0.0
 40
0.0
 40
0.0
 40
0.0
 40
0.4946932839000002
 40
1.0
 40
1.0
 40
1.0
 40
1.0
 10
39.27482583564769
 20
24.68898589788544
 30
0.0
 10
39.31443539153153
 20
24.65594304132363
 30
0.0
 10
39.4040670478952
 20
24.59988320123071
 30
0.0
 10
39.50517743206179
 20
24.56952542932735
 30
0.0
 10
39.55711213140479
 20
24.56064120658218
 30
0.0
  0
SPLINE
  5
2C1
330
2
100
AcDbEntity
  8
0
  6
Continuous
 62
     7
100
AcDbSpline
210
0.0
220
0.0
230
1.0
 70
     8
 71
     3
 72
     9
 73
     5
 74
     0
 42
0.000000001
 43
0.0000000001
 40
0.0
 40
0.0
 40
0.0
 40
0.0
 40
0.2546053362
 40
1.0
 40
1.0
 40
1.0
 40
1.0
 10
39.06232731769076
 20
25.09169126937813
 30
0.0
 10
39.06448748257039
 20
25.07478162319756
 30
0.0
 10
39.07532375487242
 20
25.00869792721149
 30
0.0
 10
39.09573018876006
 20
24.94410666715231
 30
0.0
 10
39.11634639461219
 20
24.89865603038957
 30
0.0
  0
SPLINE
  5
2C2
330
2
100
AcDbEntity
  8
0
  6
Continuous
 62
     7
100
AcDbSpline
210
0.0
220
0.0
230
1.0
 70
     8
 71
     3
 72
     9
 73
     5
 74
     0
 42
0.000000001
 43
0.0000000001
 40
0.0
 40
0.0
 40
0.0
 40
0.0
 40
0.254394184
 40
1.0
 40
1.0
 40
1.0
 40
1.0
 10
39.11634639461219
 20
24.89865603038957
 30
0.0
 10
39.12559662651858
 20
24.87826290210451
 30
0.0
 10
39.16619273642571
 20
24.80009627599633
 30
0.0
 10
39.22442792206689
 20
24.7310285563421
 30
0.0
 10
39.27482583564769
 20
24.68898589788544
 30
0.0
  0
SPLINE
  5
2C3
330
2
100
AcDbEntity
  8
0
  6
Continuous
 62
     7
100
AcDbSpline
210
0.0
220
0.0
230
1.0
 70
     8
 71
     3
 72
    15
 73
    11
 74
     0
 42
0.000000001
 43
0.0000000001
 40
0.0
 40
0.0
 40
0.0
 40
0.0
 40
0.1118352993
 40
0.2289307097
 40
0.3537711218
 40
0.4853638274
 40
0.6200782123
 40
0.7531718623999999
 40
0.8804876323
 40
1.0
 40
1.0
 40
1.0
 40
1.0
 10
23.93021709676597
 20
25.92237453369242
 30
0.0
 10
23.90626375750796
 20
25.94232365904284
 30
0.0
 10
23.86544349792989
 20
25.99404932754278
 30
0.0
 10
23.83827809951865
 20
26.09109788653855
 30
0.0
 10
23.84575342627452
 20
26.19676889756449
 30
0.0
 10
23.88598854493668
 20
26.29972219082731
 30
0.0
 10
23.95425767323045
 20
26.38942922707856
 30
0.0
 10
24.04343474771731
 20
26.45655344922367
 30
0.0
 10
24.14424244651137
 20
26.49384104595714
 30
0.0
 10
24.21473733310449
 20
26.49551858658038
 30
0.0
 10
24.24757282426948
 20
26.48990157480709
 30
0.0
  0
SPLINE
  5
2C4
330
2
100
AcDbEntity
  8
0
  6
Continuous
 62
     7
100
AcDbSpline
210
0.0
220
0.0
230
1.0
 70
     8
 71
     3
 72
    15
 73
    11
 74
     0
 42
0.000000001
 43
0.0000000001
 40
0.0
 40
0.0
 40
0.0
 40
0.0
 40
0.1118352993
 40
0.2289307097
 40
0.3537711218
 40
0.4853638274
 40
0.6200782123
 40
0.7531718623999999
 40
0.8804876323
 40
1.0
 40
1.0
 40
1.0
 40
1.0
 10
41.01848425856788
 20
22.99916570231831
 30
0.0
 10
40.99453091931002
 20
23.01911482766875
 30
0.0
 10
40.95371065974051
 20
23.07084049616047
 30
0.0
 10
40.92654526132071
 20
23.16788905516444
 30
0.0
 10
40.93402058807671
 20
23.27356006618199
 30
0.0
 10
40.97425570673889
 20
23.3765133594448
 30
0.0
 10
41.04252483504057
 20
23.46622039570466
 30
0.0
 10
41.1317019095195
 20
23.53334461784116
 30
0.0
 10
41.23250960831311
 20
23.57063221458305
 30
0.0
 10
41.30300449490668
 20
23.57230975519787
 30
0.0
 10
41.33583998607963
 20
23.56669274343321
 30
0.0
  0
SPLINE
  5
2C5
330
2
100
AcDbEntity
  8
0
  6
Continuous
 62
     7
100
AcDbSpline
210
0.0
220
0.0
230
1.0
 70
     8
 71
     3
 72
    12
 73
     8
 74
     0
 42
0.000000001
 43
0.0000000001
 40
0.0
 40
0.0
 40
0.0
 40
0.0
 40
0.1116450549
 40
0.226386153
 40
0.4703045581000002
 40
0.7339002029000002
 40
1.0
 40
1.0
 40
1.0
 40
1.0
 10
39.88512823961622
 20
21.06167545606711
 30
0.0
 10
39.86722839546826
 20
21.07661491001368
 30
0.0
 10
39.82596583390228
 20
21.1014328323617
 30
0.0
 10
39.7293753011744
 20
21.12519538538354
 30
0.0
 10
39.59548471155335
 20
21.10092212404192
 30
0.0
 10
39.46132571350407
 20
21.0033681184617
 30
0.0
 10
39.40244786681091
 20
20.90522472259825
 30
0.0
 10
39.38499950046875
 20
20.85246494096002
 30
0.0
  0
SPLINE
  5
2C6
330
2
100
AcDbEntity
  8
0
  6
Continuous
 62
     7
100
AcDbSpline
210
0.0
220
0.0
230
1.0
 70
     8
 71
     3
 72
    12
 73
     8
 74
     0
 42
0.000000001
 43
0.0000000001
 40
0.0
 40
0.0
 40
0.0
 40
0.0
 40
0.1116450549
 40
0.226386153
 40
0.4703045581000002
 40
0.7339002029000002
 40
1.0
 40
1.0
 40
1.0
 40
1.0
 10
25.64490560477573
 20
23.49768281554817
 30
0.0
 10
25.62700576063602
 20
23.51262226949495
 30
0.0
 10
25.58574319906162
 20
23.53744019184278
 30
0.0
 10
25.48915266633375
 20
23.56120274486462
 30
0.0
 10
25.35526207671271
 20
23.53692948352302
 30
0.0
 10
25.22110307867168
 20
23.43937547794299
 30
0.0
 10
25.16222523197866
 20
23.34123208207957
 30
0.0
 10
25.1447768656281
 20
23.28847230044109
 30
0.0
  0
SPLINE
  5
2C7
330
2
100
AcDbEntity
  8
0
  6
Continuous
 62
     7
100
AcDbSpline
210
0.0
220
0.0
230
1.0
 70
     8
 71
     3
 72
    13
 73
     9
 74
     0
 42
0.000000001
 43
0.0000000001
 40
0.0
 40
0.0
 40
0.0
 40
0.0
 40
0.2656677931
 40
0.3996006576
 40
0.5303908210000002
 40
0.7739615692
 40
0.8885301935999997
 40
1.0
 40
1.0
 40
1.0
 40
1.0
 10
32.26696166855675
 20
23.2141161625134
 30
0.0
 10
32.30620143324716
 20
23.33276803945191
 30
0.0
 10
32.40656711105007
 20
23.50029227805803
 30
0.0
 10
32.59464514013394
 20
23.66629865429157
 30
0.0
 10
32.80378957434571
 20
23.78463846084758
 30
0.0
 10
33.04148868413427
 20
23.82780417038394
 30
0.0
 10
33.25863372018217
 20
23.77443336652675
 30
0.0
 10
33.35154554185168
 20
23.71876584980337
 30
0.0
 10
33.39182255163176
 20
23.68519025980621
 30
0.0
  0
SPLINE
  5
2C8
330
2
100
AcDbEntity
  8
0
  6
Continuous
 62
     7
100
AcDbSpline
210
0.0
220
0.0
230
1.0
 70
     8
 71
     3
 72
    12
 73
     8
 74
     0
 42
0.000000001
 43
0.0000000001
 40
0.0
 40
0.0
 40
0.0
 40
0.0
 40
0.1116450549
 40
0.226386153
 40
0.4703045581000002
 40
0.7339002029000002
 40
1.0
 40
1.0
 40
1.0
 40
1.0
 10
33.7880999261246
 20
25.37324301530848
 30
0.0
 10
33.77020008198519
 20
25.38818246924687
 30
0.0
 10
33.7289375204192
 20
25.41300039159488
 30
0.0
 10
33.63234698769119
 20
25.43676294462513
 30
0.0
 10
33.49845639806221
 20
25.41248968327492
 30
0.0
 10
33.36429740002071
 20
25.31493567770328
 30
0.0
 10
33.30541955332769
 20
25.21679228183985
 30
0.0
 10
33.28797118698538
 20
25.16403250020161
 30
0.0
  0
SPLINE
  5
2C9
330
2
100
AcDbEntity
  8
0
  6
Continuous
 62
     7
100
AcDbSpline
210
0.0
220
0.0
230
1.0
 70
     8
 71
     3
 72
    15
 73
    11
 74
     0
 42
0.000000001
 43
0.0000000001
 40
0.0
 40
0.0
 40
0.0
 40
0.0
 40
0.1320945221
 40
0.2662185174
 40
0.399729495
 40
0.530069111
 40
0.6553314837
 40
0.7747239867
 40
0.8889053151
 40
1.0
 40
1.0
 40
1.0
 40
1.0
 10
28.35090044397822
 20
23.8840181863756
 30
0.0
 10
28.49012191625985
 20
24.30499137844208
 30
0.0
 10
28.8666328612824
 20
25.12437739287802
 30
0.0
 10
29.67302908465822
 20
26.20808002268755
 30
0.0
 10
30.68026716500972
 20
27.10049176362012
 30
0.0
 10
31.82776433945283
 20
27.7459437197419
 30
0.0
 10
33.04694903648227
 20
28.10358947932012
 30
0.0
 10
34.26471600027584
 20
28.14724512123567
 30
0.0
 10
35.40351830508686
 20
27.86873074301306
 30
0.0
 10
36.06386167843532
 20
27.47250358573762
 30
0.0
 10
36.35028023975497
 20
27.23370537983564
 30
0.0
  0
SPLINE
  5
2CA
330
2
100
AcDbEntity
  8
0
  6
Continuous
 62
     7
100
AcDbSpline
210
0.0
220
0.0
230
1.0
 70
     8
 71
     3
 72
    11
 73
     7
 74
     0
 42
0.000000001
 43
0.0000000001
 40
0.0
 40
0.0
 40
0.0
 40
0.0
 40
0.2342952701
 40
0.4772186017000001
 40
0.7323958485
 40
1.0
 40
1.0
 40
1.0
 40
1.0
 10
35.56431554245666
 20
25.90532562905425
 30
0.0
 10
35.76162785436164
 20
25.70662212092064
 30
0.0
 10
36.10002882127764
 20
25.23385118561816
 30
0.0
 10
36.37582756456089
 20
24.39060050011324
 30
0.0
 10
36.4137870605661
 20
23.46599249937172
 30
0.0
 10
36.28344812705889
 20
22.84787657372251
 30
0.0
 10
36.18302289313465
 20
22.54421413865959
 30
0.0
  0
SPLINE
  5
2CB
330
2
100
AcDbEntity
  8
0
  6
Continuous
 62
     7
100
AcDbSpline
210
0.0
220
0.0
230
1.0
 70
     8
 71
     3
 72
    10
 73
     6
 74
     0
 42
0.000000001
 43
0.0000000001
 40
0.0
 40
0.0
 40
0.0
 40
0.0
 40
0.5213624629
 40
0.7646368338
 40
1.0
 40
1.0
 40
1.0
 40
1.0
 10
39.38499950046875
 20
20.85246494096002
 30
0.0
 10
39.3669254551002
 20
20.79781325220602
 30
0.0
 10
39.35906653711906
 20
20.70810976108039
 30
0.0
 10
39.39965558738161
 20
20.6037993159788
 30
0.0
 10
39.43452917352054
 20
20.56246508507215
 30
0.0
 10
39.45447966672155
 20
20.5458141314796
 30
0.0
  0
SPLINE
  5
2CC
330
2
100
AcDbEntity
  8
0
  6
Continuous
 62
     7
100
AcDbSpline
210
0.0
220
0.0
230
1.0
 70
     8
 71
     3
 72
    11
 73
     7
 74
     0
 42
0.000000001
 43
0.0000000001
 40
0.0
 40
0.0
 40
0.0
 40
0.0
 40
0.2342339663
 40
0.4763823257000002
 40
0.7315020222
 40
1.0
 40
1.0
 40
1.0
 40
1.0
 10
36.33978204719659
 20
21.85389937900538
 30
0.0
 10
36.2948396948355
 20
21.89136407672365
 30
0.0
 10
36.21612986137197
 20
21.98419776980161
 30
0.0
 10
36.14903743342477
 20
22.15735648162868
 30
0.0
 10
36.13568212412624
 20
22.35070739026216
 30
0.0
 10
36.16196405242129
 20
22.48053712640644
 30
0.0
 10
36.18302289313465
 20
22.54421413865959
 30
0.0
  0
SPLINE
  5
2CD
330
2
100
AcDbEntity
  8
0
  6
Continuous
 62
     7
100
AcDbSpline
210
0.0
220
0.0
230
1.0
 70
     8
 71
     3
 72
    10
 73
     6
 74
     0
 42
0.000000001
 43
0.0000000001
 40
0.0
 40
0.0
 40
0.0
 40
0.0
 40
0.5213624629
 40
0.7646368338
 40
1.0
 40
1.0
 40
1.0
 40
1.0
 10
25.1447768656281
 20
23.28847230044109
 30
0.0
 10
25.12670282025954
 20
23.23382061168708
 30
0.0
 10
25.11884390227857
 20
23.14411712056146
 30
0.0
 10
25.15943295254097
 20
23.03980667545989
 30
0.0
 10
25.1943065386883
 20
22.99847244455343
 30
0.0
 10
25.21425703188091
 20
22.98182149096067
 30
0.0
  0
SPLINE
  5
2CE
330
2
100
AcDbEntity
  8
0
  6
Continuous
 62
     7
100
AcDbSpline
210
0.0
220
0.0
230
1.0
 70
     8
 71
     3
 72
    11
 73
     7
 74
     0
 42
0.000000001
 43
0.0000000001
 40
0.0
 40
0.0
 40
0.0
 40
0.0
 40
0.2342339663
 40
0.4763823257000002
 40
0.7315020222
 40
1.0
 40
1.0
 40
1.0
 40
1.0
 10
28.50765959803175
 20
23.19370342672117
 30
0.0
 10
28.46271724567067
 20
23.23116812443946
 30
0.0
 10
28.38400741220729
 20
23.32400181751739
 30
0.0
 10
28.31691498425994
 20
23.49716052934446
 30
0.0
 10
28.3035596749614
 20
23.69051143797795
 30
0.0
 10
28.32984160326486
 20
23.82034117412246
 30
0.0
 10
28.35090044397822
 20
23.8840181863756
 30
0.0
  0
SPLINE
  5
2CF
330
2
100
AcDbEntity
  8
0
  6
Continuous
 62
     7
100
AcDbSpline
210
0.0
220
0.0
230
1.0
 70
     8
 71
     3
 72
    11
 73
     7
 74
     0
 42
0.000000001
 43
0.0000000001
 40
0.0
 40
0.0
 40
0.0
 40
0.0
 40
0.2342339663
 40
0.4763823257000002
 40
0.7315020222
 40
1.0
 40
1.0
 40
1.0
 40
1.0
 10
32.42372082261836
 20
22.52380140286757
 30
0.0
 10
32.37877847024904
 20
22.56126610057725
 30
0.0
 10
32.30006863678535
 20
22.65409979366356
 30
0.0
 10
32.23297620884656
 20
22.82725850548249
 30
0.0
 10
32.21962089954787
 20
23.02060941411598
 30
0.0
 10
32.24590282784292
 20
23.15043915026865
 30
0.0
 10
32.26696166855675
 20
23.2141161625134
 30
0.0
  0
SPLINE
  5
2D0
330
2
100
AcDbEntity
  8
0
  6
Continuous
 62
     7
100
AcDbSpline
210
0.0
220
0.0
230
1.0
 70
     8
 71
     3
 72
    10
 73
     6
 74
     0
 42
0.000000001
 43
0.0000000001
 40
0.0
 40
0.0
 40
0.0
 40
0.0
 40
0.5213624629
 40
0.7646368338
 40
1.0
 40
1.0
 40
1.0
 40
1.0
 10
33.28797118698538
 20
25.16403250020161
 30
0.0
 10
33.26989714161714
 20
25.10938081143919
 30
0.0
 10
33.26203822363585
 20
25.01967732032198
 30
0.0
 10
33.3026272738984
 20
24.91536687522039
 30
0.0
 10
33.33750086003732
 20
24.8740326443137
 30
0.0
 10
33.35745135323025
 20
24.85738169071255
 30
0.0
  0
SPLINE
  5
2D1
330
2
100
AcDbEntity
  8
0
  6
Continuous
 62
     7
100
AcDbSpline
210
0.0
220
0.0
230
1.0
 70
     8
 71
     3
 72
    11
 73
     7
 74
     0
 42
0.000000001
 43
0.0000000001
 40
0.0
 40
0.0
 40
0.0
 40
0.0
 40
0.243115858
 40
0.4894254261000002
 40
0.7412241601999999
 40
1.0
 40
1.0
 40
1.0
 40
1.0
 10
37.46198856714118
 20
28.27039926211695
 30
0.0
 10
37.68014215763355
 20
28.07301649441586
 30
0.0
 10
38.08259965448668
 20
27.63293947997341
 30
0.0
 10
38.55772419231234
 20
26.86649878413312
 30
0.0
 10
38.89565243198504
 20
26.01031906128536
 30
0.0
 10
39.0226462255149
 20
25.40231257142611
 30
0.0
 10
39.06232731769076
 20
25.09169126937813
 30
0.0
  0
SPLINE
  5
2D2
330
2
100
AcDbEntity
  8
0
  6
Continuous
 62
     7
100
AcDbSpline
210
0.0
220
0.0
230
1.0
 70
     8
 71
     3
 72
     9
 73
     5
 74
     0
 42
0.000000001
 43
0.0000000001
 40
0.0
 40
0.0
 40
0.0
 40
0.0
 40
0.2550664589
 40
1.0
 40
1.0
 40
1.0
 40
1.0
 10
25.6715950877585
 20
26.24630083885661
 30
0.0
 10
25.68203804504463
 20
26.24451441167932
 30
0.0
 10
25.72250228780943
 20
26.23500717449424
 30
0.0
 10
25.7605579199053
 20
26.21491678080243
 30
0.0
 10
25.78433421447784
 20
26.19511510407368
 30
0.0
  0
SPLINE
  5
2D3
330
2
100
AcDbEntity
  8
0
  6
Continuous
 62
     7
100
AcDbSpline
210
0.0
220
0.0
230
1.0
 70
     8
 71
     3
 72
     9
 73
     5
 74
     0
 42
0.000000001
 43
0.0000000001
 40
0.0
 40
0.0
 40
0.0
 40
0.0
 40
0.2550664589
 40
1.0
 40
1.0
 40
1.0
 40
1.0
 10
42.75986224956056
 20
23.32309200748249
 30
0.0
 10
42.77030520685523
 20
23.32130558029704
 30
0.0
 10
42.81076944961133
 20
23.31179834312015
 30
0.0
 10
42.84882508171561
 20
23.29170794942853
 30
0.0
 10
42.87260137628003
 20
23.27190627269116
 30
0.0
  0
SPLINE
  5
2D4
330
2
100
AcDbEntity
  8
0
  6
Continuous
 62
     7
100
AcDbSpline
210
0.0
220
0.0
230
1.0
 70
     8
 71
     3
 72
    12
 73
     8
 74
     0
 42
0.000000001
 43
0.0000000001
 40
0.0
 40
0.0
 40
0.0
 40
0.0
 40
0.3073407453
 40
0.5726029186
 40
0.7983658055000002
 40
0.9009111041
 40
1.0
 40
1.0
 40
1.0
 40
1.0
 10
38.05185467803318
 20
11.82829038654806
 30
0.0
 10
37.97939625140341
 20
11.71050078532699
 30
0.0
 10
37.82759503222379
 20
11.50033263338081
 30
0.0
 10
37.56108634862137
 20
11.25512347415581
 30
0.0
 10
37.31656020274178
 20
11.13395298879118
 30
0.0
 10
37.12540397946414
 20
11.1032762553489
 30
0.0
 10
37.0339538886889
 20
11.10855103366846
 30
0.0
 10
36.99000723508909
 20
11.11607615888336
 30
0.0
  0
SPLINE
  5
2D5
330
2
100
AcDbEntity
  8
0
  6
Continuous
 62
     7
100
AcDbSpline
210
0.0
220
0.0
230
1.0
 70
     8
 71
     3
 72
     9
 73
     5
 74
     0
 42
0.000000001
 43
0.0000000001
 40
0.0
 40
0.0
 40
0.0
 40
0.0
 40
0.2362632739
 40
1.0
 40
1.0
 40
1.0
 40
1.0
 10
47.86263387371728
 20
18.34063048584032
 30
0.0
 10
47.85794198106118
 20
18.34055406113388
 30
0.0
 10
47.83807963993619
 20
18.34045864458406
 30
0.0
 10
47.81821780150116
 20
18.34120568645975
 30
0.0
 10
47.80307719762958
 20
18.34213122827406
 30
0.0
  0
SPLINE
  5
2D6
330
2
100
AcDbEntity
  8
0
  6
Continuous
 62
     7
100
AcDbSpline
210
0.0
220
0.0
230
1.0
 70
     8
 71
     3
 72
     9
 73
     5
 74
     0
 42
0.000000001
 43
0.0000000001
 40
0.0
 40
0.0
 40
0.0
 40
0.0
 40
0.2372313552
 40
1.0
 40
1.0
 40
1.0
 40
1.0
 10
47.80307719762958
 20
18.34213122827406
 30
0.0
 10
47.79653901043253
 20
18.34253090623686
 30
0.0
 10
47.76899623810606
 20
18.34450109290184
 30
0.0
 10
47.74153413996574
 20
18.3475304575669
 30
0.0
 10
47.7206549083431
 20
18.35029485135599
 30
0.0
  0
SPLINE
  5
2D7
330
2
100
AcDbEntity
  8
0
  6
Continuous
 62
     7
100
AcDbSpline
210
0.0
220
0.0
230
1.0
 70
     8
 71
     3
 72
     9
 73
     5
 74
     0
 42
0.000000001
 43
0.0000000001
 40
0.0
 40
0.0
 40
0.0
 40
0.0
 40
0.5033756026000002
 40
1.0
 40
1.0
 40
1.0
 40
1.0
 10
4.691469831972593
 20
19.65004681022596
 30
0.0
 10
4.609873522726215
 20
19.40331864250202
 30
0.0
 10
4.492991604119998
 20
18.89750868687321
 30
0.0
 10
4.46245106513887
 20
18.37903222169729
 30
0.0
 10
4.472599077871695
 20
18.12284785077281
 30
0.0
  0
SPLINE
  5
2D8
330
2
100
AcDbEntity
  8
0
  6
Continuous
 62
     7
100
AcDbSpline
210
0.0
220
0.0
230
1.0
 70
     8
 71
     3
 72
     9
 73
     5
 74
     0
 42
0.000000001
 43
0.0000000001
 40
0.0
 40
0.0
 40
0.0
 40
0.0
 40
0.2582463068
 40
1.0
 40
1.0
 40
1.0
 40
1.0
 10
17.52231416925602
 20
28.3009611768875
 30
0.0
 10
17.53770306697624
 20
28.30522858076661
 30
0.0
 10
17.59796598283822
 20
28.31915161035278
 30
0.0
 10
17.66101642372155
 20
28.32160670728392
 30
0.0
 10
17.70655066503794
 20
28.31607425472981
 30
0.0
  0
SPLINE
  5
2D9
330
2
100
AcDbEntity
  8
0
  6
Continuous
 62
     7
100
AcDbSpline
210
0.0
220
0.0
230
1.0
 70
     8
 71
     3
 72
    10
 73
     6
 74
     0
 42
0.000000001
 43
0.0000000001
 40
0.0
 40
0.0
 40
0.0
 40
0.0
 40
0.2982000787
 40
0.5655384669
 40
1.0
 40
1.0
 40
1.0
 40
1.0
 10
6.345018124355382
 20
24.49926892861626
 30
0.0
 10
6.408893260915196
 20
24.62304508649707
 30
0.0
 10
6.544665232942999
 20
24.85148411643422
 30
0.0
 10
6.838298441087179
 20
25.21301867673506
 30
0.0
 10
7.119251876651419
 20
25.4161497214352
 30
0.0
 10
7.314804493533673
 20
25.47037725689433
 30
0.0
  0
SPLINE
  5
2DA
330
2
100
AcDbEntity
  8
0
  6
Continuous
 62
     7
100
AcDbSpline
210
0.0
220
0.0
230
1.0
 70
     8
 71
     3
 72
     9
 73
     5
 74
     0
 42
0.000000001
 43
0.0000000001
 40
0.0
 40
0.0
 40
0.0
 40
0.0
 40
0.2386605891
 40
1.0
 40
1.0
 40
1.0
 40
1.0
 10
17.1161270251103
 20
23.58455578620213
 30
0.0
 10
17.10255935444581
 20
23.58687674328316
 30
0.0
 10
17.04582596090851
 20
23.59727455217107
 30
0.0
 10
16.98955662867406
 20
23.61014344749103
 30
0.0
 10
16.94702192337816
 20
23.62104807908356
 30
0.0
  0
SPLINE
  5
2DB
330
2
100
AcDbEntity
  8
0
  6
Continuous
 62
     7
100
AcDbSpline
210
0.0
220
0.0
230
1.0
 70
     8
 71
     3
 72
     9
 73
     5
 74
     0
 42
0.000000001
 43
0.0000000001
 40
0.0
 40
0.0
 40
0.0
 40
0.0
 40
0.2548555273
 40
1.0
 40
1.0
 40
1.0
 40
1.0
 10
47.72967482229893
 20
18.41554750083594
 30
0.0
 10
47.73746346535705
 20
18.41770732321684
 30
0.0
 10
47.76820781505937
 20
18.4254992363724
 30
0.0
 10
47.79968212314943
 20
18.4304697199513
 30
0.0
 10
47.8232367570314
 20
18.4323769806275
 30
0.0
  0
SPLINE
  5
2DC
330
2
100
AcDbEntity
  8
0
  6
Continuous
 62
     7
100
AcDbSpline
210
0.0
220
0.0
230
1.0
 70
     8
 71
     3
 72
    10
 73
     6
 74
     0
 42
0.000000001
 43
0.0000000001
 40
0.0
 40
0.0
 40
0.0
 40
0.0
 40
0.3045234365
 40
0.5778727683
 40
1.0
 40
1.0
 40
1.0
 40
1.0
 10
39.42559533660522
 20
15.70722432447958
 30
0.0
 10
39.44709752334695
 20
15.77224191150516
 30
0.0
 10
39.49671267073743
 20
15.89359434467936
 30
0.0
 10
39.61273974594471
 20
16.08415803405021
 30
0.0
 10
39.73812139123749
 20
16.19945725391849
 30
0.0
 10
39.82959688750515
 20
16.22482378081983
 30
0.0
  0
SPLINE
  5
2DD
330
2
100
AcDbEntity
  8
0
  6
Continuous
 62
     7
100
AcDbSpline
210
0.0
220
0.0
230
1.0
 70
     8
 71
     3
 72
    10
 73
     6
 74
     0
 42
0.000000001
 43
0.0000000001
 40
0.0
 40
0.0
 40
0.0
 40
0.0
 40
0.3060706298
 40
0.6028538844
 40
1.0
 40
1.0
 40
1.0
 40
1.0
 10
49.47753495974936
 20
22.83708081104408
 30
0.0
 10
49.48100326582775
 20
22.84759777161169
 30
0.0
 10
49.45880500623649
 20
22.86762885044719
 30
0.0
 10
49.42890408167264
 20
22.88199490681562
 30
0.0
 10
49.40468030945852
 20
22.89142087477346
 30
0.0
 10
49.39104602755318
 20
22.89595787987654
 30
0.0
  0
SPLINE
  5
2DE
330
2
100
AcDbEntity
  8
0
  6
Continuous
 62
     7
100
AcDbSpline
210
0.0
220
0.0
230
1.0
 70
     8
 71
     3
 72
     9
 73
     5
 74
     0
 42
0.000000001
 43
0.0000000001
 40
0.0
 40
0.0
 40
0.0
 40
0.0
 40
0.3683670318
 40
1.0
 40
1.0
 40
1.0
 40
1.0
 10
48.0007507089549
 20
18.3716301958537
 30
0.0
 10
47.99881566656978
 20
18.36576293687695
 30
0.0
 10
47.98347143261518
 20
18.35493711235051
 30
0.0
 10
47.96756985690347
 20
18.3511136575869
 30
0.0
 10
47.95719992145374
 20
18.34894870911875
 30
0.0
  0
SPLINE
  5
2DF
330
2
100
AcDbEntity
  8
0
  6
Continuous
 62
     7
100
AcDbSpline
210
0.0
220
0.0
230
1.0
 70
     8
 71
     3
 72
     9
 73
     5
 74
     0
 42
0.000000001
 43
0.0000000001
 40
0.0
 40
0.0
 40
0.0
 40
0.0
 40
0.2285391143
 40
1.0
 40
1.0
 40
1.0
 40
1.0
 10
47.95719992145374
 20
18.34894870911875
 30
0.0
 10
47.95496527399524
 20
18.34848217809607
 30
0.0
 10
47.94515579910432
 20
18.34659174102903
 30
0.0
 10
47.9352493062781
 20
18.34523265768259
 30
0.0
 10
47.92759130988708
 20
18.34437427374303
 30
0.0
  0
SPLINE
  5
2E0
330
2
100
AcDbEntity
  8
0
  6
Continuous
 62
     7
100
AcDbSpline
210
0.0
220
0.0
230
1.0
 70
     8
 71
     3
 72
     9
 73
     5
 74
     0
 42
0.000000001
 43
0.0000000001
 40
0.0
 40
0.0
 40
0.0
 40
0.0
 40
0.2239703473
 40
1.0
 40
1.0
 40
1.0
 40
1.0
 10
47.92759130988708
 20
18.34437427374303
 30
0.0
 10
47.92276292093848
 20
18.34383306017423
 30
0.0
 10
47.90116516765094
 20
18.34176996230878
 30
0.0
 10
47.87946618313184
 20
18.3409046618134
 30
0.0
 10
47.86263387371728
 20
18.34063048584032
 30
0.0
  0
SPLINE
  5
2E1
330
2
100
AcDbEntity
  8
0
  6
Continuous
 62
     7
100
AcDbSpline
210
0.0
220
0.0
230
1.0
 70
     8
 71
     3
 72
    12
 73
     8
 74
     0
 42
0.000000001
 43
0.0000000001
 40
0.0
 40
0.0
 40
0.0
 40
0.0
 40
0.1927282224
 40
0.3038838601
 40
0.4253990734000002
 40
0.6971809379999999
 40
1.0
 40
1.0
 40
1.0
 40
1.0
 10
38.99929985604845
 20
20.05026088204944
 30
0.0
 10
38.87329440662782
 20
20.01531905879063
 30
0.0
 10
38.68760064744073
 20
19.91204366971933
 30
0.0
 10
38.47222556348711
 20
19.71983169239632
 30
0.0
 10
38.24727405213582
 20
19.46053879591825
 30
0.0
 10
37.99941477945122
 20
19.05501537996112
 30
0.0
 10
37.85180530469323
 20
18.69252598167124
 30
0.0
 10
37.78729520333183
 20
18.49746251303656
 30
0.0
  0
SPLINE
  5
2E2
330
2
100
AcDbEntity
  8
0
  6
Continuous
 62
     7
100
AcDbSpline
210
0.0
220
0.0
230
1.0
 70
     8
 71
     3
 72
     9
 73
     5
 74
     0
 42
0.000000001
 43
0.0000000001
 40
0.0
 40
0.0
 40
0.0
 40
0.0
 40
0.2457951506
 40
1.0
 40
1.0
 40
1.0
 40
1.0
 10
49.30017404967312
 20
22.89765825487657
 30
0.0
 10
49.29242050616679
 20
22.89702714225407
 30
0.0
 10
49.26094240738128
 20
22.89367557984594
 30
0.0
 10
49.22981139364366
 20
22.88722331182298
 30
0.0
 10
49.20680953177093
 20
22.88084480204259
 30
0.0
  0
SPLINE
  5
2E3
330
2
100
AcDbEntity
  8
0
  6
Continuous
 62
     7
100
AcDbSpline
210
0.0
220
0.0
230
1.0
 70
     8
 71
     3
 72
    10
 73
     6
 74
     0
 42
0.000000001
 43
0.0000000001
 40
0.0
 40
0.0
 40
0.0
 40
0.0
 40
0.397017052
 40
0.6937330483
 40
1.0
 40
1.0
 40
1.0
 40
1.0
 10
47.91429686163863
 20
18.43061356159754
 30
0.0
 10
47.92792911549936
 20
18.42606803843532
 30
0.0
 10
47.95214572727977
 20
18.41662561115432
 30
0.0
 10
47.98205817264088
 20
18.40222778114609
 30
0.0
 10
48.00422275568983
 20
18.38215781919905
 30
0.0
 10
48.0007507089549
 20
18.3716301958537
 30
0.0
  0
SPLINE
  5
2E4
330
2
100
AcDbEntity
  8
0
  6
Continuous
 62
     7
100
AcDbSpline
210
0.0
220
0.0
230
1.0
 70
     8
 71
     3
 72
     9
 73
     5
 74
     0
 42
0.000000001
 43
0.0000000001
 40
0.0
 40
0.0
 40
0.0
 40
0.0
 40
0.245242959
 40
1.0
 40
1.0
 40
1.0
 40
1.0
 10
36.99000723508909
 20
11.11607615888336
 30
0.0
 10
36.96796978254216
 20
11.1198497019461
 30
0.0
 10
36.87897324758069
 20
11.14019167155483
 30
0.0
 10
36.79510893808266
 20
11.18097521802439
 30
0.0
 10
36.73812919384335
 20
11.21955026152826
 30
0.0
  0
SPLINE
  5
2E5
330
2
100
AcDbEntity
  8
0
  6
Continuous
 62
     7
100
AcDbSpline
210
0.0
220
0.0
230
1.0
 70
     8
 71
     3
 72
    12
 73
     8
 74
     0
 42
0.000000001
 43
0.0000000001
 40
0.0
 40
0.0
 40
0.0
 40
0.0
 40
0.1881921955
 40
0.3022694937
 40
0.4284336667
 40
0.7071647496
 40
1.0
 40
1.0
 40
1.0
 40
1.0
 10
36.67633233583288
 20
11.26613302975496
 30
0.0
 10
36.53737293361234
 20
11.38200521135077
 30
0.0
 10
36.3753942074389
 20
11.63910704103421
 30
0.0
 10
36.24420601063736
 20
12.02881828340075
 30
0.0
 10
36.15061822162907
 20
12.52087909115817
 30
0.0
 10
36.14247437048206
 20
13.19639488167919
 30
0.0
 10
36.23665112359139
 20
13.74133831590348
 30
0.0
 10
36.3106559848795
 20
14.01297449380806
 30
0.0
  0
ELLIPSE
  5
2E6
330
2
100
AcDbEntity
  8
0
  6
Continuous
 62
     7
100
AcDbEllipse
 10
0.0919389585976023
 20
14.0458865556968
 30
0.0
 11
0.041284848336975
 21
-0.0154313676361112
 31
0.0
210
0.0
220
0.0
230
1.0
 40
0.2585141318999999
 41
6.369045180599999
 42
6.918327497399999
  0
ELLIPSE
  5
2E7
330
2
100
AcDbEntity
  8
0
  6
Continuous
 62
     7
100
AcDbEllipse
 10
9.355272229886764
 20
6.321597174678879
 30
0.0
 11
0.041284848336975
 21
-0.0154313676361112
 31
0.0
210
0.0
220
0.0
230
1.0
 40
0.2585141318999999
 41
0.6351421901
 42
1.420540353499998
  0
ELLIPSE
  5
2E8
330
2
100
AcDbEntity
  8
0
  6
Continuous
 62
     7
100
AcDbEllipse
 10
9.098359342174273
 20
6.479195863279246
 30
0.0
 11
0.1238545450195404
 21
-0.0462941029165125
 31
0.0
210
0.0
220
0.0
230
1.0
 40
0.2585141319000001
 41
-2.506450463499998
 42
-1.7210523001
  0
ELLIPSE
  5
2E9
330
2
100
AcDbEntity
  8
0
  6
Continuous
 62
     7
100
AcDbEllipse
 10
0.1779691746940007
 20
13.91751995540853
 30
0.0
 11
0.1238545450195404
 21
-0.0462941029165125
 31
0.0
210
0.0
220
0.0
230
1.0
 40
0.2585141319000001
 41
-3.0559433267
 42
-2.5064504634
  0
ELLIPSE
  5
2EA
330
2
100
AcDbEntity
  8
0
  6
Continuous
 62
     7
100
AcDbEllipse
 10
28.21637866240653
 20
9.234772020724367
 30
0.0
 11
0.041284848336975
 21
-0.0154313676361112
 31
0.0
210
0.0
220
0.0
230
1.0
 40
0.2585141318999999
 41
-2.506450463499998
 42
-1.7210523001
  0
ELLIPSE
  5
2EB
330
2
100
AcDbEntity
  8
0
  6
Continuous
 62
     7
100
AcDbEllipse
 10
28.47329155011887
 20
9.077173332123983
 30
0.0
 11
0.1238545450195404
 21
-0.0462941029165125
 31
0.0
210
0.0
220
0.0
230
1.0
 40
0.2585141319000001
 41
0.6351421901
 42
1.420540353499998
  0
ELLIPSE
  5
2EC
330
2
100
AcDbEntity
  8
0
  6
Continuous
 62
     7
100
AcDbEllipse
 10
37.3936817175993
 20
1.638849239994714
 30
0.0
 11
0.1238545450195404
 21
-0.0462941029165125
 31
0.0
210
0.0
220
0.0
230
1.0
 40
0.2585141319000001
 41
-0.0835748791
 42
0.6351421902000001
  0
ELLIPSE
  5
2ED
330
2
100
AcDbEntity
  8
0
  6
Continuous
 62
     7
100
AcDbEllipse
 10
37.47971193369569
 20
1.510482639706459
 30
0.0
 11
0.041284848336975
 21
-0.0154313676361112
 31
0.0
210
0.0
220
0.0
230
1.0
 40
0.2585141318999999
 41
3.058293280299998
 42
3.776734843799998
  0
LINE
  5
2EE
330
2
100
AcDbEntity
  8
0
  6
Continuous
 62
     7
100
AcDbLine
 10
39.27515856211428
 20
14.98690494157837
 30
0.0
 11
37.78404900632248
 21
15.27324427118896
 31
0.0
  0
LINE
  5
2EF
330
2
100
AcDbEntity
  8
粗实线
 48
0.5
100
AcDbLine
 10
17.81122591863665
 20
28.2732589361771
 30
0.0
 11
16.52057446851585
 21
23.7512718434415
 31
0.0
  0
LINE
  5
2F0
330
2
100
AcDbEntity
  8
粗实线
 48
0.5
100
AcDbLine
 10
1.497836433112643
 20
13.56129202484219
 30
0.0
 11
5.029186438811612
 21
12.95359838696315
 31
0.0
  0
LINE
  5
2F1
330
2
100
AcDbEntity
  8
粗实线
 48
0.5
100
AcDbLine
 10
6.411723814087221
 20
12.12616224194719
 30
0.0
 11
13.66945784595576
 21
6.074254546228237
 31
0.0
  0
LINE
  5
2F2
330
2
100
AcDbEntity
  8
粗实线
 48
0.5
100
AcDbLine
 10
13.66945784595576
 20
6.074254546228237
 30
0.0
 11
13.90756036555484
 21
5.883619268825419
 31
0.0
  0
LINE
  5
2F3
330
2
100
AcDbEntity
  8
粗实线
 48
0.5
100
AcDbLine
 10
1.095432201055468
 20
13.42033253447606
 30
0.0
 11
8.93366646908607
 21
6.884371023720457
 31
0.0
  0
LINE
  5
2F4
330
2
100
AcDbEntity
  8
粗实线
 48
0.5
100
AcDbLine
 10
12.89205377462937
 20
7.005859722300753
 30
0.0
 11
13.2438791476407
 21
6.712115367420921
 31
0.0
  0
LINE
  5
2F5
330
2
100
AcDbEntity
  8
粗实线
 48
0.5
100
AcDbLine
 10
6.87107209674072
 20
12.62677896141736
 30
0.0
 11
10.85098088359436
 21
11.96704591204756
 31
0.0
  0
LINE
  5
2F6
330
2
100
AcDbEntity
  8
粗实线
 48
0.5
100
AcDbLine
 10
6.615800864129632
 20
12.59891820577401
 30
0.0
 11
6.871072096740719
 21
12.62677896141736
 31
0.0
  0
SPLINE
  5
2F7
330
2
100
AcDbEntity
  8
0
  6
Continuous
 62
     7
100
AcDbSpline
210
0.0
220
0.0
230
1.0
 70
     8
 71
     3
 72
    10
 73
     6
 74
     0
 42
0.000000001
 43
0.0000000001
 40
0.0
 40
0.0
 40
0.0
 40
0.0
 40
0.531350388
 40
0.7801691985
 40
1.0
 40
1.0
 40
1.0
 40
1.0
 10
10.85098088359436
 20
11.96704591204756
 30
0.0
 10
10.95730980663343
 20
11.93760179904011
 30
0.0
 10
11.11120921863191
 20
11.88547970092985
 30
0.0
 10
11.30130082871154
 20
11.80174051972415
 30
0.0
 10
11.3875015868489
 20
11.7562768206224
 30
0.0
 10
11.42672122437855
 20
11.73292350886546
 30
0.0
  0
LINE
  5
2F8
330
2
100
AcDbEntity
  8
粗实线
 48
0.5
100
AcDbLine
 10
11.42672122437853
 20
11.73292350886546
 30
0.0
 11
19.61396932947391
 21
4.928219358111954
 31
0.0
  0
LINE
  5
2F9
330
2
100
AcDbEntity
  8
粗实线
 48
0.5
100
AcDbLine
 10
12.88857837284249
 20
11.6127831607952
 30
0.0
 11
16.2274599217055
 21
11.04161775701266
 31
0.0
  0
LINE
  5
2FA
330
2
100
AcDbEntity
  8
粗实线
 48
0.5
100
AcDbLine
 10
21.39108256950966
 20
7.186405032166891
 30
0.0
 11
24.46335367026939
 21
4.621186532711393
 31
0.0
  0
LINE
  5
2FB
330
2
100
AcDbEntity
  8
粗实线
 48
0.5
100
AcDbLine
 10
25.06163595382675
 20
4.125448658639983
 30
0.0
 11
25.29578105055357
 21
3.930205280120828
 31
0.0
  0
LINE
  5
2FC
330
2
100
AcDbEntity
  8
粗实线
 48
0.5
100
AcDbLine
 10
19.77289163051623
 20
8.81886360470764
 30
0.0
 11
22.8840804586186
 21
6.224206477884314
 31
0.0
  0
LINE
  5
2FD
330
2
100
AcDbEntity
  8
0
  6
Continuous
 62
     7
100
AcDbLine
 10
21.78253401884572
 20
10.1559213803907
 30
0.0
 11
21.83624587654978
 21
10.31833348405843
 31
0.0
  0
LINE
  5
2FE
330
2
100
AcDbEntity
  8
0
  6
Continuous
 62
     7
100
AcDbLine
 10
22.78414987575577
 20
9.759598244799724
 30
0.0
 11
22.83768475142462
 21
9.921475196154126
 31
0.0
  0
LINE
  5
2FF
330
2
100
AcDbEntity
  8
0
  6
Continuous
 62
     7
100
AcDbLine
 10
22.71372774472208
 20
9.74215841931301
 30
0.0
 11
25.05536657913822
 21
7.789567979870572
 31
0.0
  0
LINE
  5
300
330
2
100
AcDbEntity
  8
0
  6
Continuous
 62
     7
100
AcDbLine
 10
22.83776522349
 20
9.921718524871147
 30
0.0
 11
25.25893721247746
 21
7.901431897596777
 31
0.0
  0
LINE
  5
301
330
2
100
AcDbEntity
  8
0
  6
Continuous
 62
     7
100
AcDbLine
 10
22.71070057874888
 20
10.02843364637292
 30
0.0
 11
22.83768475142462
 21
9.921475196154126
 31
0.0
  0
LINE
  5
302
330
2
100
AcDbEntity
  8
0
  6
Continuous
 62
     7
100
AcDbLine
 10
21.84585143905485
 20
10.31636102556222
 30
0.0
 11
22.08514878277347
 21
10.27595433760287
 31
0.0
  0
LINE
  5
303
330
2
100
AcDbEntity
  8
0
  6
Continuous
 62
     7
100
AcDbLine
 10
21.80193795361625
 20
10.10189816751692
 30
0.0
 11
21.72694778200128
 21
10.11472638056778
 31
0.0
  0
ARC
  5
304
330
2
100
AcDbEntity
  8
0
  6
Continuous
 62
     7
100
AcDbCircle
 10
21.29746038150818
 20
7.399369307336272
 30
0.0
 40
2.750197695545999
100
AcDbArc
 50
74.52129283085398
 51
74.89035009197293
  0
ARC
  5
305
330
2
100
AcDbEntity
  8
0
  6
Continuous
 62
     7
100
AcDbCircle
 10
21.33636373984099
 20
7.54639033616539
 30
0.0
 40
2.598118655168399
100
AcDbArc
 50
74.87347690814003
 51
76.46040980807964
  0
ARC
  5
306
330
2
100
AcDbEntity
  8
0
  6
Continuous
 62
     7
100
AcDbCircle
 10
21.37062535789698
 20
7.687734088099047
 30
0.0
 40
2.4526818505392
100
AcDbArc
 50
76.46551242122993
 51
77.03611128289328
  0
ARC
  5
307
330
2
100
AcDbEntity
  8
0
  6
Continuous
 62
     7
100
AcDbCircle
 10
21.43490040088231
 20
7.97824328507558
 30
0.0
 40
2.15515948095
100
AcDbArc
 50
76.96871314765811
 51
79.69100468264421
  0
ARC
  5
308
330
2
100
AcDbEntity
  8
0
  6
Continuous
 62
     7
100
AcDbCircle
 10
21.4812479303359
 20
8.228251033764852
 30
0.0
 40
1.900893612743999
100
AcDbArc
 50
79.71688966732566
 51
80.17065812890603
  0
ARC
  5
309
330
2
100
AcDbEntity
  8
0
  6
Continuous
 62
     7
100
AcDbCircle
 10
21.49061756694118
 20
8.282029323679596
 30
0.0
 40
1.846305227180399
100
AcDbArc
 50
80.17225267286232
 51
80.29252073090093
  0
ARC
  5
30A
330
2
100
AcDbEntity
  8
0
  6
Continuous
 62
     7
100
AcDbCircle
 10
21.99270289148934
 20
8.7834239218394
 30
0.0
 40
1.201314556512
100
AcDbArc
 50
58.29936652498052
 51
59.23626719566225
  0
ARC
  5
30B
330
2
100
AcDbEntity
  8
0
  6
Continuous
 62
     7
100
AcDbCircle
 10
22.04472856904891
 20
8.867814728991891
 30
0.0
 40
1.1021759055216
100
AcDbArc
 50
57.66268425730112
 51
58.29510129963331
  0
SPLINE
  5
30C
330
2
100
AcDbEntity
  8
0
  6
Continuous
 62
     7
100
AcDbSpline
210
0.0
220
0.0
230
1.0
 70
     8
 71
     3
 72
    10
 73
     6
 74
     0
 42
0.000000001
 43
0.0000000001
 40
0.0
 40
0.0
 40
0.0
 40
0.0
 40
0.531350388
 40
0.7801691985
 40
1.0
 40
1.0
 40
1.0
 40
1.0
 10
22.03143381255739
 20
10.04981650868008
 30
0.0
 10
22.13776273559646
 20
10.02037239567263
 30
0.0
 10
22.29166214759509
 20
9.968250297553977
 30
0.0
 10
22.48175375767441
 20
9.884511116356671
 30
0.0
 10
22.56795451581224
 20
9.839047417246522
 30
0.0
 10
22.60717415334188
 20
9.815694105489574
 30
0.0
  0
SPLINE
  5
30D
330
2
100
AcDbEntity
  8
0
  6
Continuous
 62
     7
100
AcDbSpline
210
0.0
220
0.0
230
1.0
 70
     8
 71
     3
 72
     9
 73
     5
 74
     0
 42
0.000000001
 43
0.0000000001
 40
0.0
 40
0.0
 40
0.0
 40
0.0
 40
0.2746625861
 40
1.0
 40
1.0
 40
1.0
 40
1.0
 10
22.63428548123754
 20
9.799058184814127
 30
0.0
 10
22.64184687822597
 20
9.794270491655606
 30
0.0
 10
22.66914604253579
 20
9.776488467131636
 30
0.0
 10
22.69557582413419
 20
9.757294513774851
 30
0.0
 10
22.71372774472208
 20
9.74215841931301
 30
0.0
  0
SPLINE
  5
30E
330
2
100
AcDbEntity
  8
0
  6
Continuous
 62
     7
100
AcDbSpline
210
0.0
220
0.0
230
1.0
 70
     8
 71
     3
 72
    10
 73
     6
 74
     0
 42
0.000000001
 43
0.0000000001
 40
0.0
 40
0.0
 40
0.0
 40
0.0
 40
0.5684063891
 40
0.8114221985
 40
1.0
 40
1.0
 40
1.0
 40
1.0
 10
21.78253401884572
 20
10.1559213803907
 30
0.0
 10
21.77985262903864
 20
10.14781539306123
 30
0.0
 10
21.77822003286183
 20
10.13523683108259
 30
0.0
 10
21.78125170149667
 20
10.12045441477534
 30
0.0
 10
21.78472779617301
 20
10.11462594915218
 30
0.0
 10
21.786903035976
 20
10.11281156615404
 30
0.0
  0
SPLINE
  5
30F
330
2
100
AcDbEntity
  8
0
  6
Continuous
 62
     7
100
AcDbSpline
210
0.0
220
0.0
230
1.0
 70
     8
 71
     3
 72
     9
 73
     5
 74
     0
 42
0.000000001
 43
0.0000000001
 40
0.0
 40
0.0
 40
0.0
 40
0.0
 40
0.5189659592
 40
1.0
 40
1.0
 40
1.0
 40
1.0
 10
22.78414987575577
 20
9.759598244799724
 30
0.0
 10
22.78145910240954
 20
9.751463162547915
 30
0.0
 10
22.77086120146933
 20
9.7371941703129
 30
0.0
 10
22.75323160574087
 20
9.732217534748123
 30
0.0
 10
22.74540420160905
 20
9.733563304412461
 30
0.0
  0
SPLINE
  5
310
330
2
100
AcDbEntity
  8
0
  6
Continuous
 62
     7
100
AcDbSpline
210
0.0
220
0.0
230
1.0
 70
     8
 71
     3
 72
    12
 73
     8
 74
     0
 42
0.000000001
 43
0.0000000001
 40
0.0
 40
0.0
 40
0.0
 40
0.0
 40
0.2641059314
 40
0.5447088322
 40
0.8017817448
 40
0.9101096422999999
 40
1.0
 40
1.0
 40
1.0
 40
1.0
 10
22.08514878277347
 20
10.27595433760287
 30
0.0
 10
22.14398055545319
 20
10.26589026523066
 30
0.0
 10
22.26397760066752
 20
10.23709860133803
 30
0.0
 10
22.43570100795175
 20
10.17875660634499
 30
0.0
 10
22.56932948694124
 20
10.11899831123214
 30
0.0
 10
22.65843290322132
 20
10.06740360590688
 30
0.0
 10
22.69509841789499
 20
10.04144360745754
 30
0.0
 10
22.71070057874888
 20
10.02843364637292
 30
0.0
  0
LINE
  5
311
330
2
100
AcDbEntity
  8
0
  6
Continuous
 62
     7
100
AcDbLine
 10
18.06138675246213
 20
10.61417231714264
 30
0.0
 11
18.19892405426094
 21
10.49987515280843
 31
0.0
  0
LINE
  5
312
330
2
100
AcDbEntity
  8
0
  6
Continuous
 62
     7
100
AcDbLine
 10
26.15849455633874
 20
3.847148178415936
 30
0.0
 11
18.19892405426094
 21
10.49987515280843
 31
0.0
  0
LINE
  5
313
330
2
100
AcDbEntity
  8
0
  6
Continuous
 62
     7
100
AcDbLine
 10
18.54762177082905
 20
10.87238802124716
 30
0.0
 11
18.55914196858527
 21
10.8704579150832
 31
0.0
  0
LINE
  5
314
330
2
100
AcDbEntity
  8
0
  6
Continuous
 62
     7
100
AcDbLine
 10
18.59989953876209
 20
10.64113162722823
 30
0.0
 11
18.52490929311667
 21
10.65395985295173
 31
0.0
  0
LINE
  5
315
330
2
100
AcDbEntity
  8
0
  6
Continuous
 62
     7
100
AcDbLine
 10
21.79886786548015
 20
10.31620349522182
 30
0.0
 11
18.55921721605005
 21
10.87039516950163
 31
0.0
  0
LINE
  5
316
330
2
100
AcDbEntity
  8
0
  6
Continuous
 62
     7
100
AcDbLine
 10
18.30971233005784
 20
10.91327628062512
 30
0.0
 11
18.5491811302381
 21
10.87178259125354
 31
0.0
  0
LINE
  5
317
330
2
100
AcDbEntity
  8
0
  6
Continuous
 62
     7
100
AcDbLine
 10
18.59989211817697
 20
10.64113166671582
 30
0.0
 11
18.60132828631811
 21
10.64083464317453
 31
0.0
  0
ARC
  5
318
330
2
100
AcDbEntity
  8
0
  6
Continuous
 62
     7
100
AcDbCircle
 10
18.21628696965705
 20
8.849873709234941
 30
0.0
 40
1.830293570027999
100
AcDbArc
 50
80.2924638448521
 51
80.45264931818808
  0
ARC
  5
319
330
2
100
AcDbEntity
  8
0
  6
Continuous
 62
     7
100
AcDbCircle
 10
18.22341354347871
 20
8.892424207067167
 30
0.0
 40
1.787150412767999
100
AcDbArc
 50
80.45169793402122
 51
80.84638231035524
  0
SPLINE
  5
31A
330
2
100
AcDbEntity
  8
0
  6
Continuous
 62
     7
100
AcDbSpline
210
0.0
220
0.0
230
1.0
 70
     8
 71
     3
 72
    10
 73
     6
 74
     0
 42
0.000000001
 43
0.0000000001
 40
0.0
 40
0.0
 40
0.0
 40
0.0
 40
0.187259113
 40
0.4196562416
 40
1.0
 40
1.0
 40
1.0
 40
1.0
 10
18.06138675246213
 20
10.61417231714264
 30
0.0
 10
18.26298398188842
 20
10.67068771918142
 30
0.0
 10
18.29959664359311
 20
10.6740951939528
 30
0.0
 10
18.38698441191546
 20
10.67348313192014
 30
0.0
 10
18.45768466239329
 20
10.664876822844
 30
0.0
 10
18.50771704987802
 20
10.65681591927762
 30
0.0
  0
SPLINE
  5
31B
330
2
100
AcDbEntity
  8
0
  6
Continuous
 62
     7
100
AcDbSpline
210
0.0
220
0.0
230
1.0
 70
     8
 71
     3
 72
    14
 73
    10
 74
     0
 42
0.000000001
 43
0.0000000001
 40
0.0
 40
0.0
 40
0.0
 40
0.0
 40
0.0591180287
 40
0.1308478591
 40
0.2222194244
 40
0.3356860812
 40
0.4715587212
 40
0.6289123133
 40
1.0
 40
1.0
 40
1.0
 40
1.0
 10
18.05849407240115
 20
10.88969212563421
 30
0.0
 10
18.06013016180605
 20
10.89462737538866
 30
0.0
 10
18.06698107975886
 20
10.90453755424718
 30
0.0
 10
18.08403381700195
 20
10.91473535776326
 30
0.0
 10
18.10742148481936
 20
10.92188029859308
 30
0.0
 10
18.13716809027762
 20
10.92611589373148
 30
0.0
 10
18.17295898803251
 20
10.9274026072087
 30
0.0
 10
18.23137424490544
 20
10.92498623127025
 30
0.0
 10
18.27754282944909
 20
10.91877936454276
 30
0.0
 10
18.30971233005784
 20
10.91327628062512
 30
0.0
  0
LINE
  5
31C
330
2
100
AcDbEntity
  8
粗实线
 48
0.5
100
AcDbLine
 10
18.59989211817697
 20
10.64113166671582
 30
0.0
 11
21.93877366703999
 21
10.06996626293328
 31
0.0
  0
LINE
  5
31D
330
2
100
AcDbEntity
  8
0
  6
Continuous
 62
     7
100
AcDbLine
 10
17.99844320541871
 20
10.7248341123762
 30
0.0
 11
18.05215506313057
 21
10.88724621605255
 31
0.0
  0
SPLINE
  5
31E
330
2
100
AcDbEntity
  8
0
  6
Continuous
 62
     7
100
AcDbSpline
210
0.0
220
0.0
230
1.0
 70
     8
 71
     3
 72
    10
 73
     6
 74
     0
 42
0.000000001
 43
0.0000000001
 40
0.0
 40
0.0
 40
0.0
 40
0.0
 40
0.4949060534000001
 40
0.7405777488
 40
1.0
 40
1.0
 40
1.0
 40
1.0
 10
18.01686665715173
 20
10.65041719580018
 30
0.0
 10
18.00891093692657
 20
10.6608455709352
 30
0.0
 10
17.99871611078779
 20
10.67832834795545
 30
0.0
 10
17.99426424947366
 20
10.70476029117173
 30
0.0
 10
17.99628437686603
 20
10.71830631940677
 30
0.0
 10
17.99844320541871
 20
10.7248341123762
 30
0.0
  0
LINE
  5
31F
330
2
100
AcDbEntity
  8
粗实线
 48
0.5
100
AcDbLine
 10
18.01686665715173
 20
10.65041719580018
 30
0.0
 11
18.06138675246213
 21
10.61417231714264
 31
0.0
  0
LINE
  5
320
330
2
100
AcDbEntity
  8
0
  6
Continuous
 62
     7
100
AcDbLine
 10
25.04902222001339
 20
7.793640768944618
 30
0.0
 11
26.88149993754498
 21
6.265085801245452
 31
0.0
  0
LINE
  5
321
330
2
100
AcDbEntity
  8
0
  6
Continuous
 62
     7
100
AcDbLine
 10
29.95801948600054
 20
3.699710403129992
 30
0.0
 11
30.54768153578798
 21
3.208016951529121
 31
0.0
  0
LINE
  5
322
330
2
100
AcDbEntity
  8
0
  6
Continuous
 62
     7
100
AcDbLine
 10
30.67163854249038
 20
3.387333728370238
 30
0.0
 11
30.800150986024
 21
3.281244699700768
 31
0.0
  0
LINE
  5
323
330
2
100
AcDbEntity
  8
0
  6
Continuous
 62
     7
100
AcDbLine
 10
28.37012604057983
 20
5.306774770773452
 30
0.0
 11
30.67163854249038
 21
3.387333728370238
 31
0.0
  0
LINE
  5
324
330
2
100
AcDbEntity
  8
0
  6
Continuous
 62
     7
100
AcDbLine
 10
30.79610396537476
 20
3.036384707207079
 30
0.0
 11
30.84981582307867
 21
3.198796810883195
 31
0.0
  0
SPLINE
  5
325
330
2
100
AcDbEntity
  8
0
  6
Continuous
 62
     7
100
AcDbSpline
210
0.0
220
0.0
230
1.0
 70
     8
 71
     3
 72
    13
 73
     9
 74
     0
 42
0.000000001
 43
0.0000000001
 40
0.0
 40
0.0
 40
0.0
 40
0.0
 40
0.0994410363
 40
0.1944941265
 40
0.2940528388
 40
0.4040065966000002
 40
0.6704358616000002
 40
0.7510542742530779
 40
0.7510542742530779
 40
0.7510542742530779
 40
0.7510542742530779
 10
30.79610396537476
 20
3.036384707207079
 30
0.0
 10
30.79305274604195
 20
3.027158533122904
 30
0.0
 10
30.78237287019846
 20
3.010430751661251
 30
0.0
 10
30.7580562691264
 20
2.99421133142464
 30
0.0
 10
30.72959652520763
 20
2.984793203651033
 30
0.0
 10
30.68351163150998
 20
2.977645515968752
 30
0.0
 10
30.63861366371895
 20
2.978410475881991
 30
0.0
 10
30.60477584264103
 20
2.981229701215636
 30
0.0
 10
30.59692901428615
 20
2.981993821998027
 30
0.0
  0
SPLINE
  5
326
330
2
100
AcDbEntity
  8
0
  6
Continuous
 62
     7
100
AcDbSpline
210
0.0
220
0.0
230
1.0
 70
     8
 71
     3
 72
    11
 73
     7
 74
     0
 42
0.000000001
 43
0.0000000001
 40
0.0
 40
0.0
 40
0.0
 40
0.0
 40
0.3438985768
 40
0.6188997554000001
 40
0.8304056598
 40
1.0
 40
1.0
 40
1.0
 40
1.0
 10
30.800150986024
 20
3.281244699700768
 30
0.0
 10
30.80902683913837
 20
3.273843513116151
 30
0.0
 10
30.82442352488066
 20
3.259765220714086
 30
0.0
 10
30.84204846656803
 20
3.237960916664897
 30
0.0
 10
30.85166589373271
 20
3.217708661673439
 30
0.0
 10
30.85160720092928
 20
3.204207191529738
 30
0.0
 10
30.84981382006007
 20
3.19879747340197
 30
0.0
  0
LINE
  5
327
330
2
100
AcDbEntity
  8
粗实线
 48
0.5
100
AcDbLine
 10
26.87712815147089
 20
6.268973325056028
 30
0.0
 11
29.94939925223062
 21
3.703754825600531
 31
0.0
  0
LINE
  5
328
330
2
100
AcDbEntity
  8
粗实线
 48
0.5
100
AcDbLine
 10
30.54768153578798
 20
3.208016951529121
 30
0.0
 11
30.78182663251481
 21
3.012773573009965
 31
0.0
  0
LINE
  5
329
330
2
100
AcDbEntity
  8
粗实线
 48
0.5
100
AcDbLine
 10
25.25893721247746
 20
7.901431897596777
 30
0.0
 11
28.37012604057983
 21
5.306774770773452
 31
0.0
  0
LINE
  5
32A
330
2
100
AcDbEntity
  8
粗实线
 48
0.5
100
AcDbLine
 10
30.48520565393496
 20
2.977757996456018
 30
0.0
 11
30.5969290142869
 21
2.981993821997953
 31
0.0
  0
LINE
  5
32B
330
2
100
AcDbEntity
  8
0
  6
Continuous
 62
     7
100
AcDbLine
 10
32.68981324815621
 20
2.60062622948882
 30
0.0
 11
36.17871645846439
 21
2.003796101562195
 31
0.0
  0
LINE
  5
32C
330
2
100
AcDbEntity
  8
0
  6
Continuous
 62
     7
100
AcDbLine
 10
27.47604482337516
 20
9.18195948549688
 30
0.0
 11
27.52975668107922
 21
9.344371589164607
 31
0.0
  0
LINE
  5
32D
330
2
100
AcDbEntity
  8
0
  6
Continuous
 62
     7
100
AcDbLine
 10
28.47766068028521
 20
8.785636349905901
 30
0.0
 11
28.53119555595406
 21
8.947513301260306
 31
0.0
  0
LINE
  5
32E
330
2
100
AcDbEntity
  8
0
  6
Continuous
 62
     7
100
AcDbLine
 10
28.40723854925152
 20
8.768196524419186
 30
0.0
 11
30.74887738366765
 21
6.815606084976749
 31
0.0
  0
LINE
  5
32F
330
2
100
AcDbEntity
  8
0
  6
Continuous
 62
     7
100
AcDbLine
 10
28.53127602801944
 20
8.947756629977323
 30
0.0
 11
30.9524480170069
 21
6.927470002702954
 31
0.0
  0
LINE
  5
330
330
2
100
AcDbEntity
  8
0
  6
Continuous
 62
     7
100
AcDbLine
 10
28.40421138327832
 20
9.0544717514791
 30
0.0
 11
28.53119555595406
 21
8.947513301260306
 31
0.0
  0
ARC
  5
331
330
2
100
AcDbEntity
  8
0
  6
Continuous
 62
     7
100
AcDbCircle
 10
26.99097118603762
 20
6.425407412442448
 30
0.0
 40
2.750197695545999
100
AcDbArc
 50
74.52129283085398
 51
74.89035009197298
  0
ARC
  5
332
330
2
100
AcDbEntity
  8
0
  6
Continuous
 62
     7
100
AcDbCircle
 10
27.02987454437043
 20
6.572428441271567
 30
0.0
 40
2.598118655168399
100
AcDbArc
 50
74.87347690814006
 51
76.46040980807964
  0
ARC
  5
333
330
2
100
AcDbEntity
  8
0
  6
Continuous
 62
     7
100
AcDbCircle
 10
27.06413616242641
 20
6.713772193205223
 30
0.0
 40
2.4526818505392
100
AcDbArc
 50
76.46551242122993
 51
77.03611128289328
  0
ARC
  5
334
330
2
100
AcDbEntity
  8
0
  6
Continuous
 62
     7
100
AcDbCircle
 10
27.68621369601877
 20
7.809462026945576
 30
0.0
 40
1.201314556512
100
AcDbArc
 50
58.29936652498052
 51
59.23626719566219
  0
ARC
  5
335
330
2
100
AcDbEntity
  8
0
  6
Continuous
 62
     7
100
AcDbCircle
 10
27.73823937357834
 20
7.893852834098068
 30
0.0
 40
1.1021759055216
100
AcDbArc
 50
57.66268425730112
 51
58.29510129963331
  0
SPLINE
  5
336
330
2
100
AcDbEntity
  8
0
  6
Continuous
 62
     7
100
AcDbSpline
210
0.0
220
0.0
230
1.0
 70
     8
 71
     3
 72
    10
 73
     6
 74
     0
 42
0.000000001
 43
0.0000000001
 40
0.0
 40
0.0
 40
0.0
 40
0.0
 40
0.531350388
 40
0.7801691985
 40
1.0
 40
1.0
 40
1.0
 40
1.0
 10
27.72494461708683
 20
9.075854613786262
 30
0.0
 10
27.83127354012589
 20
9.046410500778812
 30
0.0
 10
27.98517295212452
 20
8.994288402660149
 30
0.0
 10
28.17526456220385
 20
8.910549221462849
 30
0.0
 10
28.26146532034168
 20
8.865085522352698
 30
0.0
 10
28.30068495787132
 20
8.841732210595754
 30
0.0
  0
SPLINE
  5
337
330
2
100
AcDbEntity
  8
0
  6
Continuous
 62
     7
100
AcDbSpline
210
0.0
220
0.0
230
1.0
 70
     8
 71
     3
 72
     9
 73
     5
 74
     0
 42
0.000000001
 43
0.0000000001
 40
0.0
 40
0.0
 40
0.0
 40
0.0
 40
0.2746625861
 40
1.0
 40
1.0
 40
1.0
 40
1.0
 10
28.32779628576697
 20
8.825096289920306
 30
0.0
 10
28.33535768275541
 20
8.820308596761783
 30
0.0
 10
28.36265684706523
 20
8.802526572237814
 30
0.0
 10
28.38908662866363
 20
8.783332618881029
 30
0.0
 10
28.40723854925152
 20
8.76819652441919
 30
0.0
  0
SPLINE
  5
338
330
2
100
AcDbEntity
  8
0
  6
Continuous
 62
     7
100
AcDbSpline
210
0.0
220
0.0
230
1.0
 70
     8
 71
     3
 72
    10
 73
     6
 74
     0
 42
0.000000001
 43
0.0000000001
 40
0.0
 40
0.0
 40
0.0
 40
0.0
 40
0.5684063891
 40
0.8114221985
 40
1.0
 40
1.0
 40
1.0
 40
1.0
 10
27.47604482337516
 20
9.18195948549688
 30
0.0
 10
27.47336343356808
 20
9.173853498167403
 30
0.0
 10
27.47173083739126
 20
9.161274936188773
 30
0.0
 10
27.47476250602611
 20
9.146492519881519
 30
0.0
 10
27.47823860070245
 20
9.140664054258362
 30
0.0
 10
27.48041384050543
 20
9.138849671260215
 30
0.0
  0
SPLINE
  5
339
330
2
100
AcDbEntity
  8
0
  6
Continuous
 62
     7
100
AcDbSpline
210
0.0
220
0.0
230
1.0
 70
     8
 71
     3
 72
     9
 73
     5
 74
     0
 42
0.000000001
 43
0.0000000001
 40
0.0
 40
0.0
 40
0.0
 40
0.0
 40
0.5189659592
 40
1.0
 40
1.0
 40
1.0
 40
1.0
 10
28.47766068028521
 20
8.785636349905901
 30
0.0
 10
28.47496990693897
 20
8.777501267654095
 30
0.0
 10
28.46437200599877
 20
8.763232275419076
 30
0.0
 10
28.44674241027031
 20
8.758255639854301
 30
0.0
 10
28.43891500613849
 20
8.759601409518637
 30
0.0
  0
SPLINE
  5
33A
330
2
100
AcDbEntity
  8
0
  6
Continuous
 62
     7
100
AcDbSpline
210
0.0
220
0.0
230
1.0
 70
     8
 71
     3
 72
    12
 73
     8
 74
     0
 42
0.000000001
 43
0.0000000001
 40
0.0
 40
0.0
 40
0.0
 40
0.0
 40
0.2641059314
 40
0.5447088322
 40
0.8017817448
 40
0.9101096422999999
 40
1.0
 40
1.0
 40
1.0
 40
1.0
 10
27.77865958730291
 20
9.301992442709055
 30
0.0
 10
27.83749135998262
 20
9.29192837033684
 30
0.0
 10
27.95748840519695
 20
9.263136706444202
 30
0.0
 10
28.12921181248118
 20
9.204794711451167
 30
0.0
 10
28.26284029147068
 20
9.145036416338315
 30
0.0
 10
28.35194370775076
 20
9.093441711013056
 30
0.0
 10
28.38860922242443
 20
9.067481712563722
 30
0.0
 10
28.40421138327832
 20
9.0544717514791
 30
0.0
  0
LINE
  5
33B
330
2
100
AcDbEntity
  8
0
  6
Continuous
 62
     7
100
AcDbLine
 10
23.75489755699156
 20
9.64021042224882
 30
0.0
 11
23.89243485879038
 21
9.525913257914613
 31
0.0
  0
LINE
  5
33C
330
2
100
AcDbEntity
  8
0
  6
Continuous
 62
     7
100
AcDbLine
 10
31.85200536086818
 20
2.873186283522113
 30
0.0
 11
23.89243485879038
 21
9.525913257914613
 31
0.0
  0
LINE
  5
33D
330
2
100
AcDbEntity
  8
0
  6
Continuous
 62
     7
100
AcDbLine
 10
24.24113257535849
 20
9.89842612635334
 30
0.0
 11
24.25265277311471
 21
9.896496020189372
 31
0.0
  0
LINE
  5
33E
330
2
100
AcDbEntity
  8
0
  6
Continuous
 62
     7
100
AcDbLine
 10
24.29341034329153
 20
9.667169732334413
 30
0.0
 11
24.21842009764611
 21
9.679997958057914
 31
0.0
  0
LINE
  5
33F
330
2
100
AcDbEntity
  8
0
  6
Continuous
 62
     7
100
AcDbLine
 10
27.77865958730291
 20
9.301992442709055
 30
0.0
 11
24.25272802057949
 21
9.896433274607812
 31
0.0
  0
LINE
  5
340
330
2
100
AcDbEntity
  8
0
  6
Continuous
 62
     7
100
AcDbLine
 10
24.00322313458727
 20
9.939314385731302
 30
0.0
 11
24.24269193476754
 21
9.897820696359715
 31
0.0
  0
LINE
  5
341
330
2
100
AcDbEntity
  8
0
  6
Continuous
 62
     7
100
AcDbLine
 10
24.29340292270641
 20
9.667169771821999
 30
0.0
 11
24.29483909084755
 21
9.666872748280711
 31
0.0
  0
ARC
  5
342
330
2
100
AcDbEntity
  8
0
  6
Continuous
 62
     7
100
AcDbCircle
 10
23.90979777418649
 20
7.875911814341119
 30
0.0
 40
1.830293570027999
100
AcDbArc
 50
80.29246384485208
 51
80.45264931818808
  0
ARC
  5
343
330
2
100
AcDbEntity
  8
0
  6
Continuous
 62
     7
100
AcDbCircle
 10
23.91692434800814
 20
7.918462312173343
 30
0.0
 40
1.787150412767999
100
AcDbArc
 50
80.45169793402122
 51
80.84638231035524
  0
SPLINE
  5
344
330
2
100
AcDbEntity
  8
0
  6
Continuous
 62
     7
100
AcDbSpline
210
0.0
220
0.0
230
1.0
 70
     8
 71
     3
 72
    10
 73
     6
 74
     0
 42
0.000000001
 43
0.0000000001
 40
0.0
 40
0.0
 40
0.0
 40
0.0
 40
0.187259113
 40
0.4196562416
 40
1.0
 40
1.0
 40
1.0
 40
1.0
 10
23.75489755699156
 20
9.64021042224882
 30
0.0
 10
23.95649478641786
 20
9.696725824287602
 30
0.0
 10
23.99310744812255
 20
9.700133299058975
 30
0.0
 10
24.0804952164449
 20
9.699521237026321
 30
0.0
 10
24.15119546692273
 20
9.690914927950172
 30
0.0
 10
24.20122785440746
 20
9.682854024383797
 30
0.0
  0
SPLINE
  5
345
330
2
100
AcDbEntity
  8
0
  6
Continuous
 62
     7
100
AcDbSpline
210
0.0
220
0.0
230
1.0
 70
     8
 71
     3
 72
    14
 73
    10
 74
     0
 42
0.000000001
 43
0.0000000001
 40
0.0
 40
0.0
 40
0.0
 40
0.0
 40
0.0591180287
 40
0.1308478591
 40
0.2222194244
 40
0.3356860812
 40
0.4715587212
 40
0.6289123133
 40
1.0
 40
1.0
 40
1.0
 40
1.0
 10
23.75200487693059
 20
9.915730230740392
 30
0.0
 10
23.75364096633549
 20
9.920665480494839
 30
0.0
 10
23.7604918842883
 20
9.930575659353355
 30
0.0
 10
23.77754462153139
 20
9.940773462869453
 30
0.0
 10
23.8009322893488
 20
9.947918403699263
 30
0.0
 10
23.83067889480706
 20
9.952153998837655
 30
0.0
 10
23.86646979256195
 20
9.953440712314877
 30
0.0
 10
23.92488504943488
 20
9.951024336376427
 30
0.0
 10
23.97105363397853
 20
9.944817469648937
 30
0.0
 10
24.00322313458727
 20
9.939314385731302
 30
0.0
  0
LINE
  5
346
330
2
100
AcDbEntity
  8
粗实线
 48
0.5
100
AcDbLine
 10
24.29340292270641
 20
9.667169771821999
 30
0.0
 11
27.61436321150965
 21
9.103939228042236
 31
0.0
  0
LINE
  5
347
330
2
100
AcDbEntity
  8
0
  6
Continuous
 62
     7
100
AcDbLine
 10
23.69195400994815
 20
9.750872217482383
 30
0.0
 11
23.74566586766
 21
9.913284321158725
 31
0.0
  0
SPLINE
  5
348
330
2
100
AcDbEntity
  8
0
  6
Continuous
 62
     7
100
AcDbSpline
210
0.0
220
0.0
230
1.0
 70
     8
 71
     3
 72
    10
 73
     6
 74
     0
 42
0.000000001
 43
0.0000000001
 40
0.0
 40
0.0
 40
0.0
 40
0.0
 40
0.4949060534000001
 40
0.7405777488
 40
1.0
 40
1.0
 40
1.0
 40
1.0
 10
23.71037746168118
 20
9.676455300906358
 30
0.0
 10
23.702421741456
 20
9.686883676041381
 30
0.0
 10
23.69222691531723
 20
9.704366453061632
 30
0.0
 10
23.68777505400309
 20
9.730798396277908
 30
0.0
 10
23.68979518139546
 20
9.744344424512952
 30
0.0
 10
23.69195400994815
 20
9.750872217482383
 30
0.0
  0
LINE
  5
349
330
2
100
AcDbEntity
  8
粗实线
 48
0.5
100
AcDbLine
 10
23.71037746168118
 20
9.676455300906358
 30
0.0
 11
23.75489755699156
 21
9.64021042224882
 31
0.0
  0
LINE
  5
34A
330
2
100
AcDbEntity
  8
0
  6
Continuous
 62
     7
100
AcDbLine
 10
30.74253302454282
 20
6.819678874050798
 30
0.0
 11
32.57501074207443
 21
5.291123906351629
 31
0.0
  0
LINE
  5
34B
330
2
100
AcDbEntity
  8
0
  6
Continuous
 62
     7
100
AcDbLine
 10
35.65153029052997
 20
2.725748508236169
 30
0.0
 11
36.2411923403174
 21
2.234055056635298
 31
0.0
  0
LINE
  5
34C
330
2
100
AcDbEntity
  8
0
  6
Continuous
 62
     7
100
AcDbLine
 10
36.3651493470198
 20
2.413371833476415
 30
0.0
 11
36.49366179055344
 21
2.307282804806946
 31
0.0
  0
LINE
  5
34D
330
2
100
AcDbEntity
  8
0
  6
Continuous
 62
     7
100
AcDbLine
 10
34.06363684510927
 20
4.332812875879628
 30
0.0
 11
36.3651493470198
 21
2.413371833476415
 31
0.0
  0
LINE
  5
34E
330
2
100
AcDbEntity
  8
0
  6
Continuous
 62
     7
100
AcDbLine
 10
36.48961476990419
 20
2.062422812313258
 30
0.0
 11
36.5433266276081
 21
2.224834915989372
 31
0.0
  0
SPLINE
  5
34F
330
2
100
AcDbEntity
  8
0
  6
Continuous
 62
     7
100
AcDbSpline
210
0.0
220
0.0
230
1.0
 70
     8
 71
     3
 72
    13
 73
     9
 74
     0
 42
0.000000001
 43
0.0000000001
 40
0.0
 40
0.0
 40
0.0
 40
0.0
 40
0.0994410363
 40
0.1944941265
 40
0.2940528388
 40
0.4040065966000002
 40
0.6704358616000002
 40
0.7510542742530779
 40
0.7510542742530779
 40
0.7510542742530779
 40
0.7510542742530779
 10
36.48961476990419
 20
2.062422812313258
 30
0.0
 10
36.48656355057138
 20
2.053196638229083
 30
0.0
 10
36.4758836747279
 20
2.036468856767428
 30
0.0
 10
36.45156707365583
 20
2.020249436530817
 30
0.0
 10
36.42310732973707
 20
2.01083130875721
 30
0.0
 10
36.37702243603943
 20
2.003683621074928
 30
0.0
 10
36.33212446824838
 20
2.004448580988169
 30
0.0
 10
36.29828664717047
 20
2.007267806321813
 30
0.0
 10
36.29043981881558
 20
2.008031927104203
 30
0.0
  0
SPLINE
  5
350
330
2
100
AcDbEntity
  8
0
  6
Continuous
 62
     7
100
AcDbSpline
210
0.0
220
0.0
230
1.0
 70
     8
 71
     3
 72
    11
 73
     7
 74
     0
 42
0.000000001
 43
0.0000000001
 40
0.0
 40
0.0
 40
0.0
 40
0.0
 40
0.3438985768
 40
0.6188997554000001
 40
0.8304056598
 40
1.0
 40
1.0
 40
1.0
 40
1.0
 10
36.49366179055344
 20
2.307282804806946
 30
0.0
 10
36.50253764366782
 20
2.299881618222328
 30
0.0
 10
36.5179343294101
 20
2.285803325820264
 30
0.0
 10
36.53555927109746
 20
2.263999021771076
 30
0.0
 10
36.54517669826214
 20
2.243746766779615
 30
0.0
 10
36.54511800545872
 20
2.230245296635917
 30
0.0
 10
36.5433246245895
 20
2.224835578508146
 30
0.0
  0
LINE
  5
351
330
2
100
AcDbEntity
  8
粗实线
 48
0.5
100
AcDbLine
 10
32.57063895600032
 20
5.295011430162206
 30
0.0
 11
35.64291005676005
 21
2.729792930706707
 31
0.0
  0
LINE
  5
352
330
2
100
AcDbEntity
  8
粗实线
 48
0.5
100
AcDbLine
 10
36.2411923403174
 20
2.234055056635298
 30
0.0
 11
36.47533743704425
 21
2.038811678116143
 31
0.0
  0
LINE
  5
353
330
2
100
AcDbEntity
  8
粗实线
 48
0.5
100
AcDbLine
 10
30.9524480170069
 20
6.927470002702954
 30
0.0
 11
34.06363684510927
 21
4.332812875879628
 31
0.0
  0
LINE
  5
354
330
2
100
AcDbEntity
  8
粗实线
 48
0.5
100
AcDbLine
 10
36.17871645846439
 20
2.003796101562195
 30
0.0
 11
36.29043981881633
 21
2.008031927104132
 31
0.0
  0
ARC
  5
355
330
2
100
AcDbEntity
  8
粗实线
 48
0.5
100
AcDbCircle
 10
39.69749437780961
 20
13.30240312924985
 30
0.0
 40
2.819248412120837
100
AcDbArc
 50
135.4275072237876
 51
208.3992904082372
  0
ELLIPSE
  5
356
330
2
100
AcDbEntity
  8
粗实线
 48
0.5
100
AcDbEllipse
 10
38.98890891368501
 20
13.34460978621064
 30
0.0
 11
0.3386106148046243
 21
1.597436287863217
 31
0.0
210
0.0
220
0.0
230
1.0
 40
0.4073180743733922
 41
0.0
 42
6.283185307179586
  0
ARC
  5
357
330
2
100
AcDbEntity
  8
粗实线
 48
0.5
100
AcDbCircle
 10
6.461105401708541
 20
18.65139134672746
 30
0.0
 40
2.759264818136684
100
AcDbArc
 50
126.1710615053376
 51
191.9154202805985
  0
ENDSEC
  0
SECTION
  2
OBJECTS
  0
DICTIONARY
  5
7
330
0
100
AcDbDictionary
281
     1
  3
ACAD_COLOR
350
4C
  3
ACAD_GROUP
350
41
  3
ACAD_LAYOUT
350
1C
  3
ACAD_MATERIAL
350
9
  3
ACAD_MLEADERSTYLE
350
4F
  3
ACAD_MLINESTYLE
350
42
  3
ACAD_PLOTSETTINGS
350
43
  3
ACAD_PLOTSTYLENAME
350
6
  3
ACAD_SCALELIST
350
4D
  3
ACAD_TABLESTYLE
350
4E
  3
ACAD_VISUALSTYLE
350
37
  3
ACDB_RECOMPOSE_DATA
350
363
  3
AcDbVariableDictionary
350
358
  0
DICTIONARY
  5
28
330
27
100
AcDbDictionary
280
     1
281
     1
  3
ACAD_LAYERSTATES
360
29
  3
ACLYDICTIONARY
360
2A
  0
DICTIONARY
  5
21
330
20
100
AcDbDictionary
280
     1
281
     1
  3
ACAD_SORTENTS
360
22
  0
DICTIONARY
  5
4C
102
{ACAD_REACTORS
330
7
102
}
330
7
100
AcDbDictionary
281
     1
  0
DICTIONARY
  5
41
102
{ACAD_REACTORS
330
7
102
}
330
7
100
AcDbDictionary
281
     1
  0
DICTIONARY
  5
1C
102
{ACAD_REACTORS
330
7
102
}
330
7
100
AcDbDictionary
281
     1
  3
Model
350
1B
  3
布局3
350
25
1001
AcadStringInfo
1000
MIFCodePage
1070
     5
  0
DICTIONARY
  5
9
102
{ACAD_REACTORS
330
7
102
}
330
7
100
AcDbDictionary
281
     1
  3
ByBlock
350
44
  3
ByLayer
350
12
  3
Global
350
8
  0
DICTIONARY
  5
4F
102
{ACAD_REACTORS
330
7
102
}
330
7
100
AcDbDictionary
281
     1
  0
DICTIONARY
  5
42
102
{ACAD_REACTORS
330
7
102
}
330
7
100
AcDbDictionary
281
     1
  3
Standard
350
51
  0
DICTIONARY
  5
43
102
{ACAD_REACTORS
330
7
102
}
330
7
100
AcDbDictionary
281
     1
1001
AcadStringInfo
1000
MIFCodePage
1070
     5
  0
ACDBDICTIONARYWDFLT
  5
6
102
{ACAD_REACTORS
330
7
102
}
330
7
100
AcDbDictionary
281
     1
  3
Normal
350
5
100
AcDbDictionaryWithDefault
340
5
  0
DICTIONARY
  5
4D
102
{ACAD_REACTORS
330
7
102
}
330
7
100
AcDbDictionary
281
     1
  3
*A1
350
56
  3
A0
350
57
  3
A1
350
58
  3
A2
350
59
  3
A3
350
5A
  3
A4
350
5B
  3
A5
350
5C
  3
A6
350
5D
  3
A7
350
5E
  3
A8
350
5F
  3
A9
350
60
  3
B0
350
61
  3
B1
350
62
  3
B2
350
63
  3
B3
350
64
  3
B4
350
65
  3
B5
350
66
  3
B6
350
67
  3
B7
350
68
  0
DICTIONARY
  5
4E
102
{ACAD_REACTORS
330
7
102
}
330
7
100
AcDbDictionary
281
     1
  3
Standard
350
52
  0
DICTIONARY
  5
37
102
{ACAD_REACTORS
330
7
102
}
330
7
100
AcDbDictionary
281
     1
  3
2dWireframe
350
36
  3
Realistic
350
54
  3
Wireframe
350
55
  0
XRECORD
  5
363
102
{ACAD_REACTORS
330
7
102
}
330
7
100
AcDbXrecord
280
     1
 90
        1
330
52
  0
DICTIONARY
  5
358
102
{ACAD_REACTORS
330
7
102
}
330
7
100
AcDbDictionary
281
     1
  3
CANNOSCALE
350
35E
  3
CMLEADERSTYLE
350
35A
  3
CTABLESTYLE
350
359
  3
CVIEWDETAILSTYLE
350
35B
  3
CVIEWSECTIONSTYLE
350
35C
  3
LAYEREVAL
350
360
  3
LAYERNOTIFY
350
361
  3
LIGHTINGUNITS
350
35F
  3
MSLTSCALE
350
35D
  0
DICTIONARY
  5
29
102
{ACAD_REACTORS
330
28
102
}
330
28
100
AcDbDictionary
281
     1
  0
DICTIONARY
  5
2A
102
{ACAD_REACTORS
330
28
102
}
330
28
100
AcDbDictionary
281
     1
1001
ACAD
1000
<AllUsed
  0
SORTENTSTABLE
  5
22
102
{ACAD_REACTORS
330
21
102
}
330
21
100
AcDbSortentsTable
330
20
  0
LAYOUT
  5
1B
102
{ACAD_XDICTIONARY
360
1E
102
}
102
{ACAD_REACTORS
330
1C
102
}
330
1C
100
AcDbPlotSettings
  1

  2
none_device
  4
ISO_A4_(210.00_x_297.00_MM)
  6

 40
7.5
 41
20.0
 42
7.5
 43
20.0
 44
210.0
 45
297.0
 46
11.54999923706054
 47
-13.65000009536743
 48
0.0
 49
0.0
140
0.0
141
0.0
142
1.0
143
8.704084754739808
 70
 11952
 72
     1
 73
     0
 74
     0
  7

 75
     0
147
0.1148885871608098
 76
     0
 77
     2
 78
   300
148
0.0
149
0.0
100
AcDbLayout
  1
Model
 70
     1
 71
     0
 10
0.0
 20
0.0
 11
12.0
 21
9.0
 12
0.0
 22
0.0
 32
0.0
 14
4481.471318350177
 24
-3535.630252803612
 34
0.0
 15
24959.29873815779
 25
454.717472976647
 35
0.0
146
0.0
 13
0.0
 23
0.0
 33
0.0
 16
1.0
 26
0.0
 36
0.0
 17
0.0
 27
1.0
 37
0.0
 76
     0
330
2
331
35
1001
ACAD_PSEXT
1000
None
1000
None
1000
Not applicable
1000
The layout will not be plotted unless a new plotter configuration name is selected.
1070
     0
  0
LAYOUT
  5
25
102
{ACAD_XDICTIONARY
360
26
102
}
102
{ACAD_REACTORS
330
1C
102
}
330
1C
100
AcDbPlotSettings
  1

  2
TOSHIBA e-STUDIO PS3.pc3
  4
A4
  6

 40
5.0
 41
5.0
 42
4.888656616210936
 43
5.053009033203125
 44
209.8886566162109
 45
297.0530090332031
 46
0.0
 47
0.0
 48
0.0
 49
0.0
140
0.0
141
0.0
142
1.0
143
1.0
 70
   688
 72
     1
 73
     1
 74
     5
  7
monochrome.ctb
 75
    16
147
1.0
 76
     0
 77
     2
 78
   300
148
0.0
149
0.0
100
AcDbLayout
  1
布局3
 70
     1
 71
     1
 10
-5.053009033203125
 20
-5.0
 11
292.0
 21
204.888656616211
 12
0.0
 22
0.0
 32
0.0
 14
5.0
 24
4.899999999999494
 34
0.0
 15
282.0000000000003
 25
194.9
 35
0.0
146
0.0
 13
0.0
 23
0.0
 33
0.0
 16
1.0
 26
0.0
 36
0.0
 17
0.0
 27
1.0
 37
0.0
 76
     0
330
20
1001
ACAD_PSEXT
1000
TOSHIBA e-STUDIO PS3.pc3
1000
TOSHIBA e-STUDIO PS3
1000
192.168.1.14_1
1000

1070
     0
1001
AcadStringInfo
1000
MIFCodePage
1070
     5
  0
MATERIAL
  5
44
102
{ACAD_XDICTIONARY
360
45
102
}
102
{ACAD_REACTORS
330
9
102
}
330
9
100
AcDbMaterial
  1
ByBlock
 72
     0
 43
0.0008202099737533
 43
0.0
 43
0.0
 43
0.0
 43
0.0
 43
0.0008202099737533
 43
0.0
 43
0.0
 43
0.0
 43
0.0
 43
1.0
 43
0.0
 43
0.0
 43
0.0
 43
0.0
 43
1.0
 77
     0
 47
0.0008202099737533
 47
0.0
 47
0.0
 47
0.0
 47
0.0
 47
0.0008202099737533
 47
0.0
 47
0.0
 47
0.0
 47
0.0
 47
1.0
 47
0.0
 47
0.0
 47
0.0
 47
0.0
 47
1.0
171
     0
 49
0.0008202099737533
 49
0.0
 49
0.0
 49
0.0
 49
0.0
 49
0.0008202099737533
 49
0.0
 49
0.0
 49
0.0
 49
0.0
 49
1.0
 49
0.0
 49
0.0
 49
0.0
 49
0.0
 49
1.0
175
     0
142
0.0008202099737533
142
0.0
142
0.0
142
0.0
142
0.0
142
0.0008202099737533
142
0.0
142
0.0
142
0.0
142
0.0
142
1.0
142
0.0
142
0.0
142
0.0
142
0.0
142
1.0
179
     0
144
0.0008202099737533
144
0.0
144
0.0
144
0.0
144
0.0
144
0.0008202099737533
144
0.0
144
0.0
144
0.0
144
0.0
144
1.0
144
0.0
144
0.0
144
0.0
144
0.0
144
1.0
147
0.0008202099737533
147
0.0
147
0.0
147
0.0
147
0.0
147
0.0008202099737533
147
0.0
147
0.0
147
0.0
147
0.0
147
1.0
147
0.0
147
0.0
147
0.0
147
0.0
147
1.0
  0
MATERIAL
  5
12
102
{ACAD_XDICTIONARY
360
13
102
}
102
{ACAD_REACTORS
330
9
102
}
330
9
100
AcDbMaterial
  1
ByLayer
 72
     0
 43
0.0008202099737533
 43
0.0
 43
0.0
 43
0.0
 43
0.0
 43
0.0008202099737533
 43
0.0
 43
0.0
 43
0.0
 43
0.0
 43
1.0
 43
0.0
 43
0.0
 43
0.0
 43
0.0
 43
1.0
 77
     0
 47
0.0008202099737533
 47
0.0
 47
0.0
 47
0.0
 47
0.0
 47
0.0008202099737533
 47
0.0
 47
0.0
 47
0.0
 47
0.0
 47
1.0
 47
0.0
 47
0.0
 47
0.0
 47
0.0
 47
1.0
171
     0
 49
0.0008202099737533
 49
0.0
 49
0.0
 49
0.0
 49
0.0
 49
0.0008202099737533
 49
0.0
 49
0.0
 49
0.0
 49
0.0
 49
1.0
 49
0.0
 49
0.0
 49
0.0
 49
0.0
 49
1.0
175
     0
142
0.0008202099737533
142
0.0
142
0.0
142
0.0
142
0.0
142
0.0008202099737533
142
0.0
142
0.0
142
0.0
142
0.0
142
1.0
142
0.0
142
0.0
142
0.0
142
0.0
142
1.0
179
     0
144
0.0008202099737533
144
0.0
144
0.0
144
0.0
144
0.0
144
0.0008202099737533
144
0.0
144
0.0
144
0.0
144
0.0
144
1.0
144
0.0
144
0.0
144
0.0
144
0.0
144
1.0
147
0.0008202099737533
147
0.0
147
0.0
147
0.0
147
0.0
147
0.0008202099737533
147
0.0
147
0.0
147
0.0
147
0.0
147
1.0
147
0.0
147
0.0
147
0.0
147
0.0
147
1.0
  0
MATERIAL
  5
8
102
{ACAD_XDICTIONARY
360
A
102
}
102
{ACAD_REACTORS
330
9
102
}
330
9
100
AcDbMaterial
  1
Global
 72
     0
 43
0.0008202099737533
 43
0.0
 43
0.0
 43
0.0
 43
0.0
 43
0.0008202099737533
 43
0.0
 43
0.0
 43
0.0
 43
0.0
 43
1.0
 43
0.0
 43
0.0
 43
0.0
 43
0.0
 43
1.0
 77
     0
 47
0.0008202099737533
 47
0.0
 47
0.0
 47
0.0
 47
0.0
 47
0.0008202099737533
 47
0.0
 47
0.0
 47
0.0
 47
0.0
 47
1.0
 47
0.0
 47
0.0
 47
0.0
 47
0.0
 47
1.0
171
     0
 49
0.0008202099737533
 49
0.0
 49
0.0
 49
0.0
 49
0.0
 49
0.0008202099737533
 49
0.0
 49
0.0
 49
0.0
 49
0.0
 49
1.0
 49
0.0
 49
0.0
 49
0.0
 49
0.0
 49
1.0
175
     0
142
0.0008202099737533
142
0.0
142
0.0
142
0.0
142
0.0
142
0.0008202099737533
142
0.0
142
0.0
142
0.0
142
0.0
142
1.0
142
0.0
142
0.0
142
0.0
142
0.0
142
1.0
179
     0
144
0.0008202099737533
144
0.0
144
0.0
144
0.0
144
0.0
144
0.0008202099737533
144
0.0
144
0.0
144
0.0
144
0.0
144
1.0
144
0.0
144
0.0
144
0.0
144
0.0
144
1.0
147
0.0008202099737533
147
0.0
147
0.0
147
0.0
147
0.0
147
0.0008202099737533
147
0.0
147
0.0
147
0.0
147
0.0
147
1.0
147
0.0
147
0.0
147
0.0
147
0.0
147
1.0
  0
MLINESTYLE
  5
51
102
{ACAD_REACTORS
330
42
102
}
330
42
100
AcDbMlineStyle
  2
STANDARD
 70
     0
  3

 62
   256
 51
90.0
 52
90.0
 71
     2
 49
0.5
 62
   256
  6
BYLAYER
 49
-0.5
 62
   256
  6
BYLAYER
  0
ACDBPLACEHOLDER
  5
5
102
{ACAD_REACTORS
330
6
102
}
330
6
  0
SCALE
  5
56
102
{ACAD_REACTORS
330
4D
102
}
330
4D
100
AcDbScale
 70
     0
300
1:1_XREF_XREF
140
1.0
141
1.0
290
     0
  0
SCALE
  5
57
102
{ACAD_REACTORS
330
4D
102
}
330
4D
100
AcDbScale
 70
     0
300
1:1
140
1.0
141
1.0
290
     1
  0
SCALE
  5
58
102
{ACAD_REACTORS
330
4D
102
}
330
4D
100
AcDbScale
 70
     0
300
1:3
140
1.0
141
3.0
290
     0
  0
SCALE
  5
59
102
{ACAD_REACTORS
330
4D
102
}
330
4D
100
AcDbScale
 70
     0
300
1:2
140
1.0
141
2.0
290
     0
  0
SCALE
  5
5A
102
{ACAD_REACTORS
330
4D
102
}
330
4D
100
AcDbScale
 70
     0
300
1:4
140
1.0
141
4.0
290
     0
  0
SCALE
  5
5B
102
{ACAD_REACTORS
330
4D
102
}
330
4D
100
AcDbScale
 70
     0
300
1:5
140
1.0
141
5.0
290
     0
  0
SCALE
  5
5C
102
{ACAD_REACTORS
330
4D
102
}
330
4D
100
AcDbScale
 70
     0
300
1:8
140
1.0
141
8.0
290
     0
  0
SCALE
  5
5D
102
{ACAD_REACTORS
330
4D
102
}
330
4D
100
AcDbScale
 70
     0
300
1:10
140
1.0
141
10.0
290
     0
  0
SCALE
  5
5E
102
{ACAD_REACTORS
330
4D
102
}
330
4D
100
AcDbScale
 70
     0
300
1:16
140
1.0
141
16.0
290
     0
  0
SCALE
  5
5F
102
{ACAD_REACTORS
330
4D
102
}
330
4D
100
AcDbScale
 70
     0
300
1:20
140
1.0
141
20.0
290
     0
  0
SCALE
  5
60
102
{ACAD_REACTORS
330
4D
102
}
330
4D
100
AcDbScale
 70
     0
300
1:30
140
1.0
141
30.0
290
     0
  0
SCALE
  5
61
102
{ACAD_REACTORS
330
4D
102
}
330
4D
100
AcDbScale
 70
     0
300
1:40
140
1.0
141
40.0
290
     0
  0
SCALE
  5
62
102
{ACAD_REACTORS
330
4D
102
}
330
4D
100
AcDbScale
 70
     0
300
1:50
140
1.0
141
50.0
290
     0
  0
SCALE
  5
63
102
{ACAD_REACTORS
330
4D
102
}
330
4D
100
AcDbScale
 70
     0
300
1:100
140
1.0
141
100.0
290
     0
  0
SCALE
  5
64
102
{ACAD_REACTORS
330
4D
102
}
330
4D
100
AcDbScale
 70
     0
300
2:1
140
2.0
141
1.0
290
     0
  0
SCALE
  5
65
102
{ACAD_REACTORS
330
4D
102
}
330
4D
100
AcDbScale
 70
     0
300
4:1
140
4.0
141
1.0
290
     0
  0
SCALE
  5
66
102
{ACAD_REACTORS
330
4D
102
}
330
4D
100
AcDbScale
 70
     0
300
8:1
140
8.0
141
1.0
290
     0
  0
SCALE
  5
67
102
{ACAD_REACTORS
330
4D
102
}
330
4D
100
AcDbScale
 70
     0
300
10:1
140
10.0
141
1.0
290
     0
  0
SCALE
  5
68
102
{ACAD_REACTORS
330
4D
102
}
330
4D
100
AcDbScale
 70
     0
300
100:1
140
100.0
141
1.0
290
     0
  0
TABLESTYLE
  5
52
102
{ACAD_XDICTIONARY
360
53
102
}
102
{ACAD_REACTORS
330
4E
102
}
330
4E
100
AcDbTableStyle
280
     0
  3
Standard
 70
     0
 71
     0
 40
1.5
 41
1.5
280
     0
281
     0
  7
Standard
140
4.5
170
     2
 62
     0
 63
     7
283
     0
 90
      512
 91
        0
  1

274
    -2
284
     1
 64
     0
275
    -2
285
     1
 65
     0
276
    -2
286
     1
 66
     0
277
    -2
287
     1
 67
     0
278
    -2
288
     1
 68
     0
279
    -2
289
     1
 69
     0
  7
Standard
140
6.0
170
     5
 62
     0
 63
     7
283
     0
 90
      512
 91
        0
  1

274
    -2
284
     1
 64
     0
275
    -2
285
     1
 65
     0
276
    -2
286
     1
 66
     0
277
    -2
287
     1
 67
     0
278
    -2
288
     1
 68
     0
279
    -2
289
     1
 69
     0
  7
Standard
140
4.5
170
     5
 62
     0
 63
     7
283
     0
 90
      512
 91
        0
  1

274
    -2
284
     1
 64
     0
275
    -2
285
     1
 65
     0
276
    -2
286
     1
 66
     0
277
    -2
287
     1
 67
     0
278
    -2
288
     1
 68
     0
279
    -2
289
     1
 69
     0
  0
VISUALSTYLE
  5
36
102
{ACAD_REACTORS
330
37
102
}
330
37
100
AcDbVisualStyle
  2
2dWireframe
 70
     4
177
     3
291
     0
 70
    58
 90
        0
176
     1
 90
        2
176
     1
 90
        0
176
     1
 90
        0
176
     1
 40
0.6
176
     1
 40
30.0
176
     1
 62
     7
420
 16777215
176
     1
 90
        1
176
     1
 90
        4
176
     1
 62
     7
176
     1
 62
   257
176
     1
 90
        1
176
     1
 90
        1
176
     1
 40
1.0
176
     1
 90
        0
176
     1
 62
   257
176
     1
 40
1.0
176
     1
 90
        1
176
     1
 90
        6
176
     1
 90
        2
176
     1
 62
     7
176
     1
 90
        5
176
     1
 90
        0
176
     1
 90
        0
176
     1
290
     0
176
     1
 90
        1
176
     1
 40
0.0
176
     1
 90
        0
176
     1
290
     1
176
     1
290
     1
176
     1
290
     0
176
     1
290
     0
176
     1
290
     0
176
     1
290
     0
176
     1
290
     0
176
     1
290
     0
176
     1
290
     0
176
     1
 90
       50
176
     1
 40
0.0
176
     1
 40
1.0
176
     1
 90
        0
176
     1
 62
    18
176
     1
 90
       50
176
     1
 90
        3
176
     1
 62
     5
420
      255
176
     1
290
     0
176
     1
 90
       50
176
     1
 90
       50
176
     1
 90
       50
176
     1
290
     0
176
     1
 90
       50
176
     1
 62
   256
176
     0
 40
1.0
176
     0
 90
        2
176
     1
  1
strokes_ogs.tif
176
     1
290
     0
176
     1
 40
1.0
176
     1
 40
1.0
176
     1
  0
VISUALSTYLE
  5
54
102
{ACAD_REACTORS
330
37
102
}
330
37
100
AcDbVisualStyle
  2
Realistic
 70
     8
177
     3
291
     0
 70
    58
 90
        2
176
     1
 90
        3
176
     1
 90
        0
176
     1
 90
        2
176
     1
 40
0.6
176
     1
 40
30.0
176
     1
 62
     7
420
 16777215
176
     1
 90
        0
176
     1
 90
        0
176
     1
 62
     7
176
     1
 62
   257
176
     1
 90
        1
176
     1
 90
        1
176
     1
 40
1.0
176
     1
 90
        8
176
     1
 62
   257
176
     1
 40
1.0
176
     1
 90
        1
176
     1
 90
        6
176
     1
 90
        2
176
     1
 62
     7
176
     1
 90
        3
176
     1
 90
        0
176
     1
 90
        0
176
     1
290
     0
176
     1
 90
       13
176
     1
 40
0.0
176
     1
 90
        0
176
     1
290
     0
176
     1
290
     1
176
     1
290
     1
176
     1
290
     0
176
     1
290
     0
176
     1
290
     0
176
     1
290
     0
176
     1
290
     0
176
     1
290
     0
176
     1
 90
       50
176
     1
 40
0.0
176
     1
 40
1.0
176
     1
 90
        0
176
     1
 62
    18
176
     1
 90
       50
176
     1
 90
        3
176
     1
 62
     5
420
      255
176
     1
290
     0
176
     1
 90
       50
176
     1
 90
       50
176
     1
 90
       50
176
     1
290
     0
176
     1
 90
       50
176
     1
 62
   256
176
     0
 40
1.0
176
     0
 90
        2
176
     1
  1
strokes_ogs.tif
176
     1
290
     0
176
     1
 40
1.0
176
     1
 40
1.0
176
     1
  0
VISUALSTYLE
  5
55
102
{ACAD_REACTORS
330
37
102
}
330
37
100
AcDbVisualStyle
  2
Wireframe
 70
     5
177
     3
291
     0
 70
    58
 90
        0
176
     1
 90
        2
176
     1
 90
        0
176
     1
 90
        0
176
     1
 40
0.6
176
     1
 40
30.0
176
     1
 62
     7
420
 16777215
176
     1
 90
        1
176
     1
 90
        4
176
     1
 62
     7
176
     1
 62
   257
176
     1
 90
        1
176
     1
 90
        1
176
     1
 40
1.0
176
     1
 90
        0
176
     1
 62
   257
176
     1
 40
1.0
176
     1
 90
        1
176
     1
 90
        6
176
     1
 90
        2
176
     1
 62
     7
176
     1
 90
        3
176
     1
 90
        0
176
     1
 90
        0
176
     1
290
     0
176
     1
 90
        1
176
     1
 40
0.0
176
     1
 90
        0
176
     1
290
     0
176
     1
290
     1
176
     1
290
     1
176
     1
290
     0
176
     1
290
     0
176
     1
290
     0
176
     1
290
     0
176
     1
290
     0
176
     1
290
     0
176
     1
 90
       50
176
     1
 40
0.0
176
     1
 40
1.0
176
     1
 90
        0
176
     1
 62
    18
176
     1
 90
       50
176
     1
 90
        3
176
     1
 62
     5
420
      255
176
     1
290
     0
176
     1
 90
       50
176
     1
 90
       50
176
     1
 90
       50
176
     1
290
     0
176
     1
 90
       50
176
     1
 62
   256
176
     0
 40
1.0
176
     0
 90
        2
176
     1
  1
strokes_ogs.tif
176
     1
290
     0
176
     1
 40
1.0
176
     1
 40
1.0
176
     1
  0
DICTIONARYVAR
  5
35E
102
{ACAD_REACTORS
330
358
102
}
330
358
100
DictionaryVariables
280
     0
  1
1:1
  0
DICTIONARYVAR
  5
35A
102
{ACAD_REACTORS
330
358
102
}
330
358
100
DictionaryVariables
280
     0
  1
STANDARD
  0
DICTIONARYVAR
  5
359
102
{ACAD_REACTORS
330
358
102
}
330
358
100
DictionaryVariables
280
     0
  1
STANDARD
  0
DICTIONARYVAR
  5
35B
102
{ACAD_REACTORS
330
358
102
}
330
358
100
DictionaryVariables
280
     0
  1

  0
DICTIONARYVAR
  5
35C
102
{ACAD_REACTORS
330
358
102
}
330
358
100
DictionaryVariables
280
     0
  1

  0
DICTIONARYVAR
  5
360
102
{ACAD_REACTORS
330
358
102
}
330
358
100
DictionaryVariables
280
     0
  1
1
  0
DICTIONARYVAR
  5
361
102
{ACAD_REACTORS
330
358
102
}
330
358
100
DictionaryVariables
280
     0
  1
15
  0
DICTIONARYVAR
  5
35F
102
{ACAD_REACTORS
330
358
102
}
330
358
100
DictionaryVariables
280
     0
  1
0
  0
DICTIONARYVAR
  5
35D
102
{ACAD_REACTORS
330
358
102
}
330
358
100
DictionaryVariables
280
     0
  1
0
  0
DICTIONARY
  5
1E
330
1B
100
AcDbDictionary
280
     1
281
     1
  0
DICTIONARY
  5
26
330
25
100
AcDbDictionary
280
     1
281
     1
  0
DICTIONARY
  5
45
330
44
100
AcDbDictionary
280
     1
281
     1
  3
BUMPTILE
360
46
  3
DIFFUSETILE
360
47
  3
OPACITYTILE
360
48
  3
REFLECTIONTILE
360
49
  3
REFRACTIONTILE
360
4A
  3
SPECULARTILE
360
4B
  0
DICTIONARY
  5
13
330
12
100
AcDbDictionary
280
     1
281
     1
  3
BUMPTILE
360
14
  3
DIFFUSETILE
360
15
  3
OPACITYTILE
360
16
  3
REFLECTIONTILE
360
17
  3
REFRACTIONTILE
360
18
  3
SPECULARTILE
360
19
  0
DICTIONARY
  5
A
330
8
100
AcDbDictionary
280
     1
281
     1
  3
BUMPTILE
360
B
  3
DIFFUSETILE
360
C
  3
OPACITYTILE
360
D
  3
REFLECTIONTILE
360
E
  3
REFRACTIONTILE
360
F
  3
SPECULARTILE
360
10
  0
DICTIONARY
  5
53
330
52
100
AcDbDictionary
280
     1
281
     1
  3
ACAD_ROUNDTRIP_2008_TABLESTYLE_CELLSTYLEMAP
360
362
  0
XRECORD
  5
46
102
{ACAD_REACTORS
330
45
102
}
330
45
100
AcDbXrecord
280
     1
270
     1
271
     1
  0
XRECORD
  5
47
102
{ACAD_REACTORS
330
45
102
}
330
45
100
AcDbXrecord
280
     1
270
     1
271
     1
  0
XRECORD
  5
48
102
{ACAD_REACTORS
330
45
102
}
330
45
100
AcDbXrecord
280
     1
270
     1
271
     1
  0
XRECORD
  5
49
102
{ACAD_REACTORS
330
45
102
}
330
45
100
AcDbXrecord
280
     1
270
     1
271
     1
  0
XRECORD
  5
4A
102
{ACAD_REACTORS
330
45
102
}
330
45
100
AcDbXrecord
280
     1
270
     1
271
     1
  0
XRECORD
  5
4B
102
{ACAD_REACTORS
330
45
102
}
330
45
100
AcDbXrecord
280
     1
270
     1
271
     1
  0
XRECORD
  5
14
102
{ACAD_REACTORS
330
13
102
}
330
13
100
AcDbXrecord
280
     1
270
     1
271
     1
  0
XRECORD
  5
15
102
{ACAD_REACTORS
330
13
102
}
330
13
100
AcDbXrecord
280
     1
270
     1
271
     1
  0
XRECORD
  5
16
102
{ACAD_REACTORS
330
13
102
}
330
13
100
AcDbXrecord
280
     1
270
     1
271
     1
  0
XRECORD
  5
17
102
{ACAD_REACTORS
330
13
102
}
330
13
100
AcDbXrecord
280
     1
270
     1
271
     1
  0
XRECORD
  5
18
102
{ACAD_REACTORS
330
13
102
}
330
13
100
AcDbXrecord
280
     1
270
     1
271
     1
  0
XRECORD
  5
19
102
{ACAD_REACTORS
330
13
102
}
330
13
100
AcDbXrecord
280
     1
270
     1
271
     1
  0
XRECORD
  5
B
102
{ACAD_REACTORS
330
A
102
}
330
A
100
AcDbXrecord
280
     1
270
     1
271
     1
  0
XRECORD
  5
C
102
{ACAD_REACTORS
330
A
102
}
330
A
100
AcDbXrecord
280
     1
270
     1
271
     1
  0
XRECORD
  5
D
102
{ACAD_REACTORS
330
A
102
}
330
A
100
AcDbXrecord
280
     1
270
     1
271
     1
  0
XRECORD
  5
E
102
{ACAD_REACTORS
330
A
102
}
330
A
100
AcDbXrecord
280
     1
270
     1
271
     1
  0
XRECORD
  5
F
102
{ACAD_REACTORS
330
A
102
}
330
A
100
AcDbXrecord
280
     1
270
     1
271
     1
  0
XRECORD
  5
10
102
{ACAD_REACTORS
330
A
102
}
330
A
100
AcDbXrecord
280
     1
270
     1
271
     1
  0
CELLSTYLEMAP
  5
362
102
{ACAD_REACTORS
330
53
102
}
330
53
100
AcDbCellStyleMap
 90
        3
300
CELLSTYLE
  1
TABLEFORMAT_BEGIN
 90
        5
170
     1
 91
        0
 92
    32768
 62
   257
 93
        1
300
CONTENTFORMAT
  1
CONTENTFORMAT_BEGIN
 90
        0
 91
        0
 92
      512
 93
        0
300

 40
0.0
140
1.0
 94
        5
 62
     0
340
2D
144
6.0
309
CONTENTFORMAT_END
171
     1
301
MARGIN
  1
CELLMARGIN_BEGIN
 40
1.5
 40
1.5
 40
1.5
 40
1.5
 40
0.18
 40
0.18
309
CELLMARGIN_END
 94
        6
 95
        1
302
GRIDFORMAT
  1
GRIDFORMAT_BEGIN
 90
        0
 91
        1
 62
     0
 92
       -2
340
0
 93
        0
 40
1.125
309
GRIDFORMAT_END
 95
        2
302
GRIDFORMAT
  1
GRIDFORMAT_BEGIN
 90
        0
 91
        1
 62
     0
 92
       -2
340
0
 93
        0
 40
1.125
309
GRIDFORMAT_END
 95
        4
302
GRIDFORMAT
  1
GRIDFORMAT_BEGIN
 90
        0
 91
        1
 62
     0
 92
       -2
340
0
 93
        0
 40
1.125
309
GRIDFORMAT_END
 95
        8
302
GRIDFORMAT
  1
GRIDFORMAT_BEGIN
 90
        0
 91
        1
 62
     0
 92
       -2
340
0
 93
        0
 40
1.125
309
GRIDFORMAT_END
 95
       16
302
GRIDFORMAT
  1
GRIDFORMAT_BEGIN
 90
        0
 91
        1
 62
     0
 92
       -2
340
0
 93
        0
 40
1.125
309
GRIDFORMAT_END
 95
       32
302
GRIDFORMAT
  1
GRIDFORMAT_BEGIN
 90
        0
 91
        1
 62
     0
 92
       -2
340
0
 93
        0
 40
1.125
309
GRIDFORMAT_END
309
TABLEFORMAT_END
  1
CELLSTYLE_BEGIN
 90
        1
 91
        1
300
_TITLE
309
CELLSTYLE_END
300
CELLSTYLE
  1
TABLEFORMAT_BEGIN
 90
        5
170
     1
 91
        0
 92
        0
 62
   257
 93
        1
300
CONTENTFORMAT
  1
CONTENTFORMAT_BEGIN
 90
        0
 91
        0
 92
      512
 93
        0
300

 40
0.0
140
1.0
 94
        5
 62
     0
340
2D
144
4.5
309
CONTENTFORMAT_END
171
     1
301
MARGIN
  1
CELLMARGIN_BEGIN
 40
1.5
 40
1.5
 40
1.5
 40
1.5
 40
0.18
 40
0.18
309
CELLMARGIN_END
 94
        6
 95
        1
302
GRIDFORMAT
  1
GRIDFORMAT_BEGIN
 90
        0
 91
        1
 62
     0
 92
       -2
340
0
 93
        0
 40
1.125
309
GRIDFORMAT_END
 95
        2
302
GRIDFORMAT
  1
GRIDFORMAT_BEGIN
 90
        0
 91
        1
 62
     0
 92
       -2
340
0
 93
        0
 40
1.125
309
GRIDFORMAT_END
 95
        4
302
GRIDFORMAT
  1
GRIDFORMAT_BEGIN
 90
        0
 91
        1
 62
     0
 92
       -2
340
0
 93
        0
 40
1.125
309
GRIDFORMAT_END
 95
        8
302
GRIDFORMAT
  1
GRIDFORMAT_BEGIN
 90
        0
 91
        1
 62
     0
 92
       -2
340
0
 93
        0
 40
1.125
309
GRIDFORMAT_END
 95
       16
302
GRIDFORMAT
  1
GRIDFORMAT_BEGIN
 90
        0
 91
        1
 62
     0
 92
       -2
340
0
 93
        0
 40
1.125
309
GRIDFORMAT_END
 95
       32
302
GRIDFORMAT
  1
GRIDFORMAT_BEGIN
 90
        0
 91
        1
 62
     0
 92
       -2
340
0
 93
        0
 40
1.125
309
GRIDFORMAT_END
309
TABLEFORMAT_END
  1
CELLSTYLE_BEGIN
 90
        2
 91
        1
300
_HEADER
309
CELLSTYLE_END
300
CELLSTYLE
  1
TABLEFORMAT_BEGIN
 90
        5
170
     1
 91
        0
 92
        0
 62
   257
 93
        1
300
CONTENTFORMAT
  1
CONTENTFORMAT_BEGIN
 90
        0
 91
        0
 92
      512
 93
        0
300

 40
0.0
140
1.0
 94
        2
 62
     0
340
2D
144
4.5
309
CONTENTFORMAT_END
171
     1
301
MARGIN
  1
CELLMARGIN_BEGIN
 40
1.5
 40
1.5
 40
1.5
 40
1.5
 40
0.18
 40
0.18
309
CELLMARGIN_END
 94
        6
 95
        1
302
GRIDFORMAT
  1
GRIDFORMAT_BEGIN
 90
        0
 91
        1
 62
     0
 92
       -2
340
0
 93
        0
 40
1.125
309
GRIDFORMAT_END
 95
        2
302
GRIDFORMAT
  1
GRIDFORMAT_BEGIN
 90
        0
 91
        1
 62
     0
 92
       -2
340
0
 93
        0
 40
1.125
309
GRIDFORMAT_END
 95
        4
302
GRIDFORMAT
  1
GRIDFORMAT_BEGIN
 90
        0
 91
        1
 62
     0
 92
       -2
340
0
 93
        0
 40
1.125
309
GRIDFORMAT_END
 95
        8
302
GRIDFORMAT
  1
GRIDFORMAT_BEGIN
 90
        0
 91
        1
 62
     0
 92
       -2
340
0
 93
        0
 40
1.125
309
GRIDFORMAT_END
 95
       16
302
GRIDFORMAT
  1
GRIDFORMAT_BEGIN
 90
        0
 91
        1
 62
     0
 92
       -2
340
0
 93
        0
 40
1.125
309
GRIDFORMAT_END
 95
       32
302
GRIDFORMAT
  1
GRIDFORMAT_BEGIN
 90
        0
 91
        1
 62
     0
 92
       -2
340
0
 93
        0
 40
1.125
309
GRIDFORMAT_END
309
TABLEFORMAT_END
  1
CELLSTYLE_BEGIN
 90
        3
 91
        2
300
_DATA
309
CELLSTYLE_END
  0
ENDSEC
  0
SECTION
  2
ACDSDATA
 70
     2
 71
     7
  0
ACDSSCHEMA
 90
        0
  1
AcDb_Thumbnail_Schema
  2
AcDbDs::ID
280
    10
 91
        8
  2
Thumbnail_Data
280
    15
 91
        0
101
ACDSRECORD
 95
        0
 90
        1
  2
AcDbDs::TreatedAsObjectData
280
     1
291
     1
101
ACDSRECORD
 95
        0
 90
        2
  2
AcDbDs::Legacy
280
     1
291
     1
101
ACDSRECORD
  1
AcDbDs::ID
 90
        3
  2
AcDs:Indexable
280
     1
291
     1
101
ACDSRECORD
  1
AcDbDs::ID
 90
        4
  2
AcDbDs::HandleAttribute
280
     7
282
     1
  0
ACDSSCHEMA
 90
        1
  1
AcDbDs::TreatedAsObjectDataSchema
  2
AcDbDs::TreatedAsObjectData
280
     1
 91
        0
  0
ACDSSCHEMA
 90
        2
  1
AcDbDs::LegacySchema
  2
AcDbDs::Legacy
280
     1
 91
        0
  0
ACDSSCHEMA
 90
        3
  1
AcDbDs::IndexedPropertySchema
  2
AcDs:Indexable
280
     1
 91
        0
  0
ACDSSCHEMA
 90
        4
  1
AcDbDs::HandleAttributeSchema
  2
AcDbDs::HandleAttribute
280
     7
 91
        1
284
     1
  0
ACDSRECORD
 90
        0
  2
AcDbDs::ID
280
    10
320
1B
  2
Thumbnail_Data
280
    15
 94
     2733
310
89504E470D0A1A0A0000000D4948445200000100000000530802000000FF7D4EDC00000A744944415478DAED9D4B6C13D71AC7FF63C7CF38B6431287D80E763C8402A510AA969B7B814B69116D454129AD44AB6E587037AD2A2155F74A5D54AABAAD2A655354A98B9B6EFB502316558B80F68A059B1252686B829830CE8334
310
761CEC38F1731E7761700EB13389133B09F8FB2DA2C9DFE79CF93CF39D39E73B8F3140100441AC0C1DD492C7C073450A00A8A6F9BFAC524C5F5FDF92677C5082AAAEC05A822008822008822008822008822008822008822008822008822008822008822008822008822008822008A21C3870EB5E02519BE8368211010456EC
310
C43AE80A251044B9D46D042378F0A770EA2AAE8E60A4E4D3DD04530E391972F1A7AFE2D5294C5DC335BA97C48AFA0E1BA30208104A7EB4033B8EE3B8030E05CA47F868052510C4466F013470C0318EF1694C3BE1E4C0A9F45E17E2C98307BFEE251014041304550082A01860AD2A9FAE031D007CF001C820338631BA25C45A
310
A25FC77373E00EE3B008B11DED01040630D08AD60412DAB9DAD1EE81A7031D16584EE0443DEA9D703E8B67EFE08E0489EE28F1D874818C3076A0E3088E1CC2A1633896463A8B6C031AB473196098C1CC311CE3C1BBE00A20E085F7088EE49B1182786C5A0009D21CE6FEC49F02845FF1EB38C69348B6A16D0E730A94925902
310
080C63D80C33801FF16312490B2C3398B1C176099732C8D01D251E3F160C622E36A66980A11DEDCB2981201E832ED0628C63DC0D77B1BE055B46314AF78C78C22B403E1870C0C18A36D8968C8F09E249A80000A6306587DD00C3432B3B8EE0481861BA614465D9106B81F63CB7A7A5AE2512892CD00FE60E860C2100DB675F
310
B318C2BC696147DF061BCCE83476DE1FBCBFD82AA136B48910573CC3D0B9B573AF63EFE0F5415991AB7A111C70E8A11FC2D00C66C82F6BAB02CC35CD45EE440441280E069EC2538940A2CE95FD26F88D2449C5B16FCA9D529A94A43B298C0BC5413307EE1DBCF3093E59B16D8AAA0CC407A42D9224496363559CA7DB877D0D
310
6820EFAFC50AA0110C3C83675C49D7FFCC778BBDDF0D7700813FF007009817E66D46F3C7F87810839770699566A8AA2A8AA2C964E279FEFEFDFBD3D3D3D5F8B24104B7600B7924C5008F701EE7774FEF0E47836EF7C2712109924ED3FE5FF0CB1DDCF90B7F55C4924C26230882A2283CCF5B2C968A7FD3041269A4C923A905
310
788426DDB31F35F61927BB735B465A61B13DFA690EB9463496CC388BD9010CA0D2DB8563B1582C1673BBDD6D6D6DC3C3C3E4405401AA85C160906539AA0CD4EBEA0D5E63E73DEE128498C994C964F6637F273A2388DCC2AD14524D682ACECE818B20A2426D456BC56DBB77EF1E804020904EA7F3C70455800AB363C78E4C26
310
3334343433310358F760F75EC7DEE4E66426934988090B2CB398D5C86E85F5244E5EC5D56E745769B7E4F0F0B0C562E1793E168B45A35172268A012A49341A0D870B03FF89EFF17D341E35C886898989610C8B106FE2A6567644BFC497BFE3F7925BE92B452A9512044196659EE7CD6633F913B5002B243FC6B240349BCD9B
310
366D7AF85F0380949AF27ABD08E1B674DB0DF7566CBD25DFF2289E6C2EBB58C969A4BDF0AE781EC039E334F08670389C4824960C0CCC667328149265991C8B2883975F7E79257D24EC38833300789E2FAE3C8548E0537CBA1ADBF2CBEC5C2E17CFF37AFDD28B677D3E9FD7EB5DCDB9088A01964510C12CB2DA6954A85FE08B
310
D59F2B1C0E87C361BFDF0F4014458D94A150C86834961518D8616F40C30426C81D2906280FED38D88C0A77CA45511C1919E179DEE5726924CB66B382204892C4F3BCD56A5DB258175C2770A2E458164115408B494C2EDA7787F36B7C7D00072A7B46455104414826933CCF3B1C0E8D94F1785C100487C3D1D1D1A1D3695DE7
310
36B479E0B1C34EEE58A31540DB9396EE42D8ED1CC715777E7EC00F25F71554A0E5999D1504C16030F03C6F341A35524E4C4C88A2E8F3F95A5A5A345A2A09D24EEC2477ACD118201E8F57BE4CC4873054D54D92535353535353EDEDED3A9D2E140AE59B9D26342D78BD85AAAA77EFDEDDBE7D7BF172D73C1771F1322E37A271
310
C11608825A8065313333A3AA251643DFC3BD38E2D5367E7474746C6C8CE7F95657EBBB78378144C921D75C2EB758097AE84FE3F41A984A6CD00A508D16C006DB4B78E9693CBD06F6CBB22C084273BCF93BFEBB5443AADCEC5E7865C81404D72E2B9B0728A0310F80550FAE2F3F7B61C6C0E7F39534B282E7229EA816A0AAAC
310
81571DC5D14E74E68FC3E1B0D168D41EF621A80254068FC7C3F3BCCFE72B1E05CAC3817B1ECF57D5060B2C12A417F08219660B2C001445511425FF1179D80667438C0265B3D9EEEEEEB9B939499282C1E03273F9FDFE5DBB76058341655C318C18167BD2DFC44D1E7C02892AEDA94F21A542F5C2CB834FD7A5A7A429BD5EBF
310
6BDBAE2EB56B541D0D1B1E9CD4E57215EFF9B4C29A4492BCB0D62BC0952B57366FDE0CE0E0C183CBAF007ABD3E180C0A82A0B1DA9903F736DE3E8FF355B5FF67FCEC877F14A3822434A1C92FF9DB67DB27E549EE19AEB01BC16E2F31CFD58636FA611BAA0028EC37AFEC76DB9DD85987BAABB8BA065FE11AAEE5C731A3880A
310
9C70217C01007E01E001C64B06C11CB857F0CAE7F89CBC90628007943521A0D7EB1B1A167D93AE038EC338BC0DDB44886B60F90DDC0821943F4EA7D379C36C365B20F0701CB668D1860A557B2D13512B2D4081B226046459D658A36F855581328C75D8B63B3939E9F3F9128966BDBED1A3F373E0011C683C50ECED63185BCD
310
5E05E249A3AC0901EDE1FF4237A322FB01CAC5EFF73FDC3CE000D0D2D2B26FD33EEDC25FC48B3DE8211FA8E916C0A03394D10592F46EEBD26BDD7EC36F6BFF94154571EBD6ADAAAA36E79A1D0647EC7ECC366D2BAE4B7EF80BC739E45248D961A77763D52EAF5B5EAFF6B3796D5A806596731AA7E9A653103C4F32554383E2
310
1C382BACE48254016A1415EA4FF889AE0355000030C1947F859B19E6E5BCCB4DBFAE3FEEB47AEA516F8491FCAFA683600F3CF5A8CFBFB7673FF62B50FCF01FC2A1EBB89E7FAB21803AD4295038703AE872985F52FF16DE0A21F4984EA36EC2A60FF1E16DDCBE8CCBE482B58B19E6AFF09509A682B21BBB17A4791FEF77A1EB
310
0DBCF1013E58F05135DE7958327835C1B4CAA7B51D7636086E40C367F8EC0CCED0FAE79A6E01D2487F8B6FD95D8B377063419A38E22698228814EF7FD7D8115F415AD072144743080D61A864149B6FA000C890F5D0172F6ED341770AA7F23F86995712489CC3B928A24E38C905D77B288258AA02441059AC1FFF26DE9CC6B4
310
15D68BB8781CC7ADB09EC3B972CB216AB405782CD0F0DA6634471071C22941CA227B01170A3F6A5656390441100441100441100441100441100441100441AC3BDC7FFE5D38CE6FF82FF9666200AAA9282F00A0BB28FDBFAECC2F0BD7412D7DECDF53522F3ECB72E8EBEB7BE4FF932A00FCA5BEA79A1EFCEDC57BAA09CEFFCE
310
0270FEF34DE0C1FAE37E46EF63F44146EF3F38AFC718BD87D19DDCBC2E327A17A3C70ECCEB3D8CDECBE86719DDCF94D3CBE85D4CFA7E461FDCCFD8CFE8A799F431463FCBA477EA98EBC3E85D8CDEC7E83D8CDEFF0FC67E46EF61F45E461719BD9FD1637F67EC67F45E468F31BA9F29C7A967AE0F93BE8BD107BB19FB19FD34
310
93FE2CA39F65D2F732BA93D1FB19BD8FD10719BDFF6F8CFD8CDEC3E8CE3AE6FA307A17A3C7F631F6337A2FA3FF1F2E17E49F83FAA6F10000000049454E44AE426082
  0
ACDSRECORD
 90
        0
  2
AcDbDs::ID
280
    10
320
25
  2
Thumbnail_Data
280
    15
 94
     3517
310
89504E470D0A1A0A0000000D4948445200000100000000540802000000E2787E6400000D844944415478DAED9D5B701BD779C7BFB3078B1B011024481DDEC08B8858A04849142591BA50322346B6DAF4C2A469DAE685B45ED24CEC194F3BD369E24B7CC9C5B16347E317A3ED4C45D1D3E9D49EC9C8A323352F91EDB825259A
310
9464C6B2C6224401BC4A202002200002582C4E1F4053AB0B6DC129648EF4FD1E7680FF7E67CFC733DF9F67CF7277492510DF12CF5F7C1EAE8A23AFBCF4CE0F32475E79E99DF7B26C0E629DC47315629DC4730D627B882700B13DC4330FB1DDC41384D86EE209416C17F15C87D82EE25980D84EE209436C27F14420D6413C51
310
887510CF22C4DA892706B176E289436C07F12420B683789620B69D7892103B42D824F062CAD60BFE6BC2A680DB286B14FC35C2A681DB287309FE1A6133C0AD947D4DF057099B056EA5EC21C15F256C0EB885B20D82FF8AB0ABC02D94B905FF1561D7801751D624F82B8405801751B651F057089B076EA6AC59F097090B0237
310
53D622F8CB8485809B28DB24F82F09BB0EDC44D966C17F49D8027023655B047F89B030702365AD82BF445804B881B2AD82FF82B0287003656D82FF82B045E07ACAB609FE73C262C0F5946D17FCE784C581CB94ED10FC67842580CB94B50BFE33C29680EB28EB10FCA784A58053CA7609FE226169E094B2DD82BF4898025CA2
310
6C8FE02F1096012E51D629F80B84A9C009657B057F9EB02C7042D93EC19F274C0007CA1E16FC39C2003850D625F8738411E082B2AF0BFE13C224E082B2FD82FF84300A3C4B59B7E0CF12A6039EA5EC1B823F4B980C5CA5EC80E0CF10A607AE52F688E0CF1066009EA1EC51C19F26CC083C43D941C19F26CC045CA1EC4F047F
310
8A30337085B23F15FC29C28A80A729FBA6E03F26CC023C4DD99F09FE63C2ACC05394FDB9E03F22CC063C45D95F089EA2AC47F02AA9B34B0C2C51F62DC12BA5CEAF8B8125CABE2D78A5D4B95F0C2428FB2BC12BA4CE6E3190A0EC3B8257489DDF100371CAFE5A7026751E100371CABE2B38933A1F110331CAFE46F07552E7A3
310
622046D9DF0ABE4EEA3C28067ED0DF40FAFBFB0141F2C1D3DBFBF7478FF6F5F5F5F7F71FECEBFE6DFFEFDED9F4BBBFFC43F763BE4347EAFF3DA7E7B6FFF04F2FBEF6F233B9CFB956DFBD72E8AD869B6272DBDBDBE6FABA3DF2E91DCE9F7E38A53D666F6FEFD1CFF259ED68BDDFEF3BFA2FFDFF78F1D9579B5ED0B64503200F
310
34120E0182064010340082A00110040D8020680004410320081A0041D0000882064010340082A00110040D8020680004410320081A0041D0000882064010340082A00110040D80206B15DD57D26B2C166B6F6F5F9B23924AA5CE9D3B67B3D9B03870062814B22C171515A90ED5D6660B9584E4263959934C5627F54DFA05C7
310
42C9F69205C7C2ADE28E92B0232C37C96A83BA54BDA4DFA80F9584AC5BADE1B2B0EC5E168BB614AD88D008D986AC568C57C645A3C8AECF46CBA3962D965049C8DA6A4D542644A3A01B684E349418CC66B3AAAA581938031496FAFAFA0BC90BD94BD9D0D950F5E66A66603E9F2FA6C6CACBCBE7AFCD5FF75FAF6DAD0D4E0713
310
8944717DB161C130323CE2743A45449416957ABD5ED6C8E824252A8149302BE6D054C8E9745EFCF0A2DBED9E7E7FBABEB67EECDDB10D1B36C4037177977BA36B2300B86BDCCB7D3B00009A5C4D3789360000AFCB5B3C5F8C65810628380B0B0B299A7AF38D37ABAAAA868787B76EDD7AE9D2A5DADADAF7DF7FDF68349ACDE6
310
D1D1D1F2F2F275EBD60D0F0F2F2D2D3DF4D0432323236EB79B521A080486878733994C71717122913873E68CC562B972E54A341AF57ABDB158ACAAAA2A93C98C8F8FEB74BAAEAEAEBC120B87C3581668808263341A2B1C15AFBFFEFA5A1B11A3D18865816B000441031492C5C5C5B539226B3631E4BE32407575F5DA1C9135
310
9B18725F19C0EFF717B60301A00288B59718828B6000A8ABABF3433EA57619400F5009F03F00BB009600ECAB440E039402CC01FC01A005A00A2008B01EE03A80FBAE12C3B24003149CE9E96968C873AE7A0BE011801A8029003F40F72A91A5002E0017C05E8D680488DE7562089E02159AB2B2B2FC1A34C0E9E6D3B069B9B8
310
C7D431F0027801DE0208ACDA28994CFEF63FC7E6FE7B0E3E019800F85F80EC17F4E37038B02CD00005271E8FE715AF28CA85990B2B5F67D49994390566804580D42A6D7E0F33EFCD78CF7F3AA41F0237402300FBE29F3891486059A0010ADFB1945FD78B8B8B4D4D4D2B5FBBBABA4EFEFE24D8015C00C655D7C19154E4D08F
310
BEE9DEEB063B401B40FCFF3F31040DF065D0EBF579AF577437562C2693C964378119601CE04E470A8542DE6A6FABABD5546CCA643200004980D305490CC14570DE44A3D1552FE3AC7E16944A2D9FEE18260D4421900268BEF5B43E1A8D06BC0187C3E172B96666669213C9CD9B3703005080CABB4B0C4103141AC6D8144CE5
310
D5E4ECD9B3AAAA06C7E52235FAE8C4A35396296805B804B0FEA6B0C1D9C1836D07E7E7E7BD5E6F7575B5C9645ADE6104D87857896159E02950C1999ACAAFFA09903247D9BE7DFBF4A3C56D3BF7C201000B80132076EB1A20914E78BD5E59965D2ED78DEA2F586208CE005F869A9A9A69C8E38A7B0994B435B4F9DEF335FC9D
310
2D129A8DD4C0F794EF8117A01B80DC147960FB016BDA0A4180E06D475101B25FE0FA9A9A1A2C0B3440C1090402509B4F8393B0A17403EC06B0037801FE03200E70F00E81D65AEB1F9B1882062834369B2D78875FD1ABD30A207F76FB4323C03F034C142431ABD58A65810628388AA2E4D7A00A6002C00BF01E402B801D60A9
310
20892D5F3345D0000525EF3A2B06D80A40015C2B1E4203207F2C5FD955208BC5925F030A406F56E4B591188206F8120483C1B539226B3631E4BE3280D3E95C9B23B2661343EE2B03F87CBEB539226B3631E4BE5A04D7D6D64EC2E4DDC72793C97BF0A88A52A7D4D6D66259E00C5070E6E6E6F28ACF3DAAEBF7FB3FE799DD95
310
1800989F9FAFA8A870B95C131313A3A3A3E974DAE5720180CBE5B2A5671787FE2DFEE1D1C5C17F4D7FFC9BE4F9FF4A8CBCE9A03197CB25CBF2ECEC2C9605CE0005A7A4A42400010048A7D38AA2C8B2FCF9F7214B92C418CB3D46B3DAFD6AF1783C17B312B0B0B070E9D225C6D8DCDCDCC68D1B85109393937321A5687D97DE
310
56AEC6831915A2E11001E1BB1A0E66C6C9D74849490996051AA0E0AC5C6E3F79F2E4E0E0607373736B6B2B63ECDAB56B151515B79778369B9D9A9ACACD1BB22CAF36ABC8B29CDB06834183C12049525B5B9BAAAA131313A15028180C7EF0C107C160D0E1702493494248341ACD64322693C962F133C6F6AEDF8B6FC64503DC
310
0B128904942E2F06BC5EEF850B178686865A5A5A1445B1DBED76BBDDE9741A8DC69696969535C0D1A3476D361BA534F76AF53367CE4C4D4DF9FDFE279E7822377B70CE2F5FBEBC65CB9613274E54565646A3D14F3FFDB4A5A5657474B4A3A3E38D37DED8B16307634CAFD75BADD6AAAAAAE3C78FEFDAB52B1A8D46A3518BC5
310
927B29223E12F940417B7A7AEE7DAFAAAA7674742CCA8BA5503A3E3EEEF3F95455B5582C841049929C4EE7E9D3A76D365B757575696969AE492412894422C96472DDBA75C78F1F0F0683838383841045518686864E9C38B169D3A6A6A626A7D3994AA5B66FDF6E3018721DD96CB6C6C6C64C26B36DDBB6783CEE76BBEBEAEA
310
EAEBEB25496A6868686A6A2A2B2B6B69699165B9A1A18196D332A96C6C6CEC4BDC478DE00C9007B3B3B32B373598CD669D4E373F3FBF67CF1EB7DB5D5A5ADADEDE6E369B6FB92F4D51944422D1D9D9D9DDDDEDF7FBF7EDDB975BF28642A1B1B1B1DC3A410841C8F2EDD1E5E5E5B22C2B8A3231315153536332992449D2EBF5
310
7ABD5E519448242284906539E731B3D93C3D3DED6A71E122180D702F686C6CBC0C970160E7CE9DDBB66D339BCDE9745A92A4DCF9FD1DFF418BD96CBEE3D97F301814E20EAF800B04027EBFFFE1871F5655B5AEAEEEDD77DF6D6C6C1C1D1D1542BCFDF6DB8F3FFE787373B3CFE79B9D9D2D2B2B339BCD0D0D0D293955DB587B
310
EAD429AC8C0704D2DFDF7FEF7B4DA552FBF7EF37B94C4B777D4B6746C9E8645D2693A1941242725F6FD7455664B359AAA3AAAA4A4422D272A4769B6B0500B9CF5ACAA1DC3FE63F75EA145E0B7A40F86AFE0EA0AAAA2CCBD7CE5E2B09958447C2C669A37251512E2AC66963F46CB42C5C163D1B5D114D33A6E8D96845BC62F1
310
DCA2E5AA855C26E94FD2D680353C12B607ED4B1F2F19A78D3A9F4EB9A8D802B6C8D98823EC583CB7A89FD44B57A4F427E9D285D2F048B82C5296FC38A99FD293CB24FE51DC1176C43E8AD983F6D485943421E927F5F18FE2C5F3C5E323E3B9C50382334001C964324B4B4B6B76508A8A8AF0ED40B8062864AF3A1D3E78853C
310
B8A7400882064010340082A00110040D8020680004410320081A0041D0000882064010340082A00110040D8020680004410320081A0041D0000882064010340082A0019002D2D7D7B7B2F5F4F6AE6C1FF31DBA65AF76DBFBFD1B9F1FFBDCBD87FA7A6FD99B530E3DF7EB95BE566B7BFBF6F6F8A77E736B0C00C0B70500C055
310
F1436158DE1E861F0A03D88FC400C0BEEF3BF0D97FE83AA6D1FB35FA798D7E6CEF0D3DACD17B34BA9DDCD07D1ABD55A3873B6FE83D1AFDB0467F52A3D76B8E7358A3B76AE28F69F4F37B34F96BF43E4D7C58A33FA989B74B9AF1D1E8AD1ABD5FA3F768F463BB35F96BF41E8D7E58A3FB34FA318D1EDEA5C95FA31FD6E8618D
310
5EAF398E9D6AC64713DFAAD1CFEFD4E4AFD1FB34F14F6AF42735F18735BA5DA31FD3E8FD1AFDBC463FD6A1C95FA3F76874BB4E333E1ABD55A387DB35F96BF4C31AFDFF00A9D222C530523F4D0000000049454E44AE426082
  0
ENDSEC
  0
EOF
