  0
SECTION
  2
HEADER
  9
$ACADVER
  1
AC1018
  9
$ACADMAINTVER
 70
     0
  9
$DWGCODEPAGE
  3
ANSI_932
  9
$INSBASE
 10
0.0
 20
0.0
 30
0.0
  9
$EXTMIN
 10
1.000000000000000E+20
 20
1.000000000000000E+20
 30
1.000000000000000E+20
  9
$EXTMAX
 10
-1.000000000000000E+20
 20
-1.000000000000000E+20
 30
-1.000000000000000E+20
  9
$LIMMIN
 10
0.0
 20
0.0
  9
$LIMMAX
 10
12.0
 20
9.0
  9
$ORTHOMODE
 70
     0
  9
$REGENMODE
 70
     1
  9
$FILLMODE
 70
     1
  9
$QTEXTMODE
 70
     0
  9
$MIRRTEXT
 70
     1
  9
$LTSCALE
 40
1.0
  9
$ATTMODE
 70
     1
  9
$TEXTSIZE
 40
0.2
  9
$TRACEWID
 40
0.05
  9
$TEXTSTYLE
  7
Standard
  9
$CLAYER
  8
0
  9
$CELTYPE
  6
ByLayer
  9
$CECOLOR
 62
   256
  9
$CELTSCALE
 40
1.0
  9
$DISPSILH
 70
     0
  9
$DIMSCALE
 40
1.0
  9
$DIMASZ
 40
0.18
  9
$DIMEXO
 40
0.0625
  9
$DIMDLI
 40
0.38
  9
$DIMRND
 40
0.0
  9
$DIMDLE
 40
0.0
  9
$DIMEXE
 40
0.18
  9
$DIMTP
 40
0.0
  9
$DIMTM
 40
0.0
  9
$DIMTXT
 40
0.18
  9
$DIMCEN
 40
0.09
  9
$DIMTSZ
 40
0.0
  9
$DIMTOL
 70
     0
  9
$DIMLIM
 70
     0
  9
$DIMTIH
 70
     1
  9
$DIMTOH
 70
     1
  9
$DIMSE1
 70
     0
  9
$DIMSE2
 70
     0
  9
$DIMTAD
 70
     0
  9
$DIMZIN
 70
     0
  9
$DIMBLK
  1

  9
$DIMASO
 70
     1
  9
$DIMSHO
 70
     1
  9
$DIMPOST
  1

  9
$DIMAPOST
  1

  9
$DIMALT
 70
     0
  9
$DIMALTD
 70
     2
  9
$DIMALTF
 40
25.4
  9
$DIMLFAC
 40
1.0
  9
$DIMTOFL
 70
     0
  9
$DIMTVP
 40
0.0
  9
$DIMTIX
 70
     0
  9
$DIMSOXD
 70
     0
  9
$DIMSAH
 70
     0
  9
$DIMBLK1
  1

  9
$DIMBLK2
  1

  9
$DIMSTYLE
  2
Standard
  9
$DIMCLRD
 70
     0
  9
$DIMCLRE
 70
     0
  9
$DIMCLRT
 70
     0
  9
$DIMTFAC
 40
1.0
  9
$DIMGAP
 40
0.09
  9
$DIMJUST
 70
     0
  9
$DIMSD1
 70
     0
  9
$DIMSD2
 70
     0
  9
$DIMTOLJ
 70
     1
  9
$DIMTZIN
 70
     0
  9
$DIMALTZ
 70
     0
  9
$DIMALTTZ
 70
     0
  9
$DIMUPT
 70
     0
  9
$DIMDEC
 70
     4
  9
$DIMTDEC
 70
     4
  9
$DIMALTU
 70
     2
  9
$DIMALTTD
 70
     2
  9
$DIMTXSTY
  7
Standard
  9
$DIMAUNIT
 70
     0
  9
$DIMADEC
 70
     0
  9
$DIMALTRND
 40
0.0
  9
$DIMAZIN
 70
     0
  9
$DIMDSEP
 70
    46
  9
$DIMATFIT
 70
     3
  9
$DIMFRAC
 70
     0
  9
$DIMLDRBLK
  1

  9
$DIMLUNIT
 70
     2
  9
$DIMLWD
 70
    -2
  9
$DIMLWE
 70
    -2
  9
$DIMTMOVE
 70
     0
  9
$LUNITS
 70
     2
  9
$LUPREC
 70
     4
  9
$SKETCHINC
 40
0.1
  9
$FILLETRAD
 40
0.5
  9
$AUNITS
 70
     0
  9
$AUPREC
 70
     0
  9
$MENU
  1
.
  9
$ELEVATION
 40
0.0
  9
$PELEVATION
 40
0.0
  9
$THICKNESS
 40
0.0
  9
$LIMCHECK
 70
     0
  9
$CHAMFERA
 40
0.5
  9
$CHAMFERB
 40
0.5
  9
$CHAMFERC
 40
1.0
  9
$CHAMFERD
 40
0.0
  9
$SKPOLY
 70
     0
  9
$TDCREATE
 40
2457949.406406134
  9
$TDUCREATE
 40
2457949.031406134
  9
$TDUPDATE
 40
2457949.406406146
  9
$TDUUPDATE
 40
2457949.031406146
  9
$TDINDWG
 40
0.0000000116
  9
$TDUSRTIMER
 40
0.0000000116
  9
$USRTIMER
 70
     1
  9
$ANGBASE
 50
0.0
  9
$ANGDIR
 70
     0
  9
$PDMODE
 70
     0
  9
$PDSIZE
 40
0.0
  9
$PLINEWID
 40
0.0
  9
$SPLFRAME
 70
     0
  9
$SPLINETYPE
 70
     6
  9
$SPLINESEGS
 70
     8
  9
$HANDSEED
  5
15D
  9
$SURFTAB1
 70
     6
  9
$SURFTAB2
 70
     6
  9
$SURFTYPE
 70
     6
  9
$SURFU
 70
     6
  9
$SURFV
 70
     6
  9
$UCSBASE
  2

  9
$UCSNAME
  2

  9
$UCSORG
 10
0.0
 20
0.0
 30
0.0
  9
$UCSXDIR
 10
1.0
 20
0.0
 30
0.0
  9
$UCSYDIR
 10
0.0
 20
1.0
 30
0.0
  9
$UCSORTHOREF
  2

  9
$UCSORTHOVIEW
 70
     0
  9
$UCSORGTOP
 10
0.0
 20
0.0
 30
0.0
  9
$UCSORGBOTTOM
 10
0.0
 20
0.0
 30
0.0
  9
$UCSORGLEFT
 10
0.0
 20
0.0
 30
0.0
  9
$UCSORGRIGHT
 10
0.0
 20
0.0
 30
0.0
  9
$UCSORGFRONT
 10
0.0
 20
0.0
 30
0.0
  9
$UCSORGBACK
 10
0.0
 20
0.0
 30
0.0
  9
$PUCSBASE
  2

  9
$PUCSNAME
  2

  9
$PUCSORG
 10
0.0
 20
0.0
 30
0.0
  9
$PUCSXDIR
 10
1.0
 20
0.0
 30
0.0
  9
$PUCSYDIR
 10
0.0
 20
1.0
 30
0.0
  9
$PUCSORTHOREF
  2

  9
$PUCSORTHOVIEW
 70
     0
  9
$PUCSORGTOP
 10
0.0
 20
0.0
 30
0.0
  9
$PUCSORGBOTTOM
 10
0.0
 20
0.0
 30
0.0
  9
$PUCSORGLEFT
 10
0.0
 20
0.0
 30
0.0
  9
$PUCSORGRIGHT
 10
0.0
 20
0.0
 30
0.0
  9
$PUCSORGFRONT
 10
0.0
 20
0.0
 30
0.0
  9
$PUCSORGBACK
 10
0.0
 20
0.0
 30
0.0
  9
$USERI1
 70
     0
  9
$USERI2
 70
     0
  9
$USERI3
 70
     0
  9
$USERI4
 70
     0
  9
$USERI5
 70
     0
  9
$USERR1
 40
0.0
  9
$USERR2
 40
0.0
  9
$USERR3
 40
0.0
  9
$USERR4
 40
0.0
  9
$USERR5
 40
0.0
  9
$WORLDVIEW
 70
     1
  9
$SHADEDGE
 70
     3
  9
$SHADEDIF
 70
    70
  9
$TILEMODE
 70
     1
  9
$MAXACTVP
 70
    64
  9
$PINSBASE
 10
0.0
 20
0.0
 30
0.0
  9
$PLIMCHECK
 70
     0
  9
$PEXTMIN
 10
1.000000000000000E+20
 20
1.000000000000000E+20
 30
1.000000000000000E+20
  9
$PEXTMAX
 10
-1.000000000000000E+20
 20
-1.000000000000000E+20
 30
-1.000000000000000E+20
  9
$PLIMMIN
 10
0.0
 20
0.0
  9
$PLIMMAX
 10
12.0
 20
9.0
  9
$UNITMODE
 70
     0
  9
$VISRETAIN
 70
     1
  9
$PLINEGEN
 70
     0
  9
$PSLTSCALE
 70
     1
  9
$TREEDEPTH
 70
  3020
  9
$CMLSTYLE
  2
Standard
  9
$CMLJUST
 70
     0
  9
$CMLSCALE
 40
1.0
  9
$PROXYGRAPHICS
 70
     1
  9
$MEASUREMENT
 70
     0
  9
$CELWEIGHT
370
    -1
  9
$ENDCAPS
280
     0
  9
$JOINSTYLE
280
     0
  9
$LWDISPLAY
290
     1
  9
$INSUNITS
 70
     1
  9
$HYPERLINKBASE
  1

  9
$STYLESHEET
  1

  9
$XEDIT
290
     1
  9
$CEPSNTYPE
380
     0
  9
$PSTYLEMODE
290
     1
  9
$FINGERPRINTGUID
  2
{5D67000B-01F8-499A-A079-724CDB1F0D9A}
  9
$VERSIONGUID
  2
{FAEB1C32-E019-11D5-929B-00C0DF256EC4}
  9
$EXTNAMES
290
     1
  9
$PSVPSCALE
 40
0.0
  9
$OLESTARTUP
290
     0
  9
$SORTENTS
280
   127
  9
$INDEXCTL
280
     0
  9
$HIDETEXT
280
     1
  9
$XCLIPFRAME
290
     0
  9
$HALOGAP
280
     0
  9
$OBSCOLOR
 70
   257
  9
$OBSLTYPE
280
     0
  9
$INTERSECTIONDISPLAY
280
     0
  9
$INTERSECTIONCOLOR
 70
   257
  9
$DIMASSOC
280
     2
  9
$PROJECTNAME
  1

  0
ENDSEC
  0
SECTION
  2
CLASSES
  0
CLASS
  1
ACDBDICTIONARYWDFLT
  2
AcDbDictionaryWithDefault
  3
ObjectDBX Classes
 90
        0
 91
        3
280
     0
281
     0
  0
CLASS
  1
VISUALSTYLE
  2
AcDbVisualStyle
  3
ObjectDBX Classes
 90
     4095
 91
        3
280
     0
281
     0
  0
ENDSEC
  0
SECTION
  2
TABLES
  0
TABLE
  2
VPORT
  5
8
330
0
100
AcDbSymbolTable
 70
     1
  0
VPORT
  5
29
330
8
100
AcDbSymbolTableRecord
100
AcDbViewportTableRecord
  2
*Active
 70
     0
 10
0.0
 20
0.0
 11
1.0
 21
1.0
 12
0.0
 22
0.0
 13
0.0
 23
0.0
 14
0.5
 24
0.5
 15
0.5
 25
0.5
 16
0.0
 26
0.0
 36
1.0
 17
105.0008259828644
 27
-148.4999796178229
 37
0.0
 40
296.9999592356459
 41
0.7070763662937379
 42
50.0
 43
0.0
 44
0.0
 50
0.0
 51
0.0
 71
     0
 72
   100
 73
     1
 74
     3
 75
     0
 76
     0
 77
     0
 78
     0
281
     0
 65
     1
110
0.0
120
0.0
130
0.0
111
1.0
121
0.0
131
0.0
112
0.0
122
1.0
132
0.0
 79
     0
146
0.0
  0
ENDTAB
  0
TABLE
  2
LTYPE
  5
5
330
0
100
AcDbSymbolTable
 70
     1
  0
LTYPE
  5
14
330
5
100
AcDbSymbolTableRecord
100
AcDbLinetypeTableRecord
  2
ByBlock
 70
     0
  3

 72
    65
 73
     0
 40
0.0
  0
LTYPE
  5
15
330
5
100
AcDbSymbolTableRecord
100
AcDbLinetypeTableRecord
  2
ByLayer
 70
     0
  3

 72
    65
 73
     0
 40
0.0
  0
LTYPE
  5
16
330
5
100
AcDbSymbolTableRecord
100
AcDbLinetypeTableRecord
  2
Continuous
 70
     0
  3
Solid line
 72
    65
 73
     0
 40
0.0
  0
ENDTAB
  0
TABLE
  2
LAYER
  5
2
330
0
100
AcDbSymbolTable
 70
     2
  0
LAYER
  5
10
330
2
100
AcDbSymbolTableRecord
100
AcDbLayerTableRecord
  2
0
 70
     0
 62
     7
  6
Continuous
370
    -3
390
F
  0
LAYER
  5
3B
330
2
100
AcDbSymbolTableRecord
100
AcDbLayerTableRecord
  2
\U+30EC\U+30A4\U+30E4\U+30FC 1
 70
     0
 62
     7
  6
Continuous
370
    -3
390
F
  0
ENDTAB
  0
TABLE
  2
STYLE
  5
3
330
0
100
AcDbSymbolTable
 70
     1
  0
STYLE
  5
11
330
3
100
AcDbSymbolTableRecord
100
AcDbTextStyleTableRecord
  2
Standard
 70
     0
 40
0.0
 41
1.0
 50
0.0
 71
     0
 42
0.2
  3
txt
  4

  0
ENDTAB
  0
TABLE
  2
VIEW
  5
6
330
0
100
AcDbSymbolTable
 70
     0
  0
ENDTAB
  0
TABLE
  2
UCS
  5
7
330
0
100
AcDbSymbolTable
 70
     0
  0
ENDTAB
  0
TABLE
  2
APPID
  5
9
330
0
100
AcDbSymbolTable
 70
     1
  0
APPID
  5
12
330
9
100
AcDbSymbolTableRecord
100
AcDbRegAppTableRecord
  2
ACAD
 70
     0
  0
ENDTAB
  0
TABLE
  2
DIMSTYLE
  5
A
330
0
100
AcDbSymbolTable
 70
     1
100
AcDbDimStyleTable
  0
DIMSTYLE
105
27
330
A
100
AcDbSymbolTableRecord
100
AcDbDimStyleTableRecord
  2
Standard
 70
     0
340
11
  0
ENDTAB
  0
TABLE
  2
BLOCK_RECORD
  5
1
330
0
100
AcDbSymbolTable
 70
     1
  0
BLOCK_RECORD
  5
1F
330
1
100
AcDbSymbolTableRecord
100
AcDbBlockTableRecord
  2
*Model_Space
340
22
  0
BLOCK_RECORD
  5
1B
330
1
100
AcDbSymbolTableRecord
100
AcDbBlockTableRecord
  2
*Paper_Space
340
1E
  0
BLOCK_RECORD
  5
23
330
1
100
AcDbSymbolTableRecord
100
AcDbBlockTableRecord
  2
*Paper_Space0
340
26
  0
ENDTAB
  0
ENDSEC
  0
SECTION
  2
BLOCKS
  0
BLOCK
  5
20
330
1F
100
AcDbEntity
  8
0
100
AcDbBlockBegin
  2
*Model_Space
 70
     0
 71
     0
 10
0.0
 20
0.0
 30
0.0
  3
*Model_Space
  1

  0
ENDBLK
  5
21
330
1F
100
AcDbEntity
  8
0
100
AcDbBlockEnd
  0
BLOCK
  5
1C
330
1B
100
AcDbEntity
 67
     1
  8
0
100
AcDbBlockBegin
  2
*Paper_Space
 70
     0
 71
     0
 10
0.0
 20
0.0
 30
0.0
  3
*Paper_Space
  1

  0
ENDBLK
  5
1D
330
1B
100
AcDbEntity
 67
     1
  8
0
100
AcDbBlockEnd
  0
BLOCK
  5
24
330
23
100
AcDbEntity
  8
0
100
AcDbBlockBegin
  2
*Paper_Space0
 70
     0
 71
     0
 10
0.0
 20
0.0
 30
0.0
  3
*Paper_Space0
  1

  0
ENDBLK
  5
25
330
23
100
AcDbEntity
  8
0
100
AcDbBlockEnd
  0
ENDSEC
  0
SECTION
  2
ENTITIES
  0
POLYLINE
  5
3C
330
1F
100
AcDbEntity
  8
\U+30EC\U+30A4\U+30E4\U+30FC 1
 62
     7
370
    20
100
AcDb2dPolyline
 66
     1
 10
0.0
 20
0.0
 30
0.0
  0
VERTEX
  5
3D
330
3C
100
AcDbEntity
  8
\U+30EC\U+30A4\U+30E4\U+30FC 1
 62
     7
370
    20
100
AcDbVertex
100
AcDb2dVertex
 10
130.2504475585832
 20
-193.7997124081473
 30
0.0
  0
VERTEX
  5
3E
330
3C
100
AcDbEntity
  8
\U+30EC\U+30A4\U+30E4\U+30FC 1
 62
     7
370
    20
100
AcDbVertex
100
AcDb2dVertex
 10
130.2504475585832
 20
-196.2674343042318
 30
0.0
  0
SEQEND
  5
3F
330
3C
100
AcDbEntity
  8
\U+30EC\U+30A4\U+30E4\U+30FC 1
370
    20
  0
POLYLINE
  5
40
330
1F
100
AcDbEntity
  8
\U+30EC\U+30A4\U+30E4\U+30FC 1
 62
     7
370
    20
100
AcDb2dPolyline
 66
     1
 10
0.0
 20
0.0
 30
0.0
  0
VERTEX
  5
41
330
40
100
AcDbEntity
  8
\U+30EC\U+30A4\U+30E4\U+30FC 1
 62
     7
370
    20
100
AcDbVertex
100
AcDb2dVertex
 10
89.63036022064797
 20
-193.7997124081473
 30
0.0
  0
VERTEX
  5
42
330
40
100
AcDbEntity
  8
\U+30EC\U+30A4\U+30E4\U+30FC 1
 62
     7
370
    20
100
AcDbVertex
100
AcDb2dVertex
 10
131.7690456484814
 20
-193.7997124081473
 30
0.0
  0
SEQEND
  5
43
330
40
100
AcDbEntity
  8
\U+30EC\U+30A4\U+30E4\U+30FC 1
370
    20
  0
POLYLINE
  5
44
330
1F
100
AcDbEntity
  8
\U+30EC\U+30A4\U+30E4\U+30FC 1
 62
     7
370
    20
100
AcDb2dPolyline
 66
     1
 10
0.0
 20
0.0
 30
0.0
  0
VERTEX
  5
45
330
44
100
AcDbEntity
  8
\U+30EC\U+30A4\U+30E4\U+30FC 1
 62
     7
370
    20
100
AcDbVertex
100
AcDb2dVertex
 10
91.14913056532036
 20
-193.7997124081473
 30
0.0
  0
VERTEX
  5
46
330
44
100
AcDbEntity
  8
\U+30EC\U+30A4\U+30E4\U+30FC 1
 62
     7
370
    20
100
AcDbVertex
100
AcDb2dVertex
 10
91.14913056532036
 20
-196.2674343042318
 30
0.0
  0
VERTEX
  5
47
330
44
100
AcDbEntity
  8
\U+30EC\U+30A4\U+30E4\U+30FC 1
 62
     7
370
    20
100
AcDbVertex
100
AcDb2dVertex
 10
130.2504475585832
 20
-196.2674343042318
 30
0.0
  0
SEQEND
  5
48
330
44
100
AcDbEntity
  8
\U+30EC\U+30A4\U+30E4\U+30FC 1
370
    20
  0
POLYLINE
  5
49
330
1F
100
AcDbEntity
  8
\U+30EC\U+30A4\U+30E4\U+30FC 1
 62
     7
370
    20
100
AcDb2dPolyline
 66
     1
 10
0.0
 20
0.0
 30
0.0
  0
VERTEX
  5
4A
330
49
100
AcDbEntity
  8
\U+30EC\U+30A4\U+30E4\U+30FC 1
 62
     7
370
    20
100
AcDbVertex
100
AcDb2dVertex
 10
89.10842825463261
 20
-193.6095431373615
 30
0.0
  0
VERTEX
  5
4B
330
49
100
AcDbEntity
  8
\U+30EC\U+30A4\U+30E4\U+30FC 1
 62
     7
370
    20
100
AcDbVertex
100
AcDb2dVertex
 10
89.34493405969502
 20
-193.7518255809023
 30
0.0
  0
VERTEX
  5
4C
330
49
100
AcDbEntity
  8
\U+30EC\U+30A4\U+30E4\U+30FC 1
 62
     7
370
    20
100
AcDbVertex
100
AcDb2dVertex
 10
89.63036022064797
 20
-193.7997124081473
 30
0.0
  0
SEQEND
  5
4D
330
49
100
AcDbEntity
  8
\U+30EC\U+30A4\U+30E4\U+30FC 1
370
    20
  0
POLYLINE
  5
4E
330
1F
100
AcDbEntity
  8
\U+30EC\U+30A4\U+30E4\U+30FC 1
 62
     7
370
    20
100
AcDb2dPolyline
 66
     1
 10
0.0
 20
0.0
 30
0.0
  0
VERTEX
  5
4F
330
4E
100
AcDbEntity
  8
\U+30EC\U+30A4\U+30E4\U+30FC 1
 62
     7
370
    20
100
AcDbVertex
100
AcDb2dVertex
 10
131.7690456484814
 20
-193.7997124081473
 30
0.0
  0
VERTEX
  5
50
330
4E
100
AcDbEntity
  8
\U+30EC\U+30A4\U+30E4\U+30FC 1
 62
     7
370
    20
100
AcDbVertex
100
AcDb2dVertex
 10
132.05429955466
 20
-193.7518255809023
 30
0.0
  0
VERTEX
  5
51
330
4E
100
AcDbEntity
  8
\U+30EC\U+30A4\U+30E4\U+30FC 1
 62
     7
370
    20
100
AcDbVertex
100
AcDb2dVertex
 10
132.2906331049482
 20
-193.6095431373615
 30
0.0
  0
SEQEND
  5
52
330
4E
100
AcDbEntity
  8
\U+30EC\U+30A4\U+30E4\U+30FC 1
370
    20
  0
SPLINE
  5
53
330
1F
100
AcDbEntity
  8
\U+30EC\U+30A4\U+30E4\U+30FC 1
 62
     7
370
    20
100
AcDbSpline
210
0.0
220
0.0
230
1.0
 70
     8
 71
     3
 72
    14
 73
    10
 74
     0
 42
0.0000000001
 43
0.0000000001
 40
0.0
 40
0.0
 40
0.0
 40
0.0
 40
1.0
 40
1.0
 40
1.0
 40
2.0
 40
2.0
 40
2.0
 40
3.0
 40
3.0
 40
3.0
 40
3.0
 10
151.7464653483481
 20
-127.7916829107604
 30
0.0
 10
151.7464653483481
 20
-127.7916829107604
 30
0.0
 10
153.1224364851569
 20
-125.087110700065
 30
0.0
 10
153.1224364851569
 20
-125.087110700065
 30
0.0
 10
155.839927803922
 20
-119.5451578477179
 30
0.0
 10
157.2114203165999
 20
-113.8016669094836
 30
0.0
 10
157.7257730725477
 20
-107.6716362578043
 30
0.0
 10
157.7257730725477
 20
-107.6716362578043
 30
0.0
 10
157.8212022174891
 20
-104.6347845875566
 30
0.0
 10
157.8212022174891
 20
-104.6347845875566
 30
0.0
  0
SPLINE
  5
54
330
1F
100
AcDbEntity
  8
\U+30EC\U+30A4\U+30E4\U+30FC 1
 62
     7
370
    20
100
AcDbSpline
210
0.0
220
0.0
230
1.0
 70
     8
 71
     3
 72
    14
 73
    10
 74
     0
 42
0.0000000001
 43
0.0000000001
 40
0.0
 40
0.0
 40
0.0
 40
0.0
 40
1.0
 40
1.0
 40
1.0
 40
2.0
 40
2.0
 40
2.0
 40
3.0
 40
3.0
 40
3.0
 40
3.0
 10
63.62574596933662
 20
-104.6347845875566
 30
0.0
 10
63.62574596933662
 20
-104.6347845875566
 30
0.0
 10
63.72100285950378
 20
-107.6716362578043
 30
0.0
 10
63.72100285950378
 20
-107.6716362578043
 30
0.0
 10
64.10151365584963
 20
-113.6785047458859
 30
0.0
 10
65.62579615329841
 20
-119.6774495143515
 30
0.0
 10
68.27714163874668
 20
-125.087110700065
 30
0.0
 10
68.27714163874668
 20
-125.087110700065
 30
0.0
 10
69.70048283847765
 20
-127.7916829107604
 30
0.0
 10
69.70048283847765
 20
-127.7916829107604
 30
0.0
  0
SPLINE
  5
55
330
1F
100
AcDbEntity
  8
\U+30EC\U+30A4\U+30E4\U+30FC 1
 62
     7
370
    20
100
AcDbSpline
210
0.0
220
0.0
230
1.0
 70
     8
 71
     3
 72
    14
 73
    10
 74
     0
 42
0.0000000001
 43
0.0000000001
 40
0.0
 40
0.0
 40
0.0
 40
0.0
 40
1.0
 40
1.0
 40
1.0
 40
2.0
 40
2.0
 40
2.0
 40
3.0
 40
3.0
 40
3.0
 40
3.0
 10
154.1669894362846
 20
-90.2561618155436
 30
0.0
 10
154.1669894362846
 20
-90.2561618155436
 30
0.0
 10
152.6008490286901
 20
-87.69421655793757
 30
0.0
 10
152.6008490286901
 20
-87.69421655793757
 30
0.0
 10
132.7932725362461
 20
-57.36945256812292
 30
0.0
 10
88.62594263192338
 20
-57.33620739669026
 30
0.0
 10
68.84627141290996
 20
-87.69421655793757
 30
0.0
 10
68.84627141290996
 20
-87.69421655793757
 30
0.0
 10
67.27995875054113
 20
-90.2561618155436
 30
0.0
 10
67.27995875054113
 20
-90.2561618155436
 30
0.0
  0
POLYLINE
  5
56
330
1F
100
AcDbEntity
  8
\U+30EC\U+30A4\U+30E4\U+30FC 1
 62
     7
370
    20
100
AcDb2dPolyline
 66
     1
 10
0.0
 20
0.0
 30
0.0
  0
VERTEX
  5
57
330
56
100
AcDbEntity
  8
\U+30EC\U+30A4\U+30E4\U+30FC 1
 62
     7
370
    20
100
AcDbVertex
100
AcDb2dVertex
 10
157.8212022174891
 20
-104.6347845875566
 30
0.0
  0
VERTEX
  5
58
330
56
100
AcDbEntity
  8
\U+30EC\U+30A4\U+30E4\U+30FC 1
 62
     7
370
    20
100
AcDbVertex
100
AcDb2dVertex
 10
157.6782307548513
 20
-102.1668904366979
 30
0.0
  0
VERTEX
  5
59
330
56
100
AcDbEntity
  8
\U+30EC\U+30A4\U+30E4\U+30FC 1
 62
     7
370
    20
100
AcDbVertex
100
AcDb2dVertex
 10
157.3943548868667
 20
-99.65231524201401
 30
0.0
  0
VERTEX
  5
5A
330
56
100
AcDbEntity
  8
\U+30EC\U+30A4\U+30E4\U+30FC 1
 62
     7
370
    20
100
AcDbVertex
100
AcDb2dVertex
 10
156.8713893922058
 20
-97.232135663626
 30
0.0
  0
VERTEX
  5
5B
330
56
100
AcDbEntity
  8
\U+30EC\U+30A4\U+30E4\U+30FC 1
 62
     7
370
    20
100
AcDbVertex
100
AcDb2dVertex
 10
156.1599771745017
 20
-94.81195608523798
 30
0.0
  0
VERTEX
  5
5C
330
56
100
AcDbEntity
  8
\U+30EC\U+30A4\U+30E4\U+30FC 1
 62
     7
370
    20
100
AcDbVertex
100
AcDb2dVertex
 10
155.2590847051088
 20
-92.48668888746862
 30
0.0
  0
VERTEX
  5
5D
330
56
100
AcDbEntity
  8
\U+30EC\U+30A4\U+30E4\U+30FC 1
 62
     7
370
    20
100
AcDbVertex
100
AcDb2dVertex
 10
154.1669894362846
 20
-90.2561618155436
 30
0.0
  0
SEQEND
  5
5E
330
56
100
AcDbEntity
  8
\U+30EC\U+30A4\U+30E4\U+30FC 1
370
    20
  0
POLYLINE
  5
5F
330
1F
100
AcDbEntity
  8
\U+30EC\U+30A4\U+30E4\U+30FC 1
 62
     7
370
    20
100
AcDb2dPolyline
 66
     1
 10
0.0
 20
0.0
 30
0.0
  0
VERTEX
  5
60
330
5F
100
AcDbEntity
  8
\U+30EC\U+30A4\U+30E4\U+30FC 1
 62
     7
370
    20
100
AcDbVertex
100
AcDb2dVertex
 10
67.27995875054113
 20
-90.2561618155436
 30
0.0
  0
VERTEX
  5
61
330
5F
100
AcDbEntity
  8
\U+30EC\U+30A4\U+30E4\U+30FC 1
 62
     7
370
    20
100
AcDbVertex
100
AcDb2dVertex
 10
66.18786348171693
 20
-92.48668888746862
 30
0.0
  0
VERTEX
  5
62
330
5F
100
AcDbEntity
  8
\U+30EC\U+30A4\U+30E4\U+30FC 1
 62
     7
370
    20
100
AcDbVertex
100
AcDb2dVertex
 10
65.23977320417617
 20
-94.81195608523798
 30
0.0
  0
VERTEX
  5
63
330
5F
100
AcDbEntity
  8
\U+30EC\U+30A4\U+30E4\U+30FC 1
 62
     7
370
    20
100
AcDbVertex
100
AcDb2dVertex
 10
64.52801647692355
 20
-97.232135663626
 30
0.0
  0
VERTEX
  5
64
330
5F
100
AcDbEntity
  8
\U+30EC\U+30A4\U+30E4\U+30FC 1
 62
     7
370
    20
100
AcDbVertex
100
AcDb2dVertex
 10
64.00505098226263
 20
-99.65231524201401
 30
0.0
  0
VERTEX
  5
65
330
5F
100
AcDbEntity
  8
\U+30EC\U+30A4\U+30E4\U+30FC 1
 62
     7
370
    20
100
AcDbVertex
100
AcDb2dVertex
 10
63.72100285950378
 20
-102.1668904366979
 30
0.0
  0
VERTEX
  5
66
330
5F
100
AcDbEntity
  8
\U+30EC\U+30A4\U+30E4\U+30FC 1
 62
     7
370
    20
100
AcDbVertex
100
AcDb2dVertex
 10
63.62574596933662
 20
-104.6347845875566
 30
0.0
  0
SEQEND
  5
67
330
5F
100
AcDbEntity
  8
\U+30EC\U+30A4\U+30E4\U+30FC 1
370
    20
  0
POLYLINE
  5
68
330
1F
100
AcDbEntity
  8
\U+30EC\U+30A4\U+30E4\U+30FC 1
370
     0
100
AcDb2dPolyline
 66
     1
 10
0.0
 20
0.0
 30
0.0
  0
VERTEX
  5
69
330
68
100
AcDbEntity
  8
\U+30EC\U+30A4\U+30E4\U+30FC 1
370
     0
100
AcDbVertex
100
AcDb2dVertex
 10
99.31125078897428
 20
-226.0199679339464
 30
0.0
  0
VERTEX
  5
6A
330
68
100
AcDbEntity
  8
\U+30EC\U+30A4\U+30E4\U+30FC 1
370
     0
100
AcDbVertex
100
AcDb2dVertex
 10
103.4393364541749
 20
-231.0983831887532
 30
0.0
  0
VERTEX
  5
6B
330
68
100
AcDbEntity
  8
\U+30EC\U+30A4\U+30E4\U+30FC 1
370
     0
100
AcDbVertex
100
AcDb2dVertex
 10
117.9597249054059
 20
-231.0983831887532
 30
0.0
  0
SEQEND
  5
6C
330
68
100
AcDbEntity
  8
\U+30EC\U+30A4\U+30E4\U+30FC 1
370
     0
  0
HATCH
  5
6D
330
1F
100
AcDbEntity
  8
\U+30EC\U+30A4\U+30E4\U+30FC 1
 62
     7
100
AcDbHatch
 10
0.0
 20
0.0
 30
0.0
210
0.0
220
0.0
230
1.0
  2
SOLID
 70
     1
 71
     0
 91
        1
 92
        1
 93
        3
 72
     1
 10
99.31125078897428
 20
-226.0199679339464
 11
103.4393364541749
 21
-231.0983831887532
 72
     1
 10
103.4393364541749
 20
-231.0983831887532
 11
117.9597249054059
 21
-231.0983831887532
 72
     1
 10
117.9597249054059
 20
-231.0983831887532
 11
99.31125078897428
 21
-226.0199679339464
 97
        0
 75
     0
 76
     1
 98
        0
  0
POLYLINE
  5
6E
330
1F
100
AcDbEntity
  8
\U+30EC\U+30A4\U+30E4\U+30FC 1
370
     0
100
AcDb2dPolyline
 66
     1
 10
0.0
 20
0.0
 30
0.0
  0
VERTEX
  5
6F
330
6E
100
AcDbEntity
  8
\U+30EC\U+30A4\U+30E4\U+30FC 1
370
     0
100
AcDbVertex
100
AcDb2dVertex
 10
99.31125078897428
 20
-226.0199679339464
 30
0.0
  0
VERTEX
  5
70
330
6E
100
AcDbEntity
  8
\U+30EC\U+30A4\U+30E4\U+30FC 1
370
     0
100
AcDbVertex
100
AcDb2dVertex
 10
122.4211235588045
 20
-226.0199679339464
 30
0.0
  0
VERTEX
  5
71
330
6E
100
AcDbEntity
  8
\U+30EC\U+30A4\U+30E4\U+30FC 1
370
     0
100
AcDbVertex
100
AcDb2dVertex
 10
117.9597249054059
 20
-231.0983831887532
 30
0.0
  0
SEQEND
  5
72
330
6E
100
AcDbEntity
  8
\U+30EC\U+30A4\U+30E4\U+30FC 1
370
     0
  0
HATCH
  5
73
330
1F
100
AcDbEntity
  8
\U+30EC\U+30A4\U+30E4\U+30FC 1
 62
     7
100
AcDbHatch
 10
0.0
 20
0.0
 30
0.0
210
0.0
220
0.0
230
1.0
  2
SOLID
 70
     1
 71
     0
 91
        1
 92
        1
 93
        3
 72
     1
 10
99.31125078897428
 20
-226.0199679339464
 11
122.4211235588045
 21
-226.0199679339464
 72
     1
 10
122.4211235588045
 20
-226.0199679339464
 11
117.9597249054059
 21
-231.0983831887532
 72
     1
 10
117.9597249054059
 20
-231.0983831887532
 11
99.31125078897428
 21
-226.0199679339464
 97
        0
 75
     0
 76
     1
 98
        0
  0
POLYLINE
  5
74
330
1F
100
AcDbEntity
  8
\U+30EC\U+30A4\U+30E4\U+30FC 1
 62
     7
370
    20
100
AcDb2dPolyline
 66
     1
 10
0.0
 20
0.0
 30
0.0
  0
VERTEX
  5
75
330
74
100
AcDbEntity
  8
\U+30EC\U+30A4\U+30E4\U+30FC 1
 62
     7
370
    20
100
AcDbVertex
100
AcDb2dVertex
 10
98.97845456509914
 20
-226.0199679339464
 30
0.0
  0
VERTEX
  5
76
330
74
100
AcDbEntity
  8
\U+30EC\U+30A4\U+30E4\U+30FC 1
 62
     7
370
    20
100
AcDbVertex
100
AcDb2dVertex
 10
123.3230495568429
 20
-226.0199679339464
 30
0.0
  0
SEQEND
  5
77
330
74
100
AcDbEntity
  8
\U+30EC\U+30A4\U+30E4\U+30FC 1
370
    20
  0
SPLINE
  5
78
330
1F
100
AcDbEntity
  8
\U+30EC\U+30A4\U+30E4\U+30FC 1
 62
     7
370
    20
100
AcDbSpline
210
0.0
220
0.0
230
1.0
 70
     8
 71
     3
 72
    17
 73
    13
 74
     0
 42
0.0000000001
 43
0.0000000001
 40
0.0
 40
0.0
 40
0.0
 40
0.0
 40
1.0
 40
1.0
 40
1.0
 40
2.0
 40
2.0
 40
2.0
 40
3.0
 40
3.0
 40
3.0
 40
4.0
 40
4.0
 40
4.0
 40
4.0
 10
103.4393364541749
 20
-231.0983831887532
 30
0.0
 10
103.4393364541749
 20
-231.0983831887532
 30
0.0
 10
104.7677652732872
 20
-231.8576822337023
 30
0.0
 10
104.7677652732872
 20
-231.8576822337023
 30
0.0
 10
108.60456811521
 20
-233.7476616169103
 30
0.0
 10
112.7944932443708
 20
-233.7476616169103
 30
0.0
 10
116.6316405958421
 20
-231.8576822337023
 30
0.0
 10
116.6316405958421
 20
-231.8576822337023
 30
0.0
 10
117.9597249054059
 20
-231.0983831887532
 30
0.0
 10
117.9597249054059
 20
-231.0983831887532
 30
0.0
 10
117.9597249054059
 20
-231.0983831887532
 30
0.0
 10
122.4211235588045
 20
-226.0199679339464
 30
0.0
 10
122.4211235588045
 20
-226.0199679339464
 30
0.0
  0
POLYLINE
  5
79
330
1F
100
AcDbEntity
  8
\U+30EC\U+30A4\U+30E4\U+30FC 1
 62
     7
370
    20
100
AcDb2dPolyline
 66
     1
 10
0.0
 20
0.0
 30
0.0
  0
VERTEX
  5
7A
330
79
100
AcDbEntity
  8
\U+30EC\U+30A4\U+30E4\U+30FC 1
 62
     7
370
    20
100
AcDbVertex
100
AcDb2dVertex
 10
103.4393364541749
 20
-231.0983831887532
 30
0.0
  0
VERTEX
  5
7B
330
79
100
AcDbEntity
  8
\U+30EC\U+30A4\U+30E4\U+30FC 1
 62
     7
370
    20
100
AcDbVertex
100
AcDb2dVertex
 10
99.31125078897428
 20
-226.0199679339464
 30
0.0
  0
SEQEND
  5
7C
330
79
100
AcDbEntity
  8
\U+30EC\U+30A4\U+30E4\U+30FC 1
370
    20
  0
POLYLINE
  5
7D
330
1F
100
AcDbEntity
  8
\U+30EC\U+30A4\U+30E4\U+30FC 1
 62
     7
370
    20
100
AcDb2dPolyline
 66
     1
 10
0.0
 20
0.0
 30
0.0
  0
VERTEX
  5
7E
330
7D
100
AcDbEntity
  8
\U+30EC\U+30A4\U+30E4\U+30FC 1
 62
     7
370
    20
100
AcDbVertex
100
AcDb2dVertex
 10
96.03599851114726
 20
-224.1224093406708
 30
0.0
  0
VERTEX
  5
7F
330
7D
100
AcDbEntity
  8
\U+30EC\U+30A4\U+30E4\U+30FC 1
 62
     7
370
    20
100
AcDbVertex
100
AcDb2dVertex
 10
94.47003035832694
 20
-224.1224093406708
 30
0.0
  0
SEQEND
  5
80
330
7D
100
AcDbEntity
  8
\U+30EC\U+30A4\U+30E4\U+30FC 1
370
    20
  0
SPLINE
  5
81
330
1F
100
AcDbEntity
  8
\U+30EC\U+30A4\U+30E4\U+30FC 1
 62
     7
370
    20
100
AcDbSpline
210
0.0
220
0.0
230
1.0
 70
     8
 71
     3
 72
    14
 73
    10
 74
     0
 42
0.0000000001
 43
0.0000000001
 40
0.0
 40
0.0
 40
0.0
 40
0.0
 40
1.0
 40
1.0
 40
1.0
 40
2.0
 40
2.0
 40
2.0
 40
3.0
 40
3.0
 40
3.0
 40
3.0
 10
122.4211235588045
 20
-226.0199679339464
 30
0.0
 10
122.4211235588045
 20
-226.0199679339464
 30
0.0
 10
122.9427110152713
 20
-226.0199679339464
 30
0.0
 10
122.9427110152713
 20
-226.0199679339464
 30
0.0
 10
124.8385470608043
 20
-226.1095404165629
 30
0.0
 10
126.9941433059251
 20
-225.4801214714078
 30
0.0
 10
128.5892225155958
 20
-224.4541720359003
 30
0.0
 10
128.5892225155958
 20
-224.4541720359003
 30
0.0
 10
129.0629231448176
 20
-224.1224093406708
 30
0.0
 10
129.0629231448176
 20
-224.1224093406708
 30
0.0
  0
SPLINE
  5
82
330
1F
100
AcDbEntity
  8
\U+30EC\U+30A4\U+30E4\U+30FC 1
 62
     7
370
    20
100
AcDbSpline
210
0.0
220
0.0
230
1.0
 70
     8
 71
     3
 72
    14
 73
    10
 74
     0
 42
0.0000000001
 43
0.0000000001
 40
0.0
 40
0.0
 40
0.0
 40
0.0
 40
1.0
 40
1.0
 40
1.0
 40
2.0
 40
2.0
 40
2.0
 40
3.0
 40
3.0
 40
3.0
 40
3.0
 10
92.81035560830783
 20
-221.939941350765
 30
0.0
 10
92.81035560830783
 20
-221.939941350765
 30
0.0
 10
93.04772268724155
 20
-222.3189018541425
 30
0.0
 10
93.04772268724155
 20
-222.3189018541425
 30
0.0
 10
94.16324460536545
 20
-224.4593396791282
 30
0.0
 10
96.47421465687104
 20
-225.9117919357096
 30
0.0
 10
98.88319767493198
 20
-226.0199679339464
 30
0.0
 10
98.88319767493198
 20
-226.0199679339464
 30
0.0
 10
99.31125078897428
 20
-226.0199679339464
 30
0.0
 10
99.31125078897428
 20
-226.0199679339464
 30
0.0
  0
POLYLINE
  5
83
330
1F
100
AcDbEntity
  8
\U+30EC\U+30A4\U+30E4\U+30FC 1
 62
     7
370
    20
100
AcDb2dPolyline
 66
     1
 10
0.0
 20
0.0
 30
0.0
  0
VERTEX
  5
84
330
83
100
AcDbEntity
  8
\U+30EC\U+30A4\U+30E4\U+30FC 1
 62
     7
370
    20
100
AcDbVertex
100
AcDb2dVertex
 10
98.97845456509914
 20
-226.0199679339464
 30
0.0
  0
VERTEX
  5
85
330
83
100
AcDbEntity
  8
\U+30EC\U+30A4\U+30E4\U+30FC 1
 62
     7
370
    20
100
AcDbVertex
100
AcDb2dVertex
 10
122.4211235588045
 20
-226.0199679339464
 30
0.0
  0
SEQEND
  5
86
330
83
100
AcDbEntity
  8
\U+30EC\U+30A4\U+30E4\U+30FC 1
370
    20
  0
POLYLINE
  5
87
330
1F
100
AcDbEntity
  8
\U+30EC\U+30A4\U+30E4\U+30FC 1
 62
     7
370
    20
100
AcDb2dPolyline
 66
     1
 10
0.0
 20
0.0
 30
0.0
  0
VERTEX
  5
88
330
87
100
AcDbEntity
  8
\U+30EC\U+30A4\U+30E4\U+30FC 1
 62
     7
370
    20
100
AcDbVertex
100
AcDb2dVertex
 10
129.0629231448176
 20
-207.3237792450441
 30
0.0
  0
VERTEX
  5
89
330
87
100
AcDbEntity
  8
\U+30EC\U+30A4\U+30E4\U+30FC 1
 62
     7
370
    20
100
AcDbVertex
100
AcDb2dVertex
 10
125.8369357324297
 20
-205.0934244278933
 30
0.0
  0
VERTEX
  5
8A
330
87
100
AcDbEntity
  8
\U+30EC\U+30A4\U+30E4\U+30FC 1
 62
     7
370
    20
100
AcDbVertex
100
AcDb2dVertex
 10
96.03599851114726
 20
-208.8899196526386
 30
0.0
  0
SEQEND
  5
8B
330
87
100
AcDbEntity
  8
\U+30EC\U+30A4\U+30E4\U+30FC 1
370
    20
  0
POLYLINE
  5
8C
330
1F
100
AcDbEntity
  8
\U+30EC\U+30A4\U+30E4\U+30FC 1
 62
     7
370
    20
100
AcDb2dPolyline
 66
     1
 10
0.0
 20
0.0
 30
0.0
  0
VERTEX
  5
8D
330
8C
100
AcDbEntity
  8
\U+30EC\U+30A4\U+30E4\U+30FC 1
 62
     7
370
    20
100
AcDbVertex
100
AcDb2dVertex
 10
92.2396755411762
 20
-205.8523789632939
 30
0.0
  0
VERTEX
  5
8E
330
8C
100
AcDbEntity
  8
\U+30EC\U+30A4\U+30E4\U+30FC 1
 62
     7
370
    20
100
AcDbVertex
100
AcDb2dVertex
 10
114.4488280963878
 20
-203.5744818284467
 30
0.0
  0
SEQEND
  5
8F
330
8C
100
AcDbEntity
  8
\U+30EC\U+30A4\U+30E4\U+30FC 1
370
    20
  0
POLYLINE
  5
90
330
1F
100
AcDbEntity
  8
\U+30EC\U+30A4\U+30E4\U+30FC 1
 62
     7
370
    20
100
AcDb2dPolyline
 66
     1
 10
0.0
 20
0.0
 30
0.0
  0
VERTEX
  5
91
330
90
100
AcDbEntity
  8
\U+30EC\U+30A4\U+30E4\U+30FC 1
 62
     7
370
    20
100
AcDbVertex
100
AcDb2dVertex
 10
96.03599851114726
 20
-208.8899196526386
 30
0.0
  0
VERTEX
  5
92
330
90
100
AcDbEntity
  8
\U+30EC\U+30A4\U+30E4\U+30FC 1
 62
     7
370
    20
100
AcDbVertex
100
AcDb2dVertex
 10
125.8369357324297
 20
-205.0934244278933
 30
0.0
  0
SEQEND
  5
93
330
90
100
AcDbEntity
  8
\U+30EC\U+30A4\U+30E4\U+30FC 1
370
    20
  0
POLYLINE
  5
94
330
1F
100
AcDbEntity
  8
\U+30EC\U+30A4\U+30E4\U+30FC 1
 62
     7
370
    20
100
AcDb2dPolyline
 66
     1
 10
0.0
 20
0.0
 30
0.0
  0
VERTEX
  5
95
330
94
100
AcDbEntity
  8
\U+30EC\U+30A4\U+30E4\U+30FC 1
 62
     7
370
    20
100
AcDbVertex
100
AcDb2dVertex
 10
114.0698675930103
 20
-224.1224093406708
 30
0.0
  0
VERTEX
  5
96
330
94
100
AcDbEntity
  8
\U+30EC\U+30A4\U+30E4\U+30FC 1
 62
     7
370
    20
100
AcDbVertex
100
AcDb2dVertex
 10
121.3762260981282
 20
-224.1224093406708
 30
0.0
  0
SEQEND
  5
97
330
94
100
AcDbEntity
  8
\U+30EC\U+30A4\U+30E4\U+30FC 1
370
    20
  0
POLYLINE
  5
98
330
1F
100
AcDbEntity
  8
\U+30EC\U+30A4\U+30E4\U+30FC 1
 62
     7
370
    20
100
AcDb2dPolyline
 66
     1
 10
0.0
 20
0.0
 30
0.0
  0
VERTEX
  5
99
330
98
100
AcDbEntity
  8
\U+30EC\U+30A4\U+30E4\U+30FC 1
 62
     7
370
    20
100
AcDbVertex
100
AcDb2dVertex
 10
92.81035560830783
 20
-221.939941350765
 30
0.0
  0
VERTEX
  5
9A
330
98
100
AcDbEntity
  8
\U+30EC\U+30A4\U+30E4\U+30FC 1
 62
     7
370
    20
100
AcDbVertex
100
AcDb2dVertex
 10
129.0629231448176
 20
-218.1909884437162
 30
0.0
  0
SEQEND
  5
9B
330
98
100
AcDbEntity
  8
\U+30EC\U+30A4\U+30E4\U+30FC 1
370
    20
  0
POLYLINE
  5
9C
330
1F
100
AcDbEntity
  8
\U+30EC\U+30A4\U+30E4\U+30FC 1
 62
     7
370
    20
100
AcDb2dPolyline
 66
     1
 10
0.0
 20
0.0
 30
0.0
  0
VERTEX
  5
9D
330
9C
100
AcDbEntity
  8
\U+30EC\U+30A4\U+30E4\U+30FC 1
 62
     7
370
    20
100
AcDbVertex
100
AcDb2dVertex
 10
92.81035560830783
 20
-211.0727321520929
 30
0.0
  0
VERTEX
  5
9E
330
9C
100
AcDbEntity
  8
\U+30EC\U+30A4\U+30E4\U+30FC 1
 62
     7
370
    20
100
AcDbVertex
100
AcDb2dVertex
 10
129.0629231448176
 20
-207.3237792450441
 30
0.0
  0
SEQEND
  5
9F
330
9C
100
AcDbEntity
  8
\U+30EC\U+30A4\U+30E4\U+30FC 1
370
    20
  0
POLYLINE
  5
A0
330
1F
100
AcDbEntity
  8
\U+30EC\U+30A4\U+30E4\U+30FC 1
 62
     7
370
    20
100
AcDb2dPolyline
 66
     1
 10
0.0
 20
0.0
 30
0.0
  0
VERTEX
  5
A1
330
A0
100
AcDbEntity
  8
\U+30EC\U+30A4\U+30E4\U+30FC 1
 62
     7
370
    20
100
AcDbVertex
100
AcDb2dVertex
 10
92.81035560830783
 20
-216.1504583878027
 30
0.0
  0
VERTEX
  5
A2
330
A0
100
AcDbEntity
  8
\U+30EC\U+30A4\U+30E4\U+30FC 1
 62
     7
370
    20
100
AcDbVertex
100
AcDb2dVertex
 10
129.0629231448176
 20
-212.4011609712053
 30
0.0
  0
SEQEND
  5
A3
330
A0
100
AcDbEntity
  8
\U+30EC\U+30A4\U+30E4\U+30FC 1
370
    20
  0
POLYLINE
  5
A4
330
1F
100
AcDbEntity
  8
\U+30EC\U+30A4\U+30E4\U+30FC 1
 62
     7
370
    20
100
AcDb2dPolyline
 66
     1
 10
0.0
 20
0.0
 30
0.0
  0
VERTEX
  5
A5
330
A4
100
AcDbEntity
  8
\U+30EC\U+30A4\U+30E4\U+30FC 1
 62
     7
370
    20
100
AcDbVertex
100
AcDb2dVertex
 10
92.81035560830783
 20
-211.7369465616491
 30
0.0
  0
VERTEX
  5
A6
330
A4
100
AcDbEntity
  8
\U+30EC\U+30A4\U+30E4\U+30FC 1
 62
     7
370
    20
100
AcDbVertex
100
AcDb2dVertex
 10
129.0629231448176
 20
-207.9876491450517
 30
0.0
  0
SEQEND
  5
A7
330
A4
100
AcDbEntity
  8
\U+30EC\U+30A4\U+30E4\U+30FC 1
370
    20
  0
POLYLINE
  5
A8
330
1F
100
AcDbEntity
  8
\U+30EC\U+30A4\U+30E4\U+30FC 1
 62
     7
370
    20
100
AcDb2dPolyline
 66
     1
 10
0.0
 20
0.0
 30
0.0
  0
VERTEX
  5
A9
330
A8
100
AcDbEntity
  8
\U+30EC\U+30A4\U+30E4\U+30FC 1
 62
     7
370
    20
100
AcDbVertex
100
AcDb2dVertex
 10
92.81035560830783
 20
-221.2278401139639
 30
0.0
  0
VERTEX
  5
AA
330
A8
100
AcDbEntity
  8
\U+30EC\U+30A4\U+30E4\U+30FC 1
 62
     7
370
    20
100
AcDbVertex
100
AcDb2dVertex
 10
129.0629231448176
 20
-217.478887206915
 30
0.0
  0
SEQEND
  5
AB
330
A8
100
AcDbEntity
  8
\U+30EC\U+30A4\U+30E4\U+30FC 1
370
    20
  0
POLYLINE
  5
AC
330
1F
100
AcDbEntity
  8
\U+30EC\U+30A4\U+30E4\U+30FC 1
 62
     7
370
    20
100
AcDb2dPolyline
 66
     1
 10
0.0
 20
0.0
 30
0.0
  0
VERTEX
  5
AD
330
AC
100
AcDbEntity
  8
\U+30EC\U+30A4\U+30E4\U+30FC 1
 62
     7
370
    20
100
AcDbVertex
100
AcDb2dVertex
 10
92.81035560830783
 20
-216.8622151150553
 30
0.0
  0
VERTEX
  5
AE
330
AC
100
AcDbEntity
  8
\U+30EC\U+30A4\U+30E4\U+30FC 1
 62
     7
370
    20
100
AcDbVertex
100
AcDb2dVertex
 10
129.0629231448176
 20
-213.0653753807615
 30
0.0
  0
SEQEND
  5
AF
330
AC
100
AcDbEntity
  8
\U+30EC\U+30A4\U+30E4\U+30FC 1
370
    20
  0
POLYLINE
  5
B0
330
1F
100
AcDbEntity
  8
\U+30EC\U+30A4\U+30E4\U+30FC 1
 62
     7
370
    20
100
AcDb2dPolyline
 66
     1
 10
0.0
 20
0.0
 30
0.0
  0
VERTEX
  5
B1
330
B0
100
AcDbEntity
  8
\U+30EC\U+30A4\U+30E4\U+30FC 1
 62
     7
370
    20
100
AcDbVertex
100
AcDb2dVertex
 10
96.03599851114726
 20
-213.9673013787998
 30
0.0
  0
VERTEX
  5
B2
330
B0
100
AcDbEntity
  8
\U+30EC\U+30A4\U+30E4\U+30FC 1
 62
     7
370
    20
100
AcDbVertex
100
AcDb2dVertex
 10
125.8369357324297
 20
-210.218348471751
 30
0.0
  0
SEQEND
  5
B3
330
B0
100
AcDbEntity
  8
\U+30EC\U+30A4\U+30E4\U+30FC 1
370
    20
  0
POLYLINE
  5
B4
330
1F
100
AcDbEntity
  8
\U+30EC\U+30A4\U+30E4\U+30FC 1
 62
     7
370
    20
100
AcDb2dPolyline
 66
     1
 10
0.0
 20
0.0
 30
0.0
  0
VERTEX
  5
B5
330
B4
100
AcDbEntity
  8
\U+30EC\U+30A4\U+30E4\U+30FC 1
 62
     7
370
    20
100
AcDbVertex
100
AcDb2dVertex
 10
96.03599851114726
 20
-224.1224093406708
 30
0.0
  0
VERTEX
  5
B6
330
B4
100
AcDbEntity
  8
\U+30EC\U+30A4\U+30E4\U+30FC 1
 62
     7
370
    20
100
AcDbVertex
100
AcDb2dVertex
 10
125.8369357324297
 20
-220.3731119240734
 30
0.0
  0
SEQEND
  5
B7
330
B4
100
AcDbEntity
  8
\U+30EC\U+30A4\U+30E4\U+30FC 1
370
    20
  0
POLYLINE
  5
B8
330
1F
100
AcDbEntity
  8
\U+30EC\U+30A4\U+30E4\U+30FC 1
 62
     7
370
    20
100
AcDb2dPolyline
 66
     1
 10
0.0
 20
0.0
 30
0.0
  0
VERTEX
  5
B9
330
B8
100
AcDbEntity
  8
\U+30EC\U+30A4\U+30E4\U+30FC 1
 62
     7
370
    20
100
AcDbVertex
100
AcDb2dVertex
 10
125.8369357324297
 20
-215.2957301979122
 30
0.0
  0
VERTEX
  5
BA
330
B8
100
AcDbEntity
  8
\U+30EC\U+30A4\U+30E4\U+30FC 1
 62
     7
370
    20
100
AcDbVertex
100
AcDb2dVertex
 10
96.03599851114726
 20
-219.0446831049611
 30
0.0
  0
VERTEX
  5
BB
330
B8
100
AcDbEntity
  8
\U+30EC\U+30A4\U+30E4\U+30FC 1
 62
     7
370
    20
100
AcDbVertex
100
AcDb2dVertex
 10
92.81035560830783
 20
-216.8622151150553
 30
0.0
  0
SEQEND
  5
BC
330
B8
100
AcDbEntity
  8
\U+30EC\U+30A4\U+30E4\U+30FC 1
370
    20
  0
POLYLINE
  5
BD
330
1F
100
AcDbEntity
  8
\U+30EC\U+30A4\U+30E4\U+30FC 1
 62
     7
370
    20
100
AcDb2dPolyline
 66
     1
 10
0.0
 20
0.0
 30
0.0
  0
VERTEX
  5
BE
330
BD
100
AcDbEntity
  8
\U+30EC\U+30A4\U+30E4\U+30FC 1
 62
     7
370
    20
100
AcDbVertex
100
AcDb2dVertex
 10
96.03599851114726
 20
-219.0446831049611
 30
0.0
  0
VERTEX
  5
BF
330
BD
100
AcDbEntity
  8
\U+30EC\U+30A4\U+30E4\U+30FC 1
 62
     7
370
    20
100
AcDbVertex
100
AcDb2dVertex
 10
92.81035560830783
 20
-221.2278401139639
 30
0.0
  0
VERTEX
  5
C0
330
BD
100
AcDbEntity
  8
\U+30EC\U+30A4\U+30E4\U+30FC 1
 62
     7
370
    20
100
AcDbVertex
100
AcDb2dVertex
 10
92.81035560830783
 20
-221.939941350765
 30
0.0
  0
SEQEND
  5
C1
330
BD
100
AcDbEntity
  8
\U+30EC\U+30A4\U+30E4\U+30FC 1
370
    20
  0
POLYLINE
  5
C2
330
1F
100
AcDbEntity
  8
\U+30EC\U+30A4\U+30E4\U+30FC 1
 62
     7
370
    20
100
AcDb2dPolyline
 66
     1
 10
0.0
 20
0.0
 30
0.0
  0
VERTEX
  5
C3
330
C2
100
AcDbEntity
  8
\U+30EC\U+30A4\U+30E4\U+30FC 1
 62
     7
370
    20
100
AcDbVertex
100
AcDb2dVertex
 10
92.81035560830783
 20
-211.7369465616491
 30
0.0
  0
VERTEX
  5
C4
330
C2
100
AcDbEntity
  8
\U+30EC\U+30A4\U+30E4\U+30FC 1
 62
     7
370
    20
100
AcDbVertex
100
AcDb2dVertex
 10
96.03599851114726
 20
-213.9673013787998
 30
0.0
  0
VERTEX
  5
C5
330
C2
100
AcDbEntity
  8
\U+30EC\U+30A4\U+30E4\U+30FC 1
 62
     7
370
    20
100
AcDbVertex
100
AcDb2dVertex
 10
92.81035560830783
 20
-216.1504583878027
 30
0.0
  0
VERTEX
  5
C6
330
C2
100
AcDbEntity
  8
\U+30EC\U+30A4\U+30E4\U+30FC 1
 62
     7
370
    20
100
AcDbVertex
100
AcDb2dVertex
 10
92.81035560830783
 20
-216.8622151150553
 30
0.0
  0
SEQEND
  5
C7
330
C2
100
AcDbEntity
  8
\U+30EC\U+30A4\U+30E4\U+30FC 1
370
    20
  0
POLYLINE
  5
C8
330
1F
100
AcDbEntity
  8
\U+30EC\U+30A4\U+30E4\U+30FC 1
 62
     7
370
    20
100
AcDb2dPolyline
 66
     1
 10
0.0
 20
0.0
 30
0.0
  0
VERTEX
  5
C9
330
C8
100
AcDbEntity
  8
\U+30EC\U+30A4\U+30E4\U+30FC 1
 62
     7
370
    20
100
AcDbVertex
100
AcDb2dVertex
 10
92.81035560830783
 20
-211.0727321520929
 30
0.0
  0
VERTEX
  5
CA
330
C8
100
AcDbEntity
  8
\U+30EC\U+30A4\U+30E4\U+30FC 1
 62
     7
370
    20
100
AcDbVertex
100
AcDb2dVertex
 10
96.03599851114726
 20
-208.8899196526386
 30
0.0
  0
VERTEX
  5
CB
330
C8
100
AcDbEntity
  8
\U+30EC\U+30A4\U+30E4\U+30FC 1
 62
     7
370
    20
100
AcDbVertex
100
AcDb2dVertex
 10
92.2396755411762
 20
-205.8534124919394
 30
0.0
  0
SEQEND
  5
CC
330
C8
100
AcDbEntity
  8
\U+30EC\U+30A4\U+30E4\U+30FC 1
370
    20
  0
POLYLINE
  5
CD
330
1F
100
AcDbEntity
  8
\U+30EC\U+30A4\U+30E4\U+30FC 1
 62
     7
370
    20
100
AcDb2dPolyline
 66
     1
 10
0.0
 20
0.0
 30
0.0
  0
VERTEX
  5
CE
330
CD
100
AcDbEntity
  8
\U+30EC\U+30A4\U+30E4\U+30FC 1
 62
     7
370
    20
100
AcDbVertex
100
AcDb2dVertex
 10
92.81035560830783
 20
-211.7369465616491
 30
0.0
  0
VERTEX
  5
CF
330
CD
100
AcDbEntity
  8
\U+30EC\U+30A4\U+30E4\U+30FC 1
 62
     7
370
    20
100
AcDbVertex
100
AcDb2dVertex
 10
92.81035560830783
 20
-211.0727321520929
 30
0.0
  0
SEQEND
  5
D0
330
CD
100
AcDbEntity
  8
\U+30EC\U+30A4\U+30E4\U+30FC 1
370
    20
  0
POLYLINE
  5
D1
330
1F
100
AcDbEntity
  8
\U+30EC\U+30A4\U+30E4\U+30FC 1
 62
     7
370
    20
100
AcDb2dPolyline
 66
     1
 10
0.0
 20
0.0
 30
0.0
  0
VERTEX
  5
D2
330
D1
100
AcDbEntity
  8
\U+30EC\U+30A4\U+30E4\U+30FC 1
 62
     7
370
    20
100
AcDbVertex
100
AcDb2dVertex
 10
129.0629231448176
 20
-213.0653753807615
 30
0.0
  0
VERTEX
  5
D3
330
D1
100
AcDbEntity
  8
\U+30EC\U+30A4\U+30E4\U+30FC 1
 62
     7
370
    20
100
AcDbVertex
100
AcDb2dVertex
 10
125.8369357324297
 20
-215.2957301979122
 30
0.0
  0
SEQEND
  5
D4
330
D1
100
AcDbEntity
  8
\U+30EC\U+30A4\U+30E4\U+30FC 1
370
    20
  0
POLYLINE
  5
D5
330
1F
100
AcDbEntity
  8
\U+30EC\U+30A4\U+30E4\U+30FC 1
 62
     7
370
    20
100
AcDb2dPolyline
 66
     1
 10
0.0
 20
0.0
 30
0.0
  0
VERTEX
  5
D6
330
D5
100
AcDbEntity
  8
\U+30EC\U+30A4\U+30E4\U+30FC 1
 62
     7
370
    20
100
AcDbVertex
100
AcDb2dVertex
 10
129.0629231448176
 20
-218.1909884437162
 30
0.0
  0
VERTEX
  5
D7
330
D5
100
AcDbEntity
  8
\U+30EC\U+30A4\U+30E4\U+30FC 1
 62
     7
370
    20
100
AcDbVertex
100
AcDb2dVertex
 10
125.8369357324297
 20
-220.3731119240734
 30
0.0
  0
SEQEND
  5
D8
330
D5
100
AcDbEntity
  8
\U+30EC\U+30A4\U+30E4\U+30FC 1
370
    20
  0
POLYLINE
  5
D9
330
1F
100
AcDbEntity
  8
\U+30EC\U+30A4\U+30E4\U+30FC 1
 62
     7
370
    20
100
AcDb2dPolyline
 66
     1
 10
0.0
 20
0.0
 30
0.0
  0
VERTEX
  5
DA
330
D9
100
AcDbEntity
  8
\U+30EC\U+30A4\U+30E4\U+30FC 1
 62
     7
370
    20
100
AcDbVertex
100
AcDb2dVertex
 10
125.8369357324297
 20
-215.2957301979122
 30
0.0
  0
VERTEX
  5
DB
330
D9
100
AcDbEntity
  8
\U+30EC\U+30A4\U+30E4\U+30FC 1
 62
     7
370
    20
100
AcDbVertex
100
AcDb2dVertex
 10
129.0629231448176
 20
-217.478887206915
 30
0.0
  0
SEQEND
  5
DC
330
D9
100
AcDbEntity
  8
\U+30EC\U+30A4\U+30E4\U+30FC 1
370
    20
  0
POLYLINE
  5
DD
330
1F
100
AcDbEntity
  8
\U+30EC\U+30A4\U+30E4\U+30FC 1
 62
     7
370
    20
100
AcDb2dPolyline
 66
     1
 10
0.0
 20
0.0
 30
0.0
  0
VERTEX
  5
DE
330
DD
100
AcDbEntity
  8
\U+30EC\U+30A4\U+30E4\U+30FC 1
 62
     7
370
    20
100
AcDbVertex
100
AcDb2dVertex
 10
129.0629231448176
 20
-207.9876491450517
 30
0.0
  0
VERTEX
  5
DF
330
DD
100
AcDbEntity
  8
\U+30EC\U+30A4\U+30E4\U+30FC 1
 62
     7
370
    20
100
AcDbVertex
100
AcDb2dVertex
 10
125.8369357324297
 20
-210.218348471751
 30
0.0
  0
VERTEX
  5
E0
330
DD
100
AcDbEntity
  8
\U+30EC\U+30A4\U+30E4\U+30FC 1
 62
     7
370
    20
100
AcDbVertex
100
AcDb2dVertex
 10
129.0629231448176
 20
-212.4011609712053
 30
0.0
  0
SEQEND
  5
E1
330
DD
100
AcDbEntity
  8
\U+30EC\U+30A4\U+30E4\U+30FC 1
370
    20
  0
POLYLINE
  5
E2
330
1F
100
AcDbEntity
  8
\U+30EC\U+30A4\U+30E4\U+30FC 1
 62
     7
370
    20
100
AcDb2dPolyline
 66
     1
 10
0.0
 20
0.0
 30
0.0
  0
VERTEX
  5
E3
330
E2
100
AcDbEntity
  8
\U+30EC\U+30A4\U+30E4\U+30FC 1
 62
     7
370
    20
100
AcDbVertex
100
AcDb2dVertex
 10
125.8369357324297
 20
-220.3731119240734
 30
0.0
  0
VERTEX
  5
E4
330
E2
100
AcDbEntity
  8
\U+30EC\U+30A4\U+30E4\U+30FC 1
 62
     7
370
    20
100
AcDbVertex
100
AcDb2dVertex
 10
129.0629231448176
 20
-222.6041557603212
 30
0.0
  0
VERTEX
  5
E5
330
E2
100
AcDbEntity
  8
\U+30EC\U+30A4\U+30E4\U+30FC 1
 62
     7
370
    20
100
AcDbVertex
100
AcDb2dVertex
 10
114.0698675930103
 20
-224.1224093406708
 30
0.0
  0
VERTEX
  5
E6
330
E2
100
AcDbEntity
  8
\U+30EC\U+30A4\U+30E4\U+30FC 1
 62
     7
370
    20
100
AcDbVertex
100
AcDb2dVertex
 10
129.0629231448176
 20
-224.1224093406708
 30
0.0
  0
VERTEX
  5
E7
330
E2
100
AcDbEntity
  8
\U+30EC\U+30A4\U+30E4\U+30FC 1
 62
     7
370
    20
100
AcDbVertex
100
AcDb2dVertex
 10
129.0629231448176
 20
-222.6041557603212
 30
0.0
  0
SEQEND
  5
E8
330
E2
100
AcDbEntity
  8
\U+30EC\U+30A4\U+30E4\U+30FC 1
370
    20
  0
POLYLINE
  5
E9
330
1F
100
AcDbEntity
  8
\U+30EC\U+30A4\U+30E4\U+30FC 1
 62
     7
370
    20
100
AcDb2dPolyline
 66
     1
 10
0.0
 20
0.0
 30
0.0
  0
VERTEX
  5
EA
330
E9
100
AcDbEntity
  8
\U+30EC\U+30A4\U+30E4\U+30FC 1
 62
     7
370
    20
100
AcDbVertex
100
AcDb2dVertex
 10
129.0629231448176
 20
-218.1909884437162
 30
0.0
  0
VERTEX
  5
EB
330
E9
100
AcDbEntity
  8
\U+30EC\U+30A4\U+30E4\U+30FC 1
 62
     7
370
    20
100
AcDbVertex
100
AcDb2dVertex
 10
129.0629231448176
 20
-217.478887206915
 30
0.0
  0
SEQEND
  5
EC
330
E9
100
AcDbEntity
  8
\U+30EC\U+30A4\U+30E4\U+30FC 1
370
    20
  0
POLYLINE
  5
ED
330
1F
100
AcDbEntity
  8
\U+30EC\U+30A4\U+30E4\U+30FC 1
 62
     7
370
    20
100
AcDb2dPolyline
 66
     1
 10
0.0
 20
0.0
 30
0.0
  0
VERTEX
  5
EE
330
ED
100
AcDbEntity
  8
\U+30EC\U+30A4\U+30E4\U+30FC 1
 62
     7
370
    20
100
AcDbVertex
100
AcDb2dVertex
 10
129.0629231448176
 20
-213.0653753807615
 30
0.0
  0
VERTEX
  5
EF
330
ED
100
AcDbEntity
  8
\U+30EC\U+30A4\U+30E4\U+30FC 1
 62
     7
370
    20
100
AcDbVertex
100
AcDb2dVertex
 10
129.0629231448176
 20
-212.4011609712053
 30
0.0
  0
SEQEND
  5
F0
330
ED
100
AcDbEntity
  8
\U+30EC\U+30A4\U+30E4\U+30FC 1
370
    20
  0
POLYLINE
  5
F1
330
1F
100
AcDbEntity
  8
\U+30EC\U+30A4\U+30E4\U+30FC 1
 62
     7
370
    20
100
AcDb2dPolyline
 66
     1
 10
0.0
 20
0.0
 30
0.0
  0
VERTEX
  5
F2
330
F1
100
AcDbEntity
  8
\U+30EC\U+30A4\U+30E4\U+30FC 1
 62
     7
370
    20
100
AcDbVertex
100
AcDb2dVertex
 10
129.0629231448176
 20
-207.9876491450517
 30
0.0
  0
VERTEX
  5
F3
330
F1
100
AcDbEntity
  8
\U+30EC\U+30A4\U+30E4\U+30FC 1
 62
     7
370
    20
100
AcDbVertex
100
AcDb2dVertex
 10
129.0629231448176
 20
-207.3237792450441
 30
0.0
  0
SEQEND
  5
F4
330
F1
100
AcDbEntity
  8
\U+30EC\U+30A4\U+30E4\U+30FC 1
370
    20
  0
SPLINE
  5
F5
330
1F
100
AcDbEntity
  8
\U+30EC\U+30A4\U+30E4\U+30FC 1
 62
     7
370
    20
100
AcDbSpline
210
0.0
220
0.0
230
1.0
 70
     8
 71
     3
 72
    14
 73
    10
 74
     0
 42
0.0000000001
 43
0.0000000001
 40
0.0
 40
0.0
 40
0.0
 40
0.0
 40
1.0
 40
1.0
 40
1.0
 40
2.0
 40
2.0
 40
2.0
 40
3.0
 40
3.0
 40
3.0
 40
3.0
 10
129.205550097907
 20
-203.0053520542834
 30
0.0
 10
129.205550097907
 20
-203.0053520542834
 30
0.0
 10
125.8369357324297
 20
-205.0941134469904
 30
0.0
 10
125.8369357324297
 20
-205.0941134469904
 30
0.0
 10
125.8369357324297
 20
-205.0941134469904
 30
0.0
 10
129.205550097907
 20
-203.0053520542834
 30
0.0
 10
129.205550097907
 20
-203.0053520542834
 30
0.0
 10
129.205550097907
 20
-203.0053520542834
 30
0.0
 10
129.205550097907
 20
-196.8369085879436
 30
0.0
 10
129.205550097907
 20
-196.8369085879436
 30
0.0
  0
POLYLINE
  5
F6
330
1F
100
AcDbEntity
  8
\U+30EC\U+30A4\U+30E4\U+30FC 1
 62
     7
370
    20
100
AcDb2dPolyline
 66
     1
 10
0.0
 20
0.0
 30
0.0
  0
VERTEX
  5
F7
330
F6
100
AcDbEntity
  8
\U+30EC\U+30A4\U+30E4\U+30FC 1
 62
     7
370
    20
100
AcDbVertex
100
AcDb2dVertex
 10
92.2396755411762
 20
-205.8534124919394
 30
0.0
  0
VERTEX
  5
F8
330
F6
100
AcDbEntity
  8
\U+30EC\U+30A4\U+30E4\U+30FC 1
 62
     7
370
    20
100
AcDbVertex
100
AcDb2dVertex
 10
92.19351126167385
 20
-196.7897107797956
 30
0.0
  0
VERTEX
  5
F9
330
F6
100
AcDbEntity
  8
\U+30EC\U+30A4\U+30E4\U+30FC 1
 62
     7
370
    20
100
AcDbVertex
100
AcDb2dVertex
 10
91.38649764425408
 20
-196.2674343042318
 30
0.0
  0
SEQEND
  5
FA
330
F6
100
AcDbEntity
  8
\U+30EC\U+30A4\U+30E4\U+30FC 1
370
    20
  0
POLYLINE
  5
FB
330
1F
100
AcDbEntity
  8
\U+30EC\U+30A4\U+30E4\U+30FC 1
 62
     7
370
    20
100
AcDb2dPolyline
 66
     1
 10
0.0
 20
0.0
 30
0.0
  0
VERTEX
  5
FC
330
FB
100
AcDbEntity
  8
\U+30EC\U+30A4\U+30E4\U+30FC 1
 62
     7
370
    20
100
AcDbVertex
100
AcDb2dVertex
 10
130.1078206054939
 20
-196.2674343042318
 30
0.0
  0
VERTEX
  5
FD
330
FB
100
AcDbEntity
  8
\U+30EC\U+30A4\U+30E4\U+30FC 1
 62
     7
370
    20
100
AcDbVertex
100
AcDb2dVertex
 10
129.205550097907
 20
-196.8369085879436
 30
0.0
  0
SEQEND
  5
FE
330
FB
100
AcDbEntity
  8
\U+30EC\U+30A4\U+30E4\U+30FC 1
370
    20
  0
POLYLINE
  5
FF
330
1F
100
AcDbEntity
  8
\U+30EC\U+30A4\U+30E4\U+30FC 1
 62
     7
370
    20
100
AcDb2dPolyline
 66
     1
 10
0.0
 20
0.0
 30
0.0
  0
VERTEX
  5
100
330
FF
100
AcDbEntity
  8
\U+30EC\U+30A4\U+30E4\U+30FC 1
 62
     7
370
    20
100
AcDbVertex
100
AcDb2dVertex
 10
103.4393364541749
 20
-231.0983831887532
 30
0.0
  0
VERTEX
  5
101
330
FF
100
AcDbEntity
  8
\U+30EC\U+30A4\U+30E4\U+30FC 1
 62
     7
370
    20
100
AcDbVertex
100
AcDb2dVertex
 10
117.9597249054059
 20
-231.0983831887532
 30
0.0
  0
SEQEND
  5
102
330
FF
100
AcDbEntity
  8
\U+30EC\U+30A4\U+30E4\U+30FC 1
370
    20
  0
POLYLINE
  5
103
330
1F
100
AcDbEntity
  8
\U+30EC\U+30A4\U+30E4\U+30FC 1
 62
     7
370
    20
100
AcDb2dPolyline
 66
     1
 10
0.0
 20
0.0
 30
0.0
  0
VERTEX
  5
104
330
103
100
AcDbEntity
  8
\U+30EC\U+30A4\U+30E4\U+30FC 1
 62
     7
370
    20
100
AcDbVertex
100
AcDb2dVertex
 10
89.63036022064797
 20
-193.7997124081473
 30
0.0
  0
VERTEX
  5
105
330
103
100
AcDbEntity
  8
\U+30EC\U+30A4\U+30E4\U+30FC 1
 62
     7
370
    20
100
AcDbVertex
100
AcDb2dVertex
 10
131.7690456484814
 20
-193.7997124081473
 30
0.0
  0
VERTEX
  5
106
330
103
100
AcDbEntity
  8
\U+30EC\U+30A4\U+30E4\U+30FC 1
 62
     7
370
    20
100
AcDbVertex
100
AcDb2dVertex
 10
132.05429955466
 20
-193.7518255809023
 30
0.0
  0
VERTEX
  5
107
330
103
100
AcDbEntity
  8
\U+30EC\U+30A4\U+30E4\U+30FC 1
 62
     7
370
    20
100
AcDbVertex
100
AcDb2dVertex
 10
132.2906331049482
 20
-193.6095431373615
 30
0.0
  0
SEQEND
  5
108
330
103
100
AcDbEntity
  8
\U+30EC\U+30A4\U+30E4\U+30FC 1
370
    20
  0
POLYLINE
  5
109
330
1F
100
AcDbEntity
  8
\U+30EC\U+30A4\U+30E4\U+30FC 1
 62
     7
370
    20
100
AcDb2dPolyline
 66
     1
 10
0.0
 20
0.0
 30
0.0
  0
VERTEX
  5
10A
330
109
100
AcDbEntity
  8
\U+30EC\U+30A4\U+30E4\U+30FC 1
 62
     7
370
    20
100
AcDbVertex
100
AcDb2dVertex
 10
89.10842825463261
 20
-193.6095431373615
 30
0.0
  0
VERTEX
  5
10B
330
109
100
AcDbEntity
  8
\U+30EC\U+30A4\U+30E4\U+30FC 1
 62
     7
370
    20
100
AcDbVertex
100
AcDb2dVertex
 10
89.34493405969502
 20
-193.7518255809023
 30
0.0
  0
VERTEX
  5
10C
330
109
100
AcDbEntity
  8
\U+30EC\U+30A4\U+30E4\U+30FC 1
 62
     7
370
    20
100
AcDbVertex
100
AcDb2dVertex
 10
89.63036022064797
 20
-193.7997124081473
 30
0.0
  0
SEQEND
  5
10D
330
109
100
AcDbEntity
  8
\U+30EC\U+30A4\U+30E4\U+30FC 1
370
    20
  0
POLYLINE
  5
10E
330
1F
100
AcDbEntity
  8
\U+30EC\U+30A4\U+30E4\U+30FC 1
 62
     7
370
    20
100
AcDb2dPolyline
 66
     1
 10
0.0
 20
0.0
 30
0.0
  0
VERTEX
  5
10F
330
10E
100
AcDbEntity
  8
\U+30EC\U+30A4\U+30E4\U+30FC 1
 62
     7
370
    20
100
AcDbVertex
100
AcDb2dVertex
 10
131.7690456484814
 20
-193.7997124081473
 30
0.0
  0
VERTEX
  5
110
330
10E
100
AcDbEntity
  8
\U+30EC\U+30A4\U+30E4\U+30FC 1
 62
     7
370
    20
100
AcDbVertex
100
AcDb2dVertex
 10
132.05429955466
 20
-193.7518255809023
 30
0.0
  0
VERTEX
  5
111
330
10E
100
AcDbEntity
  8
\U+30EC\U+30A4\U+30E4\U+30FC 1
 62
     7
370
    20
100
AcDbVertex
100
AcDb2dVertex
 10
132.2906331049482
 20
-193.6095431373615
 30
0.0
  0
SEQEND
  5
112
330
10E
100
AcDbEntity
  8
\U+30EC\U+30A4\U+30E4\U+30FC 1
370
    20
  0
POLYLINE
  5
113
330
1F
100
AcDbEntity
  8
\U+30EC\U+30A4\U+30E4\U+30FC 1
 62
     7
370
    25
100
AcDb2dPolyline
 66
     1
 10
0.0
 20
0.0
 30
0.0
  0
VERTEX
  5
114
330
113
100
AcDbEntity
  8
\U+30EC\U+30A4\U+30E4\U+30FC 1
 62
     7
370
    25
100
AcDbVertex
100
AcDb2dVertex
 10
149.1371500278199
 20
-128.8830891604876
 30
0.0
  0
VERTEX
  5
115
330
113
100
AcDbEntity
  8
\U+30EC\U+30A4\U+30E4\U+30FC 1
 62
     7
370
    25
100
AcDbVertex
100
AcDb2dVertex
 10
150.324329932037
 20
-128.8830891604876
 30
0.0
  0
SEQEND
  5
116
330
113
100
AcDbEntity
  8
\U+30EC\U+30A4\U+30E4\U+30FC 1
370
    25
  0
POLYLINE
  5
117
330
1F
100
AcDbEntity
  8
\U+30EC\U+30A4\U+30E4\U+30FC 1
 62
     7
370
    25
100
AcDb2dPolyline
 66
     1
 10
0.0
 20
0.0
 30
0.0
  0
VERTEX
  5
118
330
117
100
AcDbEntity
  8
\U+30EC\U+30A4\U+30E4\U+30FC 1
 62
     7
370
    25
100
AcDbVertex
100
AcDb2dVertex
 10
71.07662623006071
 20
-128.8830891604876
 30
0.0
  0
VERTEX
  5
119
330
117
100
AcDbEntity
  8
\U+30EC\U+30A4\U+30E4\U+30FC 1
 62
     7
370
    25
100
AcDbVertex
100
AcDb2dVertex
 10
72.3097981590059
 20
-128.8830891604876
 30
0.0
  0
SEQEND
  5
11A
330
117
100
AcDbEntity
  8
\U+30EC\U+30A4\U+30E4\U+30FC 1
370
    25
  0
POLYLINE
  5
11B
330
1F
100
AcDbEntity
  8
\U+30EC\U+30A4\U+30E4\U+30FC 1
 62
     7
370
    25
100
AcDb2dPolyline
 66
     1
 10
0.0
 20
0.0
 30
0.0
  0
VERTEX
  5
11C
330
11B
100
AcDbEntity
  8
\U+30EC\U+30A4\U+30E4\U+30FC 1
 62
     7
370
    25
100
AcDbVertex
100
AcDb2dVertex
 10
132.2906331049482
 20
-193.6095431373615
 30
0.0
  0
VERTEX
  5
11D
330
11B
100
AcDbEntity
  8
\U+30EC\U+30A4\U+30E4\U+30FC 1
 62
     7
370
    25
100
AcDbVertex
100
AcDb2dVertex
 10
136.7038004215532
 20
-189.1970648398535
 30
0.0
  0
SEQEND
  5
11E
330
11B
100
AcDbEntity
  8
\U+30EC\U+30A4\U+30E4\U+30FC 1
370
    25
  0
POLYLINE
  5
11F
330
1F
100
AcDbEntity
  8
\U+30EC\U+30A4\U+30E4\U+30FC 1
 62
     7
370
    25
100
AcDb2dPolyline
 66
     1
 10
0.0
 20
0.0
 30
0.0
  0
VERTEX
  5
120
330
11F
100
AcDbEntity
  8
\U+30EC\U+30A4\U+30E4\U+30FC 1
 62
     7
370
    25
100
AcDbVertex
100
AcDb2dVertex
 10
84.69543319280184
 20
-189.1970648398535
 30
0.0
  0
VERTEX
  5
121
330
11F
100
AcDbEntity
  8
\U+30EC\U+30A4\U+30E4\U+30FC 1
 62
     7
370
    25
100
AcDbVertex
100
AcDb2dVertex
 10
89.10842825463261
 20
-193.6095431373615
 30
0.0
  0
SEQEND
  5
122
330
11F
100
AcDbEntity
  8
\U+30EC\U+30A4\U+30E4\U+30FC 1
370
    25
  0
POLYLINE
  5
123
330
1F
100
AcDbEntity
  8
\U+30EC\U+30A4\U+30E4\U+30FC 1
 62
     7
370
    25
100
AcDb2dPolyline
 66
     1
 10
0.0
 20
0.0
 30
0.0
  0
VERTEX
  5
124
330
123
100
AcDbEntity
  8
\U+30EC\U+30A4\U+30E4\U+30FC 1
 62
     7
370
    25
100
AcDbVertex
100
AcDb2dVertex
 10
89.63036022064797
 20
-193.7997124081473
 30
0.0
  0
VERTEX
  5
125
330
123
100
AcDbEntity
  8
\U+30EC\U+30A4\U+30E4\U+30FC 1
 62
     7
370
    25
100
AcDbVertex
100
AcDb2dVertex
 10
131.7690456484814
 20
-193.7997124081473
 30
0.0
  0
SEQEND
  5
126
330
123
100
AcDbEntity
  8
\U+30EC\U+30A4\U+30E4\U+30FC 1
370
    25
  0
POLYLINE
  5
127
330
1F
100
AcDbEntity
  8
\U+30EC\U+30A4\U+30E4\U+30FC 1
 62
     7
370
    25
100
AcDb2dPolyline
 66
     1
 10
0.0
 20
0.0
 30
0.0
  0
VERTEX
  5
128
330
127
100
AcDbEntity
  8
\U+30EC\U+30A4\U+30E4\U+30FC 1
 62
     7
370
    25
100
AcDbVertex
100
AcDb2dVertex
 10
149.1371500278199
 20
-128.8830891604876
 30
0.0
  0
VERTEX
  5
129
330
127
100
AcDbEntity
  8
\U+30EC\U+30A4\U+30E4\U+30FC 1
 62
     7
370
    25
100
AcDbVertex
100
AcDb2dVertex
 10
72.3097981590059
 20
-128.8830891604876
 30
0.0
  0
SEQEND
  5
12A
330
127
100
AcDbEntity
  8
\U+30EC\U+30A4\U+30E4\U+30FC 1
370
    25
  0
POLYLINE
  5
12B
330
1F
100
AcDbEntity
  8
\U+30EC\U+30A4\U+30E4\U+30FC 1
 62
     7
370
    25
100
AcDb2dPolyline
 66
     1
 10
0.0
 20
0.0
 30
0.0
  0
VERTEX
  5
12C
330
12B
100
AcDbEntity
  8
\U+30EC\U+30A4\U+30E4\U+30FC 1
 62
     7
370
    25
100
AcDbVertex
100
AcDb2dVertex
 10
89.10842825463261
 20
-193.6095431373615
 30
0.0
  0
VERTEX
  5
12D
330
12B
100
AcDbEntity
  8
\U+30EC\U+30A4\U+30E4\U+30FC 1
 62
     7
370
    25
100
AcDbVertex
100
AcDb2dVertex
 10
89.63036022064797
 20
-193.7997124081473
 30
0.0
  0
SEQEND
  5
12E
330
12B
100
AcDbEntity
  8
\U+30EC\U+30A4\U+30E4\U+30FC 1
370
    25
  0
POLYLINE
  5
12F
330
1F
100
AcDbEntity
  8
\U+30EC\U+30A4\U+30E4\U+30FC 1
 62
     7
370
    25
100
AcDb2dPolyline
 66
     1
 10
0.0
 20
0.0
 30
0.0
  0
VERTEX
  5
130
330
12F
100
AcDbEntity
  8
\U+30EC\U+30A4\U+30E4\U+30FC 1
 62
     7
370
    25
100
AcDbVertex
100
AcDb2dVertex
 10
84.69543319280184
 20
-189.1970648398535
 30
0.0
  0
VERTEX
  5
131
330
12F
100
AcDbEntity
  8
\U+30EC\U+30A4\U+30E4\U+30FC 1
 62
     7
370
    25
100
AcDbVertex
100
AcDb2dVertex
 10
83.93596189307851
 20
-182.8377630836308
 30
0.0
  0
VERTEX
  5
132
330
12F
100
AcDbEntity
  8
\U+30EC\U+30A4\U+30E4\U+30FC 1
 62
     7
370
    25
100
AcDbVertex
100
AcDb2dVertex
 10
83.0340358950401
 20
-176.5260036451046
 30
0.0
  0
VERTEX
  5
133
330
12F
100
AcDbEntity
  8
\U+30EC\U+30A4\U+30E4\U+30FC 1
 62
     7
370
    25
100
AcDbVertex
100
AcDb2dVertex
 10
81.94194062621591
 20
-170.215277735224
 30
0.0
  0
VERTEX
  5
134
330
12F
100
AcDbEntity
  8
\U+30EC\U+30A4\U+30E4\U+30FC 1
 62
     7
370
    25
100
AcDbVertex
100
AcDb2dVertex
 10
80.66225990821985
 20
-163.9517496334912
 30
0.0
  0
VERTEX
  5
135
330
12F
100
AcDbEntity
  8
\U+30EC\U+30A4\U+30E4\U+30FC 1
 62
     7
370
    25
100
AcDbVertex
100
AcDb2dVertex
 10
79.23736841552052
 20
-157.7350748303579
 30
0.0
  0
VERTEX
  5
136
330
12F
100
AcDbEntity
  8
\U+30EC\U+30A4\U+30E4\U+30FC 1
 62
     7
370
    25
100
AcDbVertex
100
AcDb2dVertex
 10
77.62523598319787
 20
-151.565942344921
 30
0.0
  0
VERTEX
  5
137
330
12F
100
AcDbEntity
  8
\U+30EC\U+30A4\U+30E4\U+30FC 1
 62
     7
370
    25
100
AcDbVertex
100
AcDb2dVertex
 10
75.82103947757253
 20
-145.4446966867291
 30
0.0
  0
VERTEX
  5
138
330
12F
100
AcDbEntity
  8
\U+30EC\U+30A4\U+30E4\U+30FC 1
 62
     7
370
    25
100
AcDbVertex
100
AcDb2dVertex
 10
73.87611082137472
 20
-139.3706488366851
 30
0.0
  0
VERTEX
  5
139
330
12F
100
AcDbEntity
  8
\U+30EC\U+30A4\U+30E4\U+30FC 1
 62
     7
370
    25
100
AcDbVertex
100
AcDb2dVertex
 10
71.7406683848426
 20
-133.3437987947891
 30
0.0
  0
VERTEX
  5
13A
330
12F
100
AcDbEntity
  8
\U+30EC\U+30A4\U+30E4\U+30FC 1
 62
     7
370
    25
100
AcDbVertex
100
AcDb2dVertex
 10
71.1239962929829
 20
-131.3032687388756
 30
0.0
  0
VERTEX
  5
13B
330
12F
100
AcDbEntity
  8
\U+30EC\U+30A4\U+30E4\U+30FC 1
 62
     7
370
    25
100
AcDbVertex
100
AcDb2dVertex
 10
70.79120006910776
 20
-129.2155408748142
 30
0.0
  0
VERTEX
  5
13C
330
12F
100
AcDbEntity
  8
\U+30EC\U+30A4\U+30E4\U+30FC 1
 62
     7
370
    25
100
AcDbVertex
100
AcDb2dVertex
 10
70.88645695927492
 20
-128.9781737958805
 30
0.0
  0
VERTEX
  5
13D
330
12F
100
AcDbEntity
  8
\U+30EC\U+30A4\U+30E4\U+30FC 1
 62
     7
370
    25
100
AcDbVertex
100
AcDb2dVertex
 10
71.07662623006071
 20
-128.8830891604876
 30
0.0
  0
SEQEND
  5
13E
330
12F
100
AcDbEntity
  8
\U+30EC\U+30A4\U+30E4\U+30FC 1
370
    25
  0
POLYLINE
  5
13F
330
1F
100
AcDbEntity
  8
\U+30EC\U+30A4\U+30E4\U+30FC 1
 62
     7
370
    25
100
AcDb2dPolyline
 66
     1
 10
0.0
 20
0.0
 30
0.0
  0
VERTEX
  5
140
330
13F
100
AcDbEntity
  8
\U+30EC\U+30A4\U+30E4\U+30FC 1
 62
     7
370
    25
100
AcDbVertex
100
AcDb2dVertex
 10
131.7690456484814
 20
-193.7997124081473
 30
0.0
  0
VERTEX
  5
141
330
13F
100
AcDbEntity
  8
\U+30EC\U+30A4\U+30E4\U+30FC 1
 62
     7
370
    25
100
AcDbVertex
100
AcDb2dVertex
 10
132.2906331049482
 20
-193.6095431373615
 30
0.0
  0
SEQEND
  5
142
330
13F
100
AcDbEntity
  8
\U+30EC\U+30A4\U+30E4\U+30FC 1
370
    25
  0
SPLINE
  5
143
330
1F
100
AcDbEntity
  8
\U+30EC\U+30A4\U+30E4\U+30FC 1
 62
     7
370
    25
100
AcDbSpline
210
0.0
220
0.0
230
1.0
 70
     8
 71
     3
 72
    14
 73
    10
 74
     0
 42
0.0000000001
 43
0.0000000001
 40
0.0
 40
0.0
 40
0.0
 40
0.0
 40
1.0
 40
1.0
 40
1.0
 40
2.0
 40
2.0
 40
2.0
 40
3.0
 40
3.0
 40
3.0
 40
3.0
 10
149.7062798019832
 20
-133.3437987947891
 30
0.0
 10
149.7062798019832
 20
-133.3437987947891
 30
0.0
 10
147.5706651106768
 20
-139.3706488366851
 30
0.0
 10
147.5706651106768
 20
-139.3706488366851
 30
0.0
 10
142.8388264616861
 20
-153.309505170006
 30
0.0
 10
139.3248290667313
 20
-168.2343478312053
 30
0.0
 10
137.4630994665023
 20
-182.8377630836308
 30
0.0
 10
137.4630994665023
 20
-182.8377630836308
 30
0.0
 10
136.7038004215532
 20
-189.1970648398535
 30
0.0
 10
136.7038004215532
 20
-189.1970648398535
 30
0.0
  0
POLYLINE
  5
144
330
1F
100
AcDbEntity
  8
\U+30EC\U+30A4\U+30E4\U+30FC 1
 62
     7
370
    25
100
AcDb2dPolyline
 66
     1
 10
0.0
 20
0.0
 30
0.0
  0
VERTEX
  5
145
330
144
100
AcDbEntity
  8
\U+30EC\U+30A4\U+30E4\U+30FC 1
 62
     7
370
    25
100
AcDbVertex
100
AcDb2dVertex
 10
150.6082058000216
 20
-129.2155408748142
 30
0.0
  0
VERTEX
  5
146
330
144
100
AcDbEntity
  8
\U+30EC\U+30A4\U+30E4\U+30FC 1
 62
     7
370
    25
100
AcDbVertex
100
AcDb2dVertex
 10
150.2754095761464
 20
-131.3032687388756
 30
0.0
  0
VERTEX
  5
147
330
144
100
AcDbEntity
  8
\U+30EC\U+30A4\U+30E4\U+30FC 1
 62
     7
370
    25
100
AcDbVertex
100
AcDb2dVertex
 10
149.7062798019832
 20
-133.3437987947891
 30
0.0
  0
SEQEND
  5
148
330
144
100
AcDbEntity
  8
\U+30EC\U+30A4\U+30E4\U+30FC 1
370
    25
  0
POLYLINE
  5
149
330
1F
100
AcDbEntity
  8
\U+30EC\U+30A4\U+30E4\U+30FC 1
 62
     7
370
    25
100
AcDb2dPolyline
 66
     1
 10
0.0
 20
0.0
 30
0.0
  0
VERTEX
  5
14A
330
149
100
AcDbEntity
  8
\U+30EC\U+30A4\U+30E4\U+30FC 1
 62
     7
370
    25
100
AcDbVertex
100
AcDb2dVertex
 10
150.324329932037
 20
-128.8830891604876
 30
0.0
  0
VERTEX
  5
14B
330
149
100
AcDbEntity
  8
\U+30EC\U+30A4\U+30E4\U+30FC 1
 62
     7
370
    25
100
AcDbVertex
100
AcDb2dVertex
 10
150.5603189727766
 20
-128.9781737958805
 30
0.0
  0
VERTEX
  5
14C
330
149
100
AcDbEntity
  8
\U+30EC\U+30A4\U+30E4\U+30FC 1
 62
     7
370
    25
100
AcDbVertex
100
AcDb2dVertex
 10
150.6082058000216
 20
-129.2155408748142
 30
0.0
  0
SEQEND
  5
14D
330
149
100
AcDbEntity
  8
\U+30EC\U+30A4\U+30E4\U+30FC 1
370
    25
  0
POLYLINE
  5
14E
330
1F
100
AcDbEntity
  8
\U+30EC\U+30A4\U+30E4\U+30FC 1
 62
     7
370
    20
100
AcDb2dPolyline
 66
     1
 10
0.0
 20
0.0
 30
0.0
  0
VERTEX
  5
14F
330
14E
100
AcDbEntity
  8
\U+30EC\U+30A4\U+30E4\U+30FC 1
 62
     7
370
    20
100
AcDbVertex
100
AcDb2dVertex
 10
149.848562245524
 20
-128.8834336700361
 30
0.0
  0
VERTEX
  5
150
330
14E
100
AcDbEntity
  8
\U+30EC\U+30A4\U+30E4\U+30FC 1
 62
     7
370
    20
100
AcDbVertex
100
AcDb2dVertex
 10
150.4176920196873
 20
-128.8357190975654
 30
0.0
  0
VERTEX
  5
151
330
14E
100
AcDbEntity
  8
\U+30EC\U+30A4\U+30E4\U+30FC 1
 62
     7
370
    20
100
AcDbVertex
100
AcDb2dVertex
 10
150.9392794761541
 20
-128.5985242734059
 30
0.0
  0
VERTEX
  5
152
330
14E
100
AcDbEntity
  8
\U+30EC\U+30A4\U+30E4\U+30FC 1
 62
     7
370
    20
100
AcDbVertex
100
AcDb2dVertex
 10
151.3675048449706
 20
-128.2188747509314
 30
0.0
  0
VERTEX
  5
153
330
14E
100
AcDbEntity
  8
\U+30EC\U+30A4\U+30E4\U+30FC 1
 62
     7
370
    20
100
AcDbVertex
100
AcDb2dVertex
 10
151.7464653483481
 20
-127.7916829107604
 30
0.0
  0
SEQEND
  5
154
330
14E
100
AcDbEntity
  8
\U+30EC\U+30A4\U+30E4\U+30FC 1
370
    20
  0
POLYLINE
  5
155
330
1F
100
AcDbEntity
  8
\U+30EC\U+30A4\U+30E4\U+30FC 1
 62
     7
370
    20
100
AcDb2dPolyline
 66
     1
 10
0.0
 20
0.0
 30
0.0
  0
VERTEX
  5
156
330
155
100
AcDbEntity
  8
\U+30EC\U+30A4\U+30E4\U+30FC 1
 62
     7
370
    20
100
AcDbVertex
100
AcDb2dVertex
 10
69.70048283847765
 20
-127.7916829107604
 30
0.0
  0
VERTEX
  5
157
330
155
100
AcDbEntity
  8
\U+30EC\U+30A4\U+30E4\U+30FC 1
 62
     7
370
    20
100
AcDbVertex
100
AcDb2dVertex
 10
70.03172876938443
 20
-128.2188747509314
 30
0.0
  0
VERTEX
  5
158
330
155
100
AcDbEntity
  8
\U+30EC\U+30A4\U+30E4\U+30FC 1
 62
     7
370
    20
100
AcDbVertex
100
AcDb2dVertex
 10
70.45978188342673
 20
-128.5985242734059
 30
0.0
  0
VERTEX
  5
159
330
155
100
AcDbEntity
  8
\U+30EC\U+30A4\U+30E4\U+30FC 1
 62
     7
370
    20
100
AcDbVertex
100
AcDb2dVertex
 10
71.02891165759
 20
-128.8357190975654
 30
0.0
  0
VERTEX
  5
15A
330
155
100
AcDbEntity
  8
\U+30EC\U+30A4\U+30E4\U+30FC 1
 62
     7
370
    20
100
AcDbVertex
100
AcDb2dVertex
 10
71.59821368652753
 20
-128.8834336700361
 30
0.0
  0
SEQEND
  5
15B
330
155
100
AcDbEntity
  8
\U+30EC\U+30A4\U+30E4\U+30FC 1
370
    20
  0
ENDSEC
  0
SECTION
  2
OBJECTS
  0
DICTIONARY
  5
C
330
0
100
AcDbDictionary
281
     1
  3
ACAD_GROUP
350
D
  3
ACAD_LAYOUT
350
1A
  3
ACAD_MLINESTYLE
350
17
  3
ACAD_PLOTSETTINGS
350
19
  3
ACAD_PLOTSTYLENAME
350
E
  3
ACAD_TABLESTYLE
350
15C
  3
ACAD_VISUALSTYLE
350
2A
  0
DICTIONARY
  5
D
102
{ACAD_REACTORS
330
C
102
}
330
C
100
AcDbDictionary
281
     1
  0
DICTIONARY
  5
1A
102
{ACAD_REACTORS
330
C
102
}
330
C
100
AcDbDictionary
281
     1
  3
Layout1
350
1E
  3
Layout2
350
26
  3
Model
350
22
  0
DICTIONARY
  5
17
102
{ACAD_REACTORS
330
C
102
}
330
C
100
AcDbDictionary
281
     1
  3
Standard
350
18
  0
DICTIONARY
  5
19
102
{ACAD_REACTORS
330
C
102
}
330
C
100
AcDbDictionary
281
     1
  0
ACDBDICTIONARYWDFLT
  5
E
102
{ACAD_REACTORS
330
C
102
}
330
C
100
AcDbDictionary
281
     1
  3
Normal
350
F
100
AcDbDictionaryWithDefault
340
F
  0
DICTIONARY
  5
15C
102
{ACAD_REACTORS
330
C
102
}
330
C
100
AcDbDictionary
281
     1
  0
DICTIONARY
  5
2A
102
{ACAD_REACTORS
330
C
102
}
330
C
100
AcDbDictionary
281
     1
  3
2dWireframe
350
2F
  3
3D Hidden
350
31
  3
3dWireframe
350
30
  3
Basic
350
32
  3
Brighten
350
36
  3
ColorChange
350
3A
  3
Conceptual
350
34
  3
Dim
350
35
  3
Facepattern
350
39
  3
Flat
350
2B
  3
FlatWithEdges
350
2C
  3
Gouraud
350
2D
  3
GouraudWithEdges
350
2E
  3
Linepattern
350
38
  3
Realistic
350
33
  3
Thicken
350
37
  0
LAYOUT
  5
1E
102
{ACAD_REACTORS
330
1A
102
}
330
1A
100
AcDbPlotSettings
  1

  2
none_device
  4

  6

 40
0.0
 41
0.0
 42
0.0
 43
0.0
 44
0.0
 45
0.0
 46
0.0
 47
0.0
 48
0.0
 49
0.0
140
0.0
141
0.0
142
1.0
143
1.0
 70
   688
 72
     0
 73
     0
 74
     5
  7

 75
    16
 76
     0
 77
     2
 78
   300
147
1.0
148
0.0
149
0.0
100
AcDbLayout
  1
Layout1
 70
     1
 71
     1
 10
0.0
 20
0.0
 11
12.0
 21
9.0
 12
0.0
 22
0.0
 32
0.0
 14
1.000000000000000E+20
 24
1.000000000000000E+20
 34
1.000000000000000E+20
 15
-1.000000000000000E+20
 25
-1.000000000000000E+20
 35
-1.000000000000000E+20
146
0.0
 13
0.0
 23
0.0
 33
0.0
 16
1.0
 26
0.0
 36
0.0
 17
0.0
 27
1.0
 37
0.0
 76
     0
330
1B
  0
LAYOUT
  5
26
102
{ACAD_REACTORS
330
1A
102
}
330
1A
100
AcDbPlotSettings
  1

  2
none_device
  4

  6

 40
0.0
 41
0.0
 42
0.0
 43
0.0
 44
0.0
 45
0.0
 46
0.0
 47
0.0
 48
0.0
 49
0.0
140
0.0
141
0.0
142
1.0
143
1.0
 70
   688
 72
     0
 73
     0
 74
     5
  7

 75
    16
 76
     0
 77
     2
 78
   300
147
1.0
148
0.0
149
0.0
100
AcDbLayout
  1
Layout2
 70
     1
 71
     2
 10
0.0
 20
0.0
 11
0.0
 21
0.0
 12
0.0
 22
0.0
 32
0.0
 14
0.0
 24
0.0
 34
0.0
 15
0.0
 25
0.0
 35
0.0
146
0.0
 13
0.0
 23
0.0
 33
0.0
 16
1.0
 26
0.0
 36
0.0
 17
0.0
 27
1.0
 37
0.0
 76
     0
330
23
  0
LAYOUT
  5
22
102
{ACAD_REACTORS
330
1A
102
}
330
1A
100
AcDbPlotSettings
  1

  2
none_device
  4

  6

 40
0.0
 41
0.0
 42
0.0
 43
0.0
 44
0.0
 45
0.0
 46
0.0
 47
0.0
 48
0.0
 49
0.0
140
0.0
141
0.0
142
1.0
143
1.0
 70
  1712
 72
     0
 73
     0
 74
     0
  7

 75
     0
 76
     0
 77
     2
 78
   300
147
1.0
148
0.0
149
0.0
100
AcDbLayout
  1
Model
 70
     1
 71
     0
 10
0.0
 20
0.0
 11
12.0
 21
9.0
 12
0.0
 22
0.0
 32
0.0
 14
1.000000000000000E+20
 24
1.000000000000000E+20
 34
1.000000000000000E+20
 15
-1.000000000000000E+20
 25
-1.000000000000000E+20
 35
-1.000000000000000E+20
146
0.0
 13
0.0
 23
0.0
 33
0.0
 16
1.0
 26
0.0
 36
0.0
 17
0.0
 27
1.0
 37
0.0
 76
     0
330
1F
331
29
  0
MLINESTYLE
  5
18
102
{ACAD_REACTORS
330
17
102
}
330
17
100
AcDbMlineStyle
  2
Standard
 70
     0
  3

 62
   256
 51
90.0
 52
90.0
 71
     2
 49
0.5
 62
   256
  6
BYLAYER
 49
-0.5
 62
   256
  6
BYLAYER
  0
ACDBPLACEHOLDER
  5
F
102
{ACAD_REACTORS
330
E
102
}
330
E
  0
VISUALSTYLE
  5
2F
102
{ACAD_REACTORS
330
2A
102
}
330
2A
100
AcDbVisualStyle
  2
2dWireframe
 70
     4
 71
     0
 72
     2
 73
     0
 90
        0
 40
-0.6
 41
-30.0
 62
     5
 63
     7
421
 16777215
 74
     1
 91
        4
 64
     7
 65
   257
 75
     1
175
     1
 42
1.0
 92
        0
 66
   257
 43
1.0
 76
     1
 77
     6
 78
     2
 67
     7
 79
     5
170
     0
171
     0
290
     0
174
     0
 93
        1
 44
0.0
173
     0
291
     0
 45
0.0
1001
ACAD
1000
AcDbSavedByObjectVersion
1070
     0
  0
VISUALSTYLE
  5
31
102
{ACAD_REACTORS
330
2A
102
}
330
2A
100
AcDbVisualStyle
  2
3D Hidden
 70
     6
 71
     1
 72
     2
 73
     2
 90
        0
 40
-0.6
 41
-30.0
 62
     5
 63
     7
421
 16777215
 74
     2
 91
        2
 64
     7
 65
   257
 75
     2
175
     1
 42
40.0
 92
        0
 66
   257
 43
1.0
 76
     1
 77
     6
 78
     2
 67
     7
 79
     3
170
     0
171
     0
290
     0
174
     0
 93
        1
 44
0.0
173
     0
291
     0
 45
0.0
1001
ACAD
1000
AcDbSavedByObjectVersion
1070
     0
  0
VISUALSTYLE
  5
30
102
{ACAD_REACTORS
330
2A
102
}
330
2A
100
AcDbVisualStyle
  2
3dWireframe
 70
     5
 71
     0
 72
     2
 73
     0
 90
        0
 40
-0.6
 41
-30.0
 62
     5
 63
     7
421
 16777215
 74
     1
 91
        4
 64
     7
 65
   257
 75
     1
175
     1
 42
1.0
 92
        0
 66
   257
 43
1.0
 76
     1
 77
     6
 78
     2
 67
     7
 79
     5
170
     0
171
     0
290
     0
174
     0
 93
        1
 44
0.0
173
     0
291
     0
 45
0.0
1001
ACAD
1000
AcDbSavedByObjectVersion
1070
     0
  0
VISUALSTYLE
  5
32
102
{ACAD_REACTORS
330
2A
102
}
330
2A
100
AcDbVisualStyle
  2
Basic
 70
     7
 71
     1
 72
     0
 73
     1
 90
        0
 40
-0.6
 41
-30.0
 62
     5
 63
     7
421
 16777215
 74
     0
 91
        4
 64
     7
 65
   257
 75
     1
175
     1
 42
1.0
 92
        8
 66
     7
 43
1.0
 76
     1
 77
     6
 78
     2
 67
     7
 79
     5
170
     0
171
     0
290
     0
174
     0
 93
        1
 44
0.0
173
     0
291
     1
 45
0.0
1001
ACAD
1000
AcDbSavedByObjectVersion
1070
     0
  0
VISUALSTYLE
  5
36
102
{ACAD_REACTORS
330
2A
102
}
330
2A
100
AcDbVisualStyle
  2
Brighten
 70
    12
 71
     2
 72
     2
 73
     0
 90
        0
 40
-0.6
 41
-30.0
 62
     5
 63
     7
421
 16777215
 74
     1
 91
        4
 64
     7
 65
   257
 75
     1
175
     1
 42
1.0
 92
        8
 66
     7
 43
1.0
 76
     1
 77
     6
 78
     2
 67
     7
 79
     5
170
     0
171
     0
290
     0
174
     0
 93
        1
 44
50.0
173
     0
291
     1
 45
0.0
1001
ACAD
1000
AcDbSavedByObjectVersion
1070
     0
  0
VISUALSTYLE
  5
3A
102
{ACAD_REACTORS
330
2A
102
}
330
2A
100
AcDbVisualStyle
  2
ColorChange
 70
    16
 71
     2
 72
     2
 73
     3
 90
        0
 40
-0.6
 41
-30.0
 62
     5
 63
     8
421
  8421504
 74
     1
 91
        4
 64
     7
 65
   257
 75
     1
175
     1
 42
1.0
 92
        8
 66
     8
424
  8421504
 43
1.0
 76
     1
 77
     6
 78
     2
 67
     7
 79
     5
170
     0
171
     0
290
     0
174
     0
 93
        1
 44
0.0
173
     0
291
     1
 45
0.0
1001
ACAD
1000
AcDbSavedByObjectVersion
1070
     0
  0
VISUALSTYLE
  5
34
102
{ACAD_REACTORS
330
2A
102
}
330
2A
100
AcDbVisualStyle
  2
Conceptual
 70
     9
 71
     3
 72
     2
 73
     0
 90
        0
 40
-0.6
 41
-30.0
 62
     5
 63
     7
421
 16777215
 74
     2
 91
        2
 64
     7
 65
   257
 75
     1
175
     1
 42
40.0
 92
        8
 66
     7
 43
1.0
 76
     1
 77
     6
 78
     2
 67
     7
 79
     3
170
     0
171
     0
290
     0
174
     0
 93
        1
 44
0.0
173
     0
291
     0
 45
0.0
1001
ACAD
1000
AcDbSavedByObjectVersion
1070
     0
  0
VISUALSTYLE
  5
35
102
{ACAD_REACTORS
330
2A
102
}
330
2A
100
AcDbVisualStyle
  2
Dim
 70
    11
 71
     2
 72
     2
 73
     0
 90
        0
 40
-0.6
 41
-30.0
 62
     5
 63
     7
421
 16777215
 74
     1
 91
        4
 64
     7
 65
   257
 75
     1
175
     1
 42
1.0
 92
        8
 66
     7
 43
1.0
 76
     1
 77
     6
 78
     2
 67
     7
 79
     5
170
     0
171
     0
290
     0
174
     0
 93
        1
 44
-50.0
173
     0
291
     1
 45
0.0
1001
ACAD
1000
AcDbSavedByObjectVersion
1070
     0
  0
VISUALSTYLE
  5
39
102
{ACAD_REACTORS
330
2A
102
}
330
2A
100
AcDbVisualStyle
  2
Facepattern
 70
    15
 71
     2
 72
     2
 73
     0
 90
        0
 40
-0.6
 41
-30.0
 62
     5
 63
     7
421
 16777215
 74
     1
 91
        4
 64
     7
 65
   257
 75
     1
175
     1
 42
1.0
 92
        8
 66
     7
 43
1.0
 76
     1
 77
     6
 78
     2
 67
     7
 79
     5
170
     0
171
     0
290
     0
174
     0
 93
        1
 44
0.0
173
     0
291
     1
 45
0.0
1001
ACAD
1000
AcDbSavedByObjectVersion
1070
     0
  0
VISUALSTYLE
  5
2B
102
{ACAD_REACTORS
330
2A
102
}
330
2A
100
AcDbVisualStyle
  2
Flat
 70
     0
 71
     2
 72
     1
 73
     1
 90
        2
 40
-0.6
 41
30.0
 62
     5
 63
     7
421
 16777215
 74
     0
 91
        4
 64
     7
 65
   257
 75
     1
175
     1
 42
1.0
 92
        8
 66
     7
 43
1.0
 76
     1
 77
     6
 78
     2
 67
     7
 79
     5
170
     0
171
     0
290
     0
174
     0
 93
       13
 44
0.0
173
     0
291
     1
 45
0.0
1001
ACAD
1000
AcDbSavedByObjectVersion
1070
     0
  0
VISUALSTYLE
  5
2C
102
{ACAD_REACTORS
330
2A
102
}
330
2A
100
AcDbVisualStyle
  2
FlatWithEdges
 70
     1
 71
     2
 72
     1
 73
     1
 90
        2
 40
-0.6
 41
30.0
 62
     5
 63
     7
421
 16777215
 74
     1
 91
        4
 64
     7
 65
   257
 75
     1
175
     1
 42
1.0
 92
        0
 66
   257
 43
1.0
 76
     1
 77
     6
 78
     2
 67
     7
 79
     5
170
     0
171
     0
290
     0
174
     0
 93
       13
 44
0.0
173
     0
291
     1
 45
0.0
1001
ACAD
1000
AcDbSavedByObjectVersion
1070
     0
  0
VISUALSTYLE
  5
2D
102
{ACAD_REACTORS
330
2A
102
}
330
2A
100
AcDbVisualStyle
  2
Gouraud
 70
     2
 71
     2
 72
     2
 73
     1
 90
        2
 40
-0.6
 41
30.0
 62
     5
 63
     7
421
 16777215
 74
     0
 91
        4
 64
     7
 65
   257
 75
     1
175
     1
 42
1.0
 92
        0
 66
     7
 43
1.0
 76
     1
 77
     6
 78
     2
 67
     7
 79
     5
170
     0
171
     0
290
     0
174
     0
 93
       13
 44
0.0
173
     0
291
     1
 45
0.0
1001
ACAD
1000
AcDbSavedByObjectVersion
1070
     0
  0
VISUALSTYLE
  5
2E
102
{ACAD_REACTORS
330
2A
102
}
330
2A
100
AcDbVisualStyle
  2
GouraudWithEdges
 70
     3
 71
     2
 72
     2
 73
     1
 90
        2
 40
-0.6
 41
30.0
 62
     5
 63
     7
421
 16777215
 74
     1
 91
        4
 64
     7
 65
   257
 75
     1
175
     1
 42
1.0
 92
        0
 66
   257
 43
1.0
 76
     1
 77
     6
 78
     2
 67
     7
 79
     5
170
     0
171
     0
290
     0
174
     0
 93
       13
 44
0.0
173
     0
291
     1
 45
0.0
1001
ACAD
1000
AcDbSavedByObjectVersion
1070
     0
  0
VISUALSTYLE
  5
38
102
{ACAD_REACTORS
330
2A
102
}
330
2A
100
AcDbVisualStyle
  2
Linepattern
 70
    14
 71
     2
 72
     2
 73
     0
 90
        0
 40
-0.6
 41
-30.0
 62
     5
 63
     7
421
 16777215
 74
     1
 91
        4
 64
     7
 65
   257
 75
     7
175
     7
 42
1.0
 92
        8
 66
     7
 43
1.0
 76
     1
 77
     6
 78
     2
 67
     7
 79
     5
170
     0
171
     0
290
     0
174
     0
 93
        1
 44
0.0
173
     0
291
     1
 45
0.0
1001
ACAD
1000
AcDbSavedByObjectVersion
1070
     0
  0
VISUALSTYLE
  5
33
102
{ACAD_REACTORS
330
2A
102
}
330
2A
100
AcDbVisualStyle
  2
Realistic
 70
     8
 71
     2
 72
     2
 73
     0
 90
        0
 40
-0.6
 41
-30.0
 62
     5
 63
     7
421
 16777215
 74
     1
 91
        0
 64
     7
 65
   257
 75
     1
175
     1
 42
1.0
 92
        8
 66
     8
424
  7895160
 43
1.0
 76
     1
 77
     6
 78
     2
 67
     7
 79
     5
170
     0
171
     0
290
     0
174
     0
 93
       13
 44
0.0
173
     0
291
     0
 45
0.0
1001
ACAD
1000
AcDbSavedByObjectVersion
1070
     0
  0
VISUALSTYLE
  5
37
102
{ACAD_REACTORS
330
2A
102
}
330
2A
100
AcDbVisualStyle
  2
Thicken
 70
    13
 71
     2
 72
     2
 73
     0
 90
        0
 40
-0.6
 41
-30.0
 62
     5
 63
     7
421
 16777215
 74
     1
 91
        4
 64
     7
 65
   257
 75
     1
175
     1
 42
1.0
 92
       12
 66
     7
 43
1.0
 76
     1
 77
     6
 78
     2
 67
     7
 79
     5
170
     0
171
     0
290
     0
174
     0
 93
        1
 44
0.0
173
     0
291
     1
 45
0.0
1001
ACAD
1000
AcDbSavedByObjectVersion
1070
     0
  0
ENDSEC
  0
EOF
