  0
SECTION
  2
HEADER
  9
$ACADVER
  1
AC1027
  9
$ACADMAINTVER
 70
    20
  9
$DWGCODEPAGE
  3
ANSI_932
  9
$REQUIREDVERSIONS
160
                 0
  9
$INSBASE
 10
0.0
 20
0.0
 30
0.0
  9
$EXTMIN
 10
3.472886530068153
 20
3.443844211291473
 30
0.0
  9
$EXTMAX
 10
137.8997490611
 20
169.0031776757461
 30
0.0
  9
$LIMMIN
 10
0.0
 20
0.0
  9
$LIMMAX
 10
420.0
 20
297.0
  9
$ORTHOMODE
 70
     0
  9
$REGENMODE
 70
     1
  9
$FILLMODE
 70
     1
  9
$QTEXTMODE
 70
     0
  9
$MIRRTEXT
 70
     1
  9
$LTSCALE
 40
1.0
  9
$ATTMODE
 70
     1
  9
$TEXTSIZE
 40
3.5
  9
$TRACEWID
 40
1.0
  9
$TEXTSTYLE
  7
Standard
  9
$CLAYER
  8
0
  9
$CELTYPE
  6
ByLayer
  9
$CECOLOR
 62
   256
  9
$CELTSCALE
 40
1.0
  9
$DISPSILH
 70
     0
  9
$DIMSCALE
 40
1.0
  9
$DIMASZ
 40
3.556
  9
$DIMEXO
 40
1.0
  9
$DIMDLI
 40
3.75
  9
$DIMRND
 40
0.0
  9
$DIMDLE
 40
0.0
  9
$DIMEXE
 40
1.0
  9
$DIMTP
 40
0.0
  9
$DIMTM
 40
0.0
  9
$DIMTXT
 40
3.5
  9
$DIMCEN
 40
2.5
  9
$DIMTSZ
 40
0.0
  9
$DIMTOL
 70
     0
  9
$DIMLIM
 70
     0
  9
$DIMTIH
 70
     1
  9
$DIMTOH
 70
     1
  9
$DIMSE1
 70
     0
  9
$DIMSE2
 70
     0
  9
$DIMTAD
 70
     1
  9
$DIMZIN
 70
     0
  9
$DIMBLK
  1

  9
$DIMASO
 70
     1
  9
$DIMSHO
 70
     1
  9
$DIMPOST
  1

  9
$DIMAPOST
  1

  9
$DIMALT
 70
     0
  9
$DIMALTD
 70
     3
  9
$DIMALTF
 40
0.0393700787
  9
$DIMLFAC
 40
10.0
  9
$DIMTOFL
 70
     1
  9
$DIMTVP
 40
0.0
  9
$DIMTIX
 70
     0
  9
$DIMSOXD
 70
     0
  9
$DIMSAH
 70
     0
  9
$DIMBLK1
  1

  9
$DIMBLK2
  1

  9
$DIMSTYLE
  2
ISO-25
  9
$DIMCLRD
 70
     0
  9
$DIMCLRE
 70
     0
  9
$DIMCLRT
 70
     0
  9
$DIMTFAC
 40
1.0
  9
$DIMGAP
 40
1.524
  9
$DIMJUST
 70
     0
  9
$DIMSD1
 70
     0
  9
$DIMSD2
 70
     0
  9
$DIMTOLJ
 70
     0
  9
$DIMTZIN
 70
     0
  9
$DIMALTZ
 70
     0
  9
$DIMALTTZ
 70
     0
  9
$DIMUPT
 70
     0
  9
$DIMDEC
 70
     2
  9
$DIMTDEC
 70
     2
  9
$DIMALTU
 70
     2
  9
$DIMALTTD
 70
     3
  9
$DIMTXSTY
  7
Standard
  9
$DIMAUNIT
 70
     0
  9
$DIMADEC
 70
     2
  9
$DIMALTRND
 40
0.0
  9
$DIMAZIN
 70
     0
  9
$DIMDSEP
 70
    44
  9
$DIMATFIT
 70
     3
  9
$DIMFRAC
 70
     0
  9
$DIMLDRBLK
  1

  9
$DIMLUNIT
 70
     2
  9
$DIMLWD
 70
    -2
  9
$DIMLWE
 70
    -2
  9
$DIMTMOVE
 70
     0
  9
$DIMFXL
 40
1.0
  9
$DIMFXLON
 70
     0
  9
$DIMJOGANG
 40
0.7853981633974483
  9
$DIMTFILL
 70
     0
  9
$DIMTFILLCLR
 70
     0
  9
$DIMARCSYM
 70
     0
  9
$DIMLTYPE
  6

  9
$DIMLTEX1
  6

  9
$DIMLTEX2
  6

  9
$DIMTXTDIRECTION
 70
     0
  9
$LUNITS
 70
     2
  9
$LUPREC
 70
     2
  9
$SKETCHINC
 40
1.0
  9
$FILLETRAD
 40
10.0
  9
$AUNITS
 70
     0
  9
$AUPREC
 70
     2
  9
$MENU
  1
.
  9
$ELEVATION
 40
0.0
  9
$PELEVATION
 40
0.0
  9
$THICKNESS
 40
0.0
  9
$LIMCHECK
 70
     0
  9
$CHAMFERA
 40
0.0
  9
$CHAMFERB
 40
0.0
  9
$CHAMFERC
 40
0.0
  9
$CHAMFERD
 40
0.0
  9
$SKPOLY
 70
     0
  9
$TDCREATE
 40
2457886.680748496
  9
$TDUCREATE
 40
2457886.305748496
  9
$TDUPDATE
 40
2458016.592984051
  9
$TDUUPDATE
 40
2458016.217984051
  9
$TDINDWG
 40
0.0310679051
  9
$TDUSRTIMER
 40
0.0310678819
  9
$USRTIMER
 70
     1
  9
$ANGBASE
 50
0.0
  9
$ANGDIR
 70
     0
  9
$PDMODE
 70
     0
  9
$PDSIZE
 40
-1.0
  9
$PLINEWID
 40
0.0
  9
$SPLFRAME
 70
     0
  9
$SPLINETYPE
 70
     6
  9
$SPLINESEGS
 70
     8
  9
$HANDSEED
  5
133
  9
$SURFTAB1
 70
     6
  9
$SURFTAB2
 70
     6
  9
$SURFTYPE
 70
     6
  9
$SURFU
 70
     6
  9
$SURFV
 70
     6
  9
$UCSBASE
  2

  9
$UCSNAME
  2

  9
$UCSORG
 10
0.0
 20
0.0
 30
0.0
  9
$UCSXDIR
 10
1.0
 20
0.0
 30
0.0
  9
$UCSYDIR
 10
0.0
 20
1.0
 30
0.0
  9
$UCSORTHOREF
  2

  9
$UCSORTHOVIEW
 70
     0
  9
$UCSORGTOP
 10
0.0
 20
0.0
 30
0.0
  9
$UCSORGBOTTOM
 10
0.0
 20
0.0
 30
0.0
  9
$UCSORGLEFT
 10
0.0
 20
0.0
 30
0.0
  9
$UCSORGRIGHT
 10
0.0
 20
0.0
 30
0.0
  9
$UCSORGFRONT
 10
0.0
 20
0.0
 30
0.0
  9
$UCSORGBACK
 10
0.0
 20
0.0
 30
0.0
  9
$PUCSBASE
  2

  9
$PUCSNAME
  2

  9
$PUCSORG
 10
0.0
 20
0.0
 30
0.0
  9
$PUCSXDIR
 10
1.0
 20
0.0
 30
0.0
  9
$PUCSYDIR
 10
0.0
 20
1.0
 30
0.0
  9
$PUCSORTHOREF
  2

  9
$PUCSORTHOVIEW
 70
     0
  9
$PUCSORGTOP
 10
0.0
 20
0.0
 30
0.0
  9
$PUCSORGBOTTOM
 10
0.0
 20
0.0
 30
0.0
  9
$PUCSORGLEFT
 10
0.0
 20
0.0
 30
0.0
  9
$PUCSORGRIGHT
 10
0.0
 20
0.0
 30
0.0
  9
$PUCSORGFRONT
 10
0.0
 20
0.0
 30
0.0
  9
$PUCSORGBACK
 10
0.0
 20
0.0
 30
0.0
  9
$USERI1
 70
     0
  9
$USERI2
 70
     0
  9
$USERI3
 70
     0
  9
$USERI4
 70
     0
  9
$USERI5
 70
     0
  9
$USERR1
 40
0.0
  9
$USERR2
 40
0.0
  9
$USERR3
 40
0.0
  9
$USERR4
 40
0.0
  9
$USERR5
 40
0.0
  9
$WORLDVIEW
 70
     1
  9
$SHADEDGE
 70
     3
  9
$SHADEDIF
 70
    70
  9
$TILEMODE
 70
     1
  9
$MAXACTVP
 70
    64
  9
$PINSBASE
 10
0.0
 20
0.0
 30
0.0
  9
$PLIMCHECK
 70
     0
  9
$PEXTMIN
 10
1.000000000000000E+20
 20
1.000000000000000E+20
 30
1.000000000000000E+20
  9
$PEXTMAX
 10
-1.000000000000000E+20
 20
-1.000000000000000E+20
 30
-1.000000000000000E+20
  9
$PLIMMIN
 10
0.0
 20
0.0
  9
$PLIMMAX
 10
420.0
 20
297.0
  9
$UNITMODE
 70
     0
  9
$VISRETAIN
 70
     1
  9
$PLINEGEN
 70
     0
  9
$PSLTSCALE
 70
     1
  9
$TREEDEPTH
 70
  3020
  9
$CMLSTYLE
  2
Standard
  9
$CMLJUST
 70
     0
  9
$CMLSCALE
 40
20.0
  9
$PROXYGRAPHICS
 70
     1
  9
$MEASUREMENT
 70
     1
  9
$CELWEIGHT
370
    -1
  9
$ENDCAPS
280
     0
  9
$JOINSTYLE
280
     0
  9
$LWDISPLAY
290
     0
  9
$INSUNITS
 70
     4
  9
$HYPERLINKBASE
  1

  9
$STYLESHEET
  1

  9
$XEDIT
290
     1
  9
$CEPSNTYPE
380
     0
  9
$PSTYLEMODE
290
     1
  9
$FINGERPRINTGUID
  2
{CACBD6C1-1E34-4E35-A457-1BC91ACA78B0}
  9
$VERSIONGUID
  2
{F18A6F66-526E-49B2-A6D9-4691ACE5DBBE}
  9
$EXTNAMES
290
     1
  9
$PSVPSCALE
 40
0.0
  9
$OLESTARTUP
290
     0
  9
$SORTENTS
280
   127
  9
$INDEXCTL
280
     0
  9
$HIDETEXT
280
     1
  9
$XCLIPFRAME
280
     2
  9
$HALOGAP
280
     0
  9
$OBSCOLOR
 70
   257
  9
$OBSLTYPE
280
     0
  9
$INTERSECTIONDISPLAY
280
     0
  9
$INTERSECTIONCOLOR
 70
   257
  9
$DIMASSOC
280
     1
  9
$PROJECTNAME
  1

  9
$CAMERADISPLAY
290
     0
  9
$LENSLENGTH
 40
50.0
  9
$CAMERAHEIGHT
 40
0.0
  9
$STEPSPERSEC
 40
2.0
  9
$STEPSIZE
 40
6.0
  9
$3DDWFPREC
 40
2.0
  9
$PSOLWIDTH
 40
0.25
  9
$PSOLHEIGHT
 40
4.0
  9
$LOFTANG1
 40
1.570796326794896
  9
$LOFTANG2
 40
1.570796326794896
  9
$LOFTMAG1
 40
0.0
  9
$LOFTMAG2
 40
0.0
  9
$LOFTPARAM
 70
     7
  9
$LOFTNORMALS
280
     1
  9
$LATITUDE
 40
37.795
  9
$LONGITUDE
 40
-122.394
  9
$NORTHDIRECTION
 40
0.0
  9
$TIMEZONE
 70
 -8000
  9
$LIGHTGLYPHDISPLAY
280
     1
  9
$TILEMODELIGHTSYNCH
280
     1
  9
$CMATERIAL
347
14
  9
$SOLIDHIST
280
     0
  9
$SHOWHIST
280
     1
  9
$DWFFRAME
280
     2
  9
$DGNFRAME
280
     0
  9
$REALWORLDSCALE
290
     1
  9
$INTERFERECOLOR
 62
     1
  9
$INTERFEREOBJVS
345
48
  9
$INTERFEREVPVS
346
49
  9
$CSHADOW
280
     0
  9
$SHADOWPLANELOCATION
 40
0.0
  0
ENDSEC
  0
SECTION
  2
CLASSES
  0
CLASS
  1
ACDBDICTIONARYWDFLT
  2
AcDbDictionaryWithDefault
  3
ObjectDBX Classes
 90
        0
 91
        1
280
     0
281
     0
  0
CLASS
  1
VISUALSTYLE
  2
AcDbVisualStyle
  3
ObjectDBX Classes
 90
     4095
 91
        3
280
     0
281
     0
  0
CLASS
  1
MATERIAL
  2
AcDbMaterial
  3
ObjectDBX Classes
 90
     1153
 91
        3
280
     0
281
     0
  0
CLASS
  1
SCALE
  2
AcDbScale
  3
ObjectDBX Classes
 90
     1153
 91
       33
280
     0
281
     0
  0
CLASS
  1
TABLESTYLE
  2
AcDbTableStyle
  3
ObjectDBX Classes
 90
     4095
 91
        1
280
     0
281
     0
  0
CLASS
  1
MLEADERSTYLE
  2
AcDbMLeaderStyle
  3
ACDB_MLEADERSTYLE_CLASS
 90
     4095
 91
        0
280
     0
281
     0
  0
CLASS
  1
SUN
  2
AcDbSun
  3
SCENEOE
 90
     1153
 91
        0
280
     1
281
     0
  0
CLASS
  1
ACDBSECTIONVIEWSTYLE
  2
AcDbSectionViewStyle
  3
ObjectDBX Classes
 90
     1025
 91
        0
280
     0
281
     0
  0
CLASS
  1
ACDBDETAILVIEWSTYLE
  2
AcDbDetailViewStyle
  3
ObjectDBX Classes
 90
     1025
 91
        0
280
     0
281
     0
  0
CLASS
  1
DICTIONARYVAR
  2
AcDbDictionaryVar
  3
ObjectDBX Classes
 90
        0
 91
        9
280
     0
281
     0
  0
CLASS
  1
CELLSTYLEMAP
  2
AcDbCellStyleMap
  3
ObjectDBX Classes
 90
     1152
 91
        1
280
     0
281
     0
  0
ENDSEC
  0
SECTION
  2
TABLES
  0
TABLE
  2
VPORT
  5
2C
330
0
100
AcDbSymbolTable
 70
     1
  0
VPORT
  5
2D
330
2C
100
AcDbSymbolTableRecord
100
AcDbViewportTableRecord
  2
*Active
 70
     0
 10
0.0
 20
0.0
 11
1.0
 21
1.0
 12
7.670943544930878
 22
4.720575238852664
 13
0.0
 23
0.0
 14
10.0
 24
10.0
 15
10.0
 25
10.0
 16
0.0
 26
0.0
 36
1.0
 17
0.0
 27
0.0
 37
0.0
 40
11.31157128275931
 41
2.232941176470588
 42
50.0
 43
0.0
 44
0.0
 50
0.0
 51
0.0
 71
     0
 72
  2000
 73
     1
 74
     3
 75
     0
 76
     0
 77
     0
 78
     0
281
     0
 65
     1
110
0.0
120
0.0
130
0.0
111
1.0
121
0.0
131
0.0
112
0.0
122
1.0
132
0.0
 79
     0
146
0.0
348
2E
 60
     3
 61
     5
292
     1
282
     1
141
0.0
142
0.0
 63
   250
421
  3355443
1001
ACAD_NAV_VCDISPLAY
1070
     3
  0
ENDTAB
  0
TABLE
  2
LTYPE
  5
27
330
0
100
AcDbSymbolTable
 70
     1
  0
LTYPE
  5
28
330
27
100
AcDbSymbolTableRecord
100
AcDbLinetypeTableRecord
  2
ByBlock
 70
     0
  3

 72
    65
 73
     0
 40
0.0
  0
LTYPE
  5
29
330
27
100
AcDbSymbolTableRecord
100
AcDbLinetypeTableRecord
  2
ByLayer
 70
     0
  3

 72
    65
 73
     0
 40
0.0
  0
LTYPE
  5
13
330
27
100
AcDbSymbolTableRecord
100
AcDbLinetypeTableRecord
  2
Continuous
 70
     0
  3
Solid line
 72
    65
 73
     0
 40
0.0
  0
ENDTAB
  0
TABLE
  2
LAYER
  5
23
330
0
100
AcDbSymbolTable
 70
     1
  0
LAYER
  5
4
102
{ACAD_XDICTIONARY
360
5
102
}
330
23
100
AcDbSymbolTableRecord
100
AcDbLayerTableRecord
  2
0
 70
     0
 62
     7
  6
Continuous
370
    -3
390
7
347
A
348
0
  0
ENDTAB
  0
TABLE
  2
STYLE
  5
24
330
0
100
AcDbSymbolTable
 70
     1
  0
STYLE
  5
25
330
24
100
AcDbSymbolTableRecord
100
AcDbTextStyleTableRecord
  2
Standard
 70
     0
 40
0.0
 41
1.0
 50
0.0
 71
     0
 42
3.5
  3
txt
  4
bigfont
  0
ENDTAB
  0
TABLE
  2
VIEW
  5
2A
330
0
100
AcDbSymbolTable
 70
     0
  0
ENDTAB
  0
TABLE
  2
UCS
  5
2B
330
0
100
AcDbSymbolTable
 70
     0
  0
ENDTAB
  0
TABLE
  2
APPID
  5
31
330
0
100
AcDbSymbolTable
 70
     2
  0
APPID
  5
32
330
31
100
AcDbSymbolTableRecord
100
AcDbRegAppTableRecord
  2
ACAD
 70
     0
  0
APPID
  5
30
330
31
100
AcDbSymbolTableRecord
100
AcDbRegAppTableRecord
  2
ACAD_NAV_VCDISPLAY
 70
     0
  0
ENDTAB
  0
TABLE
  2
DIMSTYLE
  5
33
330
0
100
AcDbSymbolTable
 70
     1
100
AcDbDimStyleTable
 71
     1
340
34
  0
DIMSTYLE
105
34
330
33
100
AcDbSymbolTableRecord
100
AcDbDimStyleTableRecord
  2
ISO-25
 70
     0
 41
2.5
 42
0.625
 43
3.75
 44
1.25
 73
     0
 74
     0
 77
     1
 78
     8
140
2.5
141
2.5
143
0.0393700787
147
0.625
171
     3
172
     1
271
     2
272
     2
274
     3
278
    44
283
     0
284
     8
340
25
  0
ENDTAB
  0
TABLE
  2
BLOCK_RECORD
  5
1
330
0
100
AcDbSymbolTable
 70
     0
  0
BLOCK_RECORD
  5
2
330
1
100
AcDbSymbolTableRecord
100
AcDbBlockTableRecord
  2
*Model_Space
340
1D
 70
     0
280
     1
281
     0
  0
BLOCK_RECORD
  5
1F
330
1
100
AcDbSymbolTableRecord
100
AcDbBlockTableRecord
  2
*Paper_Space
340
22
 70
     0
280
     1
281
     0
  0
ENDTAB
  0
ENDSEC
  0
SECTION
  2
BLOCKS
  0
BLOCK
  5
3
330
2
100
AcDbEntity
  8
0
100
AcDbBlockBegin
  2
*Model_Space
 70
     0
 10
0.0
 20
0.0
 30
0.0
  3
*Model_Space
  1

  0
ENDBLK
  5
1C
330
2
100
AcDbEntity
  8
0
100
AcDbBlockEnd
  0
BLOCK
  5
20
330
1F
100
AcDbEntity
 67
     1
  8
0
100
AcDbBlockBegin
  2
*Paper_Space
 70
     0
 10
0.0
 20
0.0
 30
0.0
  3
*Paper_Space
  1

  0
ENDBLK
  5
21
330
1F
100
AcDbEntity
 67
     1
  8
0
100
AcDbBlockEnd
  0
ENDSEC
  0
SECTION
  2
ENTITIES
  0
SPLINE
  5
6B
330
2
100
AcDbEntity
  8
0
  6
Continuous
 62
     7
370
    13
100
AcDbSpline
210
0.0
220
0.0
230
1.0
 70
     8
 71
     3
 72
    13
 73
     9
 74
     0
 42
0.000000001
 43
0.0000000001
 40
0.0
 40
0.0
 40
0.0
 40
0.0
 40
0.1258256831282825
 40
0.2715337059560047
 40
0.4177873851353332
 40
0.5646942128196172
 40
0.7125928932710886
 40
0.8232227150569631
 40
0.8232227150569631
 40
0.8232227150569631
 40
0.8232227150569631
 10
7.947291900235331
 20
5.096770008543165
 30
0.0
 10
7.950788529017378
 20
5.100124149148987
 30
0.0
 10
7.958334306222294
 20
5.107362434738648
 30
0.0
 10
7.967978952294062
 20
5.119166103250067
 30
0.0
 10
7.976524614060833
 20
5.132008249527887
 30
0.0
 10
7.983234701036634
 20
5.14537940038607
 30
0.0
 10
7.987555015422755
 20
5.158005810016492
 30
0.0
 10
7.989345877640014
 20
5.166191190104051
 30
0.0
 10
7.989864568657186
 20
5.169703745795194
 30
0.0
  0
LINE
  5
6C
330
2
100
AcDbEntity
  8
0
  6
Continuous
 62
     7
370
    13
100
AcDbLine
 10
7.457107340828322
 20
5.174775320567473
 30
0.0
 11
7.456315938916322
 21
5.187480116811473
 31
0.0
  0
LINE
  5
6D
330
2
100
AcDbEntity
  8
0
  6
Continuous
 62
     7
370
    13
100
AcDbLine
 10
7.456519223704322
 20
5.172530782043473
 30
0.0
 11
7.573992816480322
 21
3.554173811875473
 31
0.0
  0
LINE
  5
6E
330
2
100
AcDbEntity
  8
0
  6
Continuous
 62
     7
370
    13
100
AcDbLine
 10
8.056722652060322
 20
3.589214469655473
 30
0.0
 11
7.937260897604321
 21
5.234961344087473
 31
0.0
  0
LINE
  5
6F
330
2
100
AcDbEntity
  8
0
  6
Continuous
 62
     7
370
    13
100
AcDbLine
 10
5.716556767972322
 20
6.035682613031472
 30
0.0
 11
5.716556767972322
 21
6.037400304027473
 31
0.0
  0
LINE
  5
70
330
2
100
AcDbEntity
  8
0
  6
Continuous
 62
     7
370
    13
100
AcDbLine
 10
5.092276847036321
 20
7.884830557279475
 30
0.0
 11
7.007122013524321
 21
6.779414154631473
 31
0.0
  0
SPLINE
  5
71
330
2
100
AcDbEntity
  8
0
  6
Continuous
 62
     7
370
    13
100
AcDbSpline
210
0.0
220
0.0
230
1.0
 70
     8
 71
     3
 72
    12
 73
     8
 74
     0
 42
0.000000001
 43
0.0000000001
 40
0.0
 40
0.0
 40
0.0
 40
0.0
 40
0.1969711016121226
 40
0.4074003595837941
 40
0.6277005936498245
 40
0.8530196565046086
 40
1.0
 40
1.0
 40
1.0
 40
1.0
 10
7.128872457755949
 20
6.829664722368816
 30
0.0
 10
7.129526655904509
 20
6.82999026266062
 30
0.0
 10
7.130879750641653
 20
6.830663585959593
 30
0.0
 10
7.132943239150254
 20
6.832292307156444
 30
0.0
 10
7.134947483798894
 20
6.83439879888099
 30
0.0
 10
7.136595130976886
 20
6.836606682634869
 30
0.0
 10
7.137378559964634
 20
6.838136935628856
 30
0.0
 10
7.137687850443642
 20
6.838741065280569
 30
0.0
  0
LINE
  5
72
330
2
100
AcDbEntity
  8
0
  6
Continuous
 62
     7
370
    13
100
AcDbLine
 10
7.014356983688321
 20
6.779025959351473
 30
0.0
 11
7.128923497588322
 21
6.829686544259473
 31
0.0
  0
SPLINE
  5
73
330
2
100
AcDbEntity
  8
0
  6
Continuous
 62
     7
370
    13
100
AcDbSpline
210
0.0
220
0.0
230
1.0
 70
     8
 71
     3
 72
    49
 73
    45
 74
     0
 42
0.000000001
 43
0.0000000001
 40
0.0
 40
0.0
 40
0.0
 40
0.0
 40
0.048638996524749
 40
0.0978034626824299
 40
0.1415301855255082
 40
0.1798194352256694
 40
0.2126710222370525
 40
0.240494355220408
 40
0.2656006163149975
 40
0.2885997882052565
 40
0.3027118027208495
 40
0.3159501249792828
 40
0.3308529953156393
 40
0.3437376027870712
 40
0.3580526256056327
 40
0.3737763512913345
 40
0.3909028242758856
 40
0.4189516203930614
 40
0.443753691677418
 40
0.4651703007245278
 40
0.4833461278910042
 40
0.4984436342806552
 40
0.5249413668527701
 40
0.5561886954679716
 40
0.5921682244058326
 40
0.6307753293467618
 40
0.669209452095465
 40
0.7074683682372256
 40
0.7217706245605445
 40
0.735326634152678
 40
0.7472450797649535
 40
0.7575238676820582
 40
0.7661629667111317
 40
0.7731623743296078
 40
0.7790951601501024
 40
0.7882016243649092
 40
0.8013399802116339
 40
0.8185074667643331
 40
0.8397014476417451
 40
0.8649182577872375
 40
0.8941539932361893
 40
0.9274084264641464
 40
0.9646821437380024
 40
1.0
 40
1.0
 40
1.0
 40
1.0
 10
5.487304506733449
 20
7.933036575695536
 30
0.0
 10
5.466701641582648
 20
7.94493235870941
 30
0.0
 10
5.425273328975452
 20
7.96885244039702
 30
0.0
 10
5.365310041964594
 20
8.003473362873874
 30
0.0
 10
5.309723715061055
 20
8.035570016406692
 30
0.0
 10
5.261029065230429
 20
8.063678702894408
 30
0.0
 10
5.219085124876679
 20
8.087915266422857
 30
0.0
 10
5.182627951100873
 20
8.108890865760605
 30
0.0
 10
5.150572727864666
 20
8.127595422428049
 30
0.0
 10
5.123582642729628
 20
8.14260026584048
 30
0.0
 10
5.099989354114708
 20
8.153627748603389
 30
0.0
 10
5.078993565433155
 20
8.161976559319157
 30
0.0
 10
5.057477067266464
 20
8.169002252950685
 30
0.0
 10
5.034316873139801
 20
8.174925804150365
 30
0.0
 10
5.009769019329496
 20
8.179524809559429
 30
0.0
 10
4.9820295872499
 20
8.182873695919534
 30
0.0
 10
4.945614162075269
 20
8.184813235800961
 30
0.0
 10
4.903569411364069
 20
8.183635720266057
 30
0.0
 10
4.859672432100716
 20
8.17929768232835
 30
0.0
 10
4.822182143344983
 20
8.174015852314642
 30
0.0
 10
4.790601591673358
 20
8.168958884657101
 30
0.0
 10
4.756405779546601
 20
8.162776743816426
 30
0.0
 10
4.71539902969704
 20
8.154061640543606
 30
0.0
 10
4.663720448556288
 20
8.141278471995022
 30
0.0
 10
4.606764350051886
 20
8.1250683930808
 30
0.0
 10
4.547518288176371
 20
8.106018884655256
 30
0.0
 10
4.488631808264893
 20
8.085056431727389
 30
0.0
 10
4.443305131791247
 20
8.067483100546033
 30
0.0
 10
4.410918335530461
 20
8.054263731074485
 30
0.0
 10
4.391608572767676
 20
8.046169604453274
 30
0.0
 10
4.374395434655435
 20
8.038781252302676
 30
0.0
 10
4.359657100717847
 20
8.032326120748244
 30
0.0
 10
4.347345815726292
 20
8.026843342412224
 30
0.0
 10
4.337150975901286
 20
8.022241356475666
 30
0.0
 10
4.326778807587185
 20
8.01750804754465
 30
0.0
 10
4.313584924647933
 20
8.011411687882464
 30
0.0
 10
4.295261900935082
 20
8.002791356644129
 30
0.0
 10
4.271545566452746
 20
7.991369701485265
 30
0.0
 10
4.242591727809008
 20
7.977047525476637
 30
0.0
 10
4.208555862226836
 20
7.959731882329093
 30
0.0
 10
4.169584292279469
 20
7.939338149383145
 30
0.0
 10
4.125868684050693
 20
7.9157563386249
 30
0.0
 10
4.080077933859392
 20
7.890375756145436
 30
0.0
 10
4.049199865810968
 20
7.872659449804402
 30
0.0
 10
4.034176811262581
 20
7.864039965057497
 30
0.0
  0
LINE
  5
74
330
2
100
AcDbEntity
  8
0
  6
Continuous
 62
     7
370
    13
100
AcDbLine
 10
7.12272751349521
 20
6.989051805945136
 30
0.0
 11
5.487429345700322
 21
7.933090137071474
 31
0.0
  0
SPLINE
  5
75
330
2
100
AcDbEntity
  8
0
  6
Continuous
 62
     7
370
    13
100
AcDbSpline
210
0.0
220
0.0
230
1.0
 70
     8
 71
     3
 72
    26
 73
    22
 74
     0
 42
0.000000001
 43
0.0000000001
 40
0.0
 40
0.0
 40
0.0
 40
0.0
 40
0.0496959389705078
 40
0.0959441001972396
 40
0.138677501007063
 40
0.1964697766474644
 40
0.2514542445211017
 40
0.3227059535853832
 40
0.3920590764393078
 40
0.4612719678155852
 40
0.5000274363543347
 40
0.5380731430171533
 40
0.5746221247602509
 40
0.6096743815949335
 40
0.6432295821704531
 40
0.6805968420147125
 40
0.7265436790162499
 40
0.7829574841705665
 40
0.8498385888591023
 40
0.9271868274020215
 40
1.0
 40
1.0
 40
1.0
 40
1.0
 10
3.474269785123025
 20
7.215184509174973
 30
0.0
 10
3.474641021807451
 20
7.20777489504106
 30
0.0
 10
3.47535773972013
 20
7.193469726940525
 30
0.0
 10
3.482077422884611
 20
7.173384025481084
 30
0.0
 10
3.493197060357007
 20
7.153132899074003
 30
0.0
 10
3.509985584380293
 20
7.133405362086605
 30
0.0
 10
3.535194685982349
 20
7.112101918643556
 30
0.0
 10
3.567112189252177
 20
7.091982394235945
 30
0.0
 10
3.603048718864632
 20
7.07160685289881
 30
0.0
 10
3.633075014329917
 20
7.054180295713377
 30
0.0
 10
3.657853903441536
 20
7.039889337282088
 30
0.0
 10
3.677073392085396
 20
7.028790394906126
 30
0.0
 10
3.695669581219819
 20
7.018055574988325
 30
0.0
 10
3.713503264214968
 20
7.007760172821793
 30
0.0
 10
3.731475986378887
 20
6.997384648105736
 30
0.0
 10
3.75129615359943
 20
6.985942747938953
 30
0.0
 10
3.77499170692086
 20
6.97226293851979
 30
0.0
 10
3.80369253555513
 20
6.955694122745349
 30
0.0
 10
3.837716646369845
 20
6.93605039168948
 30
0.0
 10
3.874527517734813
 20
6.914804707266961
 30
0.0
 10
3.899980101799099
 20
6.900097360869317
 30
0.0
 10
3.912322043596638
 20
6.892965777970797
 30
0.0
  0
SPLINE
  5
76
330
2
100
AcDbEntity
  8
0
  6
Continuous
 62
     7
370
    13
100
AcDbSpline
210
0.0
220
0.0
230
1.0
 70
     8
 71
     3
 72
     9
 73
     5
 74
     0
 42
0.000000001
 43
0.0000000001
 40
0.0
 40
0.0
 40
0.0
 40
0.0
 40
0.4861877443704747
 40
1.0
 40
1.0
 40
1.0
 40
1.0
 10
3.474799571008808
 20
7.335363169518776
 30
0.0
 10
3.473893614848919
 20
7.315184668952413
 30
0.0
 10
3.472030227360486
 20
7.273681153489496
 30
0.0
 10
3.473597678072228
 20
7.230759480360752
 30
0.0
 10
3.474403053458018
 20
7.208705798675081
 30
0.0
  0
SPLINE
  5
77
330
2
100
AcDbEntity
  8
0
  6
Continuous
 62
     7
370
    13
100
AcDbSpline
210
0.0
220
0.0
230
1.0
 70
     8
 71
     3
 72
    36
 73
    32
 74
     0
 42
0.000000001
 43
0.0000000001
 40
0.0
 40
0.0
 40
0.0
 40
0.0
 40
0.0731619239959481
 40
0.1489286667394036
 40
0.2172788722497592
 40
0.2782188564946071
 40
0.3317411221200487
 40
0.3778355885963307
 40
0.4181951867913464
 40
0.4551003833934412
 40
0.4885630497486572
 40
0.5185846018978264
 40
0.5396504626722402
 40
0.5641070048781561
 40
0.5920491524809889
 40
0.6234825602289025
 40
0.6584197380561644
 40
0.6938780097781369
 40
0.7242786832765244
 40
0.7396173359313227
 40
0.7531908400148756
 40
0.7649980349846791
 40
0.7750360719818953
 40
0.785551658480599
 40
0.8011230234869234
 40
0.8218928000216061
 40
0.847887486252622
 40
0.8791358961429683
 40
0.9154866691394623
 40
0.9574699150022636
 40
1.0
 40
1.0
 40
1.0
 40
1.0
 10
4.034171634487935
 20
7.864024577096252
 30
0.0
 10
4.015741915372386
 20
7.853304861380784
 30
0.0
 10
3.978226315093578
 20
7.831483770817069
 30
0.0
 10
3.924673280703833
 20
7.798970150489573
 30
0.0
 10
3.875080026797763
 20
7.767765238518833
 30
0.0
 10
3.831819405983166
 20
7.739436460561696
 30
0.0
 10
3.79472524095102
 20
7.714093334918464
 30
0.0
 10
3.763240229929183
 20
7.69157426355839
 30
0.0
 10
3.73620789079964
 20
7.671385291636314
 30
0.0
 10
3.712564259932175
 20
7.65297982391344
 30
0.0
 10
3.691662224867449
 20
7.63605372457534
 30
0.0
 10
3.674476761757488
 20
7.621614796986213
 30
0.0
 10
3.659434023949422
 20
7.60857585301051
 30
0.0
 10
3.645090219685382
 20
7.595773264418445
 30
0.0
 10
3.629122189418704
 20
7.581003966399766
 30
0.0
 10
3.611704967270117
 20
7.564180495715596
 30
0.0
 10
3.593617407474121
 20
7.545758930374844
 30
0.0
 10
3.576540572086217
 20
7.52724546852152
 30
0.0
 10
3.563477250508621
 20
7.512109317538174
 30
0.0
 10
3.554317599241507
 20
7.500933839236136
 30
0.0
 10
3.548203926065911
 20
7.493209031452016
 30
0.0
 10
3.543020156620958
 20
7.486443426452581
 30
0.0
 10
3.53840195522453
 20
7.480236951020721
 30
0.0
 10
3.533329126852494
 20
7.473218404339874
 30
0.0
 10
3.526878739677562
 20
7.46392959142978
 30
0.0
 10
3.51869552202953
 20
7.451399708644149
 30
0.0
 10
3.509194454047205
 20
7.43543367128311
 30
0.0
 10
3.499103487382976
 20
7.415870612121553
 30
0.0
 10
3.488730404045159
 20
7.392524940321056
 30
0.0
 10
3.478817701075389
 20
7.366205246327176
 30
0.0
 10
3.476409778680642
 20
7.346975988255865
 30
0.0
 10
3.475198027314629
 20
7.337299148260457
 30
0.0
  0
LINE
  5
78
330
2
100
AcDbEntity
  8
0
  6
Continuous
 62
     7
370
    13
100
AcDbLine
 10
3.911546372996322
 20
6.893457258867472
 30
0.0
 11
5.236697469952321
 21
6.128464068311473
 31
0.0
  0
SPLINE
  5
79
330
2
100
AcDbEntity
  8
0
  6
Continuous
 62
     7
370
    13
100
AcDbSpline
210
0.0
220
0.0
230
1.0
 70
     8
 71
     3
 72
    22
 73
    18
 74
     0
 42
0.000000001
 43
0.0000000001
 40
0.000895829209251
 40
0.000895829209251
 40
0.000895829209251
 40
0.000895829209251
 40
0.0399374842815645
 40
0.1233623448359255
 40
0.1892947628784881
 40
0.2385881299924816
 40
0.2865896276898339
 40
0.3563229680549425
 40
0.433821537023209
 40
0.5098325866357707
 40
0.5915622710915806
 40
0.6606413305653771
 40
0.7381605906457616
 40
0.7901970469288023
 40
0.8546587085082897
 40
0.9331182734187235
 40
1.0
 40
1.0
 40
1.0
 40
1.0
 10
7.980971900592223
 20
5.141123064005788
 30
0.0
 10
7.985785698385882
 20
5.143960722327095
 30
0.0
 10
8.000882267961873
 20
5.152865108288185
 30
0.0
 10
8.023368115609843
 20
5.167245746259178
 30
0.0
 10
8.046703720045019
 20
5.182698239069997
 30
0.0
 10
8.065337005038298
 20
5.19555445040241
 30
0.0
 10
8.084239758920558
 20
5.20901008003948
 30
0.0
 10
8.106140806289483
 20
5.225225482743448
 30
0.0
 10
8.130777320391242
 20
5.244396443551686
 30
0.0
 10
8.156150777455369
 20
5.265210390273423
 30
0.0
 10
8.179956513157538
 20
5.285843923649816
 30
0.0
 10
8.20332559895279
 20
5.307213407209683
 30
0.0
 10
8.223271310789446
 20
5.326458822445221
 30
0.0
 10
8.242298823858982
 20
5.345719808700956
 30
0.0
 10
8.261213868574198
 20
5.365782390907538
 30
0.0
 10
8.281153537821758
 20
5.387953108080559
 30
0.0
 10
8.294246703752815
 20
5.403891125141267
 30
0.0
 10
8.300271788124202
 20
5.411225325136062
 30
0.0
  0
SPLINE
  5
7A
330
2
100
AcDbEntity
  8
0
  6
Continuous
 62
     7
370
    13
100
AcDbSpline
210
0.0
220
0.0
230
1.0
 70
     8
 71
     3
 72
    28
 73
    24
 74
     0
 42
0.000000001
 43
0.0000000001
 40
0.0
 40
0.0
 40
0.0
 40
0.0
 40
0.0133559799979296
 40
0.0256323075210133
 40
0.0512819613352524
 40
0.0820171883161154
 40
0.119062811948393
 40
0.1630959422478869
 40
0.2342722116257452
 40
0.291759188394934
 40
0.3366133401791712
 40
0.3830472481795877
 40
0.4360337376257574
 40
0.5080255178730308
 40
0.5840875371987191
 40
0.6554070166865254
 40
0.7245435787115083
 40
0.8059055233892138
 40
0.8868656366776217
 40
0.9168357108322352
 40
0.9501660039691671
 40
0.9949220218391443
 40
1.0
 40
1.0
 40
1.0
 40
1.0
 10
6.685972679500854
 20
5.220473084008977
 30
0.0
 10
6.686030945888598
 20
5.220394268165046
 30
0.0
 10
6.686142768605389
 20
5.22024300768476
 30
0.0
 10
6.688668970463718
 20
5.218494898627596
 30
0.0
 10
6.695586875660685
 20
5.213922848106925
 30
0.0
 10
6.708499920334519
 20
5.205598773817454
 30
0.0
 10
6.726451009578276
 20
5.194361791735497
 30
0.0
 10
6.75321741885129
 20
5.178262555569621
 30
0.0
 10
6.785169715992908
 20
5.160187281434065
 30
0.0
 10
6.818270647319295
 20
5.142796996802972
 30
0.0
 10
6.848105452037811
 20
5.12810042689153
 30
0.0
 10
6.877504180279892
 20
5.114484424559817
 30
0.0
 10
6.912824550110389
 20
5.09925893049011
 30
0.0
 10
6.955041864257198
 20
5.082589715849497
 30
0.0
 10
7.001783528404489
 20
5.065755610915619
 30
0.0
 10
7.048964690443058
 20
5.04999317294161
 30
0.0
 10
7.097923887815905
 20
5.034421060568417
 30
0.0
 10
7.149279438196833
 20
5.018581245329205
 30
0.0
 10
7.192709524920013
 20
5.005319136294307
 30
0.0
 10
7.22516953441155
 20
4.995237776411395
 30
0.0
 10
7.249468584971822
 20
4.987533909679022
 30
0.0
 10
7.268103470206426
 20
4.981607831010411
 30
0.0
 10
7.27904343230401
 20
4.977868469751193
 30
0.0
 10
7.280158191164165
 20
4.977487436795335
 30
0.0
  0
SPLINE
  5
7B
330
2
100
AcDbEntity
  8
0
  6
Continuous
 62
     7
370
    13
100
AcDbSpline
210
0.0
220
0.0
230
1.0
 70
     8
 71
     3
 72
    29
 73
    25
 74
     0
 42
0.000000001
 43
0.0000000001
 40
0.0
 40
0.0
 40
0.0
 40
0.0
 40
0.0578419877716377
 40
0.1093076003425814
 40
0.1543968293062462
 40
0.1931096544269599
 40
0.2254460757104763
 40
0.2517216849830187
 40
0.2774172817052186
 40
0.3034392866194936
 40
0.3297730124490242
 40
0.4257379437147832
 40
0.5220709662184583
 40
0.5833753045234819
 40
0.644666723841473
 40
0.703428775937593
 40
0.7577893149410784
 40
0.7793903439355371
 40
0.8060716831604866
 40
0.8380705100304661
 40
0.8753907814035301
 40
0.9180346654593783
 40
0.9660052201524976
 40
1.0
 40
1.0
 40
1.0
 40
1.0
 10
5.236013985047321
 20
6.128842356671286
 30
0.0
 10
5.256081727160415
 20
6.117250156156098
 30
0.0
 10
5.294004987047959
 20
6.095343654152605
 30
0.0
 10
5.347591713898857
 20
6.064412052822968
 30
0.0
 10
5.39453562432023
 20
6.037310477011079
 30
0.0
 10
5.434840976877456
 20
6.014041340156682
 30
0.0
 10
5.468621000816559
 20
5.994543610775265
 30
0.0
 10
5.497872738321397
 20
5.977647373559789
 30
0.0
 10
5.524971539637578
 20
5.962038327719508
 30
0.0
 10
5.55201490465539
 20
5.946373211276749
 30
0.0
 10
5.604048176873885
 20
5.916978981542953
 30
0.0
 10
5.680645461693057
 20
5.873589587398289
 30
0.0
 10
5.770254995078307
 20
5.82370641293008
 30
0.0
 10
5.84832267945608
 20
5.781069417200285
 30
0.0
 10
5.913646489508662
 20
5.746149529419856
 30
0.0
 10
5.977199396932933
 20
5.713022189345455
 30
0.0
 10
6.026982156434965
 20
5.687877840655099
 30
0.0
 10
6.065187995460995
 20
5.668903845702269
 30
0.0
 10
6.095561177578694
 20
5.654400033743208
 30
0.0
 10
6.132592754462513
 20
5.637568033322548
 30
0.0
 10
6.176285711193201
 20
5.618316724545027
 30
0.0
 10
6.226680831275634
 20
5.596680677533518
 30
0.0
 10
6.276095908010856
 20
5.575866356680146
 30
0.0
 10
6.308846718366805
 20
5.562373887832075
 30
0.0
 10
6.322429980048315
 20
5.556777942782131
 30
0.0
  0
LINE
  5
7C
330
2
100
AcDbEntity
  8
0
  6
Continuous
 62
     7
370
    13
100
AcDbLine
 10
8.096037558988321
 20
6.122653046427472
 30
0.0
 11
8.098432342920322
 21
6.131420793771473
 31
0.0
  0
SPLINE
  5
7D
330
2
100
AcDbEntity
  8
0
  6
Continuous
 62
     7
370
    13
100
AcDbSpline
210
0.0
220
0.0
230
1.0
 70
     8
 71
     3
 72
     9
 73
     5
 74
     0
 42
0.000000001
 43
0.0000000001
 40
0.0
 40
0.0
 40
0.0
 40
0.0
 40
0.1877001624944811
 40
1.0
 40
1.0
 40
1.0
 40
1.0
 10
8.098510904645642
 20
6.131840075962852
 30
0.0
 10
8.098593652313438
 20
6.132033647537518
 30
0.0
 10
8.099034502586011
 20
6.133064928342466
 30
0.0
 10
8.099016033104119
 20
6.134207596349985
 30
0.0
 10
8.099001030346974
 20
6.135135785386812
 30
0.0
  0
SPLINE
  5
7E
330
2
100
AcDbEntity
  8
0
  6
Continuous
 62
     7
370
    13
100
AcDbSpline
210
0.0
220
0.0
230
1.0
 70
     8
 71
     3
 72
    25
 73
    21
 74
     0
 42
0.000000001
 43
0.0000000001
 40
0.0
 40
0.0
 40
0.0
 40
0.0
 40
0.083425654575247
 40
0.1561615531768356
 40
0.2182754182905819
 40
0.2697488386049987
 40
0.3108266841605486
 40
0.3500886732189002
 40
0.3992603002698377
 40
0.4515819866979208
 40
0.5070735628838811
 40
0.5611327773217412
 40
0.6140272754442796
 40
0.6577426729493716
 40
0.7002274527013157
 40
0.7555801084110876
 40
0.8093040843884789
 40
0.8702359243946322
 40
0.9261154860598715
 40
0.9504730993824288
 40
0.9504730993824288
 40
0.9504730993824288
 40
0.9504730993824288
 10
6.263444116858167
 20
5.634353067455908
 30
0.0
 10
6.273625757245723
 20
5.62080501404214
 30
0.0
 10
6.292684412342934
 20
5.595444888618032
 30
0.0
 10
6.31986740247782
 20
5.559972362231447
 30
0.0
 10
6.343464180917139
 20
5.529745505075689
 30
0.0
 10
6.363460972734658
 20
5.504771149776154
 30
0.0
 10
6.380835393969018
 20
5.483613466910862
 30
0.0
 10
6.398230787990009
 20
5.462961494922097
 30
0.0
 10
6.41755180563602
 20
5.440688149610906
 30
0.0
 10
6.43966552342009
 20
5.416098933168049
 30
0.0
 10
6.463129685102892
 20
5.391092240211438
 30
0.0
 10
6.487444584286234
 20
5.366491614330254
 30
0.0
 10
6.510836185787259
 20
5.344347771501315
 30
0.0
 10
6.533174702199648
 20
5.324630789613522
 30
0.0
 10
6.556563840497538
 20
5.305325408065991
 30
0.0
 10
6.582336154279595
 20
5.285680615919752
 30
0.0
 10
6.611938593734362
 20
5.26498187489113
 30
0.0
 10
6.642214059670298
 20
5.245599722647209
 30
0.0
 10
6.66749030474528
 20
5.230717912465451
 30
0.0
 10
6.681885304163954
 20
5.222616772538175
 30
0.0
 10
6.686248442098379
 20
5.220202652764468
 30
0.0
  0
SPLINE
  5
7F
330
2
100
AcDbEntity
  8
0
  6
Continuous
 62
     7
370
    13
100
AcDbSpline
210
0.0
220
0.0
230
1.0
 70
     8
 71
     3
 72
     9
 73
     5
 74
     0
 42
0.000000001
 43
0.0000000001
 40
0.0
 40
0.0
 40
0.0
 40
0.0
 40
0.4995845227434889
 40
1.0
 40
1.0
 40
1.0
 40
1.0
 10
7.274635900338026
 20
4.979376471891542
 30
0.0
 10
7.278830439903085
 20
4.977967774661873
 30
0.0
 10
7.287226495773722
 20
4.975148037128908
 30
0.0
 10
7.295574075642326
 20
4.972489587501617
 30
0.0
 10
7.299751333806209
 20
4.971159258162614
 30
0.0
  0
SPLINE
  5
80
330
2
100
AcDbEntity
  8
0
  6
Continuous
 62
     7
370
    13
100
AcDbSpline
210
0.0
220
0.0
230
1.0
 70
     8
 71
     3
 72
     9
 73
     5
 74
     0
 42
0.000000001
 43
0.0000000001
 40
0.0
 40
0.0
 40
0.0
 40
0.0
 40
0.4531557041187196
 40
1.0
 40
1.0
 40
1.0
 40
1.0
 10
8.364088691678063
 20
5.526879029162031
 30
0.0
 10
8.365623717986974
 20
5.531008700344629
 30
0.0
 10
8.369011132720933
 20
5.540121839923505
 30
0.0
 10
8.373089662903391
 20
5.55127422841975
 30
0.0
 10
8.375319983869246
 20
5.557372848454372
 30
0.0
  0
LINE
  5
81
330
2
100
AcDbEntity
  8
0
  6
Continuous
 62
     7
370
    13
100
AcDbLine
 10
8.401826263336321
 20
5.655053525531473
 30
0.0
 11
8.407304131384321
 21
5.681360014431472
 31
0.0
  0
SPLINE
  5
82
330
2
100
AcDbEntity
  8
0
  6
Continuous
 62
     7
370
    13
100
AcDbSpline
210
0.0
220
0.0
230
1.0
 70
     8
 71
     3
 72
    11
 73
     7
 74
     0
 42
0.000000001
 43
0.0000000001
 40
0.0
 40
0.0
 40
0.0
 40
0.0
 40
0.1703825767846288
 40
0.4381915586543954
 40
0.7117317003346311
 40
1.0
 40
1.0
 40
1.0
 40
1.0
 10
8.298964371809971
 20
5.410343699359594
 30
0.0
 10
8.303742904698083
 20
5.416021743237216
 30
0.0
 10
8.316032381790394
 20
5.430624591391039
 30
0.0
 10
8.332306469417133
 20
5.457351652893037
 30
0.0
 10
8.349725092521822
 20
5.490358822094834
 30
0.0
 10
8.359614380934591
 20
5.515761833119006
 30
0.0
 10
8.364688652066618
 20
5.528796316504088
 30
0.0
  0
SPLINE
  5
83
330
2
100
AcDbEntity
  8
0
  6
Continuous
 62
     7
370
    13
100
AcDbSpline
210
0.0
220
0.0
230
1.0
 70
     8
 71
     3
 72
    15
 73
    11
 74
     0
 42
0.000000001
 43
0.0000000001
 40
0.0
 40
0.0
 40
0.0
 40
0.0
 40
0.1481053652006122
 40
0.2799949357069274
 40
0.3793893966558103
 40
0.4518480071770897
 40
0.544425485560589
 40
0.66901327864443
 40
0.8294074966956006
 40
1.0
 40
1.0
 40
1.0
 40
1.0
 10
8.407475542618998
 20
5.682808436212555
 30
0.0
 10
8.40859667004911
 20
5.689874307726224
 30
0.0
 10
8.410716174648346
 20
5.703232420968802
 30
0.0
 10
8.412363121402686
 20
5.721502731040422
 30
0.0
 10
8.413632422583582
 20
5.73617651541539
 30
0.0
 10
8.414638896296255
 20
5.748825892648039
 30
0.0
 10
8.415723650829619
 20
5.762840767658468
 30
0.0
 10
8.417186271699014
 20
5.781316433907417
 30
0.0
 10
8.418659874445573
 20
5.803703306501427
 30
0.0
 10
8.417840392265826
 20
5.821169768605005
 30
0.0
 10
8.417418026329565
 20
5.830172085924316
 30
0.0
  0
SPLINE
  5
84
330
2
100
AcDbEntity
  8
0
  6
Continuous
 62
     7
370
    13
100
AcDbSpline
210
0.0
220
0.0
230
1.0
 70
     8
 71
     3
 72
     9
 73
     5
 74
     0
 42
0.000000001
 43
0.0000000001
 40
0.0
 40
0.0
 40
0.0
 40
0.0
 40
0.4973938868146728
 40
1.0
 40
1.0
 40
1.0
 40
1.0
 10
7.439942162225026
 20
4.943659937615555
 30
0.0
 10
7.445487014093599
 20
4.943762013927694
 30
0.0
 10
7.456634822732906
 20
4.943967236217003
 30
0.0
 10
7.46758503436833
 20
4.944164643660221
 30
0.0
 10
7.473088677676962
 20
4.944263861847971
 30
0.0
  0
SPLINE
  5
85
330
2
100
AcDbEntity
  8
0
  6
Continuous
 62
     7
370
    13
100
AcDbSpline
210
0.0
220
0.0
230
1.0
 70
     8
 71
     3
 72
    15
 73
    11
 74
     0
 42
0.000000001
 43
0.0000000001
 40
0.0
 40
0.0
 40
0.0
 40
0.0
 40
0.2188619863157199
 40
0.3933533887545368
 40
0.5232830450821359
 40
0.60831133141385
 40
0.6787936831297241
 40
0.7926134921027919
 40
0.95199497824192
 40
1.0
 40
1.0
 40
1.0
 40
1.0
 10
7.299558638414822
 20
4.971204395928581
 30
0.0
 10
7.308796213933522
 20
4.968317993667591
 30
0.0
 10
7.325398602019841
 20
4.963130358620583
 30
0.0
 10
7.347097422208294
 20
4.957153201411175
 30
0.0
 10
7.363050529179222
 20
4.953231413624289
 30
0.0
 10
7.374638161251453
 20
4.950702125715417
 30
0.0
 10
7.385813561786202
 20
4.948498501911027
 30
0.0
 10
7.399946889683581
 20
4.946218998193908
 30
0.0
 10
7.413067789857603
 20
4.944410346726934
 30
0.0
 10
7.421138120958438
 20
4.944257714072945
 30
0.0
 10
7.423006209794198
 20
4.944222383260202
 30
0.0
  0
SPLINE
  5
86
330
2
100
AcDbEntity
  8
0
  6
Continuous
 62
     7
370
    13
100
AcDbSpline
210
0.0
220
0.0
230
1.0
 70
     8
 71
     3
 72
     9
 73
     5
 74
     0
 42
0.000000001
 43
0.0000000001
 40
0.0
 40
0.0
 40
0.0
 40
0.0
 40
0.9075611836627102
 40
1.0
 40
1.0
 40
1.0
 40
1.0
 10
7.169273415214126
 20
7.020860012916733
 30
0.0
 10
7.148139965537483
 20
7.015515863448165
 30
0.0
 10
7.124853987625382
 20
7.009627390511276
 30
0.0
 10
7.10239054251021
 20
7.002636969493181
 30
0.0
 10
7.100314048232906
 20
7.001990783248569
 30
0.0
  0
LINE
  5
87
330
2
100
AcDbEntity
  8
0
  6
Continuous
 62
     7
370
    13
100
AcDbLine
 10
7.381586892326762
 20
6.96885097369261
 30
0.0
 11
7.234810879564323
 21
7.016927860011474
 31
0.0
  0
LINE
  5
88
330
2
100
AcDbEntity
  8
0
  6
Continuous
 62
     7
370
    13
100
AcDbLine
 10
7.936311076228323
 20
6.599739372031473
 30
0.0
 11
7.919289186372322
 21
6.614386366723472
 31
0.0
  0
LINE
  5
89
330
2
100
AcDbEntity
  8
0
  6
Continuous
 62
     7
370
    13
100
AcDbLine
 10
7.952977963176323
 20
6.585128332775473
 30
0.0
 11
7.948201081516321
 21
6.589315702723473
 31
0.0
  0
LINE
  5
8A
330
2
100
AcDbEntity
  8
0
  6
Continuous
 62
     7
370
    13
100
AcDbLine
 10
7.942125824036322
 20
6.594641174227472
 30
0.0
 11
7.936114461180322
 21
6.599910684691472
 31
0.0
  0
LINE
  5
8B
330
2
100
AcDbEntity
  8
0
  6
Continuous
 62
     7
370
    13
100
AcDbLine
 10
7.965308487324323
 20
6.573898755647473
 30
0.0
 11
7.952796520996322
 21
6.585289039791472
 31
0.0
  0
LINE
  5
8C
330
2
100
AcDbEntity
  8
0
  6
Continuous
 62
     7
370
    13
100
AcDbLine
 10
7.969550778360321
 20
6.569947029715473
 30
0.0
 11
7.965086752756322
 21
6.574104718531472
 31
0.0
  0
SPLINE
  5
8D
330
2
100
AcDbEntity
  8
0
  6
Continuous
 62
     7
370
    13
100
AcDbSpline
210
0.0
220
0.0
230
1.0
 70
     8
 71
     3
 72
     9
 73
     5
 74
     0
 42
0.000000001
 43
0.0000000001
 40
0.0
 40
0.0
 40
0.0
 40
0.0
 40
0.5030073078172154
 40
1.0
 40
1.0
 40
1.0
 40
1.0
 10
8.018406056456802
 20
6.523241024750005
 30
0.0
 10
8.01026352784555
 20
6.531169652372902
 30
0.0
 10
7.994075833383242
 20
6.546932102539491
 30
0.0
 10
7.977664881240745
 20
6.562328235054501
 30
0.0
 10
7.969508757954162
 20
6.569980000402336
 30
0.0
  0
SPLINE
  5
8E
330
2
100
AcDbEntity
  8
0
  6
Continuous
 62
     7
370
    13
100
AcDbSpline
210
0.0
220
0.0
230
1.0
 70
     8
 71
     3
 72
    18
 73
    14
 74
     0
 42
0.000000001
 43
0.0000000001
 40
0.0
 40
0.0
 40
0.0
 40
0.0
 40
0.1042100140150455
 40
0.2005312734306566
 40
0.2829658538546217
 40
0.3515144076908262
 40
0.4061814585853936
 40
0.4519675962941091
 40
0.5226345633509945
 40
0.6133748932128889
 40
0.7241870861183838
 40
0.8550684967318314
 40
1.0
 40
1.0
 40
1.0
 40
1.0
 10
8.185929916925058
 20
6.30829090078752
 30
0.0
 10
8.180114657659363
 20
6.316476205235026
 30
0.0
 10
8.168924357409418
 20
6.332227182142476
 30
0.0
 10
8.153130503949459
 20
6.353717414562248
 30
0.0
 10
8.139331063216809
 20
6.372150536575642
 30
0.0
 10
8.127859350881305
 20
6.387230408507129
 30
0.0
 10
8.118435298781678
 20
6.399486481206148
 30
0.0
 10
8.108896407341822
 20
6.411779679088365
 30
0.0
 10
8.097351533349765
 20
6.426508341138561
 30
0.0
 10
8.082191881031025
 20
6.445596206394644
 30
0.0
 10
8.063692054396678
 20
6.468542899316103
 30
0.0
 10
8.042194429734083
 20
6.494794953899857
 30
0.0
 10
8.026877726229542
 20
6.51311902200169
 30
0.0
 10
8.018829252962703
 20
6.522747776140185
 30
0.0
  0
LINE
  5
8F
330
2
100
AcDbEntity
  8
0
  6
Continuous
 62
     7
370
    13
100
AcDbLine
 10
8.018863981964322
 20
6.522716094047473
 30
0.0
 11
8.017793367720322
 21
6.523873448407472
 31
0.0
  0
LINE
  5
90
330
2
100
AcDbEntity
  8
0
  6
Continuous
 62
     7
370
    13
100
AcDbLine
 10
8.227993483264322
 20
6.283868926575474
 30
0.0
 11
8.208791252640322
 21
6.291462253547473
 31
0.0
  0
SPLINE
  5
91
330
2
100
AcDbEntity
  8
0
  6
Continuous
 62
     7
370
    13
100
AcDbSpline
210
0.0
220
0.0
230
1.0
 70
     8
 71
     3
 72
     9
 73
     5
 74
     0
 42
0.000000001
 43
0.0000000001
 40
0.0
 40
0.0
 40
0.0
 40
0.0
 40
0.4937553438396443
 40
1.0
 40
1.0
 40
1.0
 40
1.0
 10
8.232049316642346
 20
6.280902261866918
 30
0.0
 10
8.231563366317141
 20
6.281513580381986
 30
0.0
 10
8.230579173778741
 20
6.28275168043031
 30
0.0
 10
8.229172085015502
 20
6.28344234128918
 30
0.0
 10
8.228459753848371
 20
6.283791984658202
 30
0.0
  0
LINE
  5
92
330
2
100
AcDbEntity
  8
0
  6
Continuous
 62
     7
370
    13
100
AcDbLine
 10
8.239681942320322
 20
6.270509937543473
 30
0.0
 11
8.231648668700321
 21
6.281462572367473
 31
0.0
  0
SPLINE
  5
93
330
2
100
AcDbEntity
  8
0
  6
Continuous
 62
     7
370
    13
100
AcDbSpline
210
0.0
220
0.0
230
1.0
 70
     8
 71
     3
 72
    13
 73
     9
 74
     0
 42
0.000000001
 43
0.0000000001
 40
0.0
 40
0.0
 40
0.0
 40
0.0
 40
0.2579875583994569
 40
0.52053565886827
 40
0.6533945530947393
 40
0.7865898112849844
 40
0.9194455319853728
 40
1.0
 40
1.0
 40
1.0
 40
1.0
 10
8.208814517701561
 20
6.291459676304977
 30
0.0
 10
8.207053243539542
 20
6.292263729907682
 30
0.0
 10
8.203499560516753
 20
6.293886050667818
 30
0.0
 10
8.198230977420218
 20
6.297124476440913
 30
0.0
 10
8.193966319123525
 20
6.300179089356118
 30
0.0
 10
8.190887467238058
 20
6.302693662986767
 30
0.0
 10
8.188385493145711
 20
6.30501936916669
 30
0.0
 10
8.187378335702225
 20
6.306312451541904
 30
0.0
 10
8.186998170947413
 20
6.306800542403271
 30
0.0
  0
LINE
  5
94
330
2
100
AcDbEntity
  8
0
  6
Continuous
 62
     7
370
    13
100
AcDbLine
 10
8.187009297716322
 20
6.306784743307472
 30
0.0
 11
8.185512368096322
 21
6.308909263311473
 31
0.0
  0
LINE
  5
95
330
2
100
AcDbEntity
  8
0
  6
Continuous
 62
     7
370
    13
100
AcDbLine
 10
8.418634047204323
 20
5.829396497907474
 30
0.0
 11
8.417834268604323
 21
5.843786277679473
 31
0.0
  0
LINE
  5
96
330
2
100
AcDbEntity
  8
0
  6
Continuous
 62
     7
370
    13
100
AcDbLine
 10
8.415455921944321
 20
5.872294512211473
 30
0.0
 11
8.413690896220321
 21
5.886999646367472
 31
0.0
  0
SPLINE
  5
97
330
2
100
AcDbEntity
  8
0
  6
Continuous
 62
     7
370
    13
100
AcDbSpline
210
0.0
220
0.0
230
1.0
 70
     8
 71
     3
 72
     9
 73
     5
 74
     0
 42
0.000000001
 43
0.0000000001
 40
0.0
 40
0.0
 40
0.0
 40
0.0
 40
0.4999206032889499
 40
1.0
 40
1.0
 40
1.0
 40
1.0
 10
8.188620698174538
 20
6.232819658967461
 30
0.0
 10
8.174438531668759
 20
6.250393670992247
 30
0.0
 10
8.146069693872362
 20
6.285547277203249
 30
0.0
 10
8.115294070841006
 20
6.318579754794921
 30
0.0
 10
8.099903815842079
 20
6.335098616260836
 30
0.0
  0
LWPOLYLINE
  5
98
330
2
100
AcDbEntity
  8
0
  6
Continuous
 62
     7
370
    13
100
AcDbPolyline
 90
        9
 70
   128
 43
0.0
 10
7.960996927944322
 20
5.142887504643473
 10
7.959044728068322
 20
5.142002125303474
 10
7.957422959484322
 20
5.140947068171473
 10
7.956194831928321
 20
5.139763689555473
 10
7.955408340124321
 20
5.138498138719473
 10
7.955094261808323
 20
5.137199812895473
 10
7.955264809032321
 20
5.135919459495472
 10
7.955913343664322
 20
5.134707065419473
 10
7.957014503836322
 20
5.133609934971473
  0
ARC
  5
99
330
2
100
AcDbEntity
  8
0
  6
Continuous
 62
     7
370
    13
100
AcDbCircle
 10
7.958713290524322
 20
5.151408939883473
 30
0.0
 40
0.0088221232371192
100
AcDbArc
 50
285.0020433725003
 51
335.2224122651001
  0
LWPOLYLINE
  5
9A
330
2
100
AcDbEntity
  8
0
  6
Continuous
 62
     7
370
    13
100
AcDbPolyline
 90
       19
 70
   128
 43
0.0
 10
7.665838480648321
 20
5.291042707395472
 10
7.693263224240322
 20
5.293945945143473
 10
7.720827916444322
 20
5.295341582543473
 10
7.748232113448322
 20
5.295214227863473
 10
7.775176372428322
 20
5.293565465975472
 10
7.801366993076323
 20
5.290413140643472
 10
7.826517966876322
 20
5.285791749911473
 10
7.850354959988322
 20
5.279751679743473
 10
7.872617810456322
 20
5.272358796463473
 10
7.893063520620321
 20
5.263693887263473
 10
7.911469070440322
 20
5.253851413211473
 10
7.927633545880322
 20
5.242938791555473
 10
7.941380688828322
 20
5.231075142751473
 10
7.952560372204322
 20
5.218389854911473
 10
7.961050580880321
 20
5.205021440367472
 10
7.966758760384323
 20
5.191115686503473
 10
7.969622406932321
 20
5.176824487947473
 10
7.969610553128323
 20
5.162303638547473
 10
7.966723262200321
 20
5.147711614879472
  0
ARC
  5
9B
330
2
100
AcDbEntity
  8
0
  6
Continuous
 62
     7
370
    13
100
AcDbCircle
 10
7.667386744444321
 20
5.274712029175473
 30
0.0
 40
0.0164039072144647
100
AcDbArc
 50
95.41585723159977
 51
128.261561609
  0
SPLINE
  5
9C
330
2
100
AcDbEntity
  8
0
  6
Continuous
 62
     7
370
    13
100
AcDbSpline
210
0.0
220
0.0
230
1.0
 70
     8
 71
     3
 72
    11
 73
     7
 74
     0
 42
0.000000001
 43
0.0000000001
 40
0.0
 40
0.0
 40
0.0
 40
0.0
 40
0.250005162887222
 40
0.4999974109399064
 40
0.7500042491064695
 40
1.0
 40
1.0
 40
1.0
 40
1.0
 10
7.629773453989566
 20
5.284834138987903
 30
0.0
 10
7.630639187511134
 20
5.284987088787036
 30
0.0
 10
7.632370609831971
 20
5.285292980484177
 30
0.0
 10
7.635051686218771
 20
5.285371761628629
 30
0.0
 10
7.637664045320821
 20
5.285185252942962
 30
0.0
 10
7.639219601767702
 20
5.284812361212512
 30
0.0
 10
7.657228585461023
 20
5.287592245709787
 30
0.0
  0
LWPOLYLINE
  5
9D
330
2
100
AcDbEntity
  8
0
  6
Continuous
 62
     7
370
    13
100
AcDbPolyline
 90
       10
 70
   128
 43
0.0
 10
7.453814697312322
 20
5.183275748847472
 10
7.463712457948322
 20
5.197994849799473
 10
7.476480677120322
 20
5.212214036935472
 10
7.491968050268322
 20
5.225765040839473
 10
7.509991271536323
 20
5.238487297703473
 10
7.530336815764322
 20
5.250230194619472
 10
7.552763772892323
 20
5.260854657167473
 10
7.577006695472322
 20
5.270234793263472
 10
7.602778271076322
 20
5.278259679199473
 10
7.629773453988322
 20
5.284834138987474
  0
SPLINE
  5
9E
330
2
100
AcDbEntity
  8
0
  6
Continuous
 62
     7
370
    13
100
AcDbSpline
210
0.0
220
0.0
230
1.0
 70
     8
 71
     3
 72
    11
 73
     7
 74
     0
 42
0.000000001
 43
0.0000000001
 40
0.0
 40
0.0
 40
0.0
 40
0.0
 40
0.2500098561042045
 40
0.4999991147607986
 40
0.7499987741914353
 40
1.0
 40
1.0
 40
1.0
 40
1.0
 10
7.45518826837495
 20
5.177959311375325
 30
0.0
 10
7.454759860811462
 20
5.17834744839007
 30
0.0
 10
7.453903080979506
 20
5.179123690442296
 30
0.0
 10
7.453299318089298
 20
5.180469395999534
 30
0.0
 10
7.453192019599546
 20
5.181876231642547
 30
0.0
 10
7.45360713764211
 20
5.182809242136913
 30
0.0
 10
7.453814697313625
 20
5.183275748845542
 30
0.0
  0
LWPOLYLINE
  5
9F
330
2
100
AcDbEntity
  8
0
  6
Continuous
 62
     7
370
    13
100
AcDbPolyline
 90
        3
 70
   128
 43
0.0
 10
7.958388080168322
 20
5.128293549215473
 10
7.948490319532321
 20
5.113574448259473
 10
7.946272215188322
 20
5.110818369019472
  0
SPLINE
  5
A0
330
2
100
AcDbEntity
  8
0
  6
Continuous
 62
     7
370
    13
100
AcDbSpline
210
0.0
220
0.0
230
1.0
 70
     8
 71
     3
 72
    11
 73
     7
 74
     0
 42
0.000000001
 43
0.0000000001
 40
0.0
 40
0.0
 40
0.0
 40
0.0
 40
0.2500099998210737
 40
0.4999988035996615
 40
0.7499980148706305
 40
1.0
 40
1.0
 40
1.0
 40
1.0
 10
7.957014503837214
 20
5.13360993497275
 30
0.0
 10
7.957442912923495
 20
5.133221817999464
 30
0.0
 10
7.95829969477519
 20
5.132445616957751
 30
0.0
 10
7.958903466290557
 20
5.131099923399334
 30
0.0
 10
7.959010763332869
 20
5.12969298868219
 30
0.0
 10
7.958595641989878
 20
5.128760030761665
 30
0.0
 10
7.9583880801669
 20
5.128293549213515
 30
0.0
  0
LWPOLYLINE
  5
A1
330
2
100
AcDbEntity
  8
0
  6
Continuous
 62
     7
370
    13
100
AcDbPolyline
 90
       59
 70
   128
 43
0.0
 10
7.985826395676323
 20
3.490506911487472
 10
7.966325868784322
 20
3.480302130743473
 10
7.945055282888322
 20
3.471168911067473
 10
7.922264068992323
 20
3.463214458259473
 10
7.898219534260322
 20
3.456531577935473
 10
7.873203562088322
 20
3.451199106511473
 10
7.847509394436322
 20
3.447279080131472
 10
7.821438217956321
 20
3.444817878511473
 10
7.795295676328322
 20
3.443844211291473
 10
7.769388472164322
 20
3.444369297571473
 10
7.744020189216321
 20
3.446387373807473
 10
7.719488426380321
 20
3.449874233775473
 10
7.696080467112322
 20
3.454789594943473
 10
7.674070845444322
 20
3.461075498451473
 10
7.653717837272322
 20
3.468658176619473
 10
7.635259877848321
 20
3.477449099107473
 10
7.618913433388321
 20
3.487344717275473
 10
7.604869966484322
 20
3.498229384039473
 10
7.593294355616322
 20
3.509975414543473
 10
7.584322239872323
 20
3.522444862231473
 10
7.578058807252322
 20
3.535491933803473
 10
7.574577519712322
 20
3.548963226179473
 10
7.573919217548322
 20
3.562701102611473
 10
7.576091445048321
 20
3.576544471051473
 10
7.581068919368322
 20
3.590331001371473
 10
7.588793219708323
 20
3.603898892283473
 10
7.599173746152322
 20
3.617089176763473
 10
7.612088773332322
 20
3.629747498171473
 10
7.627386982204322
 20
3.641724994363473
 10
7.644889074128322
 20
3.652881565455473
 10
7.664389601072322
 20
3.663086151551473
 10
7.685660188284321
 20
3.672219371987472
 10
7.708451399548321
 20
3.680173823275473
 10
7.732495934280322
 20
3.686856703595473
 10
7.757511906452322
 20
3.692189369699473
 10
7.783206074104322
 20
3.696109201399472
 10
7.809277261120321
 20
3.698570409103473
 10
7.835419623624321
 20
3.699544167563473
 10
7.861326827788321
 20
3.699019081283473
 10
7.886695121276321
 20
3.697001205811473
 10
7.911227052700322
 20
3.693514053843473
 10
7.934635001428322
 20
3.688598686587472
 10
7.956644623096321
 20
3.682312783079472
 10
7.976997631268321
 20
3.674730104915473
 10
7.995455590692321
 20
3.665939182423473
 10
8.011802035152321
 20
3.656043564259473
 10
8.025845502056322
 20
3.645158897491473
 10
8.037420954872322
 20
3.633412970391473
 10
8.046393070616321
 20
3.620943522707473
 10
8.052656492700323
 20
3.607896445055473
 10
8.056137780240323
 20
3.594425152675473
 10
8.056796261528322
 20
3.580687185003473
 10
8.054624023492321
 20
3.566843810479473
 10
8.049646549172322
 20
3.553057474839473
 10
8.041922248832323
 20
3.539489389251473
 10
8.031541722388322
 20
3.526299104767473
 10
8.018626697844322
 20
3.513640784879473
 10
8.003328487652321
 20
3.501663287927473
 10
7.985826395676323
 20
3.490506911487472
  0
SPLINE
  5
A2
330
2
100
AcDbEntity
  8
0
  6
Continuous
 62
     7
370
    13
100
AcDbSpline
210
0.0
220
0.0
230
1.0
 70
     8
 71
     3
 72
    11
 73
     7
 74
     0
 42
0.000000001
 43
0.0000000001
 40
0.0
 40
0.0
 40
0.0
 40
0.0
 40
0.2500038629249115
 40
0.500006440972883
 40
0.7499970934283949
 40
1.0
 40
1.0
 40
1.0
 40
1.0
 10
3.799368447440594
 20
7.144376504283732
 30
0.0
 10
3.798542157918032
 20
7.144755350196945
 30
0.0
 10
3.796889583119563
 20
7.145513040076313
 30
0.0
 10
3.793711571589029
 20
7.145837344005268
 30
0.0
 10
3.79053367525277
 20
7.145512930819233
 30
0.0
 10
3.788881021163558
 20
7.144755366965597
 30
0.0
 10
3.765231944664322
 20
7.132906927723473
 30
0.0
  0
LINE
  5
A3
330
2
100
AcDbEntity
  8
0
  6
Continuous
 62
     7
370
    13
100
AcDbLine
 10
3.799368447440322
 20
7.144376505803473
 30
0.0
 11
5.714213571780322
 21
6.038960127487473
 31
0.0
  0
LINE
  5
A4
330
2
100
AcDbEntity
  8
0
  6
Continuous
 62
     7
370
    13
100
AcDbLine
 10
5.090619548660322
 20
7.896730436099474
 30
0.0
 11
5.122199634340322
 21
7.914961231507474
 31
0.0
  0
ARC
  5
A5
330
2
100
AcDbEntity
  8
0
  6
Continuous
 62
     7
370
    13
100
AcDbCircle
 10
5.092280485012322
 20
7.893065289579473
 30
0.0
 40
0.0040239294943781
100
AcDbArc
 50
114.3786323670004
 51
174.3021208925998
  0
LWPOLYLINE
  5
A6
330
2
100
AcDbEntity
  8
0
  6
Continuous
 62
     7
370
    13
100
AcDbPolyline
 90
        3
 70
   128
 43
0.0
 10
7.128968721156322
 20
6.829706941427472
 10
7.129223414564322
 20
6.829837909451473
 10
7.129426604520322
 20
6.829963714631473
  0
LWPOLYLINE
  5
A7
330
2
100
AcDbEntity
  8
0
  6
Continuous
 62
     7
370
    13
100
AcDbPolyline
 90
       13
 70
   128
 43
0.0
 10
3.765231944664322
 20
7.132906927723473
 10
3.759539759892322
 20
7.138027695847473
 10
3.748495641856322
 20
7.150175431627474
 10
3.740068463788322
 20
7.163003143407474
 10
3.734381168052322
 20
7.176323699519473
 10
3.731516699636322
 20
7.189942845439473
 10
3.731516657492322
 20
7.203662111319472
 10
3.734381210196322
 20
7.217281304383472
 10
3.740068505936322
 20
7.230601862019472
 10
3.748495684000322
 20
7.243429573799472
 10
3.759539886332322
 20
7.255577311095473
 10
3.773039816936322
 20
7.266868066923473
 10
3.788798987212322
 20
7.277137024047473
  0
LINE
  5
A8
330
2
100
AcDbEntity
  8
0
  6
Continuous
 62
     7
370
    13
100
AcDbLine
 10
3.788798987212322
 20
7.277137024047473
 30
0.0
 11
4.863601281128322
 21
7.897607029155473
 31
0.0
  0
LWPOLYLINE
  5
A9
330
2
100
AcDbEntity
  8
0
  6
Continuous
 62
     7
370
    13
100
AcDbPolyline
 90
       13
 70
   128
 43
0.0
 10
7.048651747880322
 20
6.794190863311474
 10
7.054910091268322
 20
6.788592115487473
 10
7.065954251452321
 20
6.776444355379473
 10
7.074381387372323
 20
6.763616667931472
 10
7.080068725256323
 20
6.750296087483473
 10
7.082933277964322
 20
6.736676892903473
 10
7.082933320108322
 20
6.722957675683469
 10
7.080068725256323
 20
6.709338458291473
 10
7.074381429520322
 20
6.696017900655473
 10
7.065954209304322
 20
6.683190213207472
 10
7.054910091268322
 20
6.671042427247474
 10
7.041410034224321
 20
6.659751744411472
 10
7.025650948244321
 20
6.649482738623472
  0
LINE
  5
AA
330
2
100
AcDbEntity
  8
0
  6
Continuous
 62
     7
370
    13
100
AcDbLine
 10
7.025650948244321
 20
6.649482738623472
 30
0.0
 11
5.953196996434712
 21
6.030368402231255
 31
0.0
  0
SPLINE
  5
AB
330
2
100
AcDbEntity
  8
0
  6
Continuous
 62
     7
370
    13
100
AcDbSpline
210
0.0
220
0.0
230
1.0
 70
     8
 71
     3
 72
    67
 73
    63
 74
     0
 42
0.000000001
 43
0.0000000001
 40
0.0
 40
0.0
 40
0.0
 40
0.0
 40
0.012318742448867
 40
0.0241736481781156
 40
0.0362507569141043
 40
0.048486919571908
 40
0.060459622974279
 40
0.0725775349367659
 40
0.0846752523251137
 40
0.0967715879428667
 40
0.1088680127302747
 40
0.1209646704682924
 40
0.1330611723580615
 40
0.145156345180946
 40
0.1572550006299991
 40
0.1693511606115592
 40
0.1814475677503466
 40
0.1935388852996581
 40
0.205488236288771
 40
0.2177880417128208
 40
0.2298306561707397
 40
0.2419309560571813
 40
0.2540276018119669
 40
0.288396243939731
 40
0.3203882710245716
 40
0.3499823060006393
 40
0.3772195592839807
 40
0.4020847287860755
 40
0.4245891828410004
 40
0.4446851015211838
 40
0.462411986861831
 40
0.4777622465855438
 40
0.4907346780162778
 40
0.5013306111484316
 40
0.5095489202796118
 40
0.5153882913732852
 40
0.5188509512562818
 40
0.5259260401837424
 40
0.5388901840676985
 40
0.5577485691814093
 40
0.5701481393368805
 40
0.5829773381914574
 40
0.5960422088093064
 40
0.6088917870307285
 40
0.6217429708747289
 40
0.6354196709994067
 40
0.6490958976296504
 40
0.6621739288682508
 40
0.6750035675734575
 40
0.6893751530283268
 40
0.7041571768831846
 40
0.715010085453401
 40
0.7260199701991908
 40
0.7376901550851775
 40
0.7501719500674997
 40
0.7672213164768557
 40
0.7843505979329273
 40
0.8014824494807339
 40
0.81861460269143
 40
0.8966009566848004
 40
0.9570562048246308
 40
1.0
 40
1.0
 40
1.0
 40
1.0
 10
4.031013750576172
 20
7.738892016393757
 30
0.0
 10
4.036267791167138
 20
7.741919435506485
 30
0.0
 10
4.046578042338211
 20
7.747860282538765
 30
0.0
 10
4.062113764889973
 20
7.756726307694309
 30
0.0
 10
4.07767225224643
 20
7.76553786380755
 30
0.0
 10
4.093350267589661
 20
7.774337368897484
 30
0.0
 10
4.109117032208853
 20
7.783104612690552
 30
0.0
 10
4.124897543175547
 20
7.791793854875464
 30
0.0
 10
4.140812421802928
 20
7.800463924780457
 30
0.0
 10
4.156798070670993
 20
7.809079552042424
 30
0.0
 10
4.17285950752281
 20
7.817647571387764
 30
0.0
 10
4.189004162745039
 20
7.826163437278129
 30
0.0
 10
4.205236401091788
 20
7.834623022466216
 30
0.0
 10
4.221563021422221
 20
7.843022943345765
 30
0.0
 10
4.237988118715924
 20
7.851358491195089
 30
0.0
 10
4.254517491691918
 20
7.859625741044693
 30
0.0
 10
4.271151732860023
 20
7.867818721960365
 30
0.0
 10
4.287839227170828
 20
7.875896262609916
 30
0.0
 10
4.304745997343467
 20
7.883932394408464
 30
0.0
 10
4.321759429939956
 20
7.891865865293484
 30
0.0
 10
4.338978116572719
 20
7.899735547387894
 30
0.0
 10
4.356235498482053
 20
7.907462060572141
 30
0.0
 10
4.384350730806813
 20
7.919778275058241
 30
0.0
 10
4.422599085062148
 20
7.935830915149329
 30
0.0
 10
4.470366567520874
 20
7.954651292415409
 30
0.0
 10
4.515501355816873
 20
7.971270532943137
 30
0.0
 10
4.557801765569879
 20
7.985818534195745
 30
0.0
 10
4.597126788833245
 20
7.998405736829553
 30
0.0
 10
4.633293306969639
 20
8.009132874407136
 30
0.0
 10
4.666135170226315
 20
8.018137443001929
 30
0.0
 10
4.695473175318052
 20
8.025579550411796
 30
0.0
 10
4.721195041611784
 20
8.031594663422072
 30
0.0
 10
4.743171049101699
 20
8.036324617117173
 30
0.0
 10
4.761268992483509
 20
8.039947293003404
 30
0.0
 10
4.775401204165951
 20
8.042592351587513
 30
0.0
 10
4.78549649177787
 20
8.04437605944015
 30
0.0
 10
4.79496411075236
 20
8.045984803084841
 30
0.0
 10
4.808597797303371
 20
8.048199198443009
 30
0.0
 10
4.831247087020463
 20
8.05168156549328
 30
0.0
 10
4.857192372676304
 20
8.055214385039525
 30
0.0
 10
4.883329682851936
 20
8.057981400850328
 30
0.0
 10
4.906218039219794
 20
8.0597167746355
 30
0.0
 10
4.929518685700028
 20
8.060672488684044
 30
0.0
 10
4.952894191721487
 20
8.060696071974577
 30
0.0
 10
4.976570803154887
 20
8.059645805869784
 30
0.0
 10
5.000485849729464
 20
8.057334926848925
 30
0.0
 10
5.02404675517822
 20
8.05369531653098
 30
0.0
 10
5.046404892367375
 20
8.04888239110801
 30
0.0
 10
5.068232364059548
 20
8.042746915526397
 30
0.0
 10
5.089890600297144
 20
8.035190391424185
 30
0.0
 10
5.109345396869113
 20
8.026970506919308
 30
0.0
 10
5.126224700731436
 20
8.018764175754109
 30
0.0
 10
5.141079855576242
 20
8.010865670094437
 30
0.0
 10
5.156147074695232
 20
8.002274198781561
 30
0.0
 10
5.173670835974521
 20
7.992127307624981
 30
0.0
 10
5.193563605289585
 20
7.980660336295869
 30
0.0
 10
5.215415153799023
 20
7.968037825706584
 30
0.0
 10
5.237310206964876
 20
7.955399406568364
 30
0.0
 10
5.285129059748435
 20
7.92779341799274
 30
0.0
 10
5.351402576619321
 20
7.889532773882748
 30
0.0
 10
5.428673273649618
 20
7.844926688577277
 30
0.0
 10
5.472721446298796
 20
7.819502589210692
 30
0.0
 10
5.491015577883063
 20
7.808943426565557
 30
0.0
  0
SPLINE
  5
AC
330
2
100
AcDbEntity
  8
0
  6
Continuous
 62
     7
370
    13
100
AcDbSpline
210
0.0
220
0.0
230
1.0
 70
     8
 71
     3
 72
    27
 73
    23
 74
     0
 42
0.000000001
 43
0.0000000001
 40
0.0
 40
0.0
 40
0.0
 40
0.0
 40
0.0277457788982553
 40
0.0561070791799207
 40
0.0850848686493014
 40
0.1146800546305646
 40
0.144893488825775
 40
0.175725971702443
 40
0.2071782564633396
 40
0.2392510526446824
 40
0.2983125576182382
 40
0.3566526106039676
 40
0.4174771719033611
 40
0.4729080550143264
 40
0.5924569862145469
 40
0.6550357985353098
 40
0.7198904822156212
 40
0.7722569828723623
 40
0.8264419359838779
 40
0.8824550393385941
 40
0.9403050713370243
 40
1.0
 40
1.0
 40
1.0
 40
1.0
 10
7.500229864289694
 20
6.49994040680634
 30
0.0
 10
7.503839023686442
 20
6.498798443163963
 30
0.0
 10
7.511137409245874
 20
6.496489182186342
 30
0.0
 10
7.522158516794062
 20
6.492938420611095
 30
0.0
 10
7.533385944934458
 20
6.489276392086582
 30
0.0
 10
7.544816140859547
 20
6.485499337919922
 30
0.0
 10
7.556450099657427
 20
6.481608307300591
 30
0.0
 10
7.568287502397865
 20
6.477602966873796
 30
0.0
 10
7.58032860826859
 20
6.473483568349101
 30
0.0
 10
7.595928014984805
 20
6.468089112129073
 30
0.0
 10
7.614881531709905
 20
6.461446739203385
 30
0.0
 10
7.637383419990102
 20
6.453434911472372
 30
0.0
 10
7.659304835240726
 20
6.445472570782539
 30
0.0
 10
7.688664628060323
 20
6.434496203698969
 30
0.0
 10
7.717760679275917
 20
6.423009309999665
 30
0.0
 10
7.747313481475574
 20
6.410506677077724
 30
0.0
 10
7.768488505065882
 20
6.401143624496819
 30
0.0
 10
7.78840657190719
 20
6.392019955645796
 30
0.0
 10
7.807090067331778
 20
6.383218269842547
 30
0.0
 10
7.826195044754285
 20
6.373974228035061
 30
0.0
 10
7.845737681744585
 20
6.364298305968995
 30
0.0
 10
7.858810786656034
 20
6.35763768823525
 30
0.0
 10
7.865449931887795
 20
6.354255109363046
 30
0.0
  0
SPLINE
  5
AD
330
2
100
AcDbEntity
  8
0
  6
Continuous
 62
     7
370
    13
100
AcDbSpline
210
0.0
220
0.0
230
1.0
 70
     8
 71
     3
 72
    19
 73
    15
 74
     0
 42
0.000000001
 43
0.0000000001
 40
0.0
 40
0.0
 40
0.0
 40
0.0
 40
0.0588754570587471
 40
0.1177817625049381
 40
0.1767843495724869
 40
0.2359483320441687
 40
0.2953382928545412
 40
0.355018081310162
 40
0.4150506219615512
 40
0.4754977377398327
 40
0.6042555001358156
 40
0.7342299601943325
 40
0.865969287728333
 40
1.0
 40
1.0
 40
1.0
 40
1.0
 10
7.463891836155834
 20
6.505698288560747
 30
0.0
 10
7.464639692812918
 20
6.505694809720862
 30
0.0
 10
7.466135797974102
 20
6.505687850218312
 30
0.0
 10
7.468379022953346
 20
6.505622567353537
 30
0.0
 10
7.470621021946531
 20
6.505517134425822
 30
0.0
 10
7.472861797006586
 20
6.505367610785527
 30
0.0
 10
7.475101340995797
 20
6.505175058093579
 30
0.0
 10
7.477339635479966
 20
6.504939192087603
 30
0.0
 10
7.479576720458201
 20
6.50466009811519
 30
0.0
 10
7.482648457370986
 20
6.504217190223541
 30
0.0
 10
7.486532433825914
 20
6.503539367448105
 30
0.0
 10
7.491175781565834
 20
6.50252887306123
 30
0.0
 10
7.495768910089054
 20
6.501343015390251
 30
0.0
 10
7.498734357175674
 20
6.500410622598989
 30
0.0
 10
7.500229864289694
 20
6.49994040680634
 30
0.0
  0
SPLINE
  5
AE
330
2
100
AcDbEntity
  8
0
  6
Continuous
 62
     7
370
    13
100
AcDbSpline
210
0.0
220
0.0
230
1.0
 70
     8
 71
     3
 72
    10
 73
     6
 74
     0
 42
0.000000001
 43
0.0000000001
 40
0.0
 40
0.0
 40
0.0
 40
0.0
 40
0.2236672551474493
 40
0.500003235564729
 40
1.0
 40
1.0
 40
1.0
 40
1.0
 10
7.410729070002577
 20
6.505646594009954
 30
0.0
 10
7.414692667136613
 20
6.505647134381703
 30
0.0
 10
7.423553201461066
 20
6.505648342370879
 30
0.0
 10
7.441274119221938
 20
6.505669876337807
 30
0.0
 10
7.455031439836883
 20
6.505687158190857
 30
0.0
 10
7.463891836155834
 20
6.505698288560747
 30
0.0
  0
SPLINE
  5
AF
330
2
100
AcDbEntity
  8
0
  6
Continuous
 62
     7
370
    13
100
AcDbSpline
210
0.0
220
0.0
230
1.0
 70
     8
 71
     3
 72
    16
 73
    12
 74
     0
 42
0.000000001
 43
0.0000000001
 40
0.0
 40
0.0
 40
0.0
 40
0.0
 40
0.0627025583065876
 40
0.1257517820085925
 40
0.1891950641797857
 40
0.25307892088775
 40
0.3753876296417318
 40
0.4954637309670847
 40
0.6624146814538192
 40
0.8303019308808289
 40
1.0
 40
1.0
 40
1.0
 40
1.0
 10
7.383613260788834
 20
6.502255903121972
 30
0.0
 10
7.38414663389585
 20
6.50239370456549
 30
0.0
 10
7.385216328984759
 20
6.502670069319238
 30
0.0
 10
7.386850169074682
 20
6.503053079874499
 30
0.0
 10
7.388510382481978
 20
6.50341437788022
 30
0.0
 10
7.390709139134461
 20
6.503853401629199
 30
0.0
 10
7.39344112482715
 20
6.504332732279991
 30
0.0
 10
7.397145595704461
 20
6.504862390138616
 30
0.0
 10
7.40132138087873
 20
6.505294939645324
 30
0.0
 10
7.406000682874923
 20
6.505593026924873
 30
0.0
 10
7.409147314744826
 20
6.505628674576501
 30
0.0
 10
7.410729070002583
 20
6.505646594009954
 30
0.0
  0
SPLINE
  5
B0
330
2
100
AcDbEntity
  8
0
  6
Continuous
 62
     7
370
    13
100
AcDbSpline
210
0.0
220
0.0
230
1.0
 70
     8
 71
     3
 72
    54
 73
    50
 74
     0
 42
0.000000001
 43
0.0000000001
 40
0.0
 40
0.0
 40
0.0
 40
0.0
 40
0.0161594379719331
 40
0.0323116837991252
 40
0.0484572691209899
 40
0.0645967262351398
 40
0.080730588045743
 40
0.0968593880115835
 40
0.1129836600938459
 40
0.1291039387036547
 40
0.1452207586493876
 40
0.1613346550837945
 40
0.1774461634509422
 40
0.1935558194330189
 40
0.2096641588970156
 40
0.2257717178413158
 40
0.2418790323422242
 40
0.2579866385004501
 40
0.2740950723875837
 40
0.2902048699925844
 40
0.3063165671683104
 40
0.3224306995781179
 40
0.3385478026425527
 40
0.3546684114861628
 40
0.3707930608844623
 40
0.3869222852110604
 40
0.4030566183850005
 40
0.4191965938183133
 40
0.4353427443638297
 40
0.4514956022632636
 40
0.4676556990955981
 40
0.4838235657257947
 40
0.499999732253855
 40
0.5313594770813747
 40
0.5626864644372897
 40
0.5939845550359923
 40
0.62525762029394
 40
0.6565095409278393
 40
0.6877442055356699
 40
0.7189655091630988
 40
0.7501773518578996
 40
0.7813836372150229
 40
0.8125882709150349
 40
0.8437951592586351
 40
0.8750082077000225
 40
0.9062313193818397
 40
0.9374683936744563
 40
0.9687233247223099
 40
1.0
 40
1.0
 40
1.0
 40
1.0
 10
6.663232423204032
 20
6.213409995108635
 30
0.0
 10
6.666596357690395
 20
6.215345649215676
 30
0.0
 10
6.673322729463547
 20
6.219216095920557
 30
0.0
 10
6.683483034016827
 20
6.224978083854581
 30
0.0
 10
6.693692125329942
 20
6.230706350113863
 30
0.0
 10
6.703955252772613
 20
6.236397864449514
 30
0.0
 10
6.714271010593769
 20
6.242053438297075
 30
0.0
 10
6.724639775219685
 20
6.24767285432569
 30
0.0
 10
6.735061445801713
 20
6.253256170712448
 30
0.0
 10
6.745536049312418
 20
6.258803371849196
 30
0.0
 10
6.75606357848888
 20
6.264314461890176
 30
0.0
 10
6.766644035236859
 20
6.269789439696893
 30
0.0
 10
6.77727741900518
 20
6.275228305549067
 30
0.0
 10
6.787963729899777
 20
6.280631059347053
 30
0.0
 10
6.798702967849557
 20
6.285997701093384
 30
0.0
 10
6.809495132829891
 20
6.291328230763783
 30
0.0
 10
6.82034022480275
 20
6.296622648341742
 30
0.0
 10
6.83123824373279
 20
6.301880953809266
 30
0.0
 10
6.842189189583065
 20
6.307103147149376
 30
0.0
 10
6.853193062316204
 20
6.312289228345448
 30
0.0
 10
6.864249861894136
 20
6.317439197381398
 30
0.0
 10
6.875359588278188
 20
6.322553054241669
 30
0.0
 10
6.8865222414291
 20
6.327630798911176
 30
0.0
 10
6.897737821307035
 20
6.332672431375581
 30
0.0
 10
6.909006327871681
 20
6.337677951620316
 30
0.0
 10
6.920327761082026
 20
6.342647359634264
 30
0.0
 10
6.931702120897302
 20
6.347580655396036
 30
0.0
 10
6.943129407273566
 20
6.352477838925278
 30
0.0
 10
6.95460962017669
 20
6.357338910091076
 30
0.0
 10
6.966142759533898
 20
6.362163869327508
 30
0.0
 10
6.97772882541497
 20
6.366952714961441
 30
0.0
 10
6.989367817355581
 20
6.371705453192202
 30
0.0
 10
7.004715733093309
 20
6.377896916985096
 30
0.0
 10
7.023826915124683
 20
6.385469582978718
 30
0.0
 10
7.046774555790742
 20
6.394347933896176
 30
0.0
 10
7.06987038512887
 20
6.403070473840537
 30
0.0
 10
7.093114374716982
 20
6.41163720358025
 30
0.0
 10
7.116506530981146
 20
6.42004812227889
 30
0.0
 10
7.140046851066058
 20
6.428303229435508
 30
0.0
 10
7.163735334188213
 20
6.436402524947417
 30
0.0
 10
7.187571980312931
 20
6.444346006930629
 30
0.0
 10
7.211556784121402
 20
6.452133680379281
 30
0.0
 10
7.235689760472642
 20
6.45976552472101
 30
0.0
 10
7.259970848606583
 20
6.467241614940599
 30
0.0
 10
7.284400269942322
 20
6.474561669464685
 30
0.0
 10
7.308977192255937
 20
6.481726738064739
 30
0.0
 10
7.333704717710865
 20
6.488732899177997
 30
0.0
 10
7.358571253925854
 20
6.495594798709889
 30
0.0
 10
7.37526399030259
 20
6.500035020315818
 30
0.0
 10
7.383613260788834
 20
6.502255903121972
 30
0.0
  0
SPLINE
  5
B1
330
2
100
AcDbEntity
  8
0
  6
Continuous
 62
     7
370
    13
100
AcDbSpline
210
0.0
220
0.0
230
1.0
 70
     8
 71
     3
 72
    54
 73
    50
 74
     0
 42
0.000000001
 43
0.0000000001
 40
0.0
 40
0.0
 40
0.0
 40
0.0
 40
0.0161455873651406
 40
0.0322848947638198
 40
0.0484184559118149
 40
0.0645468050953639
 40
0.0806704771188282
 40
0.0967900072520973
 40
0.1129059311777632
 40
0.1290187849380906
 40
0.1451291048818074
 40
0.1612374276107408
 40
0.1773442899263323
 40
0.1934502287760462
 40
0.20955578119971
 40
0.2256614842758074
 40
0.2417678750677507
 40
0.257875490570163
 40
0.2739848676551925
 40
0.2900965430188888
 40
0.3062110531276692
 40
0.322328934164896
 40
0.3384507219775971
 40
0.3545769520233548
 40
0.3707081593173851
 40
0.3868448783798413
 40
0.4029876431833583
 40
0.4191369871008693
 40
0.4352934428537191
 40
0.4514575424600967
 40
0.4676298171838137
 40
0.4838107974834501
 40
0.5000010129618926
 40
0.5313339902978994
 40
0.5626377751605781
 40
0.5939162311379959
 40
0.6251732312107141
 40
0.6564126563394323
 40
0.6876383940378752
 40
0.7188543369335077
 40
0.7500643813187216
 40
0.7812724256951793
 40
0.8124823693140188
 40
0.8436981107146577
 40
0.8749235462649306
 40
0.9061625687052888
 40
0.9374190656997756
 40
0.9686969183964654
 40
1.0
 40
1.0
 40
1.0
 40
1.0
 10
6.162878842060249
 20
5.797539498025701
 30
0.0
 10
6.164858080790159
 20
5.800029414702022
 30
0.0
 10
6.168815788407879
 20
5.805008279579939
 30
0.0
 10
6.174845392478814
 20
5.812450080777215
 30
0.0
 10
6.180941559532278
 20
5.819870513118852
 30
0.0
 10
6.187111053988961
 20
5.827267792456407
 30
0.0
 10
6.193352064249712
 20
5.834642396570355
 30
0.0
 10
6.199665075485627
 20
5.84199419746687
 30
0.0
 10
6.206049957730531
 20
5.849323229394753
 30
0.0
 10
6.212506745775171
 20
5.856629483148011
 30
0.0
 10
6.21903543027833
 20
5.863912961160411
 30
0.0
 10
6.225636013718974
 20
5.8711736627481
 30
0.0
 10
6.232308495408387
 20
5.878411588062675
 30
0.0
 10
6.239052875505197
 20
5.88562673703225
 30
0.0
 10
6.245869153939763
 20
5.89281910964515
 30
0.0
 10
6.252757330702376
 20
5.899988705873941
 30
0.0
 10
6.25971740576605
 20
5.907135525695794
 30
0.0
 10
6.266749379107229
 20
5.914259569087057
 30
0.0
 10
6.273853250700271
 20
5.921360836024719
 30
0.0
 10
6.281029020518944
 20
5.928439326486047
 30
0.0
 10
6.28827668853603
 20
5.935495040448699
 30
0.0
 10
6.295596254723503
 20
5.942527977890707
 30
0.0
 10
6.302987719052381
 20
5.949538138790507
 30
0.0
 10
6.310451081493244
 20
5.956525523126931
 30
0.0
 10
6.317986342014414
 20
5.963490130879299
 30
0.0
 10
6.325593500588881
 20
5.970431962027104
 30
0.0
 10
6.33327255716852
 20
5.977351016551306
 30
0.0
 10
6.341023511780507
 20
5.984247294429493
 30
0.0
 10
6.348846364167352
 20
5.991120795654055
 30
0.0
 10
6.356741115131369
 20
5.997971520164316
 30
0.0
 10
6.364707761513505
 20
6.004799468100111
 30
0.0
 10
6.372746314947199
 20
6.011604638854698
 30
0.0
 10
6.383383640449331
 20
6.02050018054771
 30
0.0
 10
6.396705935807735
 20
6.031443493678923
 30
0.0
 10
6.412827973919416
 20
6.044378902287739
 30
0.0
 10
6.429184924944214
 20
6.057199655957289
 30
0.0
 10
6.445776792298227
 20
6.069905737396269
 30
0.0
 10
6.462603574299634
 20
6.082497150417085
 30
0.0
 10
6.47966527073007
 20
6.094973893106429
 30
0.0
 10
6.496961880301267
 20
6.107335965458218
 30
0.0
 10
6.514493404240376
 20
6.11958336565498
 30
0.0
 10
6.532259834492229
 20
6.131716097323737
 30
0.0
 10
6.550261197334236
 20
6.143734144239991
 30
0.0
 10
6.568497390702815
 20
6.155637564278457
 30
0.0
 10
6.58696879147691
 20
6.167426138803961
 30
0.0
 10
6.605673987921807
 20
6.1791006818054
 30
0.0
 10
6.624618248252713
 20
6.190658150738792
 30
0.0
 10
6.643781887543248
 20
6.202109909274398
 30
0.0
 10
6.656747169040575
 20
6.209642287628389
 30
0.0
 10
6.663232423204032
 20
6.213409995108635
 30
0.0
  0
SPLINE
  5
B2
330
2
100
AcDbEntity
  8
0
  6
Continuous
 62
     7
370
    13
100
AcDbSpline
210
0.0
220
0.0
230
1.0
 70
     8
 71
     3
 72
    17
 73
    13
 74
     0
 42
0.000000001
 43
0.0000000001
 40
0.0
 40
0.0
 40
0.0
 40
0.0
 40
0.083869585472795
 40
0.167384647768333
 40
0.2506501616961758
 40
0.3337720475367744
 40
0.4168567748837256
 40
0.5000109560626279
 40
0.6255743618318629
 40
0.750517861111735
 40
0.8752046084853423
 40
1.0
 40
1.0
 40
1.0
 40
1.0
 10
6.15700763782058
 20
5.781888939074685
 30
0.0
 10
6.157015235727348
 20
5.782340063884751
 30
0.0
 10
6.157030399423947
 20
5.78324040656567
 30
0.0
 10
6.157157436012045
 20
5.784586979413882
 30
0.0
 10
6.157360950506792
 20
5.785926180807962
 30
0.0
 10
6.157648369215506
 20
5.787257997586565
 30
0.0
 10
6.158017598764658
 20
5.788582455672995
 30
0.0
 10
6.158546104077766
 20
5.790122289800581
 30
0.0
 10
6.159284248897383
 20
5.791866600911159
 30
0.0
 10
6.160298629324792
 20
5.793798552949448
 30
0.0
 10
6.161478098437946
 20
5.795695428756785
 30
0.0
 10
6.162411791984951
 20
5.796924629839126
 30
0.0
 10
6.162878842060249
 20
5.797539498025701
 30
0.0
  0
SPLINE
  5
B3
330
2
100
AcDbEntity
  8
0
  6
Continuous
 62
     7
370
    13
100
AcDbSpline
210
0.0
220
0.0
230
1.0
 70
     8
 71
     3
 72
    10
 73
     6
 74
     0
 42
0.000000001
 43
0.0000000001
 40
0.0
 40
0.0
 40
0.0
 40
0.0
 40
0.4999519461716016
 40
0.7765591256482122
 40
1.0
 40
1.0
 40
1.0
 40
1.0
 10
6.15691873575703
 20
5.751197166348336
 30
0.0
 10
6.156937708136698
 20
5.756311966163845
 30
0.0
 10
6.156967177318043
 20
5.764256618650977
 30
0.0
 10
6.157004297190515
 20
5.774487206830354
 30
0.0
 10
6.157006606107069
 20
5.779603002884132
 30
0.0
 10
6.15700763782058
 20
5.781888939074685
 30
0.0
  0
SPLINE
  5
B4
330
2
100
AcDbEntity
  8
0
  6
Continuous
 62
     7
370
    13
100
AcDbSpline
210
0.0
220
0.0
230
1.0
 70
     8
 71
     3
 72
    19
 73
    15
 74
     0
 42
0.000000001
 43
0.0000000001
 40
0.0
 40
0.0
 40
0.0
 40
0.0
 40
0.0669334549523798
 40
0.1332792179270118
 40
0.1991002336797458
 40
0.2644609630360072
 40
0.3294272369514428
 40
0.3940660915835199
 40
0.4584455858892074
 40
0.5226346038220797
 40
0.6437795121790347
 40
0.7633779430318006
 40
0.8819426857151009
 40
1.0
 40
1.0
 40
1.0
 40
1.0
 10
6.166892457500392
 20
5.73022145102715
 30
0.0
 10
6.166479501938346
 20
5.730650428019989
 30
0.0
 10
6.165657216664303
 20
5.731504615483569
 30
0.0
 10
6.164514743419818
 20
5.732807235959977
 30
0.0
 10
6.163446654042983
 20
5.734117816364969
 30
0.0
 10
6.16245888109859
 20
5.735438294930398
 30
0.0
 10
6.161549858019736
 20
5.736768156739136
 30
0.0
 10
6.160720022728435
 20
5.738107529341526
 30
0.0
 10
6.159969214056737
 20
5.739456394506994
 30
0.0
 10
6.159098703812315
 20
5.741217127885517
 30
0.0
 10
6.158212672211449
 20
5.743395318174481
 30
0.0
 10
6.157465074715748
 20
5.745995453455671
 30
0.0
 10
6.156999209262026
 20
5.748596230689674
 30
0.0
 10
6.156945521881743
 20
5.750331428153851
 30
0.0
 10
6.15691873575703
 20
5.751197166348336
 30
0.0
  0
SPLINE
  5
B5
330
2
100
AcDbEntity
  8
0
  6
Continuous
 62
     7
370
    13
100
AcDbSpline
210
0.0
220
0.0
230
1.0
 70
     8
 71
     3
 72
    24
 73
    20
 74
     0
 42
0.000000001
 43
0.0000000001
 40
0.0
 40
0.0
 40
0.0
 40
0.0
 40
0.0311543888645559
 40
0.0622871118906957
 40
0.0934056463696864
 40
0.124517479822841
 40
0.1556301046094657
 40
0.1867510125173145
 40
0.2178876893551495
 40
0.2490476095668255
 40
0.3745120820376007
 40
0.5000019133386983
 40
0.6254663859123139
 40
0.7509562173045904
 40
0.8007916107897832
 40
0.8505830038768579
 40
0.9003610718510099
 40
0.9501565146232968
 40
1.0
 40
1.0
 40
1.0
 40
1.0
 10
5.766551342307896
 20
5.888330254792327
 30
0.0
 10
5.764795019992492
 20
5.888469525283449
 30
0.0
 10
5.761283596768908
 20
5.888747969412181
 30
0.0
 10
5.756032871449443
 20
5.889225134294691
 30
0.0
 10
5.750797133189459
 20
5.889745640425228
 30
0.0
 10
5.745577367833188
 20
5.890313764997562
 30
0.0
 10
5.740373309474207
 20
5.890928363561922
 30
0.0
 10
5.735185041901859
 20
5.891589738545185
 30
0.0
 10
5.730012501173191
 20
5.892297823722882
 30
0.0
 10
5.719655838610561
 20
5.893813688158276
 30
0.0
 10
5.704248823805819
 20
5.896440775325034
 30
0.0
 10
5.684114433217326
 20
5.900681998052509
 30
0.0
 10
5.664475092209066
 20
5.905639026102544
 30
0.0
 10
5.649241938703112
 20
5.910159862004547
 30
0.0
 10
5.638114292999235
 20
5.913824161512147
 30
0.0
 10
5.630835006602238
 20
5.916360694028242
 30
0.0
 10
5.623671478157416
 20
5.919001959446067
 30
0.0
 10
5.616612361027915
 20
5.92173906832375
 30
0.0
 10
5.612007139064154
 20
5.923648602422097
 30
0.0
 10
5.609703417839211
 20
5.924603829828448
 30
0.0
  0
SPLINE
  5
B6
330
2
100
AcDbEntity
  8
0
  6
Continuous
 62
     7
370
    13
100
AcDbSpline
210
0.0
220
0.0
230
1.0
 70
     8
 71
     3
 72
    19
 73
    15
 74
     0
 42
0.000000001
 43
0.0000000001
 40
0.0
 40
0.0
 40
0.0
 40
0.0
 40
0.0503264778810882
 40
0.100188215986029
 40
0.1499060962187616
 40
0.1998037759232483
 40
0.250201448508464
 40
0.3750190798639318
 40
0.5000563549257083
 40
0.6248738894632213
 40
0.7499110822557651
 40
0.8334744247523694
 40
0.9163375584780931
 40
1.0
 40
1.0
 40
1.0
 40
1.0
 10
5.780061540161138
 20
5.894451644482725
 30
0.0
 10
5.780019882528227
 20
5.894267941032105
 30
0.0
 10
5.779936951949746
 20
5.893902230540073
 30
0.0
 10
5.779718114964651
 20
5.893364404988599
 30
0.0
 10
5.779430793371169
 20
5.892839532283403
 30
0.0
 10
5.779068208417377
 20
5.892328047315697
 30
0.0
 10
5.778421330239622
 20
5.891588103408553
 30
0.0
 10
5.777327595218052
 20
5.890671467374611
 30
0.0
 10
5.775589071860796
 20
5.889713329559723
 30
0.0
 10
5.773562775039387
 20
5.888965577064141
 30
0.0
 10
5.771562008483462
 20
5.888525825656001
 30
0.0
 10
5.769738107817475
 20
5.88831150494672
 30
0.0
 10
5.7681411134162
 20
5.888242838041998
 30
0.0
 10
5.76708295902599
 20
5.88830102278171
 30
0.0
 10
5.766551342307896
 20
5.888330254792327
 30
0.0
  0
LINE
  5
B7
330
2
100
AcDbEntity
  8
0
  6
Continuous
 62
     7
370
    13
100
AcDbLine
 10
5.780915047792321
 20
5.899001805523473
 30
0.0
 11
5.780061531964322
 21
5.894451620115473
 31
0.0
  0
SPLINE
  5
B8
330
2
100
AcDbEntity
  8
0
  6
Continuous
 62
     7
370
    13
100
AcDbSpline
210
0.0
220
0.0
230
1.0
 70
     8
 71
     3
 72
    32
 73
    28
 74
     0
 42
0.000000001
 43
0.0000000001
 40
0.0
 40
0.0
 40
0.0
 40
0.0
 40
0.0176972056492328
 40
0.0353689692136653
 40
0.0530195278069379
 40
0.070653133828491
 40
0.0882740519510971
 40
0.1058865560642336
 40
0.1234949261841039
 40
0.1411034453414004
 40
0.1587163964580873
 40
0.1763380592245857
 40
0.1939727069887182
 40
0.2116246036676945
 40
0.2292980006942126
 40
0.2469971340074584
 40
0.3734930624859479
 40
0.5000036691769764
 40
0.6264995982214985
 40
0.7530102054938209
 40
0.7883781541646978
 40
0.8236612703500989
 40
0.858893627328597
 40
0.8941094457162069
 40
0.929342994318344
 40
0.9646284902824083
 40
1.0
 40
1.0
 40
1.0
 40
1.0
 10
6.03997216028474
 20
5.952739997076969
 30
0.0
 10
6.038780965424264
 20
5.952058423202863
 30
0.0
 10
6.036400288204216
 20
5.950696255307663
 30
0.0
 10
6.032762797135349
 20
5.9486949814503
 30
0.0
 10
6.029080291553568
 20
5.946726576875846
 30
0.0
 10
6.025347796259971
 20
5.944793914277315
 30
0.0
 10
6.02156664279985
 20
5.942896225721713
 30
0.0
 10
6.017736475613701
 20
5.941033717189624
 30
0.0
 10
6.013857390644423
 20
5.939206333993371
 30
0.0
 10
6.00992936317939
 20
5.937414091227482
 30
0.0
 10
6.00595240023465
 20
5.935656985165323
 30
0.0
 10
6.001926502714357
 20
5.933935017468678
 30
0.0
 10
5.997851664425397
 20
5.932248186903733
 30
0.0
 10
5.993727913883907
 20
5.930596498270565
 30
0.0
 10
5.989555147802811
 20
5.928979934924639
 30
0.0
 10
5.976687176034346
 20
5.924159465334893
 30
0.0
 10
5.95427759819293
 20
5.91687723147688
 30
0.0
 10
5.921087767010774
 20
5.908772960973199
 30
0.0
 10
5.886551552811603
 20
5.902828168366836
 30
0.0
 10
5.859587555680247
 20
5.90004040146858
 30
0.0
 10
5.841007602321907
 20
5.898892248958343
 30
0.0
 10
5.831000092534585
 20
5.898454372218703
 30
0.0
 10
5.820988523382462
 20
5.898197270501319
 30
0.0
 10
5.810972394487956
 20
5.898119722169234
 30
0.0
 10
5.800952540793987
 20
5.898226060451744
 30
0.0
 10
5.790926287834344
 20
5.898500147468544
 30
0.0
 10
5.784254811422256
 20
5.898834452030817
 30
0.0
 10
5.780915012481383
 20
5.899001807793476
 30
0.0
  0
LINE
  5
B9
330
2
100
AcDbEntity
  8
0
  6
Continuous
 62
     7
370
    13
100
AcDbLine
 10
7.114774463368322
 20
6.573210005003472
 30
0.0
 11
6.039972169452322
 21
5.952739999571472
 31
0.0
  0
SPLINE
  5
BA
330
2
100
AcDbEntity
  8
0
  6
Continuous
 62
     7
370
    13
100
AcDbSpline
210
0.0
220
0.0
230
1.0
 70
     8
 71
     3
 72
    32
 73
    28
 74
     0
 42
0.000000001
 43
0.0000000001
 40
0.0
 40
0.0
 40
0.0
 40
0.0
 40
0.0176972056508257
 40
0.035368969216643
 40
0.0530195278110932
 40
0.0706531338336163
 40
0.0882740519569871
 40
0.1058865560706846
 40
0.1234949261909099
 40
0.1411034453483633
 40
0.1587163964650033
 40
0.176338059231259
 40
0.1939727069949528
 40
0.2116246036732964
 40
0.2292980006989892
 40
0.2469971340112205
 40
0.3734930624968761
 40
0.5000036691821244
 40
0.6264995982464097
 40
0.7530102054978445
 40
0.7883781541769092
 40
0.8236612703676062
 40
0.8588936273484838
 40
0.8941094457355385
 40
0.929342994334172
 40
0.9646284902917894
 40
1.0
 40
1.0
 40
1.0
 40
1.0
 10
7.20786184351143
 20
6.722760477676068
 30
0.0
 10
7.208014295988602
 20
6.72179628044749
 30
0.0
 10
7.208318981772245
 20
6.719869272151973
 30
0.0
 10
7.208677614996535
 20
6.716975879301321
 30
0.0
 10
7.208963681912878
 20
6.714083364075962
 30
0.0
 10
7.209170177803425
 20
6.711191339645864
 30
0.0
 10
7.209298976178162
 20
6.708299910116785
 30
0.0
 10
7.209349575527221
 20
6.705409048275916
 30
0.0
 10
7.209322109982609
 20
6.702518762034889
 30
0.0
 10
7.209216543647965
 20
6.6996290499976
 30
0.0
 10
7.209032885967898
 20
6.696739912916065
 30
0.0
 10
7.208771135297626
 20
6.693851352250561
 30
0.0
 10
7.20843128934381
 20
6.690963364458257
 30
0.0
 10
7.208013359843226
 20
6.688075965291329
 30
0.0
 10
7.207517303293743
 20
6.685189098166514
 30
0.0
 10
7.205767532719866
 20
6.676391400299941
 30
0.0
 10
7.201233782091311
 20
6.661778364850597
 30
0.0
 10
7.190936896952729
 20
6.641842130317762
 30
0.0
 10
7.176897866636682
 20
6.622680875307048
 30
0.0
 10
7.16346042469769
 20
6.608900593390035
 30
0.0
 10
7.153168640138666
 20
6.599896953022325
 30
0.0
 10
7.147384080534706
 20
6.595162334259329
 30
0.0
 10
7.141355410456037
 20
6.590540967898808
 30
0.0
 10
7.135083943605442
 20
6.586031853595186
 30
0.0
 10
7.12856442194217
 20
6.581638121131113
 30
0.0
 10
7.121816704439273
 20
6.577348308226522
 30
0.0
 10
7.117123784235246
 20
6.574590561980641
 30
0.0
 10
7.114774467688466
 20
6.573210010297341
 30
0.0
  0
SPLINE
  5
BB
330
2
100
AcDbEntity
  8
0
  6
Continuous
 62
     7
370
    13
100
AcDbSpline
210
0.0
220
0.0
230
1.0
 70
     8
 71
     3
 72
    19
 73
    15
 74
     0
 42
0.000000001
 43
0.0000000001
 40
0.0
 40
0.0
 40
0.0
 40
0.0
 40
0.0503924315814567
 40
0.1002346930682986
 40
0.1499032725649539
 40
0.1997785914909363
 40
0.250236395410488
 40
0.3750461235328035
 40
0.5000660894335086
 40
0.6248759255479153
 40
0.7498959862190669
 40
0.8335119754569525
 40
0.9162929412651044
 40
1.0
 40
1.0
 40
1.0
 40
1.0
 10
7.14533151611527
 20
6.822415884197628
 30
0.0
 10
7.145583256217522
 20
6.822554396149174
 30
0.0
 10
7.146083987995902
 20
6.822829907818553
 30
0.0
 10
7.146906901261351
 20
6.823193079415732
 30
0.0
 10
7.147774703624014
 20
6.823514796082289
 30
0.0
 10
7.148692977927305
 20
6.823791794208309
 30
0.0
 10
7.150126644055623
 20
6.82413788859754
 30
0.0
 10
7.152151072506747
 20
6.824436185200404
 30
0.0
 10
7.154753710516738
 20
6.82447597926547
 30
0.0
 10
7.157315766619666
 20
6.824204172129926
 30
0.0
 10
7.159448105724379
 20
6.82367678801936
 30
0.0
 10
7.161132893667055
 20
6.82303931987276
 30
0.0
 10
7.162439715368883
 20
6.822381010456968
 30
0.0
 10
7.163153924170611
 20
6.821860500450869
 30
0.0
 10
7.163513014971758
 20
6.821598797774221
 30
0.0
  0
LINE
  5
BC
330
2
100
AcDbEntity
  8
0
  6
Continuous
 62
     7
370
    13
100
AcDbLine
 10
7.140804019836322
 20
6.819802204559472
 30
0.0
 11
7.145331518596321
 21
6.822415873323473
 31
0.0
  0
ARC
  5
BD
330
2
100
AcDbEntity
  8
0
  6
Continuous
 62
     7
370
    13
100
AcDbCircle
 10
5.005953311684965
 20
7.633332982632257
 30
0.0
 40
0.3001747362276741
100
AcDbArc
 50
69.98179792664479
 51
118.3092630979935
  0
LINE
  5
BE
330
2
100
AcDbEntity
  8
0
  6
Continuous
 62
     7
370
    13
100
AcDbLine
 10
5.490992187392322
 20
7.808930005971472
 30
0.0
 11
6.814695877276323
 21
7.044771878123473
 31
0.0
  0
LINE
  5
BF
330
2
100
AcDbEntity
  8
0
  6
Continuous
 62
     7
370
    13
100
AcDbLine
 10
3.475165489948322
 20
7.337333788851472
 30
0.0
 11
3.475099572276322
 21
7.335353582147472
 31
0.0
  0
SPLINE
  5
C0
330
2
100
AcDbEntity
  8
0
  6
Continuous
 62
     7
370
    13
100
AcDbSpline
210
0.0
220
0.0
230
1.0
 70
     8
 71
     3
 72
    37
 73
    33
 74
     0
 42
0.000000001
 43
0.0000000001
 40
0.0
 40
0.0
 40
0.0
 40
0.0
 40
0.0455655516331792
 40
0.1383663568523395
 40
0.2061111455927151
 40
0.2324417514961565
 40
0.2470696020408152
 40
0.2624980413908143
 40
0.2779513030681965
 40
0.2938869507858726
 40
0.3102134521679161
 40
0.32694645848214
 40
0.3440859965939365
 40
0.3821419331746911
 40
0.4268573052907598
 40
0.4782429772167162
 40
0.5780775135973188
 40
0.6434973752810444
 40
0.6706784593698929
 40
0.6943172213783755
 40
0.7148836209240358
 40
0.7322160104523177
 40
0.749463480243101
 40
0.7696899828648001
 40
0.7928554449995548
 40
0.8190122504369846
 40
0.8560412436815413
 40
0.8859002681594706
 40
0.9118218137060962
 40
0.9386002110864144
 40
0.9680495929880596
 40
1.0
 40
1.0
 40
1.0
 40
1.0
 10
6.814724220336587
 20
7.044788112975581
 30
0.0
 10
6.83177490448608
 20
7.034940566820308
 30
0.0
 10
6.883551761410766
 20
7.005037075331614
 30
0.0
 10
6.960678516144506
 20
6.960514903683089
 30
0.0
 10
7.030609156228399
 20
6.920147344949853
 30
0.0
 10
7.071282903803593
 20
6.896661830525372
 30
0.0
 10
7.092386329170734
 20
6.884488293362496
 30
0.0
 10
7.109387028895778
 20
6.874644490255656
 30
0.0
 10
7.126953881352866
 20
6.864563389264029
 30
0.0
 10
7.144623492436002
 20
6.854155141920781
 30
0.0
 10
7.162811502262945
 20
6.84349394467325
 30
0.0
 10
7.181410971416314
 20
6.832551170493905
 30
0.0
 10
7.208050345611626
 20
6.816865881764226
 30
0.0
 10
7.244992183395662
 20
6.795047753849321
 30
0.0
 10
7.294431552944731
 20
6.765664049604366
 30
0.0
 10
7.366299409789593
 20
6.722568005061001
 30
0.0
 10
7.444920315675974
 20
6.674450747132421
 30
0.0
 10
7.513434336714798
 20
6.630993183967641
 30
0.0
 10
7.554242299997978
 20
6.604432069275912
 30
0.0
 10
7.579095282767786
 20
6.58800950197761
 30
0.0
 10
7.600350678426114
 20
6.573762628793573
 30
0.0
 10
7.619271224285865
 20
6.560925104323828
 30
0.0
 10
7.637590047606455
 20
6.547920569311752
 30
0.0
 10
7.657528616840199
 20
6.533369343769252
 30
0.0
 10
7.680037255036319
 20
6.516508970951726
 30
0.0
 10
7.707608744100978
 20
6.495401560876416
 30
0.0
 10
7.736947907153055
 20
6.472490653394071
 30
0.0
 10
7.765891307224613
 20
6.449502738913133
 30
0.0
 10
7.791443186325174
 20
6.428982914060506
 30
0.0
 10
7.816719647076922
 20
6.408515736188876
 30
0.0
 10
7.843688199684127
 20
6.386489235791611
 30
0.0
 10
7.862304694662505
 20
6.371093172409185
 30
0.0
 10
7.871992099166977
 20
6.363081573344204
 30
0.0
  0
SPLINE
  5
C1
330
2
100
AcDbEntity
  8
0
  6
Continuous
 62
     7
370
    13
100
AcDbSpline
210
0.0
220
0.0
230
1.0
 70
     8
 71
     3
 72
    33
 73
    29
 74
     0
 42
0.000000001
 43
0.0000000001
 40
0.0
 40
0.0
 40
0.0
 40
0.0
 40
0.0189235737703917
 40
0.0388815724859599
 40
0.05875914616739
 40
0.0785329546767171
 40
0.097331699771619
 40
0.1160321498263854
 40
0.1523758064796736
 40
0.1875779161573591
 40
0.2216497585501069
 40
0.2545988226069391
 40
0.2864072656225333
 40
0.3170382043113113
 40
0.3464536464900591
 40
0.4014830500963125
 40
0.4513863524645342
 40
0.4991158923592204
 40
0.5578218126586232
 40
0.6280627312345032
 40
0.7494944510438164
 40
0.8192805294977031
 40
0.8519843992398147
 40
0.8833337225791343
 40
0.914222716467696
 40
0.9429341527775472
 40
0.9644295168961923
 40
1.0
 40
1.0
 40
1.0
 40
1.0
 10
7.871992099166977
 20
6.363081573344204
 30
0.0
 10
7.87349113635569
 20
6.36183672237921
 30
0.0
 10
7.876571153049122
 20
6.359278972790422
 30
0.0
 10
7.881215697389546
 20
6.355344699993513
 30
0.0
 10
7.88591932479939
 20
6.351301311771288
 30
0.0
 10
7.890522260867886
 20
6.347278597734575
 30
0.0
 10
7.895023877904286
 20
6.343286657948421
 30
0.0
 10
7.900816349286078
 20
6.338077643642253
 30
0.0
 10
7.907874262031214
 20
6.331603942448056
 30
0.0
 10
7.916099996565378
 20
6.323876624848919
 30
0.0
 10
7.924029280616858
 20
6.316270199831663
 30
0.0
 10
7.931664842055502
 20
6.308814206192588
 30
0.0
 10
7.939006411971394
 20
6.30153125855999
 30
0.0
 10
7.94605100868811
 20
6.294440537707286
 30
0.0
 10
7.954844486629514
 20
6.285468102752897
 30
0.0
 10
7.965061805029282
 20
6.274858143485372
 30
0.0
 10
7.976609788175558
 20
6.262638521930426
 30
0.0
 10
7.988393566282166
 20
6.250069537207742
 30
0.0
 10
8.001688502881055
 20
6.236018039823724
 30
0.0
 10
8.020477177633738
 20
6.216520463073964
 30
0.0
 10
8.039917446740043
 20
6.196562167085078
 30
0.0
 10
8.056324694638414
 20
6.179873973720133
 30
0.0
 10
8.06599813756431
 20
6.170102085169327
 30
0.0
 10
8.072805768548198
 20
6.163247066211543
 30
0.0
 10
8.079311254195886
 20
6.156773308478145
 30
0.0
 10
8.085042128630762
 20
6.151012138285416
 30
0.0
 10
8.091043118072063
 20
6.144950542010725
 30
0.0
 10
8.094978853109713
 20
6.14090238751198
 30
0.0
 10
8.097432089212773
 20
6.138379077717983
 30
0.0
  0
SPLINE
  5
C2
330
2
100
AcDbEntity
  8
0
  6
Continuous
 62
     7
370
    13
100
AcDbSpline
210
0.0
220
0.0
230
1.0
 70
     8
 71
     3
 72
    11
 73
     7
 74
     0
 42
0.000000001
 43
0.0000000001
 40
0.0
 40
0.0
 40
0.0
 40
0.0
 40
0.2489958483491894
 40
0.4997966252548506
 40
0.7510980915483084
 40
1.0
 40
1.0
 40
1.0
 40
1.0
 10
7.136742197024819
 20
6.818094996280748
 30
0.0
 10
7.131004352329579
 20
6.816360665216333
 30
0.0
 10
7.119487070278781
 20
6.812879431216581
 30
0.0
 10
7.102195198742673
 20
6.807637654644009
 30
0.0
 10
7.084905511660618
 20
6.802396467086845
 30
0.0
 10
7.073378875774901
 20
6.798912516293725
 30
0.0
 10
7.067643205415935
 20
6.797178897439593
 30
0.0
  0
SPLINE
  5
C3
330
2
100
AcDbEntity
  8
0
  6
Continuous
 62
     7
370
    13
100
AcDbSpline
210
0.0
220
0.0
230
1.0
 70
     8
 71
     3
 72
    15
 73
    11
 74
     0
 42
0.000000001
 43
0.0000000001
 40
0.0
 40
0.0
 40
0.0
 40
0.0
 40
0.0580523305627681
 40
0.1336682433429497
 40
0.2602569728857417
 40
0.5106092873957069
 40
0.7553791118996667
 40
0.8751399576313634
 40
0.9597133105931035
 40
1.0
 40
1.0
 40
1.0
 40
1.0
 10
7.067642549607457
 20
6.797175926397173
 30
0.0
 10
7.067434944049706
 20
6.797105211783669
 30
0.0
 10
7.066956922410534
 20
6.796942388033549
 30
0.0
 10
7.066117362995093
 20
6.796572666137485
 30
0.0
 10
7.064887061304094
 20
6.795812059808421
 30
0.0
 10
7.064001496088991
 20
6.794439234592397
 30
0.0
 10
7.064141601029485
 20
6.792840348411212
 30
0.0
 10
7.064888380262702
 20
6.791625476727624
 30
0.0
 10
7.065453060024351
 20
6.790966100257481
 30
0.0
 10
7.065792041260106
 20
6.790633468983692
 30
0.0
 10
7.065901415175893
 20
6.790526143913476
 30
0.0
  0
SPLINE
  5
C4
330
2
100
AcDbEntity
  8
0
  6
Continuous
 62
     7
370
    13
100
AcDbSpline
210
0.0
220
0.0
230
1.0
 70
     8
 71
     3
 72
     8
 73
     4
 74
     0
 42
0.000000001
 43
0.0000000001
 40
0.0
 40
0.0
 40
0.0
 40
0.0
 40
1.0
 40
1.0
 40
1.0
 40
1.0
 10
7.136741736462282
 20
6.818092798227073
 30
0.0
 10
7.138070670709925
 20
6.818470131811166
 30
0.0
 10
7.139438402687325
 20
6.819044377941745
 30
0.0
 10
7.140803975177778
 20
6.819802191379373
 30
0.0
  0
ARC
  5
C5
330
2
100
AcDbEntity
  8
0
  6
Continuous
 62
     7
370
    13
100
AcDbCircle
 10
7.063581329028322
 20
6.690107294255472
 30
0.0
 40
0.1647592756615795
100
AcDbArc
 50
15.45572114500006
 51
54.06165052140036
  0
SPLINE
  5
C6
330
2
100
AcDbEntity
  8
0
  6
Continuous
 62
     7
370
    13
100
AcDbSpline
210
0.0
220
0.0
230
1.0
 70
     8
 71
     3
 72
    16
 73
    12
 74
     0
 42
0.000000001
 43
0.0000000001
 40
0.0
 40
0.0
 40
0.0
 40
0.0
 40
0.0786729692609204
 40
0.1669548545527706
 40
0.263621316514808
 40
0.3908340165686739
 40
0.5126505942866121
 40
0.642612317088909
 40
0.7553158613495671
 40
0.8552866846095176
 40
1.0
 40
1.0
 40
1.0
 40
1.0
 10
7.421006275157013
 20
6.338087731389809
 30
0.0
 10
7.42031775168361
 20
6.341580110730182
 30
0.0
 10
7.418856610233898
 20
6.348991419726052
 30
0.0
 10
7.416599491753293
 20
6.360703747755724
 30
0.0
 10
7.413975239363859
 20
6.374581947156164
 30
0.0
 10
7.411125819837366
 20
6.389961773072704
 30
0.0
 10
7.408038605904973
 20
6.406829703219216
 30
0.0
 10
7.405162497073018
 20
6.423068686386821
 30
0.0
 10
7.402549572152439
 20
6.438350144695357
 30
0.0
 10
7.399912337217733
 20
6.454304313883403
 30
0.0
 10
7.398150509806473
 20
6.465234381688408
 30
0.0
 10
7.397108513838791
 20
6.471698741651541
 30
0.0
  0
SPLINE
  5
C7
330
2
100
AcDbEntity
  8
0
  6
Continuous
 62
     7
370
    13
100
AcDbSpline
210
0.0
220
0.0
230
1.0
 70
     8
 71
     3
 72
    66
 73
    62
 74
     0
 42
0.000000001
 43
0.0000000001
 40
0.0
 40
0.0
 40
0.0
 40
0.0
 40
0.0054023517560782
 40
0.0108026041651152
 40
0.0162169857317066
 40
0.0287413670868645
 40
0.0404819843374699
 40
0.0611017849053099
 40
0.0816874371300693
 40
0.1008395519587157
 40
0.1173963960757108
 40
0.1318898794269929
 40
0.1454508524813251
 40
0.1589017983969338
 40
0.1725697745382952
 40
0.2005127444018893
 40
0.2242403194133556
 40
0.2455820997920287
 40
0.2664254433750413
 40
0.2879771620367005
 40
0.3116933520218259
 40
0.3306587577710312
 40
0.3472642350295823
 40
0.3649567897944581
 40
0.3777710782500435
 40
0.3885131949617331
 40
0.4009561232148278
 40
0.4140693713780883
 40
0.4274892810836562
 40
0.4420452322785934
 40
0.4575857055727531
 40
0.4735773413801422
 40
0.4907285296563824
 40
0.5055239742569109
 40
0.5256714122590563
 40
0.5373279936920669
 40
0.5516380160727299
 40
0.5730448845317035
 40
0.5928547778089937
 40
0.6100257743090184
 40
0.6265582590063396
 40
0.6429063650698767
 40
0.6569991273345678
 40
0.6763877984306729
 40
0.6940888188589531
 40
0.7122139654735831
 40
0.7298886604875019
 40
0.7463698447728434
 40
0.7791818130442736
 40
0.7881866780137873
 40
0.7974798816139252
 40
0.8164465207244514
 40
0.835240172297165
 40
0.8544189048854885
 40
0.8754103873512294
 40
0.898990297573192
 40
0.9240743000737964
 40
0.9493149601429875
 40
0.974420737768106
 40
0.986482886599178
 40
1.0
 40
1.0
 40
1.0
 40
1.0
 10
8.056159204673907
 20
5.392225335059146
 30
0.0
 10
8.054621085195586
 20
5.393178351562829
 30
0.0
 10
8.051545443950226
 20
5.395084014229189
 30
0.0
 10
8.046940936668793
 20
5.397997710137255
 30
0.0
 10
8.040329501640647
 20
5.402240599123953
 30
0.0
 10
8.031960176523726
 20
5.407745418211977
 30
0.0
 10
8.01936413347005
 20
5.416271721336174
 30
0.0
 10
8.004632213100503
 20
5.426629672615877
 30
0.0
 10
7.987972716455297
 20
5.438782902116663
 30
0.0
 10
7.972528429313845
 20
5.450379816853354
 30
0.0
 10
7.958829280711082
 20
5.460895480104428
 30
0.0
 10
7.946717829530889
 20
5.470361501920633
 30
0.0
 10
7.935474931364266
 20
5.479245954949927
 30
0.0
 10
7.924456421493605
 20
5.488007903461191
 30
0.0
 10
7.909575792183442
 20
5.499944594118714
 30
0.0
 10
7.892016148149021
 20
5.514244227626594
 30
0.0
 10
7.872480099665319
 20
5.530342542263404
 30
0.0
 10
7.854972691523974
 20
5.544969411115316
 30
0.0
 10
7.838116169272087
 20
5.559165704360338
 30
0.0
 10
7.820666487633458
 20
5.573904649071268
 30
0.0
 10
7.803738614977515
 20
5.588263586942284
 30
0.0
 10
7.788147720637926
 20
5.601631791715822
 30
0.0
 10
7.774234267169658
 20
5.61379149758336
 30
0.0
 10
7.762001947491198
 20
5.624699112387096
 30
0.0
 10
7.751403939121265
 20
5.634404499347446
 30
0.0
 10
7.742186872697125
 20
5.642982936664225
 30
0.0
 10
7.732920705321266
 20
5.651733116948983
 30
0.0
 10
7.723038441336671
 20
5.661275117178389
 30
0.0
 10
7.712691272053309
 20
5.67151931660002
 30
0.0
 10
7.70183813747875
 20
5.682580614252474
 30
0.0
 10
7.690439082248055
 20
5.694565866004987
 30
0.0
 10
7.678495907669038
 20
5.707515984186084
 30
0.0
 10
7.666838675284582
 20
5.720627564443421
 30
0.0
 10
7.654269556411446
 20
5.735246453266485
 30
0.0
 10
7.643112278087603
 20
5.748728305078552
 30
0.0
 10
7.632178236840159
 20
5.762448713674406
 30
0.0
 10
7.621107171752942
 20
5.776911085877018
 30
0.0
 10
7.608390088510574
 20
5.794496326457719
 30
0.0
 10
7.595319623907609
 20
5.813776959503149
 30
0.0
 10
7.58363524660991
 20
5.832135841797324
 30
0.0
 10
7.57302406989031
 20
5.849937486613955
 30
0.0
 10
7.563405635430829
 20
5.867226841056081
 30
0.0
 10
7.553543465023622
 20
5.886154256396284
 30
0.0
 10
7.543813310918631
 20
5.906205506123315
 30
0.0
 10
7.533863087902771
 20
5.928538814728705
 30
0.0
 10
7.524699846260766
 20
5.950722032863462
 30
0.0
 10
7.516172855186885
 20
5.972854381345223
 30
0.0
 10
7.505702913048041
 20
6.001631084378539
 30
0.0
 10
7.497327600730022
 20
6.027205469912018
 30
0.0
 10
7.490482368068718
 20
6.049866425437631
 30
0.0
 10
7.48560723257729
 20
6.066454372551442
 30
0.0
 10
7.479650436777269
 20
6.087507984455344
 30
0.0
 10
7.472632387202994
 20
6.113094900094018
 30
0.0
 10
7.465588525662866
 20
6.139692779449001
 30
0.0
 10
7.458295367803494
 20
6.168562125677235
 30
0.0
 10
7.450682486113326
 20
6.200215680168449
 30
0.0
 10
7.442940551515363
 20
6.23389577881055
 30
0.0
 10
7.435379708148531
 20
6.26835715303405
 30
0.0
 10
7.429379573870802
 20
6.296928482664954
 30
0.0
 10
7.424622671103506
 20
6.320158006023531
 30
0.0
 10
7.42225660164687
 20
6.331888739102176
 30
0.0
 10
7.421006275157013
 20
6.338087731389809
 30
0.0
  0
LINE
  5
C8
330
2
100
AcDbEntity
  8
0
  6
Continuous
 62
     7
370
    13
100
AcDbLine
 10
8.300118015348321
 20
5.411351895643473
 30
0.0
 11
8.299169163348322
 21
5.410168109463472
 31
0.0
  0
SPLINE
  5
C9
330
2
100
AcDbEntity
  8
0
  6
Continuous
 62
     7
370
    13
100
AcDbSpline
210
0.0
220
0.0
230
1.0
 70
     8
 71
     3
 72
    40
 73
    36
 74
     0
 42
0.000000001
 43
0.0000000001
 40
0.0
 40
0.0
 40
0.0
 40
0.0
 40
0.004875712831807
 40
0.0108250105413346
 40
0.0218796407223613
 40
0.0446488317747704
 40
0.0682389246769301
 40
0.0925689194605379
 40
0.1432356443795248
 40
0.1963178983770074
 40
0.2237071595444481
 40
0.2516503637986632
 40
0.2668029740051273
 40
0.3092407242693935
 40
0.3610025077937668
 40
0.4315485477916108
 40
0.4634771875238213
 40
0.4958942732037548
 40
0.5288054276489106
 40
0.5622268790045279
 40
0.5961369937667707
 40
0.6305302365447069
 40
0.6654483530464539
 40
0.7008727963430717
 40
0.7187533076993488
 40
0.7367332719191279
 40
0.7729665325943559
 40
0.8096074461906397
 40
0.8467151032081231
 40
0.8882645154794456
 40
0.9223499536261547
 40
0.9413043333243775
 40
0.9609161931874668
 40
0.9804662257955202
 40
1.0
 40
1.0
 40
1.0
 40
1.0
 10
8.407044832152566
 20
5.68716124489382
 30
0.0
 10
8.406851554233401
 20
5.686185033206318
 30
0.0
 10
8.406422440463881
 20
5.684017657445618
 30
0.0
 10
8.405548650411281
 20
5.679679887545493
 30
0.0
 10
8.403947145410517
 20
5.671878926392073
 30
0.0
 10
8.401592419712978
 20
5.66085006147145
 30
0.0
 10
8.398605812612533
 20
5.647568762294097
 30
0.0
 10
8.39427566144297
 20
5.629353580684515
 30
0.0
 10
8.388181293269258
 20
5.606240348397774
 30
0.0
 10
8.381010643333478
 20
5.583215874169017
 30
0.0
 10
8.374399381599586
 20
5.564728275054953
 30
0.0
 10
8.369774525036834
 20
5.552989256964604
 30
0.0
 10
8.363843150955322
 20
5.539062128899967
 30
0.0
 10
8.35572220642169
 20
5.521759492751159
 30
0.0
 10
8.34225885715249
 20
5.497186103090133
 30
0.0
 10
8.328322060661509
 20
5.476090176245953
 30
0.0
 10
8.315217498210593
 20
5.459269095000089
 30
0.0
 10
8.305336212189297
 20
5.447948371059014
 30
0.0
 10
8.294838661243474
 20
5.4373731932163
 30
0.0
 10
8.283675403768626
 20
5.427665414054408
 30
0.0
 10
8.271779028933771
 20
5.419018583327735
 30
0.0
 10
8.259062491183362
 20
5.411655946349828
 30
0.0
 10
8.24547687645906
 20
5.40581585149999
 30
0.0
 10
8.233473333065166
 20
5.40237191640895
 30
0.0
 10
8.223474901051691
 20
5.400525964583991
 30
0.0
 10
8.213178352581618
 20
5.399306577842767
 30
0.0
 10
8.199894449605171
 20
5.399044714099036
 30
0.0
 10
8.183504327195342
 20
5.400744227367086
 30
0.0
 10
8.166141692504037
 20
5.404395167685544
 30
0.0
 10
8.149122069671671
 20
5.409686557986596
 30
0.0
 10
8.134906708340578
 20
5.415297743409253
 30
0.0
 10
8.124038326006505
 20
5.420129044880196
 30
0.0
 10
8.115374811889246
 20
5.424269457764848
 30
0.0
 10
8.106658464826654
 20
5.428690625394838
 30
0.0
 10
8.100876787842038
 20
5.431810335336157
 30
0.0
 10
8.097987151904513
 20
5.433369541425511
 30
0.0
  0
SPLINE
  5
CA
330
2
100
AcDbEntity
  8
0
  6
Continuous
 62
     7
370
    13
100
AcDbSpline
210
0.0
220
0.0
230
1.0
 70
     8
 71
     3
 72
    53
 73
    49
 74
     0
 42
0.000000001
 43
0.0000000001
 40
0.0
 40
0.0
 40
0.0
 40
0.0
 40
0.0062617985419098
 40
0.0125021189172402
 40
0.0187212977960688
 40
0.0249195729777347
 40
0.0310970907657927
 40
0.0372539130736886
 40
0.043390024257397
 40
0.0495053792680142
 40
0.0556000574642231
 40
0.0616741406100031
 40
0.0794149541149393
 40
0.0971230969113053
 40
0.1143025221904802
 40
0.1350980343636946
 40
0.1752799238124572
 40
0.1963176316948016
 40
0.2173518358993785
 40
0.2387645046412655
 40
0.2602036005748914
 40
0.3023859116530274
 40
0.3293305147009198
 40
0.3423255714977662
 40
0.3551391807961568
 40
0.3795718360490025
 40
0.4473540002295989
 40
0.4780238097464853
 40
0.5065898317393759
 40
0.5332041060317972
 40
0.5581212104009578
 40
0.6039160219736584
 40
0.6271562029311648
 40
0.6466733676340032
 40
0.6684187136413322
 40
0.6895437754449416
 40
0.7085934629388296
 40
0.7360284483840105
 40
0.7610247792864829
 40
0.7891901103692737
 40
0.8160081742678158
 40
0.8504923680671318
 40
0.88440843894906
 40
0.9205941655952868
 40
0.941767980061064
 40
0.9591096192186967
 40
0.9739898582407024
 40
1.0
 40
1.0
 40
1.0
 40
1.0
 10
8.097987151904554
 20
5.433369541425479
 30
0.0
 10
8.096267275107866
 20
5.434346339866214
 30
0.0
 10
8.09283342074617
 20
5.436296586298213
 30
0.0
 10
8.087712751722614
 20
5.439309320416175
 30
0.0
 10
8.082624427360078
 20
5.442373225227338
 30
0.0
 10
8.07756912858681
 20
5.445490270713351
 30
0.0
 10
8.072545588915563
 20
5.448653721882694
 30
0.0
 10
8.067553085938241
 20
5.451859262834728
 30
0.0
 10
8.062590788132379
 20
5.455102072320825
 30
0.0
 10
8.057657794392822
 20
5.458377503177342
 30
0.0
 10
8.052753395756582
 20
5.461682439935986
 30
0.0
 10
8.044747626531471
 20
5.467148702929692
 30
0.0
 10
8.033688177465529
 20
5.47490299806534
 30
0.0
 10
8.019748539053077
 20
5.484964643664323
 30
0.0
 10
8.005104463020394
 20
5.49584867262544
 30
0.0
 10
7.984696351423853
 20
5.511426771544952
 30
0.0
 10
7.963515207579963
 20
5.528178202705936
 30
0.0
 10
7.942492145450085
 20
5.545277753716127
 30
0.0
 10
7.926346109050074
 20
5.558592002801055
 30
0.0
 10
7.910185409143565
 20
5.572118054580242
 30
0.0
 10
7.888756162625373
 20
5.590261329097151
 30
0.0
 10
7.866074327403662
 20
5.609826329099369
 30
0.0
 10
7.845763981736025
 20
5.627946201167622
 30
0.0
 10
7.832840474904285
 20
5.639776417300799
 30
0.0
 10
7.820624492045858
 20
5.65118389130853
 30
0.0
 10
7.795312451712762
 20
5.675447808357722
 30
0.0
 10
7.766550823082635
 20
5.70546105999565
 30
0.0
 10
7.737472845677999
 20
5.738781700768178
 30
0.0
 10
7.718095377230994
 20
5.762370863425931
 30
0.0
 10
7.700336366793445
 20
5.785452091875674
 30
0.0
 10
7.679303615010137
 20
5.81493746305431
 30
0.0
 10
7.659871377949389
 20
5.845542965467922
 30
0.0
 10
7.642595842535829
 20
5.876438657806425
 30
0.0
 10
7.630538390228114
 20
5.899864171181397
 30
0.0
 10
7.619424921171074
 20
5.923360059389924
 30
0.0
 10
7.608984781895461
 20
5.947466780448045
 30
0.0
 10
7.598104696815751
 20
5.974434564456108
 30
0.0
 10
7.587252478118118
 20
6.003641729749547
 30
0.0
 10
7.575825506245038
 20
6.037233408250717
 30
0.0
 10
7.565362629831541
 20
6.071112633324212
 30
0.0
 10
7.554527207810066
 20
6.109460658749025
 30
0.0
 10
7.543944712179445
 20
6.150694508662473
 30
0.0
 10
7.533123694414939
 20
6.196292399793438
 30
0.0
 10
7.52430527478037
 20
6.236281432126056
 30
0.0
 10
7.517470105573774
 20
6.2691027130689
 30
0.0
 10
7.512772234097674
 20
6.29260517568346
 30
0.0
 10
7.507780525448998
 20
6.318264454585433
 30
0.0
 10
7.504441876158253
 20
6.336315298370726
 30
0.0
 10
7.502318180079182
 20
6.347797338810543
 30
0.0
  0
SPLINE
  5
CB
330
2
100
AcDbEntity
  8
0
  6
Continuous
 62
     7
370
    13
100
AcDbSpline
210
0.0
220
0.0
230
1.0
 70
     8
 71
     3
 72
    14
 73
    10
 74
     0
 42
0.000000001
 43
0.0000000001
 40
0.0
 40
0.0
 40
0.0
 40
0.0
 40
0.0888658098896454
 40
0.1831011634269523
 40
0.282758293475766
 40
0.3878629765263932
 40
0.4984298712961021
 40
0.746443069557163
 40
1.0
 40
1.0
 40
1.0
 40
1.0
 10
7.48279664830227
 20
6.464827114447281
 30
0.0
 10
7.483299788433818
 20
6.461348466915321
 30
0.0
 10
7.484336469960354
 20
6.454180981343033
 30
0.0
 10
7.486020247667502
 20
6.443124817841262
 30
0.0
 10
7.487862137326466
 20
6.4314435270081
 30
0.0
 10
7.489867897155342
 20
6.419134524096405
 30
0.0
 10
7.492897642494442
 20
6.401047823455776
 30
0.0
 10
7.49702310810899
 20
6.377191250078077
 30
0.0
 10
7.500540198242985
 20
6.357667240603143
 30
0.0
 10
7.502318180079285
 20
6.347797338810561
 30
0.0
  0
SPLINE
  5
CC
330
2
100
AcDbEntity
  8
0
  6
Continuous
 62
     7
370
    13
100
AcDbSpline
210
0.0
220
0.0
230
1.0
 70
     8
 71
     3
 72
    29
 73
    25
 74
     0
 42
0.000000001
 43
0.0000000001
 40
0.0
 40
0.0
 40
0.0
 40
0.0
 40
0.0184188757490605
 40
0.0369403787283248
 40
0.0555692875822422
 40
0.0743078318632531
 40
0.09315761056322
 40
0.1121202607954934
 40
0.1311974563530207
 40
0.1503909061933484
 40
0.1697023528521799
 40
0.1891335707865966
 40
0.2086863646491679
 40
0.2283625674943288
 40
0.2481640389185102
 40
0.2680926631356484
 40
0.4125891148701797
 40
0.5486060245417667
 40
0.684006348681566
 40
0.8160791404391853
 40
0.8565075099928435
 40
0.9006231190958516
 40
0.9484532811131643
 40
1.0
 40
1.0
 40
1.0
 40
1.0
 10
7.989417147679954
 20
5.843780143258022
 30
0.0
 10
7.990532415305459
 20
5.845445107276173
 30
0.0
 10
7.99276916466143
 20
5.848784312243806
 30
0.0
 10
7.996064321945757
 20
5.853832647749115
 30
0.0
 10
7.99932746556179
 20
5.858927407336148
 30
0.0
 10
8.002552830479507
 20
5.864070797947778
 30
0.0
 10
8.005740843656726
 20
5.869262326570336
 30
0.0
 10
8.008890165193678
 20
5.874502078374634
 30
0.0
 10
8.011999921500658
 20
5.879789954823451
 30
0.0
 10
8.015069112433506
 20
5.885125895882575
 30
0.0
 10
8.018096771853517
 20
5.890509820140691
 30
0.0
 10
8.021081924454589
 20
5.895941639459028
 30
0.0
 10
8.024023597858219
 20
5.901421260007804
 30
0.0
 10
8.026920819112765
 20
5.906948562353535
 30
0.0
 10
8.029772617901818
 20
5.912523480004768
 30
0.0
 10
8.038417014581566
 20
5.929847463285661
 30
0.0
 10
8.051169441155858
 20
5.958335170422214
 30
0.0
 10
8.065744593647105
 20
5.998003833573759
 30
0.0
 10
8.077208183451382
 20
6.036523066055088
 30
0.0
 10
8.084060200272702
 20
6.065804047633941
 30
0.0
 10
8.088083427996298
 20
6.086316200855093
 30
0.0
 10
8.090306889680263
 20
6.098825383111753
 30
0.0
 10
8.092482766321825
 20
6.112351859887466
 30
0.0
 10
8.093768625526886
 20
6.121683702732305
 30
0.0
 10
8.094435599800661
 20
6.126524123114214
 30
0.0
  0
SPLINE
  5
CD
330
2
100
AcDbEntity
  8
0
  6
Continuous
 62
     7
370
    13
100
AcDbSpline
210
0.0
220
0.0
230
1.0
 70
     8
 71
     3
 72
    26
 73
    22
 74
     0
 42
0.000000001
 43
0.0000000001
 40
0.0
 40
0.0
 40
0.0
 40
0.0
 40
0.0181002224710463
 40
0.0359528249872312
 40
0.0536140133667035
 40
0.0711417551197532
 40
0.0885952443418398
 40
0.1396002097896023
 40
0.1993049905463752
 40
0.2554754627136082
 40
0.302560502328151
 40
0.3425878301580436
 40
0.3836076465524639
 40
0.5053115338078818
 40
0.5839319858146486
 40
0.6637788021990783
 40
0.7387619012018009
 40
0.8156705115006714
 40
0.8770759802071522
 40
0.9384721729738018
 40
1.0
 40
1.0
 40
1.0
 40
1.0
 10
7.974495163292278
 20
5.786062898315318
 30
0.0
 10
7.974340546201903
 20
5.78633985753181
 30
0.0
 10
7.974033427259071
 20
5.786889987026354
 30
0.0
 10
7.973631338796311
 20
5.787760425839726
 30
0.0
 10
7.973277142597542
 20
5.78865580928946
 30
0.0
 10
7.972974749818039
 20
5.789579837735283
 30
0.0
 10
7.972560781412422
 20
5.791140295351397
 30
0.0
 10
7.972196838175838
 20
5.79360885359855
 30
0.0
 10
7.972060221154482
 20
5.796945936014308
 30
0.0
 10
7.972136684779334
 20
5.800261920920243
 30
0.0
 10
7.972351922804158
 20
5.803209090067859
 30
0.0
 10
7.972758835724945
 20
5.805865165851347
 30
0.0
 10
7.973719901798139
 20
5.810049805786475
 30
0.0
 10
7.975110289733082
 20
5.815007482206297
 30
0.0
 10
7.977121303912074
 20
5.820649368873612
 30
0.0
 10
7.979045618784445
 20
5.825247396272013
 30
0.0
 10
7.98115649965281
 20
5.829698050036153
 30
0.0
 10
7.983246039465386
 20
5.833692332967149
 30
0.0
 10
7.985316675807558
 20
5.837334834546854
 30
0.0
 10
7.987312844509251
 20
5.840616822489382
 30
0.0
 10
7.98871521271031
 20
5.842724950499382
 30
0.0
 10
7.989417147679954
 20
5.843780143258022
 30
0.0
  0
SPLINE
  5
CE
330
2
100
AcDbEntity
  8
0
  6
Continuous
 62
     7
370
    13
100
AcDbSpline
210
0.0
220
0.0
230
1.0
 70
     8
 71
     3
 72
    19
 73
    15
 74
     0
 42
0.000000001
 43
0.0000000001
 40
0.0
 40
0.0
 40
0.0
 40
0.0
 40
0.0735393338050089
 40
0.1461140754784938
 40
0.2177279783628753
 40
0.2883850029320029
 40
0.3580893355889108
 40
0.4268454754509479
 40
0.4946581882708729
 40
0.5978534869857999
 40
0.6999658043979639
 40
0.8010138982923241
 40
0.9010175635475896
 40
1.0
 40
1.0
 40
1.0
 40
1.0
 10
8.031543961519354
 20
5.694806559530034
 30
0.0
 10
8.030125438158371
 20
5.696882799151506
 30
0.0
 10
8.02730699775769
 20
5.701008045017449
 30
0.0
 10
8.023115700914159
 20
5.707238656951259
 30
0.0
 10
8.018986337647429
 20
5.713448264972535
 30
0.0
 10
8.014919456260262
 20
5.719642095110893
 30
0.0
 10
8.010914958378902
 20
5.725818033793315
 30
0.0
 10
8.006973126358339
 20
5.731975980027999
 30
0.0
 10
8.00240189229561
 20
5.739211421790136
 30
0.0
 10
7.997211507971899
 20
5.747567555977283
 30
0.0
 10
7.991411731919654
 20
5.757094778000579
 30
0.0
 10
7.985695575656313
 20
5.766679852469376
 30
0.0
 10
7.980058972365689
 20
5.776307699393628
 30
0.0
 10
7.976343410028134
 20
5.782822310019287
 30
0.0
 10
7.974495163292278
 20
5.786062898315318
 30
0.0
  0
SPLINE
  5
CF
330
2
100
AcDbEntity
  8
0
  6
Continuous
 62
     7
370
    13
100
AcDbSpline
210
0.0
220
0.0
230
1.0
 70
     8
 71
     3
 72
    26
 73
    22
 74
     0
 42
0.000000001
 43
0.0000000001
 40
0.0
 40
0.0
 40
0.0
 40
0.0
 40
0.0200435341559344
 40
0.040078466979275
 40
0.060114894470196
 40
0.080162985736591
 40
0.1002329660798555
 40
0.1203350997662159
 40
0.1805489940142398
 40
0.2405312781401878
 40
0.3002626728910012
 40
0.3604101417723761
 40
0.4202068061372492
 40
0.4802880814669295
 40
0.602904145802934
 40
0.7262183625705001
 40
0.7925859047090535
 40
0.8594569316204655
 40
0.9064289088554735
 40
0.9532450586821424
 40
1.0
 40
1.0
 40
1.0
 40
1.0
 10
8.086573816360161
 20
5.619386555305134
 30
0.0
 10
8.085945817518602
 20
5.619468031436092
 30
0.0
 10
8.084690089330214
 20
5.61963094873395
 30
0.0
 10
8.082826527297822
 20
5.619950821425826
 30
0.0
 10
8.080979202519285
 20
5.62032580260308
 30
0.0
 10
8.079149882769446
 20
5.620761271626052
 30
0.0
 10
8.077338605889073
 20
5.621255752723262
 30
0.0
 10
8.07435505441837
 20
5.622177421842177
 30
0.0
 10
8.070289275652029
 20
5.623735277028424
 30
0.0
 10
8.065317458541814
 20
5.626249307480318
 30
0.0
 10
8.060623201452083
 20
5.629266371725424
 30
0.0
 10
8.056236683448135
 20
5.632762827391104
 30
0.0
 10
8.052162768174662
 20
5.636720577883086
 30
0.0
 10
8.04713138684783
 20
5.642629046894807
 30
0.0
 10
8.041704847906702
 20
5.651159896245514
 30
0.0
 10
8.037588066496493
 20
5.661200836011801
 30
0.0
 10
8.03507333902475
 20
5.670121438578964
 30
0.0
 10
8.033710395844813
 20
5.67668207552624
 30
0.0
 10
8.032798969445474
 20
5.682730820328977
 30
0.0
 10
8.032202266039762
 20
5.688148494845433
 30
0.0
 10
8.031984346753693
 20
5.691857661656692
 30
0.0
 10
8.031875458385426
 20
5.693711031906813
 30
0.0
  0
SPLINE
  5
D0
330
2
100
AcDbEntity
  8
0
  6
Continuous
 62
     7
370
    13
100
AcDbSpline
210
0.0
220
0.0
230
1.0
 70
     8
 71
     3
 72
    11
 73
     7
 74
     0
 42
0.000000001
 43
0.0000000001
 40
0.0
 40
0.0
 40
0.0
 40
0.0
 40
0.2509648563038391
 40
0.4982568638249409
 40
0.7464313808303071
 40
1.0
 40
1.0
 40
1.0
 40
1.0
 10
8.087403953496778
 20
5.618924339454871
 30
0.0
 10
8.08734941372923
 20
5.61898664902197
 30
0.0
 10
8.087241132378878
 20
5.619110356261087
 30
0.0
 10
8.087042620582478
 20
5.619245735076781
 30
0.0
 10
8.086821613109449
 20
5.619343715965779
 30
0.0
 10
8.086657005161482
 20
5.619372173545484
 30
0.0
 10
8.086573816360161
 20
5.619386555305135
 30
0.0
  0
SPLINE
  5
D1
330
2
100
AcDbEntity
  8
0
  6
Continuous
 62
     7
370
    13
100
AcDbSpline
210
0.0
220
0.0
230
1.0
 70
     8
 71
     3
 72
    17
 73
    13
 74
     0
 42
0.000000001
 43
0.0000000001
 40
0.0
 40
0.0
 40
0.0
 40
0.0
 40
0.0990813044084821
 40
0.198350740082983
 40
0.2978143985240754
 40
0.3974783514747365
 40
0.4973486290292594
 40
0.5974311965649362
 40
0.6977319303151078
 40
0.798256591479115
 40
0.8990107988465384
 40
1.0
 40
1.0
 40
1.0
 40
1.0
 10
8.141092890180491
 20
5.554379218284736
 30
0.0
 10
8.139315564887239
 20
5.556399903703281
 30
0.0
 10
8.135757539592866
 20
5.560445111329848
 30
0.0
 10
8.130415556514826
 20
5.566608929629975
 30
0.0
 10
8.125064810378237
 20
5.572850627227092
 30
0.0
 10
8.119705919078612
 20
5.579177199728254
 30
0.0
 10
8.114339435643682
 20
5.585587376728545
 30
0.0
 10
8.108965722193433
 20
5.59208228365523
 30
0.0
 10
8.103584926125614
 20
5.598661887582444
 30
0.0
 10
8.098197128872143
 20
5.605328499072674
 30
0.0
 10
8.092801700575797
 20
5.612076259954879
 30
0.0
 10
8.089204599175898
 20
5.616639874365749
 30
0.0
 10
8.087403953496778
 20
5.618924339454871
 30
0.0
  0
SPLINE
  5
D2
330
2
100
AcDbEntity
  8
0
  6
Continuous
 62
     7
370
    13
100
AcDbSpline
210
0.0
220
0.0
230
1.0
 70
     8
 71
     3
 72
    26
 73
    22
 74
     0
 42
0.000000001
 43
0.0000000001
 40
0.0
 40
0.0
 40
0.0
 40
0.0
 40
0.0396016357705709
 40
0.0789335094054599
 40
0.1180216658464608
 40
0.1568926107566781
 40
0.1955732690425587
 40
0.2340909390569033
 40
0.3230899202364964
 40
0.4058986698822631
 40
0.5352701416790814
 40
0.6304331364672863
 40
0.6774812486298779
 40
0.7235604275760701
 40
0.7637726912512404
 40
0.8037614035666052
 40
0.8565205081665435
 40
0.9051310887457535
 40
0.9371886105982028
 40
0.9686673238599652
 40
1.0
 40
1.0
 40
1.0
 40
1.0
 10
8.179589739134726
 20
5.581271471512352
 30
0.0
 10
8.179176236293674
 20
5.58058403762048
 30
0.0
 10
8.178352047348997
 20
5.579213852563378
 30
0.0
 10
8.177077310357821
 20
5.577210629836604
 30
0.0
 10
8.175780007310319
 20
5.575255209055127
 30
0.0
 10
8.174457063748221
 20
5.573350696571392
 30
0.0
 10
8.17310920363935
 20
5.571496219798285
 30
0.0
 10
8.171135022650663
 20
5.568902067092045
 30
0.0
 10
8.168544853659813
 20
5.565750705566657
 30
0.0
 10
8.164648072925789
 20
5.561576275118368
 30
0.0
 10
8.16043419912661
 20
5.557873894197626
 30
0.0
 10
8.156552677673694
 20
5.555147429231142
 30
0.0
 10
8.153810966881383
 20
5.553683829215132
 30
0.0
 10
8.151860832772738
 20
5.552860218321596
 30
0.0
 10
8.150021940445466
 20
5.552300558540839
 30
0.0
 10
8.148115112854105
 20
5.55196331637035
 30
0.0
 10
8.146139333012758
 20
5.551894256527454
 30
0.0
 10
8.14437814244691
 20
5.552203698043925
 30
0.0
 10
8.143026233896222
 20
5.552774889990759
 30
0.0
 10
8.141976663345339
 20
5.553452832623873
 30
0.0
 10
8.141387024263146
 20
5.554070902070372
 30
0.0
 10
8.141092890180491
 20
5.554379218284736
 30
0.0
  0
SPLINE
  5
D3
330
2
100
AcDbEntity
  8
0
  6
Continuous
 62
     7
370
    13
100
AcDbSpline
210
0.0
220
0.0
230
1.0
 70
     8
 71
     3
 72
    30
 73
    26
 74
     0
 42
0.000000001
 43
0.0000000001
 40
0.0
 40
0.0
 40
0.0
 40
0.0
 40
0.0206587334884017
 40
0.0386178356467813
 40
0.0538683571397205
 40
0.0849112381517062
 40
0.1127095768770219
 40
0.1458886842238099
 40
0.1786635392364276
 40
0.2505871262982146
 40
0.3221197633985455
 40
0.3869956606210793
 40
0.5026720763095893
 40
0.5616323963518598
 40
0.6208102884509911
 40
0.7311922639780458
 40
0.7552128828296365
 40
0.7873821717718032
 40
0.8235041060721432
 40
0.8507753849197875
 40
0.8862612186205279
 40
0.9189197433135364
 40
0.9487605628271376
 40
0.9757878034940228
 40
1.0
 40
1.0
 40
1.0
 40
1.0
 10
8.285991373373729
 20
5.926866644490846
 30
0.0
 10
8.285792354419559
 20
5.924511601744409
 30
0.0
 10
8.285420323807565
 20
5.920109267314074
 30
0.0
 10
8.284843198068994
 20
5.913957676077563
 30
0.0
 10
8.284108518039237
 20
5.906611057626374
 30
0.0
 10
8.283173930577317
 20
5.898125248437546
 30
0.0
 10
8.281866222346019
 20
5.887558256073891
 30
0.0
 10
8.280358242340138
 20
5.876767559126918
 30
0.0
 10
8.277845358137481
 20
5.860849765760077
 30
0.0
 10
8.274056712409267
 20
5.84044009493223
 30
0.0
 10
8.268757300928763
 20
5.816254107423771
 30
0.0
 10
8.261546236838798
 20
5.786958444303811
 30
0.0
 10
8.253814934739907
 20
5.759087247676596
 30
0.0
 10
8.245368331462186
 20
5.731914839227153
 30
0.0
 10
8.236516789349106
 20
5.705394006334966
 30
0.0
 10
8.228243288976859
 20
5.682976168364287
 30
0.0
 10
8.220463980903558
 20
5.663758992260299
 30
0.0
 10
8.215992038446861
 20
5.65313013347111
 30
0.0
 10
8.211148602324787
 20
5.642160490043984
 30
0.0
 10
8.205920661562331
 20
5.630849097847945
 30
0.0
 10
8.20065720139323
 20
5.619976590554625
 30
0.0
 10
8.194995857526086
 20
5.608866704254929
 30
0.0
 10
8.18959358514849
 20
5.598770727345463
 30
0.0
 10
8.184521248503822
 20
5.589673667158663
 30
0.0
 10
8.181172245279309
 20
5.583967710177457
 30
0.0
 10
8.179589739134726
 20
5.581271471512352
 30
0.0
  0
LINE
  5
D4
330
2
100
AcDbEntity
  8
0
  6
Continuous
 62
     7
370
    13
100
AcDbLine
 10
7.215313199536323
 20
6.728815057847473
 30
0.0
 11
7.207431275248321
 21
6.728322382307473
 31
0.0
  0
ARC
  5
D5
330
2
100
AcDbEntity
  8
0
  6
Continuous
 62
     7
370
    13
100
AcDbCircle
 10
7.243484746660321
 20
6.728315805707472
 30
0.0
 40
0.0360534720122775
100
AcDbArc
 50
179.9895473275999
 51
188.8638122424003
  0
SPLINE
  5
D6
330
2
100
AcDbEntity
  8
0
  6
Continuous
 62
     7
370
    13
100
AcDbSpline
210
0.0
220
0.0
230
1.0
 70
     8
 71
     3
 72
    14
 73
    10
 74
     0
 42
0.000000001
 43
0.0000000001
 40
0.0
 40
0.0
 40
0.0
 40
0.0
 40
0.25
 40
0.25
 40
0.5
 40
0.5
 40
0.75
 40
0.75
 40
1.0
 40
1.0
 40
1.0
 40
1.0
 10
7.397108513811682
 20
6.471698741645987
 30
0.0
 10
7.396370071094601
 20
6.47463679890138
 30
0.0
 10
7.395492931320402
 20
6.477640127643599
 30
0.0
 10
7.393501210089219
 20
6.483529712711558
 30
0.0
 10
7.392387009462545
 20
6.486413578106046
 30
0.0
 10
7.390007966616085
 20
6.491802812517276
 30
0.0
 10
7.388744089116817
 20
6.494305965649511
 30
0.0
 10
7.386178872729846
 20
6.498735599174369
 30
0.0
 10
7.384878554648226
 20
6.500661257653863
 30
0.0
 10
7.383613260788854
 20
6.50225590257441
 30
0.0
  0
SPLINE
  5
D7
330
2
100
AcDbEntity
  8
0
  6
Continuous
 62
     7
370
    13
100
AcDbSpline
210
0.0
220
0.0
230
1.0
 70
     8
 71
     3
 72
    38
 73
    34
 74
     0
 42
0.000000001
 43
0.0000000001
 40
0.0
 40
0.0
 40
0.0
 40
0.0
 40
0.0077720816389053
 40
0.0155454680230964
 40
0.0310965715571004
 40
0.0622067036503221
 40
0.1244591877812544
 40
0.155601736290558
 40
0.1867527601801287
 40
0.2179143203930735
 40
0.249086624460876
 40
0.311461705279123
 40
0.3426658196094104
 40
0.3738819250380241
 40
0.4051114997592284
 40
0.4363538810748362
 40
0.4676109856188666
 40
0.4988837538687483
 40
0.5028747396831436
 40
0.5110628467777759
 40
0.5234495390773449
 40
0.5400369781328202
 40
0.5608281067619746
 40
0.5858267434651462
 40
0.6150334574381385
 40
0.6484481861401419
 40
0.6860704508488693
 40
0.7278997482019466
 40
0.7739364735302398
 40
0.8241658002571915
 40
0.878600854066909
 40
0.9372178199773648
 40
1.0
 40
1.0
 40
1.0
 40
1.0
 10
7.865449921015034
 20
6.354258723534915
 30
0.0
 10
7.866092557245998
 20
6.35375997410067
 30
0.0
 10
7.867377937591061
 20
6.352762391504169
 30
0.0
 10
7.869952274266822
 20
6.350755321235413
 30
0.0
 10
7.874483145597874
 20
6.347229559600902
 30
0.0
 10
7.883491678331633
 20
6.340051757511207
 30
0.0
 10
7.893740738868471
 20
6.331619282517764
 30
0.0
 10
7.903936637180141
 20
6.322984785712391
 30
0.0
 10
7.911541551894442
 20
6.316399166291835
 30
0.0
 10
7.919114987384334
 20
6.309718359663875
 30
0.0
 10
7.929184589380666
 20
6.300700976828323
 30
0.0
 10
7.939176787592922
 20
6.291509892189033
 30
0.0
 10
7.949090524223498
 20
6.282166252909668
 30
0.0
 10
7.956504334115603
 20
6.275102130681569
 30
0.0
 10
7.963884587063819
 20
6.26798045123159
 30
0.0
 10
7.971224833075398
 20
6.26080160434155
 30
0.0
 10
7.978534530630334
 20
6.253585602328307
 30
0.0
 10
7.98370384693581
 20
6.248462277968819
 30
0.0
 10
7.98707093372853
 20
6.245113186907489
 30
0.0
 10
7.988972407410463
 20
6.243218969935958
 30
0.0
 10
7.991844741489181
 20
6.240353667519608
 30
0.0
 10
7.995683110719745
 20
6.236518119524252
 30
0.0
 10
8.000481213474866
 20
6.231716212284734
 30
0.0
 10
8.006230602667057
 20
6.225957669897677
 30
0.0
 10
8.012920269696854
 20
6.219260251213343
 30
0.0
 10
8.020536234513834
 20
6.211647384354884
 30
0.0
 10
8.029060140164759
 20
6.20315002349109
 30
0.0
 10
8.038465117747513
 20
6.193798223520541
 30
0.0
 10
8.048723375720102
 20
6.18364166904104
 30
0.0
 10
8.05979205225346
 20
6.172711117974045
 30
0.0
 10
8.071580323137755
 20
6.160938398900176
 30
0.0
 10
8.084159804403075
 20
6.148587002024088
 30
0.0
 10
8.092568694633758
 20
6.139948562351096
 30
0.0
 10
8.096917394587091
 20
6.135481149747031
 30
0.0
  0
SPLINE
  5
D8
330
2
100
AcDbEntity
  8
0
  6
Continuous
 62
     7
370
    13
100
AcDbSpline
210
0.0
220
0.0
230
1.0
 70
     8
 71
     3
 72
     8
 73
     4
 74
     0
 42
0.000000001
 43
0.0000000001
 40
0.0
 40
0.0
 40
0.0
 40
0.0
 40
1.0
 40
1.0
 40
1.0
 40
1.0
 10
8.09692130400758
 20
6.13548100084003
 30
0.0
 10
8.095673368934953
 20
6.132497779877997
 30
0.0
 10
8.094833373013901
 20
6.12947146633544
 30
0.0
 10
8.094435574735374
 20
6.126524117319631
 30
0.0
  0
ARC
  5
D9
330
2
100
AcDbEntity
  8
0
  6
Continuous
 62
     7
370
    13
100
AcDbCircle
 10
7.560185498516322
 20
6.448289080339472
 30
0.0
 40
0.0791362060633837
100
AcDbArc
 50
139.2553492479
 51
167.9373127880998
  0
LINE
  5
DA
330
2
100
AcDbEntity
  8
0
  6
Continuous
 62
     7
370
    13
100
AcDbLine
 10
7.280220905676323
 20
4.977671835943473
 30
0.0
 11
7.275347086260323
 21
4.979311139835473
 31
0.0
  0
LWPOLYLINE
  5
DB
330
2
100
AcDbEntity
  8
0
  6
Continuous
 62
     7
370
    13
100
AcDbPolyline
 90
        3
 70
   128
 43
0.0
 10
7.299740080596322
 20
4.971161863203473
 10
7.299193983880321
 20
4.971299195347473
 10
7.298159025868322
 20
4.971638533919473
  0
SPLINE
  5
DC
330
2
100
AcDbEntity
  8
0
  6
Continuous
 62
     7
370
    13
100
AcDbSpline
210
0.0
220
0.0
230
1.0
 70
     8
 71
     3
 72
    14
 73
    10
 74
     0
 42
0.000000001
 43
0.0000000001
 40
0.0
 40
0.0
 40
0.0
 40
0.0
 40
0.0347606008734811
 40
0.1678152390827718
 40
0.3195032240216203
 40
0.4806694343838886
 40
0.6631264141317127
 40
0.8604832598933374
 40
1.0
 40
1.0
 40
1.0
 40
1.0
 10
8.401400369434091
 20
5.653496042326271
 30
0.0
 10
8.401061475067898
 20
5.651889204831052
 30
0.0
 10
8.399425380246285
 20
5.644131806752444
 30
0.0
 10
8.396176510446862
 20
5.629573221139603
 30
0.0
 10
8.391302734258665
 20
5.609479849365566
 30
0.0
 10
8.385357124558042
 20
5.58764848875351
 30
0.0
 10
8.37804477638145
 20
5.56458465469905
 30
0.0
 10
8.370267529598374
 20
5.543167642853365
 30
0.0
 10
8.364332625644541
 20
5.530145317624589
 30
0.0
 10
8.361874675578938
 20
5.524752100581928
 30
0.0
  0
SPLINE
  5
DD
330
2
100
AcDbEntity
  8
0
  6
Continuous
 62
     7
370
    13
100
AcDbSpline
210
0.0
220
0.0
230
1.0
 70
     8
 71
     3
 72
    23
 73
    19
 74
     0
 42
0.000000001
 43
0.0000000001
 40
0.0
 40
0.0
 40
0.0
 40
0.0
 40
0.0618426414765995
 40
0.1239526127318799
 40
0.1835564318640463
 40
0.2487940400163763
 40
0.2769038258129183
 40
0.3114335736999719
 40
0.3375542071029826
 40
0.3741070788679949
 40
0.4994555643676994
 40
0.6477044948536804
 40
0.7495044768835478
 40
0.8745478482324784
 40
0.9071967088992504
 40
0.9371976523979423
 40
0.9687190190148323
 40
1.0
 40
1.0
 40
1.0
 40
1.0
 10
8.28290715144123
 20
6.066572763973734
 30
0.0
 10
8.283085747623758
 20
6.06375498944464
 30
0.0
 10
8.283443712014026
 20
6.058107259874372
 30
0.0
 10
8.283927321430017
 20
6.049724871227921
 30
0.0
 10
8.284350956447122
 20
6.041169223976948
 30
0.0
 10
8.284640886890434
 20
6.034151987497612
 30
0.0
 10
8.284827896846005
 20
6.028260598293455
 30
0.0
 10
8.284884886006741
 20
6.024165843100833
 30
0.0
 10
8.284959947358951
 20
6.019675261325799
 30
0.0
 10
8.285119931552818
 20
6.010996966716789
 30
0.0
 10
8.285432511537658
 20
5.996690733049821
 30
0.0
 10
8.285838271123354
 20
5.979378090256762
 30
0.0
 10
8.286188421541378
 20
5.96207380175875
 30
0.0
 10
8.286350267524618
 20
5.95006810972276
 30
0.0
 10
8.286349895505901
 20
5.941352082400127
 30
0.0
 10
8.286317983700499
 20
5.936971276597038
 30
0.0
 10
8.286245811383558
 20
5.932639505509247
 30
0.0
 10
8.286134182467838
 20
5.929698207646824
 30
0.0
 10
8.286078581648389
 20
5.928233187850285
 30
0.0
  0
SPLINE
  5
DE
330
2
100
AcDbEntity
  8
0
  6
Continuous
 62
     7
370
    13
100
AcDbSpline
210
0.0
220
0.0
230
1.0
 70
     8
 71
     3
 72
     8
 73
     4
 74
     0
 42
0.000000001
 43
0.0000000001
 40
0.0
 40
0.0
 40
0.0
 40
0.0
 40
1.0
 40
1.0
 40
1.0
 40
1.0
 10
8.286078570619897
 20
5.928233185707364
 30
0.0
 10
8.286059837205829
 20
5.927779672971176
 30
0.0
 10
8.286030762551845
 20
5.927323970741849
 30
0.0
 10
8.285991373416852
 20
5.926866644497664
 30
0.0
  0
SPLINE
  5
DF
330
2
100
AcDbEntity
  8
0
  6
Continuous
 62
     7
370
    13
100
AcDbSpline
210
0.0
220
0.0
230
1.0
 70
     8
 71
     3
 72
    27
 73
    23
 74
     0
 42
0.000000001
 43
0.0000000001
 40
0.0
 40
0.0
 40
0.0
 40
0.0
 40
0.0123159900356302
 40
0.029411299263882
 40
0.0593189754758847
 40
0.1204270810869404
 40
0.1828077967257363
 40
0.2457712385649755
 40
0.277245382597885
 40
0.308666405464919
 40
0.335131890402864
 40
0.3713561298654319
 40
0.433800076157689
 40
0.4959504378145745
 40
0.6198301438181073
 40
0.7458980081313948
 40
0.8105695306323521
 40
0.8753436923892701
 40
0.9389085525754808
 40
0.9698407640208358
 40
0.9891599368739443
 40
1.0
 40
1.0
 40
1.0
 40
1.0
 10
8.415927249933975
 20
5.835958908939709
 30
0.0
 10
8.415975861627325
 20
5.835291574490799
 30
0.0
 10
8.416091949173415
 20
5.833697941081774
 30
0.0
 10
8.416301108526694
 20
5.83051167819965
 30
0.0
 10
8.416614989917842
 20
5.824760411706906
 30
0.0
 10
8.41684932627767
 20
5.816752407652804
 30
0.0
 10
8.416848245216391
 20
5.807220618238245
 30
0.0
 10
8.416658328936954
 20
5.799325574109893
 30
0.0
 10
8.416387137310971
 20
5.793025377830988
 30
0.0
 10
8.416099908463966
 20
5.788567307120477
 30
0.0
 10
8.41578025516647
 20
5.783881170953291
 30
0.0
 10
8.415361219463234
 20
5.777689365158275
 30
0.0
 10
8.414815285833082
 20
5.769757044554875
 30
0.0
 10
8.413965545387217
 20
5.757556247096175
 30
0.0
 10
8.412875384715754
 20
5.742269568359839
 30
0.0
 10
8.411694032289974
 20
5.726904043205932
 30
0.0
 10
8.410594425547659
 20
5.714438477400133
 30
0.0
 10
8.409651592094123
 20
5.705065272875284
 30
0.0
 10
8.408725139093679
 20
5.697393461334346
 30
0.0
 10
8.407905615615439
 20
5.691976090555743
 30
0.0
 10
8.407401144138578
 20
5.689083019504051
 30
0.0
 10
8.407135412725455
 20
5.68766953075278
 30
0.0
 10
8.407039901509753
 20
5.687161483821407
 30
0.0
  0
SPLINE
  5
E0
330
2
100
AcDbEntity
  8
0
  6
Continuous
 62
     7
370
    13
100
AcDbSpline
210
0.0
220
0.0
230
1.0
 70
     8
 71
     3
 72
    12
 73
     8
 74
     0
 42
0.000000001
 43
0.0000000001
 40
0.0
 40
0.0
 40
0.0
 40
0.0
 40
0.3787160845908985
 40
0.5932003720179649
 40
0.7778316253865329
 40
0.9338651419654592
 40
1.0
 40
1.0
 40
1.0
 40
1.0
 10
7.16280429543619
 20
7.018642443090474
 30
0.0
 10
7.165364309887362
 20
7.019634102546953
 30
0.0
 10
7.169374177929929
 20
7.021187384233249
 30
0.0
 10
7.175110858416225
 20
7.02225632990765
 30
0.0
 10
7.179316562501442
 20
7.022797913135924
 30
0.0
 10
7.18246200372013
 20
7.02306445643304
 30
0.0
 10
7.184234657964582
 20
7.023100574382777
 30
0.0
 10
7.197002796226962
 20
7.023091464198625
 30
0.0
  0
SPLINE
  5
E1
330
2
100
AcDbEntity
  8
0
  6
Continuous
 62
     7
370
    13
100
AcDbSpline
210
0.0
220
0.0
230
1.0
 70
     8
 71
     3
 72
     8
 73
     4
 74
     0
 42
0.000000001
 43
0.0000000001
 40
0.0
 40
0.0
 40
0.0
 40
0.0
 40
1.0
 40
1.0
 40
1.0
 40
1.0
 10
8.281017899389219
 20
6.069357181367619
 30
0.0
 10
8.281082116477573
 20
6.069277261117871
 30
0.0
 10
8.281142156363559
 20
6.069195970786676
 30
0.0
 10
8.281197909341559
 20
6.069113466108393
 30
0.0
  0
LINE
  5
E2
330
2
100
AcDbEntity
  8
0
  6
Continuous
 62
     7
370
    13
100
AcDbLine
 10
8.281181878852322
 20
6.069109235451472
 30
0.0
 11
8.282665321480321
 21
6.066769701823472
 31
0.0
  0
SPLINE
  5
E3
330
2
100
AcDbEntity
  8
0
  6
Continuous
 62
     7
370
    13
100
AcDbSpline
210
0.0
220
0.0
230
1.0
 70
     8
 71
     3
 72
    15
 73
    11
 74
     0
 42
0.000000001
 43
0.0000000001
 40
0.0
 40
0.0
 40
0.0
 40
0.0
 40
0.1892123313547852
 40
0.3610917209108901
 40
0.5147530591088221
 40
0.6496800576885338
 40
0.7656418057999664
 40
0.8626086467676945
 40
0.9406758792388195
 40
1.0
 40
1.0
 40
1.0
 40
1.0
 10
8.418284134205926
 20
5.831169570462168
 30
0.0
 10
8.418349987584242
 20
5.831020583385046
 30
0.0
 10
8.418475661791282
 20
5.830736257307107
 30
0.0
 10
8.418573530558857
 20
5.830322926595729
 30
0.0
 10
8.418612948143636
 20
5.82995020242526
 30
0.0
 10
8.418605853068038
 20
5.829620995326257
 30
0.0
 10
8.418569562940946
 20
5.82933750547229
 30
0.0
 10
8.418517290637346
 20
5.829100880534763
 30
0.0
 10
8.41846176371057
 20
5.828910955907472
 30
0.0
 10
8.418421067370314
 20
5.828801222309717
 30
0.0
 10
8.418403495124701
 20
5.828753840512742
 30
0.0
  0
LINE
  5
E4
330
2
100
AcDbEntity
  8
0
  6
Continuous
 62
     7
370
    13
100
AcDbLine
 10
8.418406454220322
 20
5.828753596823473
 30
0.0
 11
8.417525037176321
 21
5.826437858775472
 31
0.0
  0
SPLINE
  5
E5
330
2
100
AcDbEntity
  8
0
  6
Continuous
 62
     7
370
    13
100
AcDbSpline
210
0.0
220
0.0
230
1.0
 70
     8
 71
     3
 72
     9
 73
     5
 74
     0
 42
0.000000001
 43
0.0000000001
 40
0.0
 40
0.0
 40
0.0
 40
0.0
 40
0.1642905403313851
 40
1.0
 40
1.0
 40
1.0
 40
1.0
 10
7.197002796226962
 20
7.023091464198625
 30
0.0
 10
7.197088459043538
 20
7.023110893793361
 30
0.0
 10
7.197609869566662
 20
7.023229157417649
 30
0.0
 10
7.198130571924322
 20
7.023113806406565
 30
0.0
 10
7.19856572781029
 20
7.023017406475418
 30
0.0
  0
SPLINE
  5
E6
330
2
100
AcDbEntity
  8
0
  6
Continuous
 62
     7
370
    13
100
AcDbSpline
210
0.0
220
0.0
230
1.0
 70
     8
 71
     3
 72
    14
 73
    10
 74
     0
 42
0.000000001
 43
0.0000000001
 40
0.0
 40
0.0
 40
0.0
 40
0.0
 40
0.0211393997348074
 40
0.1955044082755925
 40
0.3415951936124714
 40
0.4881739953460992
 40
0.6252478342065018
 40
0.7805651742717675
 40
1.0
 40
1.0
 40
1.0
 40
1.0
 10
7.198565685663442
 20
7.023017430806273
 30
0.0
 10
7.198816936400834
 20
7.022999126170413
 30
0.0
 10
7.201140589265097
 20
7.022829838629261
 30
0.0
 10
7.205244986593509
 20
7.022419023915556
 30
0.0
 10
7.210884097508758
 20
7.021647320707174
 30
0.0
 10
7.216135085001017
 20
7.020808985109569
 30
0.0
 10
7.221535174117338
 20
7.019837364520601
 30
0.0
 10
7.227872062912394
 20
7.018588362096702
 30
0.0
 10
7.232561969570749
 20
7.017433356433162
 30
0.0
 10
7.235308128083481
 20
7.016757046888802
 30
0.0
  0
LWPOLYLINE
  5
E7
330
2
100
AcDbEntity
  8
0
  6
Continuous
 62
     7
370
    13
100
AcDbPolyline
 90
        3
 70
   128
 43
0.0
 10
7.559764978192323
 20
6.872508672735472
 10
7.559612322308323
 20
6.872599692351473
 10
7.559459539980322
 20
6.872690736295473
  0
SPLINE
  5
E8
330
2
100
AcDbEntity
  8
0
  6
Continuous
 62
     7
370
    13
100
AcDbSpline
210
0.0
220
0.0
230
1.0
 70
     8
 71
     3
 72
    27
 73
    23
 74
     0
 42
0.000000001
 43
0.0000000001
 40
0.0
 40
0.0
 40
0.0
 40
0.0
 40
0.0393920805749562
 40
0.0765662105051082
 40
0.1114224952578703
 40
0.1439302909432001
 40
0.1741451621254016
 40
0.2021082149694201
 40
0.2278152183932895
 40
0.2512458614132739
 40
0.2723869588672872
 40
0.2912319724991834
 40
0.3077791512840519
 40
0.4312123299228106
 40
0.5551090833678721
 40
0.6147210208238578
 40
0.6667722431488028
 40
0.7875512966909543
 40
0.8404795560317726
 40
0.8894538532928104
 40
0.9431327702851246
 40
1.0
 40
1.0
 40
1.0
 40
1.0
 10
7.920222111163795
 20
6.613528606941802
 30
0.0
 10
7.915858521415733
 20
6.61724806133785
 30
0.0
 10
7.907377031574849
 20
6.624477548181282
 30
0.0
 10
7.894958494595389
 20
6.634925081070868
 30
0.0
 10
7.883248115413525
 20
6.644673568158113
 30
0.0
 10
7.872255035982153
 20
6.653718054432982
 30
0.0
 10
7.861983980557354
 20
6.662077490370165
 30
0.0
 10
7.85243477273765
 20
6.669770477663222
 30
0.0
 10
7.843616216718865
 20
6.676807952173852
 30
0.0
 10
7.83554267284679
 20
6.683194780629133
 30
0.0
 10
7.828228129318418
 20
6.68893491042793
 30
0.0
 10
7.82168400364331
 20
6.694033371379777
 30
0.0
 10
7.803240819294039
 20
6.708310440909444
 30
0.0
 10
7.772227479796374
 20
6.731719563053925
 30
0.0
 10
7.735344982385589
 20
6.758310696759492
 30
0.0
 10
7.706540692039279
 20
6.778331716828297
 30
0.0
 10
7.677840422961981
 20
6.797852237141961
 30
0.0
 10
7.649579257978805
 20
6.81643769445206
 30
0.0
 10
7.621418436102045
 20
6.834437132490561
 30
0.0
 10
7.601645388108449
 20
6.846869939171893
 30
0.0
 10
7.581285954523139
 20
6.85947700375603
 30
0.0
 10
7.567075274974119
 20
6.868082049403133
 30
0.0
 10
7.559765006797523
 20
6.872508663284277
 30
0.0
  0
SPLINE
  5
E9
330
2
100
AcDbEntity
  8
0
  6
Continuous
 62
     7
370
    13
100
AcDbSpline
210
0.0
220
0.0
230
1.0
 70
     8
 71
     3
 72
     8
 73
     4
 74
     0
 42
0.000000001
 43
0.0000000001
 40
0.0
 40
0.0
 40
0.0
 40
0.0
 40
1.0
 40
1.0
 40
1.0
 40
1.0
 10
7.937026524558746
 20
6.59907116536183
 30
0.0
 10
7.931438680384419
 20
6.603913585255895
 30
0.0
 10
7.92584212552855
 20
6.608727596845242
 30
0.0
 10
7.920222111163795
 20
6.613528606941802
 30
0.0
  0
SPLINE
  5
EA
330
2
100
AcDbEntity
  8
0
  6
Continuous
 62
     7
370
    13
100
AcDbSpline
210
0.0
220
0.0
230
1.0
 70
     8
 71
     3
 72
    11
 73
     7
 74
     0
 42
0.000000001
 43
0.0000000001
 40
0.0
 40
0.0
 40
0.0
 40
0.0
 40
0.2574832810746419
 40
0.5069865494944769
 40
0.7557571767537407
 40
1.0
 40
1.0
 40
1.0
 40
1.0
 10
7.953650606073921
 20
6.584495052941496
 30
0.0
 10
7.952220778475014
 20
6.585768200483117
 30
0.0
 10
7.949405436998402
 20
6.588275037728745
 30
0.0
 10
7.945196364474382
 20
6.591978249569987
 30
0.0
 10
7.941072439386735
 20
6.595579322180936
 30
0.0
 10
7.938366880274102
 20
6.597914365932378
 30
0.0
 10
7.937026524558746
 20
6.59907116536183
 30
0.0
  0
SPLINE
  5
EB
330
2
100
AcDbEntity
  8
0
  6
Continuous
 62
     7
370
    13
100
AcDbSpline
210
0.0
220
0.0
230
1.0
 70
     8
 71
     3
 72
    10
 73
     6
 74
     0
 42
0.000000001
 43
0.0000000001
 40
0.0
 40
0.0
 40
0.0
 40
0.0
 40
0.3771207330617191
 40
0.7104801453491515
 40
1.0
 40
1.0
 40
1.0
 40
1.0
 10
7.965852689308098
 20
6.573369373211285
 30
0.0
 10
7.96432454314273
 20
6.574785927721066
 30
0.0
 10
7.961445577828706
 20
6.577454658887965
 30
0.0
 10
7.957370504225819
 20
6.581159515659382
 30
0.0
 10
7.954830993414034
 20
6.583436629882715
 30
0.0
 10
7.953650606073921
 20
6.584495052941493
 30
0.0
  0
SPLINE
  5
EC
330
2
100
AcDbEntity
  8
0
  6
Continuous
 62
     7
370
    13
100
AcDbSpline
210
0.0
220
0.0
230
1.0
 70
     8
 71
     3
 72
    10
 73
     6
 74
     0
 42
0.000000001
 43
0.0000000001
 40
0.0
 40
0.0
 40
0.0
 40
0.0
 40
0.5
 40
0.5
 40
1.0
 40
1.0
 40
1.0
 40
1.0
 10
7.435267278928494
 20
6.942016112003132
 30
0.0
 10
7.434986772588034
 20
6.942561502298945
 30
0.0
 10
7.434609366060787
 20
6.943030143303094
 30
0.0
 10
7.433703688656137
 20
6.943727725141053
 30
0.0
 10
7.433176562250285
 20
6.943955727725949
 30
0.0
 10
7.432618540139506
 20
6.944054577780345
 30
0.0
  0
SPLINE
  5
ED
330
2
100
AcDbEntity
  8
0
  6
Continuous
 62
     7
370
    13
100
AcDbSpline
210
0.0
220
0.0
230
1.0
 70
     8
 71
     3
 72
    13
 73
     9
 74
     0
 42
0.000000001
 43
0.0000000001
 40
0.0
 40
0.0
 40
0.0
 40
0.0
 40
0.1404854508651692
 40
0.3070270772065394
 40
0.4996748611676713
 40
0.7497876482666508
 40
0.8141173120891298
 40
1.0
 40
1.0
 40
1.0
 40
1.0
 10
7.432618540139506
 20
6.944054577780345
 30
0.0
 10
7.430419736719114
 20
6.94518007453871
 30
0.0
 10
7.425614312503594
 20
6.947639816654334
 30
0.0
 10
7.417744746897202
 20
6.951615565783733
 30
0.0
 10
7.408114029087322
 20
6.956393013500882
 30
0.0
 10
7.400061163189382
 20
6.960256758969
 30
0.0
 10
7.392125514673031
 20
6.963995404945293
 30
0.0
 10
7.388161371170173
 20
6.965825882381365
 30
0.0
 10
7.385216410042273
 20
6.967185743569757
 30
0.0
  0
SPLINE
  5
EE
330
2
100
AcDbEntity
  8
0
  6
Continuous
 62
     7
370
    13
100
AcDbSpline
210
0.0
220
0.0
230
1.0
 70
     8
 71
     3
 72
     9
 73
     5
 74
     0
 42
0.000000001
 43
0.0000000001
 40
0.0
 40
0.0
 40
0.0
 40
0.0
 40
0.452430565821648
 40
1.0
 40
1.0
 40
1.0
 40
1.0
 10
7.385216410042273
 20
6.967185743569757
 30
0.0
 10
7.384662911696265
 20
6.967439059726897
 30
0.0
 10
7.383439523207906
 20
6.967998960353153
 30
0.0
 10
7.382242400261285
 20
6.968549509698881
 30
0.0
 10
7.381586892326762
 20
6.96885097369261
 30
0.0
  0
LINE
  5
EF
330
2
100
AcDbEntity
  8
0
  6
Continuous
 62
     7
370
    13
100
AcDbLine
 10
7.556780601996322
 20
6.874356175075472
 30
0.0
 11
7.558283642908323
 21
6.873841581775472
 31
0.0
  0
SPLINE
  5
F0
330
2
100
AcDbEntity
  8
0
  6
Continuous
 62
     7
370
    13
100
AcDbSpline
210
0.0
220
0.0
230
1.0
 70
     8
 71
     3
 72
    10
 73
     6
 74
     0
 42
0.000000001
 43
0.0000000001
 40
0.0
 40
0.0
 40
0.0
 40
0.0
 40
0.0265036137155448
 40
0.5107450622980308
 40
1.0
 40
1.0
 40
1.0
 40
1.0
 10
7.556780559848871
 20
6.874356077740173
 30
0.0
 10
7.555725239438498
 20
6.874998943141445
 30
0.0
 10
7.535388401808614
 20
6.88738745487219
 30
0.0
 10
7.495183968233309
 20
6.91108944119586
 30
0.0
 10
7.454712239749925
 20
6.932402794113588
 30
0.0
 10
7.434372161166374
 20
6.943114352267164
 30
0.0
  0
LINE
  5
F1
330
2
100
AcDbEntity
  8
0
  6
Continuous
 62
     7
370
    13
100
AcDbLine
 10
7.557118493280322
 20
6.874152335375473
 30
0.0
 11
7.559454566652322
 21
6.872695719667472
 31
0.0
  0
SPLINE
  5
F2
330
2
100
AcDbEntity
  8
0
  6
Continuous
 62
     7
370
    13
100
AcDbSpline
210
0.0
220
0.0
230
1.0
 70
     8
 71
     3
 72
     8
 73
     4
 74
     0
 42
0.000000001
 43
0.0000000001
 40
0.0
 40
0.0
 40
0.0
 40
0.0
 40
1.0
 40
1.0
 40
1.0
 40
1.0
 10
7.970252134472074
 20
6.569274372697931
 30
0.0
 10
7.968786828369745
 20
6.570640994305485
 30
0.0
 10
7.967320175132417
 20
6.572006085376979
 30
0.0
 10
7.96585257847993
 20
6.573369269755561
 30
0.0
  0
LINE
  5
F3
330
2
100
AcDbEntity
  8
0
  6
Continuous
 62
     7
370
    13
100
AcDbLine
 10
8.186691004716321
 20
6.305881100699473
 30
0.0
 11
8.187422463272321
 21
6.304842831451472
 31
0.0
  0
SPLINE
  5
F4
330
2
100
AcDbEntity
  8
0
  6
Continuous
 62
     7
370
    13
100
AcDbSpline
210
0.0
220
0.0
230
1.0
 70
     8
 71
     3
 72
    22
 73
    18
 74
     0
 42
0.000000001
 43
0.0000000001
 40
0.0
 40
0.0
 40
0.0
 40
0.0
 40
0.0426832560939107
 40
0.0838989149550719
 40
0.1236129869105722
 40
0.1616661699197873
 40
0.1979565647919772
 40
0.2328338448932408
 40
0.2664302592367883
 40
0.3264497503211455
 40
0.399636379583208
 40
0.5469635049369331
 40
0.6996103868227293
 40
0.8197267776255753
 40
0.9098525952463319
 40
0.9549382473171688
 40
1.0
 40
1.0
 40
1.0
 40
1.0
 10
8.328564743377649
 20
6.12935366019478
 30
0.0
 10
8.327389486872798
 20
6.131537778358275
 30
0.0
 10
8.325079383226205
 20
6.135830917186478
 30
0.0
 10
8.321643410104289
 20
6.142091935560238
 30
0.0
 10
8.318316206672506
 20
6.148074757111372
 30
0.0
 10
8.315106895301493
 20
6.153766705605305
 30
0.0
 10
8.312015866084781
 20
6.159179451305468
 30
0.0
 10
8.309034206838322
 20
6.164335439423384
 30
0.0
 10
8.305358458727457
 20
6.170618331145726
 30
0.0
 10
8.300558091053666
 20
6.178702320935222
 30
0.0
 10
8.292407537387191
 20
6.192127325842291
 30
0.0
 10
8.281414247644665
 20
6.209614508371059
 30
0.0
 10
8.268818131634786
 20
6.228761166255431
 30
0.0
 10
8.257788430485605
 20
6.244904419076217
 30
0.0
 10
8.24994623942889
 20
6.256056666127637
 30
0.0
 10
8.244380948831294
 20
6.263846515631325
 30
0.0
 10
8.241585247128027
 20
6.267708011888855
 30
0.0
 10
8.240187766866981
 20
6.269638248148211
 30
0.0
  0
SPLINE
  5
F5
330
2
100
AcDbEntity
  8
0
  6
Continuous
 62
     7
370
    13
100
AcDbSpline
210
0.0
220
0.0
230
1.0
 70
     8
 71
     3
 72
    28
 73
    24
 74
     0
 42
0.000000001
 43
0.0000000001
 40
0.0
 40
0.0
 40
0.0
 40
0.0
 40
0.0161720659919691
 40
0.0333960847291929
 40
0.0517073644756753
 40
0.0711415732097014
 40
0.1094059000474596
 40
0.1501990705608543
 40
0.1933101705441183
 40
0.2403535754095231
 40
0.2735322884770345
 40
0.3452899894963209
 40
0.4045222995579947
 40
0.4691577459549378
 40
0.5398007176157768
 40
0.6170561085834433
 40
0.70139289445159
 40
0.7528598148240252
 40
0.7930789214606425
 40
0.8925443891611381
 40
0.9452780740719928
 40
0.9726509467642705
 40
1.0
 40
1.0
 40
1.0
 40
1.0
 10
8.413409173212389
 20
5.887276923505043
 30
0.0
 10
8.413219127836537
 20
5.88868063111632
 30
0.0
 10
8.41282667510493
 20
5.891579354034253
 30
0.0
 10
8.412172716681091
 20
5.896076614432963
 30
0.0
 10
8.411437423678085
 20
5.90086417987306
 30
0.0
 10
8.410356653652749
 20
5.907492738142668
 30
0.0
 10
8.408829860419425
 20
5.916094165888107
 30
0.0
 10
8.406712878451699
 20
5.926767530966135
 30
0.0
 10
8.404186031249198
 20
5.938187441543165
 30
0.0
 10
8.401552044503334
 20
5.948891180886335
 30
0.0
 10
8.398057937503223
 20
5.961992028260251
 30
0.0
 10
8.39395602024547
 20
5.976005821659981
 30
0.0
 10
8.388690775016421
 20
5.99248336420741
 30
0.0
 10
8.383125425481413
 20
6.008653467179569
 30
0.0
 10
8.376669155267821
 20
6.025992973704781
 30
0.0
 10
8.369220193924462
 20
6.044490023302435
 30
0.0
 10
8.362069395438298
 20
6.061002438427181
 30
0.0
 10
8.355980060201178
 20
6.074356121576702
 30
0.0
 10
8.349249284606774
 20
6.088669795768262
 30
0.0
 10
8.342304435330126
 20
6.102832073429701
 30
0.0
 10
8.335671096314486
 20
6.115823099649637
 30
0.0
 10
8.331658647529701
 20
6.123521353784481
 30
0.0
 10
8.329595745447115
 20
6.127410122294687
 30
0.0
 10
8.328564743377649
 20
6.12935366019478
 30
0.0
  0
SPLINE
  5
F6
330
2
100
AcDbEntity
  8
0
  6
Continuous
 62
     7
370
    13
100
AcDbSpline
210
0.0
220
0.0
230
1.0
 70
     8
 71
     3
 72
    10
 73
     6
 74
     0
 42
0.000000001
 43
0.0000000001
 40
0.0
 40
0.0
 40
0.0
 40
0.0
 40
0.3127500662999099
 40
0.6465121320391372
 40
1.0
 40
1.0
 40
1.0
 40
1.0
 10
8.415143749237035
 20
5.872853769948431
 30
0.0
 10
8.414979739626701
 20
5.874352493908211
 30
0.0
 10
8.414640701480022
 20
5.877450633051835
 30
0.0
 10
8.414065134099242
 20
5.882258734140923
 30
0.0
 10
8.413631971130358
 20
5.885572489346396
 30
0.0
 10
8.413409173212389
 20
5.887276923505043
 30
0.0
  0
SPLINE
  5
F7
330
2
100
AcDbEntity
  8
0
  6
Continuous
 62
     7
370
    13
100
AcDbSpline
210
0.0
220
0.0
230
1.0
 70
     8
 71
     3
 72
    12
 73
     8
 74
     0
 42
0.000000001
 43
0.0000000001
 40
0.0
 40
0.0
 40
0.0
 40
0.0
 40
0.1492925147562333
 40
0.3161093868486193
 40
0.5004843697719591
 40
0.7347417026877813
 40
1.0
 40
1.0
 40
1.0
 40
1.0
 10
8.417536507245021
 20
5.844325841858458
 30
0.0
 10
8.417445406339991
 20
5.845734249939911
 30
0.0
 10
8.417252510860421
 20
5.848716388835405
 30
0.0
 10
8.416910700281695
 20
5.85345360422526
 30
0.0
 10
8.416470737936791
 20
5.859011144618122
 30
0.0
 10
8.415897215273842
 20
5.865528623009337
 30
0.0
 10
8.415405085444781
 20
5.870313076634166
 30
0.0
 10
8.415143749237035
 20
5.872853769948431
 30
0.0
  0
SPLINE
  5
F8
330
2
100
AcDbEntity
  8
0
  6
Continuous
 62
     7
370
    13
100
AcDbSpline
210
0.0
220
0.0
230
1.0
 70
     8
 71
     3
 72
     9
 73
     5
 74
     0
 42
0.000000001
 43
0.0000000001
 40
0.0
 40
0.0
 40
0.0
 40
0.0
 40
0.4763143750798087
 40
1.0
 40
1.0
 40
1.0
 40
1.0
 10
8.418078021099843
 20
5.834972496976933
 30
0.0
 10
8.417996378821642
 20
5.836454982587378
 30
0.0
 10
8.417824974634671
 20
5.839567392558619
 30
0.0
 10
8.417635652516686
 20
5.842690378837425
 30
0.0
 10
8.417536507245021
 20
5.844325841858458
 30
0.0
  0
SPLINE
  5
F9
330
2
100
AcDbEntity
  8
0
  6
Continuous
 62
     7
370
    13
100
AcDbSpline
210
0.0
220
0.0
230
1.0
 70
     8
 71
     3
 72
    24
 73
    20
 74
     0
 42
0.000000001
 43
0.0000000001
 40
0.0
 40
0.0
 40
0.0
 40
0.0
 40
0.0380278789343681
 40
0.0775117288740969
 40
0.1184588624589902
 40
0.1608669195625667
 40
0.2047282823958371
 40
0.2500327493045775
 40
0.2967672938391536
 40
0.3449158159562412
 40
0.3944588888207601
 40
0.4453735025680359
 40
0.4976328066261235
 40
0.5926919150019704
 40
0.6828042136100251
 40
0.7683644553265886
 40
0.8496518371311426
 40
0.926837403654722
 40
1.0
 40
1.0
 40
1.0
 40
1.0
 10
8.245338620799154
 20
6.247364875724491
 30
0.0
 10
8.246093446897786
 20
6.245242608048599
 30
0.0
 10
8.247631999074338
 20
6.24091681756799
 30
0.0
 10
8.249888737823543
 20
6.234257245786036
 30
0.0
 10
8.252154050800358
 20
6.227313061939081
 30
0.0
 10
8.254412908002414
 20
6.220077287582601
 30
0.0
 10
8.25665865421997
 20
6.21254864749209
 30
0.0
 10
8.258881621981538
 20
6.204725250300754
 30
0.0
 10
8.261072438931197
 20
6.196606147402627
 30
0.0
 10
8.263221113165966
 20
6.188190903552185
 30
0.0
 10
8.265317268226713
 20
6.179479768440995
 30
0.0
 10
8.267350161668494
 20
6.170473693603337
 30
0.0
 10
8.269826632243058
 20
6.158713074802848
 30
0.0
 10
8.272515829106819
 20
6.144509444176193
 30
0.0
 10
8.275169844891749
 20
6.128147879950085
 30
0.0
 10
8.277307849325998
 20
6.112469938189363
 30
0.0
 10
8.278983956460285
 20
6.097448635756167
 30
0.0
 10
8.280282663717754
 20
6.083085385977414
 30
0.0
 10
8.280887514294938
 20
6.073683890176258
 30
0.0
 10
8.281181847380111
 20
6.069108923450915
 30
0.0
  0
LINE
  5
FA
330
2
100
AcDbEntity
  8
0
  6
Continuous
 62
     7
370
    13
100
AcDbLine
 10
8.232276741036322
 20
6.280449413415473
 30
0.0
 11
8.245328524204323
 21
6.247359403743473
 31
0.0
  0
ARC
  5
FB
330
2
100
AcDbEntity
  8
0
  6
Continuous
 62
     7
370
    13
100
AcDbCircle
 10
8.326861699176323
 20
6.129247826659472
 30
0.0
 40
0.0017063429350187
100
AcDbArc
 50
3.556009249999951
 51
53.75675795110001
  0
LWPOLYLINE
  5
FC
330
2
100
AcDbEntity
  8
0
  6
Continuous
 62
     7
370
    13
100
AcDbPolyline
 90
        3
 70
   128
 43
0.0
 10
8.210027630440322
 20
6.291056272871473
 10
8.209721517880318
 20
6.291213192067472
 10
8.208790957612322
 20
6.291462326519473
  0
LINE
  5
FD
330
2
100
AcDbEntity
  8
0
  6
Continuous
 62
     7
370
    13
100
AcDbLine
 10
8.413409102392321
 20
5.887276968735474
 30
0.0
 11
8.413697133956322
 21
5.886910900611473
 31
0.0
  0
SPLINE
  5
FE
330
2
100
AcDbEntity
  8
0
  6
Continuous
 62
     7
370
    13
100
AcDbSpline
210
0.0
220
0.0
230
1.0
 70
     8
 71
     3
 72
    11
 73
     7
 74
     0
 42
0.000000001
 43
0.0000000001
 40
0.0
 40
0.0
 40
0.0
 40
0.0
 40
0.2485512187335527
 40
0.4975901583125025
 40
0.7485962410356128
 40
1.0
 40
1.0
 40
1.0
 40
1.0
 10
8.10679254964379
 20
6.137304131903958
 30
0.0
 10
8.108078999062186
 20
6.149106354316292
 30
0.0
 10
8.110654422240646
 20
6.172733958109654
 30
0.0
 10
8.112396590579393
 20
6.207877085379248
 30
0.0
 10
8.111209098780927
 20
6.242369789590041
 30
0.0
 10
8.109653713142574
 20
6.265180986774444
 30
0.0
 10
8.108875404750349
 20
6.276595613325895
 30
0.0
  0
SPLINE
  5
FF
330
2
100
AcDbEntity
  8
0
  6
Continuous
 62
     7
370
    13
100
AcDbSpline
210
0.0
220
0.0
230
1.0
 70
     8
 71
     3
 72
    21
 73
    17
 74
     0
 42
0.000000001
 43
0.0000000001
 40
0.0
 40
0.0
 40
0.0
 40
0.0
 40
0.1021890657635612
 40
0.2370926327739487
 40
0.3216129410357563
 40
0.3804911188432936
 40
0.4121283372349308
 40
0.4534137202737476
 40
0.4946312459490576
 40
0.5336998427523411
 40
0.6097964424954319
 40
0.6832020415476312
 40
0.7460432145087356
 40
0.8350126376560782
 40
0.9289246600737588
 40
1.0
 40
1.0
 40
1.0
 40
1.0
 10
8.13559844546129
 20
5.799759739904402
 30
0.0
 10
8.133703668929047
 20
5.80184829357948
 30
0.0
 10
8.129307527784286
 20
5.80669402424365
 30
0.0
 10
8.122210945144853
 20
5.810361603836213
 30
0.0
 10
8.115691188417121
 20
5.811663198094662
 30
0.0
 10
8.111450669167862
 20
5.811648616680255
 30
0.0
 10
8.108215130996402
 20
5.811232268758233
 30
0.0
 10
8.105388742929077
 20
5.810598597030974
 30
0.0
 10
8.102360821484301
 20
5.809595941153036
 30
0.0
 10
8.098457337554126
 20
5.807912339563234
 30
0.0
 10
8.093751878693606
 20
5.805209842784307
 30
0.0
 10
8.088520816164757
 20
5.80122586228996
 30
0.0
 10
8.083088660869645
 20
5.796152929972121
 30
0.0
 10
8.07736265433953
 20
5.789628884748584
 30
0.0
 10
8.07173524873731
 20
5.781889738084935
 30
0.0
 10
8.068395396548659
 20
5.776236190334191
 30
0.0
 10
8.066956612836751
 20
5.773800683623466
 30
0.0
  0
SPLINE
  5
100
330
2
100
AcDbEntity
  8
0
  6
Continuous
 62
     7
370
    13
100
AcDbSpline
210
0.0
220
0.0
230
1.0
 70
     8
 71
     3
 72
    17
 73
    13
 74
     0
 42
0.000000001
 43
0.0000000001
 40
0.0
 40
0.0
 40
0.0
 40
0.0
 40
0.1270764094027291
 40
0.2170054150299176
 40
0.2421766521107629
 40
0.2497936347221655
 40
0.2540947681666346
 40
0.508059836134791
 40
0.7618675493727598
 40
0.9237475142066584
 40
0.9725983721554099
 40
1.0
 40
1.0
 40
1.0
 40
1.0
 10
8.066956612836751
 20
5.773800659288654
 30
0.0
 10
8.066920507543381
 20
5.773736834590017
 30
0.0
 10
8.066858851377542
 20
5.773627842643506
 30
0.0
 10
8.066790450033185
 20
5.773505774355079
 30
0.0
 10
8.066755674617258
 20
5.773443982591191
 30
0.0
 10
8.066745051182227
 20
5.773425431568972
 30
0.0
 10
8.066671578864973
 20
5.773289691084007
 30
0.0
 10
8.066521669673118
 20
5.77303709587503
 30
0.0
 10
8.066331584452639
 20
5.772700021535365
 30
0.0
 10
8.066201226320595
 20
5.772464414943497
 30
0.0
 10
8.066133618173338
 20
5.772344337873343
 30
0.0
 10
8.06611200260953
 20
5.772305898787006
 30
0.0
 10
8.066104234972465
 20
5.772292085551574
 30
0.0
  0
LINE
  5
101
330
2
100
AcDbEntity
  8
0
  6
Continuous
 62
     7
370
    13
100
AcDbLine
 10
8.066104234972323
 20
5.772292085551473
 30
0.0
 11
8.065654612392322
 21
5.771528720595473
 31
0.0
  0
SPLINE
  5
102
330
2
100
AcDbEntity
  8
0
  6
Continuous
 62
     7
370
    13
100
AcDbSpline
210
0.0
220
0.0
230
1.0
 70
     8
 71
     3
 72
     9
 73
     5
 74
     0
 42
0.000000001
 43
0.0000000001
 40
0.0
 40
0.0
 40
0.0
 40
0.0
 40
0.3540346605016749
 40
0.4329397574353177
 40
0.4329397574353177
 40
0.4329397574353177
 40
0.4329397574353177
 10
8.105108740898931
 20
6.324964345040969
 30
0.0
 10
8.104573672344367
 20
6.327194887457387
 30
0.0
 10
8.103919350957029
 20
6.329922559633171
 30
0.0
 10
8.10249653927711
 20
6.33221840591935
 30
0.0
 10
8.102213097502625
 20
6.332619841898058
 30
0.0
  0
SPLINE
  5
103
330
2
100
AcDbEntity
  8
0
  6
Continuous
 62
     7
370
    13
100
AcDbSpline
210
0.0
220
0.0
230
1.0
 70
     8
 71
     3
 72
    10
 73
     6
 74
     0
 42
0.000000001
 43
0.0000000001
 40
0.0
 40
0.0
 40
0.0
 40
0.0
 40
0.2787115189604983
 40
0.5574234897303772
 40
1.0
 40
1.0
 40
1.0
 40
1.0
 10
8.108875573337742
 20
6.276595722816733
 30
0.0
 10
8.10865147739355
 20
6.281130247918691
 30
0.0
 10
8.108203285141893
 20
6.290199305473365
 30
0.0
 10
8.107045411413213
 20
6.306358323736981
 30
0.0
 10
8.105845187895926
 20
6.317889136111915
 30
0.0
 10
8.105108740898931
 20
6.324964345040969
 30
0.0
  0
LINE
  5
104
330
2
100
AcDbEntity
  8
0
  6
Continuous
 62
     7
370
    13
100
AcDbLine
 10
7.987524723376322
 20
5.831544615215472
 30
0.0
 11
7.999191097488322
 21
5.826750730723473
 31
0.0
  0
LINE
  5
105
330
2
100
AcDbEntity
  8
0
  6
Continuous
 62
     7
370
    13
100
AcDbLine
 10
7.999191097488322
 20
5.826750730723473
 30
0.0
 11
8.052230335380322
 21
5.764409422527473
 31
0.0
  0
LINE
  5
106
330
2
100
AcDbEntity
  8
0
  6
Continuous
 62
     7
370
    13
100
AcDbLine
 10
8.064802824584322
 20
5.770032971279473
 30
0.0
 11
8.064341232300321
 21
5.769302582003472
 31
0.0
  0
SPLINE
  5
107
330
2
100
AcDbEntity
  8
0
  6
Continuous
 62
     7
370
    13
100
AcDbSpline
210
0.0
220
0.0
230
1.0
 70
     8
 71
     3
 72
    13
 73
     9
 74
     0
 42
0.000000001
 43
0.0000000001
 40
0.0
 40
0.0
 40
0.0
 40
0.0
 40
0.1500327371114424
 40
0.292979174974087
 40
0.428837038067825
 40
0.5576073662259021
 40
0.7928467296115832
 40
1.0
 40
1.0
 40
1.0
 40
1.0
 10
8.052230377526498
 20
5.764409568531734
 30
0.0
 10
8.052797443990053
 20
5.764233410668325
 30
0.0
 10
8.053904793411565
 20
5.76388941517454
 30
0.0
 10
8.055779553341299
 20
5.763914062596898
 30
0.0
 10
8.057622058647686
 20
5.764288868507462
 30
0.0
 10
8.05986629717699
 20
5.765177042249184
 30
0.0
 10
8.062334128445359
 20
5.766785776199014
 30
0.0
 10
8.063701126458111
 20
5.768499921946336
 30
0.0
 10
8.064341232299254
 20
5.76930258200523
 30
0.0
  0
SPLINE
  5
108
330
2
100
AcDbEntity
  8
0
  6
Continuous
 62
     7
370
    13
100
AcDbSpline
210
0.0
220
0.0
230
1.0
 70
     8
 71
     3
 72
    13
 73
     9
 74
     0
 42
0.000000001
 43
0.0000000001
 40
0.0
 40
0.0
 40
0.0
 40
0.0
 40
0.1504673835463115
 40
0.3018698435773296
 40
0.4522448921998201
 40
0.6030293955018056
 40
0.8008680350788491
 40
1.0
 40
1.0
 40
1.0
 40
1.0
 10
8.177689533691602
 20
5.62748869151492
 30
0.0
 10
8.18535795316453
 20
5.642576402174478
 30
0.0
 10
8.200742447346726
 20
5.672845585763617
 30
0.0
 10
8.219316311727386
 20
5.718908900615622
 30
0.0
 10
8.235626715513442
 20
5.765120496846585
 30
0.0
 10
8.250841008872153
 20
5.816127906968686
 30
0.0
 10
8.264526698688611
 20
5.872103228691962
 30
0.0
 10
8.269804979783078
 20
5.912129865929502
 30
0.0
 10
8.272452718617739
 20
5.932208387694036
 30
0.0
  0
LINE
  5
109
330
2
100
AcDbEntity
  8
0
  6
Continuous
 62
     7
370
    13
100
AcDbLine
 10
8.132560584912322
 20
5.686148957195473
 30
0.0
 11
8.177687384204322
 21
5.627489251291473
 31
0.0
  0
SPLINE
  5
10A
330
2
100
AcDbEntity
  8
0
  6
Continuous
 62
     7
370
    13
100
AcDbSpline
210
0.0
220
0.0
230
1.0
 70
     8
 71
     3
 72
    17
 73
    13
 74
     0
 42
0.000000001
 43
0.0000000001
 40
0.0
 40
0.0
 40
0.0
 40
0.0
 40
0.1269037894183112
 40
0.2167586780683648
 40
0.2418787372462341
 40
0.2495067211128533
 40
0.2538320533586996
 40
0.5077136517272561
 40
0.761619477648196
 40
0.9236499327528335
 40
0.9725362602247347
 40
1.0
 40
1.0
 40
1.0
 40
1.0
 10
8.132558814746682
 20
5.686149516967991
 30
0.0
 10
8.132595340884906
 20
5.686212318679758
 30
0.0
 10
8.132657729545423
 20
5.686319587470434
 30
0.0
 10
8.132728182707186
 20
5.686438463806007
 30
0.0
 10
8.132763091825825
 20
5.686499334356549
 30
0.0
 10
8.132773974997533
 20
5.686517533544927
 30
0.0
 10
8.132849671297366
 20
5.686649295786775
 30
0.0
 10
8.132997126122681
 20
5.686903617124508
 30
0.0
 10
8.133189220489533
 20
5.687235124969465
 30
0.0
 10
8.133324101914309
 20
5.687463129983163
 30
0.0
 10
8.13339338561167
 20
5.687580020098467
 30
0.0
 10
8.133415346940982
 20
5.687617734152405
 30
0.0
 10
8.133423246609643
 20
5.687631300204154
 30
0.0
  0
LINE
  5
10B
330
2
100
AcDbEntity
  8
0
  6
Continuous
 62
     7
370
    13
100
AcDbLine
 10
8.133423246608323
 20
5.687631300203474
 30
0.0
 11
8.133860056548321
 21
5.688410431555474
 31
0.0
  0
SPLINE
  5
10C
330
2
100
AcDbEntity
  8
0
  6
Continuous
 62
     7
370
    13
100
AcDbSpline
210
0.0
220
0.0
230
1.0
 70
     8
 71
     3
 72
    15
 73
    11
 74
     0
 42
0.000000001
 43
0.0000000001
 40
0.0
 40
0.0
 40
0.0
 40
0.0
 40
0.1229208965130892
 40
0.2479479740125247
 40
0.3727999200866367
 40
0.4977876571523251
 40
0.6239086053622244
 40
0.7483337727434809
 40
0.8740417959186356
 40
1.0
 40
1.0
 40
1.0
 40
1.0
 10
8.13559844546129
 20
5.799759739904402
 30
0.0
 10
8.137695085369534
 20
5.796789291959324
 30
0.0
 10
8.141924289941171
 20
5.790797499100786
 30
0.0
 10
8.146423479918329
 20
5.778809595304584
 30
0.0
 10
8.149341576150066
 20
5.765154286338072
 30
0.0
 10
8.150353723314731
 20
5.750131441211035
 30
0.0
 10
8.14943405073013
 20
5.734479582872
 30
0.0
 10
8.146513148132182
 20
5.718789534837764
 30
0.0
 10
8.141762964612693
 20
5.703561606898167
 30
0.0
 10
8.137071471200723
 20
5.694460568744576
 30
0.0
 10
8.134723392592505
 20
5.689905526005632
 30
0.0
  0
LINE
  5
10D
330
2
100
AcDbEntity
  8
0
  6
Continuous
 62
     7
370
    13
100
AcDbLine
 10
8.134723434740323
 20
5.689905526003473
 30
0.0
 11
8.134650984308322
 21
5.689996596267473
 31
0.0
  0
SPLINE
  5
10E
330
2
100
AcDbEntity
  8
0
  6
Continuous
 62
     7
370
    13
100
AcDbSpline
210
0.0
220
0.0
230
1.0
 70
     8
 71
     3
 72
    11
 73
     7
 74
     0
 42
0.000000001
 43
0.0000000001
 40
0.0
 40
0.0
 40
0.0
 40
0.0
 40
0.2485512207197227
 40
0.4975901461466203
 40
0.7485962570976086
 40
1.0
 40
1.0
 40
1.0
 40
1.0
 10
8.272458787763921
 20
5.932209542552424
 30
0.0
 10
8.273745237181563
 20
5.944011773844181
 30
0.0
 10
8.276320660274951
 20
5.967639394647315
 30
0.0
 10
8.278062828717798
 20
6.002782549013554
 30
0.0
 10
8.276875337061001
 20
6.037275279609986
 30
0.0
 10
8.275319951270345
 20
6.060086495015275
 30
0.0
 10
8.274541642870481
 20
6.071501129678702
 30
0.0
  0
LINE
  5
10F
330
2
100
AcDbEntity
  8
0
  6
Continuous
 62
     7
370
    13
100
AcDbLine
 10
8.132558814748321
 20
5.686149516967473
 30
0.0
 11
8.132490747588322
 21
5.686235039815472
 31
0.0
  0
LINE
  5
110
330
2
100
AcDbEntity
  8
0
  6
Continuous
 62
     7
370
    13
100
AcDbLine
 10
8.132560584912322
 20
5.686148957195473
 30
0.0
 11
8.132099498392323
 21
5.685417886655473
 31
0.0
  0
SPLINE
  5
111
330
2
100
AcDbEntity
  8
0
  6
Continuous
 62
     7
370
    13
100
AcDbSpline
210
0.0
220
0.0
230
1.0
 70
     8
 71
     3
 72
     9
 73
     5
 74
     0
 42
0.000000001
 43
0.0000000001
 40
0.0
 40
0.0
 40
0.0
 40
0.0
 40
0.502713564376106
 40
1.0
 40
1.0
 40
1.0
 40
1.0
 10
5.714213571781487
 20
6.038960127486848
 30
0.0
 10
5.71488592613813
 20
6.038483249157596
 30
0.0
 10
5.716223376336987
 20
6.037534640719221
 30
0.0
 10
5.71644162087011
 20
6.036318405447868
 30
0.0
 10
5.716550150916082
 20
6.035713588144895
 30
0.0
  0
SPLINE
  5
112
330
2
100
AcDbEntity
  8
0
  6
Continuous
 62
     7
370
    13
100
AcDbSpline
210
0.0
220
0.0
230
1.0
 70
     8
 71
     3
 72
    10
 73
     6
 74
     0
 42
0.000000001
 43
0.0000000001
 40
0.0
 40
0.0
 40
0.0
 40
0.0
 40
0.0908052267163618
 40
0.5371007893589268
 40
1.0
 40
1.0
 40
1.0
 40
1.0
 10
6.257994276464617
 20
5.641702681882308
 30
0.0
 10
6.255025325813448
 20
5.644306419069049
 30
0.0
 10
6.237464379203045
 20
5.659707176810128
 30
0.0
 10
6.206915477284532
 20
5.689179090845103
 30
0.0
 10
6.180394885072509
 20
5.716375131272974
 30
0.0
 10
6.166892430415471
 20
5.730221477530725
 30
0.0
  0
SPLINE
  5
113
330
2
100
AcDbEntity
  8
0
  6
Continuous
 62
     7
370
    13
100
AcDbSpline
210
0.0
220
0.0
230
1.0
 70
     8
 71
     3
 72
    88
 73
    84
 74
     0
 42
0.000000001
 43
0.0000000001
 40
0.0
 40
0.0
 40
0.0
 40
0.0
 40
0.0069126667322945
 40
0.0151277874893433
 40
0.0234388255533963
 40
0.0317482575521987
 40
0.0430815672959842
 40
0.0524811781555424
 40
0.0574217032692349
 40
0.0612520490227097
 40
0.0639922981319232
 40
0.0699471290554479
 40
0.0761496510830142
 40
0.0826762076954914
 40
0.0894322960175659
 40
0.096398723973748
 40
0.1087959417149984
 40
0.1180619089385199
 40
0.1241988134274408
 40
0.1260938965397486
 40
0.1272065385951539
 40
0.1281736027638009
 40
0.1361006688611465
 40
0.1598602381657944
 40
0.1839460447954673
 40
0.2051445300687017
 40
0.2281865846309823
 40
0.2447714106193048
 40
0.2549761250693856
 40
0.2671026297693503
 40
0.2791339355248573
 40
0.2928702654334765
 40
0.3076797062448196
 40
0.3238028731163095
 40
0.3306282632516031
 40
0.3377014821121991
 40
0.3447513814004336
 40
0.3519365433596733
 40
0.3593545810957361
 40
0.3666203292329826
 40
0.3673852472463485
 40
0.373862598952886
 40
0.4035873366162638
 40
0.4237600757644758
 40
0.4547889341531773
 40
0.4883566196796325
 40
0.5162724571153757
 40
0.525046039380933
 40
0.5338195547816472
 40
0.542593292411313
 40
0.5501497526515103
 40
0.5520792262694086
 40
0.5554853437820553
 40
0.5603698657185172
 40
0.5652454622618799
 40
0.5710301078686295
 40
0.5777206081547326
 40
0.5853247878704157
 40
0.5938439758646036
 40
0.6032721877294387
 40
0.6136149931696422
 40
0.6306381338372079
 40
0.6478711240902375
 40
0.6718722472096037
 40
0.6960613155396432
 40
0.7202149944139017
 40
0.7560173701659949
 40
0.7864135801599801
 40
0.8016556692751562
 40
0.8177730286557222
 40
0.8394295766345525
 40
0.8601789675967509
 40
0.8733117132978676
 40
0.8850500221854268
 40
0.8978805252051355
 40
0.9115977683383535
 40
0.9334770007818088
 40
0.9450082225500707
 40
0.948078617563106
 40
0.9551251203203376
 40
0.966174236523576
 40
0.9807539724019587
 40
1.0
 40
1.0
 40
1.0
 40
1.0
 10
3.474288161148977
 20
7.21335640326084
 30
0.0
 10
3.474290847605674
 20
7.21480510813477
 30
0.0
 10
3.47429672668933
 20
7.217975476433473
 30
0.0
 10
3.474602557923887
 20
7.22288221600567
 30
0.0
 10
3.475141446498155
 20
7.228072787417557
 30
0.0
 10
3.475998498236138
 20
7.23390163360399
 30
0.0
 10
3.477183968371432
 20
7.239939318180045
 30
0.0
 10
3.478477790435054
 20
7.245259948665072
 30
0.0
 10
3.479511421841081
 20
7.249015463018533
 30
0.0
 10
3.480208520312975
 20
7.251390806761309
 30
0.0
 10
3.480999882664723
 20
7.253972821889028
 30
0.0
 10
3.481992546530858
 20
7.257039846602864
 30
0.0
 10
3.483323349419065
 20
7.260877711291856
 30
0.0
 10
3.484792365237332
 20
7.264871802557969
 30
0.0
 10
3.486401441696348
 20
7.269013099067217
 30
0.0
 10
3.488576652052975
 20
7.274343349850212
 30
0.0
 10
3.491093244911016
 20
7.280168075809742
 30
0.0
 10
3.493649969358912
 20
7.28580673744875
 30
0.0
 10
3.495279921751958
 20
7.289309177714436
 30
0.0
 10
3.496152298133381
 20
7.291158817052453
 30
0.0
 10
3.49653373961573
 20
7.29196236055195
 30
0.0
 10
3.497497113269078
 20
7.293983186692209
 30
0.0
 10
3.500684577250265
 20
7.300569439026116
 30
0.0
 10
3.506541886871821
 20
7.311751440781945
 30
0.0
 10
3.51459842777916
 20
7.325444888260772
 30
0.0
 10
3.523193909066145
 20
7.338878486225274
 30
0.0
 10
3.531391727394705
 20
7.350724111755225
 30
0.0
 10
3.538469892189572
 20
7.360340969168156
 30
0.0
 10
3.544172500396003
 20
7.36780231655651
 30
0.0
 10
3.549330610962512
 20
7.374356652449185
 30
0.0
 10
3.555160339811947
 20
7.381543962501165
 30
0.0
 10
3.561557314025856
 20
7.38920236839707
 30
0.0
 10
3.568786101592859
 20
7.397590948000845
 30
0.0
 10
3.575058231632599
 20
7.404626791006585
 30
0.0
 10
3.580136501945696
 20
7.410190221562221
 30
0.0
 10
3.583716341232622
 20
7.414059680808318
 30
0.0
 10
3.587399356648405
 20
7.417984920956993
 30
0.0
 10
3.591177107594067
 20
7.421964705048596
 30
0.0
 10
3.595035180601659
 20
7.425971943021357
 30
0.0
 10
3.597784128427772
 20
7.428797959176344
 30
0.0
 10
3.600380553340118
 20
7.43144485897959
 30
0.0
 10
3.607029874813257
 20
7.438173340847722
 30
0.0
 10
3.617401188671786
 20
7.448359123783317
 30
0.0
 10
3.632705286398921
 20
7.462838172214508
 30
0.0
 10
3.649171090253785
 20
7.477850693708665
 30
0.0
 10
3.667706593804583
 20
7.49402423947769
 30
0.0
 10
3.682162480557663
 20
7.506156231629441
 30
0.0
 10
3.691654590536785
 20
7.513950086045765
 30
0.0
 10
3.69718739924971
 20
7.518446800810185
 30
0.0
 10
3.702499221627627
 20
7.52272123470955
 30
0.0
 10
3.706385550214306
 20
7.525820049706192
 30
0.0
 10
3.709139449492564
 20
7.528004800721696
 30
0.0
 10
3.711326208910484
 20
7.52973549879235
 30
0.0
 10
3.714152425056863
 20
7.531961328161608
 30
0.0
 10
3.717500773952117
 20
7.534584434449941
 30
0.0
 10
3.721252127879297
 20
7.537506363678545
 30
0.0
 10
3.725613595643168
 20
7.540879178047701
 30
0.0
 10
3.730594128546647
 20
7.544700510606684
 30
0.0
 10
3.736204913977341
 20
7.548966244834293
 30
0.0
 10
3.742455637492477
 20
7.553672194525685
 30
0.0
 10
3.750639192402119
 20
7.559768962231128
 30
0.0
 10
3.760647565861033
 20
7.56711811450471
 30
0.0
 10
3.773860996821058
 20
7.576650504968949
 30
0.0
 10
3.788881288872582
 20
7.587270525023017
 30
0.0
 10
3.80571138610393
 20
7.598912236483172
 30
0.0
 10
3.825532182905655
 20
7.61233698693808
 30
0.0
 10
3.847096448182589
 20
7.626613351137425
 30
0.0
 10
3.866785150369351
 20
7.639350258774245
 30
0.0
 10
3.881834150154331
 20
7.64894473536397
 30
0.0
 10
3.894819528225062
 20
7.657144180836821
 30
0.0
 10
3.90923709926912
 20
7.666154012643517
 30
0.0
 10
3.922999423442288
 20
7.674664777154109
 30
0.0
 10
3.934358144729864
 20
7.681628932897829
 30
0.0
 10
3.943779241991467
 20
7.687362052118533
 30
0.0
 10
3.953378405788368
 20
7.69316404293615
 30
0.0
 10
3.965561231685895
 20
7.700482527439685
 30
0.0
 10
3.977469984103049
 20
7.707576934552337
 30
0.0
 10
3.986723866352699
 20
7.713049273907445
 30
0.0
 10
3.992223821411857
 20
7.716291034465152
 30
0.0
 10
3.99760768126556
 20
7.719456992668304
 30
0.0
 10
4.005934929963318
 20
7.724335530051593
 30
0.0
 10
4.017398944753415
 20
7.731019415611621
 30
0.0
 10
4.026076478176831
 20
7.736037074308116
 30
0.0
 10
4.031013781302787
 20
7.738891998715594
 30
0.0
  0
SPLINE
  5
114
330
2
100
AcDbEntity
  8
0
  6
Continuous
 62
     7
370
    13
100
AcDbSpline
210
0.0
220
0.0
230
1.0
 70
     8
 71
     3
 72
    29
 73
    25
 74
     0
 42
0.000000001
 43
0.0000000001
 40
0.0
 40
0.0
 40
0.0
 40
0.0
 40
0.0349959475502428
 40
0.1249769697423103
 40
0.1922213682163605
 40
0.2623133774166201
 40
0.3385942033549863
 40
0.3940330889394578
 40
0.4477015634214924
 40
0.4905393746730967
 40
0.5411161126338033
 40
0.582798525759425
 40
0.6190264697686616
 40
0.6484705502413354
 40
0.7028428393191634
 40
0.7466547712011971
 40
0.7719573606786698
 40
0.7998767695576137
 40
0.8303633750479727
 40
0.8524598705978968
 40
0.8829431719597041
 40
0.9315236208791347
 40
0.9710677632623779
 40
1.0
 40
1.0
 40
1.0
 40
1.0
 10
8.299169163346885
 20
5.410168109464807
 30
0.0
 10
8.297149028289846
 20
5.407583209071386
 30
0.0
 10
8.289934754193202
 20
5.398352054012889
 30
0.0
 10
8.277695948395402
 20
5.386499182228698
 30
0.0
 10
8.262425713882961
 20
5.373782976606502
 30
0.0
 10
8.24711660699263
 20
5.363668794005037
 30
0.0
 10
8.231885584763309
 20
5.356201474995243
 30
0.0
 10
8.217128378152779
 20
5.351302541631703
 30
0.0
 10
8.204529246529462
 20
5.348656775903014
 30
0.0
 10
8.191918768075151
 20
5.347315978648056
 30
0.0
 10
8.180108330851558
 20
5.347185473698951
 30
0.0
 10
8.168690789742553
 20
5.348017880142905
 30
0.0
 10
8.159027128683334
 20
5.349400938298533
 30
0.0
 10
8.148115762207899
 20
5.351494566367732
 30
0.0
 10
8.13651064634123
 20
5.354494435388057
 30
0.0
 10
8.125348724133878
 20
5.358215613384053
 30
0.0
 10
8.116629475795674
 20
5.361537340766794
 30
0.0
 10
8.109132370308499
 20
5.364641765862459
 30
0.0
 10
8.101946764512042
 20
5.367857077230729
 30
0.0
 10
8.094553813206806
 20
5.371363263440118
 30
0.0
 10
8.085570920708377
 20
5.375838613428715
 30
0.0
 10
8.075065388693442
 20
5.38141698017606
 30
0.0
 10
8.064737367727522
 20
5.387209883235032
 30
0.0
 10
8.058707037709378
 20
5.390735667441827
 30
0.0
 10
8.056159138157291
 20
5.392225361036413
 30
0.0
  0
SPLINE
  5
115
330
2
100
AcDbEntity
  8
0
  6
Continuous
 62
     7
370
    13
100
AcDbSpline
210
0.0
220
0.0
230
1.0
 70
     8
 71
     3
 72
    31
 73
    27
 74
     0
 42
0.000000001
 43
0.0000000001
 40
0.0
 40
0.0
 40
0.0
 40
0.0
 40
0.0468385222842508
 40
0.0945438529327188
 40
0.1431750704477554
 40
0.1803186325983014
 40
0.2175615434856367
 40
0.2545692676458411
 40
0.2911068513388855
 40
0.3390685037110502
 40
0.3861762244345676
 40
0.4348731043131921
 40
0.4727953736760814
 40
0.510065234176045
 40
0.5487851674347111
 40
0.5874625434379001
 40
0.6259002979374854
 40
0.6631347297093151
 40
0.6998349041643289
 40
0.737022216746353
 40
0.7872474752140148
 40
0.837275226294559
 40
0.885508641992882
 40
0.9322910100131643
 40
0.9806158471646067
 40
0.9989024011502165
 40
0.9989024011502165
 40
0.9989024011502165
 40
0.9989024011502165
 10
7.477641864397819
 20
5.305620098363593
 30
0.0
 10
7.487247907650479
 20
5.310772304628212
 30
0.0
 10
7.50663776660105
 20
5.321172065500364
 30
0.0
 10
7.540141999058786
 20
5.333996746068729
 30
0.0
 10
7.573602358157053
 20
5.34366287500059
 30
0.0
 10
7.606039543792382
 20
5.350390309639421
 30
0.0
 10
7.636309793825581
 20
5.354775337371464
 30
0.0
 10
7.667026027393243
 20
5.35736808770274
 30
0.0
 10
7.701014807650015
 20
5.358282015757303
 30
0.0
 10
7.73782475682119
 20
5.356967251137895
 30
0.0
 10
7.777278071812466
 20
5.35258138439722
 30
0.0
 10
7.81269556781525
 20
5.346032411551963
 30
0.0
 10
7.84393817061543
 20
5.338086274183354
 30
0.0
 10
7.87108675197585
 20
5.329374820358906
 30
0.0
 10
7.896516463472529
 20
5.319318725540979
 30
0.0
 10
7.919919869569879
 20
5.308025376351254
 30
0.0
 10
7.940772350600642
 20
5.296069163939383
 30
0.0
 10
7.958776151697525
 20
5.283683379905008
 30
0.0
 10
7.973811767562274
 20
5.270939995275192
 30
0.0
 10
7.987571793779085
 20
5.256490920790863
 30
0.0
 10
7.998852735882342
 20
5.240497779259365
 30
0.0
 10
8.005591325714433
 20
5.22338216268182
 30
0.0
 10
8.007467018407274
 20
5.207132580699699
 30
0.0
 10
8.003896076545025
 20
5.19134872115082
 30
0.0
 10
7.99796988953291
 20
5.178973697863806
 30
0.0
 10
7.991620015351294
 20
5.171700455357077
 30
0.0
 10
7.989864568657186
 20
5.169703745795189
 30
0.0
  0
LWPOLYLINE
  5
116
330
2
100
AcDbEntity
  8
0
  6
Continuous
 62
     7
370
    13
100
AcDbPolyline
 90
        9
 70
   128
 43
0.0
 10
7.222451948440323
 20
6.733406532871473
 10
7.222433825296322
 20
6.733095827819472
 10
7.222169143088322
 20
6.732189357763473
 10
7.221598685492322
 20
6.731331135795473
 10
7.220745127516321
 20
6.730555176079473
 10
7.219642228784321
 20
6.729892111927473
 10
7.218333695580321
 20
6.729368292891473
 10
7.216871368524323
 20
6.729004497903472
 10
7.215313199536323
 20
6.728815057847473
  0
SPLINE
  5
117
330
2
100
AcDbEntity
  8
0
  6
Continuous
 62
     7
370
    13
100
AcDbSpline
210
0.0
220
0.0
230
1.0
 70
     8
 71
     3
 72
    17
 73
    13
 74
     0
 42
0.000000001
 43
0.0000000001
 40
0.0
 40
0.0
 40
0.0
 40
0.0
 40
0.0401326045661546
 40
0.148758564513514
 40
0.2565621539936149
 40
0.3646203538644675
 40
0.4726395679277022
 40
0.5797593430530234
 40
0.6862205157436284
 40
0.7924239935344093
 40
0.8970229563984423
 40
1.0
 40
1.0
 40
1.0
 40
1.0
 10
7.46412201994997
 20
5.067790755425225
 30
0.0
 10
7.459900400223711
 20
5.070092158502838
 30
0.0
 10
7.444252223455986
 20
5.078622714191743
 30
0.0
 10
7.423499644539099
 20
5.0972123355183
 30
0.0
 10
7.403003290606831
 20
5.122633678216572
 30
0.0
 10
7.390650427491729
 20
5.150207979781916
 30
0.0
 10
7.386065163896159
 20
5.178694169587969
 30
0.0
 10
7.389778282957939
 20
5.207233872241967
 30
0.0
 10
7.401161290476894
 20
5.235004447409174
 30
0.0
 10
7.420149761611966
 20
5.261109965737231
 30
0.0
 10
7.44523294013673
 20
5.285188874644377
 30
0.0
 10
7.466895310147162
 20
5.298845259051654
 30
0.0
 10
7.477641864428942
 20
5.30562009838156
 30
0.0
  0
SPLINE
  5
118
330
2
100
AcDbEntity
  8
0
  6
Continuous
 62
     7
370
    13
100
AcDbSpline
210
0.0
220
0.0
230
1.0
 70
     8
 71
     3
 72
    10
 73
     6
 74
     0
 42
0.000000001
 43
0.0000000001
 40
0.0
 40
0.0
 40
0.0
 40
0.0
 40
0.4068543969113703
 40
0.8321381874377804
 40
1.0
 40
1.0
 40
1.0
 40
1.0
 10
8.097432113911159
 20
6.13837903984419
 30
0.0
 10
8.097780128113175
 20
6.137959531116871
 30
0.0
 10
8.09849192061061
 20
6.137101511061993
 30
0.0
 10
8.098967076422884
 20
6.135971163694796
 30
0.0
 10
8.098944791201743
 20
6.135296685197372
 30
0.0
 10
8.098938484423786
 20
6.135105805955374
 30
0.0
  0
ARC
  5
119
330
2
100
AcDbEntity
  8
0
  6
Continuous
 62
     7
370
    13
100
AcDbCircle
 10
6.268750223384323
 20
5.637651542755472
 30
0.0
 40
0.0062475851969715
100
AcDbArc
 50
158.0793312566998
 51
211.8916341464001
  0
ARC
  5
11A
330
2
100
AcDbEntity
  8
0
  6
Continuous
 62
     7
370
    13
100
AcDbCircle
 10
5.803259585645204
 20
6.266687130689826
 30
0.0
 40
0.2798709855889618
100
AcDbArc
 50
245.7619240828171
 51
302.3939476248368
  0
SPLINE
  5
11B
330
2
100
AcDbEntity
  8
0
  6
Continuous
 62
     7
370
    13
100
AcDbSpline
210
0.0
220
0.0
230
1.0
 70
     8
 71
     3
 72
     9
 73
     5
 74
     0
 42
0.000000001
 43
0.0000000001
 40
0.0
 40
0.0
 40
0.0
 40
0.0
 40
0.6952709557768828
 40
1.0
 40
1.0
 40
1.0
 40
1.0
 10
8.407039870645938
 20
5.687161511346095
 30
0.0
 10
8.407322348353106
 20
5.685624001191294
 30
0.0
 10
8.407728632701422
 20
5.683412618503689
 30
0.0
 10
8.40730840245375
 20
5.681859131951554
 30
0.0
 10
8.407180346092026
 20
5.681385739479309
 30
0.0
  0
SPLINE
  5
11C
330
2
100
AcDbEntity
  8
0
  6
Continuous
 62
     7
370
    13
100
AcDbSpline
210
0.0
220
0.0
230
1.0
 70
     8
 71
     3
 72
    11
 73
     7
 74
     0
 42
0.000000001
 43
0.0000000001
 40
0.0
 40
0.0
 40
0.0
 40
0.0
 40
0.6332416502149325
 40
0.8825041621629628
 40
0.9578037073791644
 40
1.0
 40
1.0
 40
1.0
 40
1.0
 10
7.477443163624567
 20
6.919747295902284
 30
0.0
 10
7.468609676709398
 20
6.92454099629629
 30
0.0
 10
7.456299069903282
 20
6.931221637957232
 30
0.0
 10
7.44273158776051
 20
6.938212228223797
 30
0.0
 10
7.437526692198151
 20
6.940877977300925
 30
0.0
 10
7.435864293393057
 20
6.94171536737965
 30
0.0
 10
7.43526727593505
 20
6.942016099366842
 30
0.0
  0
SPLINE
  5
11D
330
2
100
AcDbEntity
  8
0
  6
Continuous
 62
     7
370
    13
100
AcDbSpline
210
0.0
220
0.0
230
1.0
 70
     8
 71
     3
 72
    13
 73
     9
 74
     0
 42
0.000000001
 43
0.0000000001
 40
0.0
 40
0.0
 40
0.0
 40
0.0
 40
0.0919267531362232
 40
0.2731872840270257
 40
0.4450487968431038
 40
0.660413274830395
 40
0.8927105482149976
 40
1.0
 40
1.0
 40
1.0
 40
1.0
 10
7.122727489389911
 20
6.989051777627748
 30
0.0
 10
7.123769016833874
 20
6.99027529846875
 30
0.0
 10
7.126864220829979
 20
6.993911349173249
 30
0.0
 10
7.132216104162006
 20
6.999241369127776
 30
0.0
 10
7.139415989218333
 20
7.00566539614757
 30
0.0
 10
7.147824928595719
 20
7.011688202433452
 30
0.0
 10
7.155686123160542
 20
7.016403458514437
 30
0.0
 10
7.161095310172374
 20
7.018104890542124
 30
0.0
 10
7.16280429543619
 20
7.018642443090474
 30
0.0
  0
SPLINE
  5
11E
330
2
100
AcDbEntity
  8
0
  6
Continuous
 62
     7
370
    13
100
AcDbSpline
210
0.0
220
0.0
230
1.0
 70
     8
 71
     3
 72
     9
 73
     5
 74
     0
 42
0.000000001
 43
0.0000000001
 40
0.0
 40
0.0
 40
0.0
 40
0.0
 40
0.0166679782989668
 40
1.0
 40
1.0
 40
1.0
 40
1.0
 10
7.55828364290731
 20
6.873841581777416
 30
0.0
 10
7.558292286699145
 20
6.873838657701277
 30
0.0
 10
7.558810873397419
 20
6.873663226938976
 30
0.0
 10
7.559137932395231
 20
6.873172895197836
 30
0.0
 10
7.559459539980766
 20
6.872690736295517
 30
0.0
  0
SPLINE
  5
11F
330
2
100
AcDbEntity
  8
0
  6
Continuous
 62
     7
370
    13
100
AcDbSpline
210
0.0
220
0.0
230
1.0
 70
     8
 71
     3
 72
     8
 73
     4
 74
     0
 42
0.000000001
 43
0.0000000001
 40
0.0
 40
0.0
 40
0.0
 40
0.0
 40
1.0
 40
1.0
 40
1.0
 40
1.0
 10
7.558630389102575
 20
6.873639819600281
 30
0.0
 10
7.558179097507753
 20
6.87392011390847
 30
0.0
 10
7.557662538021398
 20
6.874092357175204
 30
0.0
 10
7.557118485661842
 20
6.874152394042225
 30
0.0
  0
LINE
  5
120
330
2
100
AcDbEntity
  8
0
  6
Continuous
 62
     7
370
    13
100
AcDbLine
 10
8.188973214416321
 20
6.232329338247473
 30
0.0
 11
8.187422463272321
 21
6.304842831451472
 31
0.0
  0
LINE
  5
121
330
2
100
AcDbEntity
  8
0
  6
Continuous
 62
     7
370
    13
100
AcDbLine
 10
7.965110818604323
 20
6.573989067339473
 30
0.0
 11
7.965852476700323
 21
6.573369298515473
 31
0.0
  0
LINE
  5
122
330
2
100
AcDbEntity
  8
0
  6
Continuous
 62
     7
370
    13
100
AcDbLine
 10
8.018205479604322
 20
6.523407043871473
 30
0.0
 11
8.017587691100322
 21
6.523956160771472
 31
0.0
  0
LINE
  5
123
330
2
100
AcDbEntity
  8
0
  6
Continuous
 62
     7
370
    13
100
AcDbLine
 10
8.240187788796323
 20
6.269638265419472
 30
0.0
 11
8.239587575528322
 21
6.270541980411474
 31
0.0
  0
LINE
  5
124
330
2
100
AcDbEntity
  8
0
  6
Continuous
 62
     7
370
    13
100
AcDbLine
 10
8.232275645220322
 20
6.280448829419473
 30
0.0
 11
8.231607406936323
 21
6.281424019071473
 31
0.0
  0
LINE
  5
125
330
2
100
AcDbEntity
  8
0
  6
Continuous
 62
     7
370
    13
100
AcDbLine
 10
8.417630235712321
 20
5.843055672983473
 30
0.0
 11
8.417837176736322
 21
5.843700633627472
 31
0.0
  0
LINE
  5
126
330
2
100
AcDbEntity
  8
0
  6
Continuous
 62
     7
370
    13
100
AcDbLine
 10
8.415143655944321
 20
5.872853814659473
 30
0.0
 11
8.415445048056323
 21
5.872382515843472
 31
0.0
  0
ENDSEC
  0
SECTION
  2
OBJECTS
  0
DICTIONARY
  5
9
330
0
100
AcDbDictionary
281
     1
  3
ACAD_COLOR
350
41
  3
ACAD_GROUP
350
36
  3
ACAD_LAYOUT
350
1E
  3
ACAD_MATERIAL
350
B
  3
ACAD_MLEADERSTYLE
350
44
  3
ACAD_MLINESTYLE
350
37
  3
ACAD_PLOTSETTINGS
350
38
  3
ACAD_PLOTSTYLENAME
350
8
  3
ACAD_SCALELIST
350
42
  3
ACAD_TABLESTYLE
350
43
  3
ACAD_VISUALSTYLE
350
2F
  3
ACDB_RECOMPOSE_DATA
350
132
  3
AcDbVariableDictionary
350
127
  0
DICTIONARY
  5
5
330
4
100
AcDbDictionary
280
     1
281
     1
  3
ADSK_XREC_LAYER_RECONCILED
360
6
  0
DICTIONARY
  5
41
102
{ACAD_REACTORS
330
9
102
}
330
9
100
AcDbDictionary
281
     1
  0
DICTIONARY
  5
36
102
{ACAD_REACTORS
330
9
102
}
330
9
100
AcDbDictionary
281
     1
  0
DICTIONARY
  5
1E
102
{ACAD_REACTORS
330
9
102
}
330
9
100
AcDbDictionary
281
     1
  3
Layout1
350
22
  3
Model
350
1D
  0
DICTIONARY
  5
B
102
{ACAD_REACTORS
330
9
102
}
330
9
100
AcDbDictionary
281
     1
  3
ByBlock
350
39
  3
ByLayer
350
14
  3
Global
350
A
  0
DICTIONARY
  5
44
102
{ACAD_REACTORS
330
9
102
}
330
9
100
AcDbDictionary
281
     1
  0
DICTIONARY
  5
37
102
{ACAD_REACTORS
330
9
102
}
330
9
100
AcDbDictionary
281
     1
  3
Standard
350
45
  0
DICTIONARY
  5
38
102
{ACAD_REACTORS
330
9
102
}
330
9
100
AcDbDictionary
281
     1
  0
ACDBDICTIONARYWDFLT
  5
8
102
{ACAD_REACTORS
330
9
102
}
330
9
100
AcDbDictionary
281
     1
  3
Normal
350
7
100
AcDbDictionaryWithDefault
340
7
  0
DICTIONARY
  5
42
102
{ACAD_REACTORS
330
9
102
}
330
9
100
AcDbDictionary
281
     1
  3
A0
350
4A
  3
A1
350
4B
  3
A2
350
4C
  3
A3
350
4D
  3
A4
350
4E
  3
A5
350
4F
  3
A6
350
50
  3
A7
350
51
  3
A8
350
52
  3
A9
350
53
  3
B0
350
54
  3
B1
350
55
  3
B2
350
56
  3
B3
350
57
  3
B4
350
58
  3
B5
350
59
  3
B6
350
5A
  3
B7
350
5B
  3
B8
350
5C
  3
B9
350
5D
  3
C0
350
5E
  3
C1
350
5F
  3
C2
350
60
  3
C3
350
61
  3
C4
350
62
  3
C5
350
63
  3
C6
350
64
  3
C7
350
65
  3
C8
350
66
  3
C9
350
67
  3
D0
350
68
  3
D1
350
69
  3
D2
350
6A
  0
DICTIONARY
  5
43
102
{ACAD_REACTORS
330
9
102
}
330
9
100
AcDbDictionary
281
     1
  3
Standard
350
46
  0
DICTIONARY
  5
2F
102
{ACAD_REACTORS
330
9
102
}
330
9
100
AcDbDictionary
281
     1
  3
2dWireframe
350
2E
  3
Realistic
350
48
  3
Wireframe
350
49
  0
XRECORD
  5
132
102
{ACAD_REACTORS
330
9
102
}
330
9
100
AcDbXrecord
280
     1
 90
        1
330
46
  0
DICTIONARY
  5
127
102
{ACAD_REACTORS
330
9
102
}
330
9
100
AcDbDictionary
281
     1
  3
CANNOSCALE
350
12D
  3
CMLEADERSTYLE
350
129
  3
CTABLESTYLE
350
128
  3
CVIEWDETAILSTYLE
350
12A
  3
CVIEWSECTIONSTYLE
350
12B
  3
LAYEREVAL
350
12F
  3
LAYERNOTIFY
350
130
  3
LIGHTINGUNITS
350
12E
  3
MSLTSCALE
350
12C
  0
XRECORD
  5
6
102
{ACAD_REACTORS
330
5
102
}
330
5
100
AcDbXrecord
280
     1
290
     1
  0
LAYOUT
  5
22
102
{ACAD_REACTORS
330
1E
102
}
330
1E
100
AcDbPlotSettings
  1

  2
none_device
  4

  6

 40
0.0
 41
0.0
 42
0.0
 43
0.0
 44
0.0
 45
0.0
 46
0.0
 47
0.0
 48
0.0
 49
0.0
140
0.0
141
0.0
142
1.0
143
1.0
 70
   688
 72
     1
 73
     0
 74
     5
  7

 75
    16
147
1.0
 76
     0
 77
     2
 78
   300
148
0.0
149
0.0
100
AcDbLayout
  1
Layout1
 70
     1
 71
     1
 10
0.0
 20
0.0
 11
420.0
 21
297.0
 12
0.0
 22
0.0
 32
0.0
 14
1.000000000000000E+20
 24
1.000000000000000E+20
 34
1.000000000000000E+20
 15
-1.000000000000000E+20
 25
-1.000000000000000E+20
 35
-1.000000000000000E+20
146
0.0
 13
0.0
 23
0.0
 33
0.0
 16
1.0
 26
0.0
 36
0.0
 17
0.0
 27
1.0
 37
0.0
 76
     0
330
1F
  0
LAYOUT
  5
1D
102
{ACAD_REACTORS
330
1E
102
}
330
1E
100
AcDbPlotSettings
  1

  2
none_device
  4
Letter_(8.50_x_11.00_Inches)
  6

 40
6.349999999999998
 41
6.349999999999998
 42
6.350005079999998
 43
6.350005079999998
 44
215.9
 45
279.4
 46
0.0
 47
0.0
 48
0.0
 49
0.0
140
0.0
141
0.0
142
1.0
143
1.0
 70
  1712
 72
     1
 73
     0
 74
     0
  7

 75
     0
147
1.0
 76
     0
 77
     2
 78
   300
148
0.0
149
0.0
100
AcDbLayout
  1
Model
 70
     1
 71
     0
 10
0.0
 20
0.0
 11
420.0
 21
297.0
 12
0.0
 22
0.0
 32
0.0
 14
0.0
 24
0.0
 34
0.0
 15
420.0
 25
297.0
 35
0.0
146
0.0
 13
0.0
 23
0.0
 33
0.0
 16
1.0
 26
0.0
 36
0.0
 17
0.0
 27
1.0
 37
0.0
 76
     0
330
2
331
2D
  0
MATERIAL
  5
39
102
{ACAD_XDICTIONARY
360
3A
102
}
102
{ACAD_REACTORS
330
B
102
}
330
B
100
AcDbMaterial
  1
ByBlock
 72
     0
 43
0.0008202099737533
 43
0.0
 43
0.0
 43
0.0
 43
0.0
 43
0.0008202099737533
 43
0.0
 43
0.0
 43
0.0
 43
0.0
 43
1.0
 43
0.0
 43
0.0
 43
0.0
 43
0.0
 43
1.0
 77
     0
 47
0.0008202099737533
 47
0.0
 47
0.0
 47
0.0
 47
0.0
 47
0.0008202099737533
 47
0.0
 47
0.0
 47
0.0
 47
0.0
 47
1.0
 47
0.0
 47
0.0
 47
0.0
 47
0.0
 47
1.0
171
     0
 49
0.0008202099737533
 49
0.0
 49
0.0
 49
0.0
 49
0.0
 49
0.0008202099737533
 49
0.0
 49
0.0
 49
0.0
 49
0.0
 49
1.0
 49
0.0
 49
0.0
 49
0.0
 49
0.0
 49
1.0
175
     0
142
0.0008202099737533
142
0.0
142
0.0
142
0.0
142
0.0
142
0.0008202099737533
142
0.0
142
0.0
142
0.0
142
0.0
142
1.0
142
0.0
142
0.0
142
0.0
142
0.0
142
1.0
179
     0
144
0.0008202099737533
144
0.0
144
0.0
144
0.0
144
0.0
144
0.0008202099737533
144
0.0
144
0.0
144
0.0
144
0.0
144
1.0
144
0.0
144
0.0
144
0.0
144
0.0
144
1.0
147
0.0008202099737533
147
0.0
147
0.0
147
0.0
147
0.0
147
0.0008202099737533
147
0.0
147
0.0
147
0.0
147
0.0
147
1.0
147
0.0
147
0.0
147
0.0
147
0.0
147
1.0
  0
MATERIAL
  5
14
102
{ACAD_XDICTIONARY
360
15
102
}
102
{ACAD_REACTORS
330
B
102
}
330
B
100
AcDbMaterial
  1
ByLayer
 72
     0
 43
0.0008202099737533
 43
0.0
 43
0.0
 43
0.0
 43
0.0
 43
0.0008202099737533
 43
0.0
 43
0.0
 43
0.0
 43
0.0
 43
1.0
 43
0.0
 43
0.0
 43
0.0
 43
0.0
 43
1.0
 77
     0
 47
0.0008202099737533
 47
0.0
 47
0.0
 47
0.0
 47
0.0
 47
0.0008202099737533
 47
0.0
 47
0.0
 47
0.0
 47
0.0
 47
1.0
 47
0.0
 47
0.0
 47
0.0
 47
0.0
 47
1.0
171
     0
 49
0.0008202099737533
 49
0.0
 49
0.0
 49
0.0
 49
0.0
 49
0.0008202099737533
 49
0.0
 49
0.0
 49
0.0
 49
0.0
 49
1.0
 49
0.0
 49
0.0
 49
0.0
 49
0.0
 49
1.0
175
     0
142
0.0008202099737533
142
0.0
142
0.0
142
0.0
142
0.0
142
0.0008202099737533
142
0.0
142
0.0
142
0.0
142
0.0
142
1.0
142
0.0
142
0.0
142
0.0
142
0.0
142
1.0
179
     0
144
0.0008202099737533
144
0.0
144
0.0
144
0.0
144
0.0
144
0.0008202099737533
144
0.0
144
0.0
144
0.0
144
0.0
144
1.0
144
0.0
144
0.0
144
0.0
144
0.0
144
1.0
147
0.0008202099737533
147
0.0
147
0.0
147
0.0
147
0.0
147
0.0008202099737533
147
0.0
147
0.0
147
0.0
147
0.0
147
1.0
147
0.0
147
0.0
147
0.0
147
0.0
147
1.0
  0
MATERIAL
  5
A
102
{ACAD_XDICTIONARY
360
C
102
}
102
{ACAD_REACTORS
330
B
102
}
330
B
100
AcDbMaterial
  1
Global
 72
     0
 43
0.0008202099737533
 43
0.0
 43
0.0
 43
0.0
 43
0.0
 43
0.0008202099737533
 43
0.0
 43
0.0
 43
0.0
 43
0.0
 43
1.0
 43
0.0
 43
0.0
 43
0.0
 43
0.0
 43
1.0
 77
     0
 47
0.0008202099737533
 47
0.0
 47
0.0
 47
0.0
 47
0.0
 47
0.0008202099737533
 47
0.0
 47
0.0
 47
0.0
 47
0.0
 47
1.0
 47
0.0
 47
0.0
 47
0.0
 47
0.0
 47
1.0
171
     0
 49
0.0008202099737533
 49
0.0
 49
0.0
 49
0.0
 49
0.0
 49
0.0008202099737533
 49
0.0
 49
0.0
 49
0.0
 49
0.0
 49
1.0
 49
0.0
 49
0.0
 49
0.0
 49
0.0
 49
1.0
175
     0
142
0.0008202099737533
142
0.0
142
0.0
142
0.0
142
0.0
142
0.0008202099737533
142
0.0
142
0.0
142
0.0
142
0.0
142
1.0
142
0.0
142
0.0
142
0.0
142
0.0
142
1.0
179
     0
144
0.0008202099737533
144
0.0
144
0.0
144
0.0
144
0.0
144
0.0008202099737533
144
0.0
144
0.0
144
0.0
144
0.0
144
1.0
144
0.0
144
0.0
144
0.0
144
0.0
144
1.0
147
0.0008202099737533
147
0.0
147
0.0
147
0.0
147
0.0
147
0.0008202099737533
147
0.0
147
0.0
147
0.0
147
0.0
147
1.0
147
0.0
147
0.0
147
0.0
147
0.0
147
1.0
  0
MLINESTYLE
  5
45
102
{ACAD_REACTORS
330
37
102
}
330
37
100
AcDbMlineStyle
  2
STANDARD
 70
     0
  3

 62
   256
 51
90.0
 52
90.0
 71
     2
 49
0.5
 62
   256
  6
BYLAYER
 49
-0.5
 62
   256
  6
BYLAYER
  0
ACDBPLACEHOLDER
  5
7
102
{ACAD_REACTORS
330
8
102
}
330
8
  0
SCALE
  5
4A
102
{ACAD_REACTORS
330
42
102
}
330
42
100
AcDbScale
 70
     0
300
1:1
140
1.0
141
1.0
290
     1
  0
SCALE
  5
4B
102
{ACAD_REACTORS
330
42
102
}
330
42
100
AcDbScale
 70
     0
300
1:2
140
1.0
141
2.0
290
     0
  0
SCALE
  5
4C
102
{ACAD_REACTORS
330
42
102
}
330
42
100
AcDbScale
 70
     0
300
1:4
140
1.0
141
4.0
290
     0
  0
SCALE
  5
4D
102
{ACAD_REACTORS
330
42
102
}
330
42
100
AcDbScale
 70
     0
300
1:5
140
1.0
141
5.0
290
     0
  0
SCALE
  5
4E
102
{ACAD_REACTORS
330
42
102
}
330
42
100
AcDbScale
 70
     0
300
1:8
140
1.0
141
8.0
290
     0
  0
SCALE
  5
4F
102
{ACAD_REACTORS
330
42
102
}
330
42
100
AcDbScale
 70
     0
300
1:10
140
1.0
141
10.0
290
     0
  0
SCALE
  5
50
102
{ACAD_REACTORS
330
42
102
}
330
42
100
AcDbScale
 70
     0
300
1:16
140
1.0
141
16.0
290
     0
  0
SCALE
  5
51
102
{ACAD_REACTORS
330
42
102
}
330
42
100
AcDbScale
 70
     0
300
1:20
140
1.0
141
20.0
290
     0
  0
SCALE
  5
52
102
{ACAD_REACTORS
330
42
102
}
330
42
100
AcDbScale
 70
     0
300
1:30
140
1.0
141
30.0
290
     0
  0
SCALE
  5
53
102
{ACAD_REACTORS
330
42
102
}
330
42
100
AcDbScale
 70
     0
300
1:40
140
1.0
141
40.0
290
     0
  0
SCALE
  5
54
102
{ACAD_REACTORS
330
42
102
}
330
42
100
AcDbScale
 70
     0
300
1:50
140
1.0
141
50.0
290
     0
  0
SCALE
  5
55
102
{ACAD_REACTORS
330
42
102
}
330
42
100
AcDbScale
 70
     0
300
1:100
140
1.0
141
100.0
290
     0
  0
SCALE
  5
56
102
{ACAD_REACTORS
330
42
102
}
330
42
100
AcDbScale
 70
     0
300
2:1
140
2.0
141
1.0
290
     0
  0
SCALE
  5
57
102
{ACAD_REACTORS
330
42
102
}
330
42
100
AcDbScale
 70
     0
300
4:1
140
4.0
141
1.0
290
     0
  0
SCALE
  5
58
102
{ACAD_REACTORS
330
42
102
}
330
42
100
AcDbScale
 70
     0
300
8:1
140
8.0
141
1.0
290
     0
  0
SCALE
  5
59
102
{ACAD_REACTORS
330
42
102
}
330
42
100
AcDbScale
 70
     0
300
10:1
140
10.0
141
1.0
290
     0
  0
SCALE
  5
5A
102
{ACAD_REACTORS
330
42
102
}
330
42
100
AcDbScale
 70
     0
300
100:1
140
100.0
141
1.0
290
     0
  0
SCALE
  5
5B
102
{ACAD_REACTORS
330
42
102
}
330
42
100
AcDbScale
 70
     0
300
1/128" = 1'-0"
140
0.0078125
141
12.0
290
     0
  0
SCALE
  5
5C
102
{ACAD_REACTORS
330
42
102
}
330
42
100
AcDbScale
 70
     0
300
1/64" = 1'-0"
140
0.015625
141
12.0
290
     0
  0
SCALE
  5
5D
102
{ACAD_REACTORS
330
42
102
}
330
42
100
AcDbScale
 70
     0
300
1/32" = 1'-0"
140
0.03125
141
12.0
290
     0
  0
SCALE
  5
5E
102
{ACAD_REACTORS
330
42
102
}
330
42
100
AcDbScale
 70
     0
300
1/16" = 1'-0"
140
0.0625
141
12.0
290
     0
  0
SCALE
  5
5F
102
{ACAD_REACTORS
330
42
102
}
330
42
100
AcDbScale
 70
     0
300
3/32" = 1'-0"
140
0.09375
141
12.0
290
     0
  0
SCALE
  5
60
102
{ACAD_REACTORS
330
42
102
}
330
42
100
AcDbScale
 70
     0
300
1/8" = 1'-0"
140
0.125
141
12.0
290
     0
  0
SCALE
  5
61
102
{ACAD_REACTORS
330
42
102
}
330
42
100
AcDbScale
 70
     0
300
3/16" = 1'-0"
140
0.1875
141
12.0
290
     0
  0
SCALE
  5
62
102
{ACAD_REACTORS
330
42
102
}
330
42
100
AcDbScale
 70
     0
300
1/4" = 1'-0"
140
0.25
141
12.0
290
     0
  0
SCALE
  5
63
102
{ACAD_REACTORS
330
42
102
}
330
42
100
AcDbScale
 70
     0
300
3/8" = 1'-0"
140
0.375
141
12.0
290
     0
  0
SCALE
  5
64
102
{ACAD_REACTORS
330
42
102
}
330
42
100
AcDbScale
 70
     0
300
1/2" = 1'-0"
140
0.5
141
12.0
290
     0
  0
SCALE
  5
65
102
{ACAD_REACTORS
330
42
102
}
330
42
100
AcDbScale
 70
     0
300
3/4" = 1'-0"
140
0.75
141
12.0
290
     0
  0
SCALE
  5
66
102
{ACAD_REACTORS
330
42
102
}
330
42
100
AcDbScale
 70
     0
300
1" = 1'-0"
140
1.0
141
12.0
290
     0
  0
SCALE
  5
67
102
{ACAD_REACTORS
330
42
102
}
330
42
100
AcDbScale
 70
     0
300
1-1/2" = 1'-0"
140
1.5
141
12.0
290
     0
  0
SCALE
  5
68
102
{ACAD_REACTORS
330
42
102
}
330
42
100
AcDbScale
 70
     0
300
3" = 1'-0"
140
3.0
141
12.0
290
     0
  0
SCALE
  5
69
102
{ACAD_REACTORS
330
42
102
}
330
42
100
AcDbScale
 70
     0
300
6" = 1'-0"
140
6.0
141
12.0
290
     0
  0
SCALE
  5
6A
102
{ACAD_REACTORS
330
42
102
}
330
42
100
AcDbScale
 70
     0
300
1'-0" = 1'-0"
140
12.0
141
12.0
290
     0
  0
TABLESTYLE
  5
46
102
{ACAD_XDICTIONARY
360
47
102
}
102
{ACAD_REACTORS
330
43
102
}
330
43
100
AcDbTableStyle
280
     0
  3
Standard
 70
     0
 71
     0
 40
1.5
 41
1.5
280
     0
281
     0
  7
Standard
140
4.5
170
     2
 62
     0
 63
     7
283
     0
 90
      512
 91
        0
  1

274
    -2
284
     1
 64
     0
275
    -2
285
     1
 65
     0
276
    -2
286
     1
 66
     0
277
    -2
287
     1
 67
     0
278
    -2
288
     1
 68
     0
279
    -2
289
     1
 69
     0
  7
Standard
140
6.0
170
     5
 62
     0
 63
     7
283
     0
 90
      512
 91
        0
  1

274
    -2
284
     1
 64
     0
275
    -2
285
     1
 65
     0
276
    -2
286
     1
 66
     0
277
    -2
287
     1
 67
     0
278
    -2
288
     1
 68
     0
279
    -2
289
     1
 69
     0
  7
Standard
140
4.5
170
     5
 62
     0
 63
     7
283
     0
 90
      512
 91
        0
  1

274
    -2
284
     1
 64
     0
275
    -2
285
     1
 65
     0
276
    -2
286
     1
 66
     0
277
    -2
287
     1
 67
     0
278
    -2
288
     1
 68
     0
279
    -2
289
     1
 69
     0
  0
VISUALSTYLE
  5
2E
102
{ACAD_REACTORS
330
2F
102
}
330
2F
100
AcDbVisualStyle
  2
2dWireframe
 70
     4
177
     3
291
     0
 70
    58
 90
        0
176
     1
 90
        2
176
     1
 90
        0
176
     1
 90
        0
176
     1
 40
0.6
176
     1
 40
30.0
176
     1
 62
     7
420
 16777215
176
     1
 90
        1
176
     1
 90
        4
176
     1
 62
     7
176
     1
 62
   257
176
     1
 90
        1
176
     1
 90
        1
176
     1
 40
1.0
176
     1
 90
        0
176
     1
 62
   257
176
     1
 40
1.0
176
     1
 90
        1
176
     1
 90
        6
176
     1
 90
        2
176
     1
 62
     7
176
     1
 90
        5
176
     1
 90
        0
176
     1
 90
        0
176
     1
290
     0
176
     1
 90
        1
176
     1
 40
0.0
176
     1
 90
        0
176
     1
290
     1
176
     1
290
     1
176
     1
290
     0
176
     1
290
     0
176
     1
290
     0
176
     1
290
     0
176
     1
290
     0
176
     1
290
     0
176
     1
290
     0
176
     1
 90
       50
176
     1
 40
0.0
176
     1
 40
1.0
176
     1
 90
        0
176
     1
 62
    18
176
     1
 90
       50
176
     1
 90
        3
176
     1
 62
     5
420
      255
176
     1
290
     0
176
     1
 90
       50
176
     1
 90
       50
176
     1
 90
       50
176
     1
290
     0
176
     1
 90
       50
176
     1
 62
   256
176
     0
 40
1.0
176
     0
 90
        2
176
     1
  1
strokes_ogs.tif
176
     1
290
     0
176
     1
 40
1.0
176
     1
 40
1.0
176
     1
  0
VISUALSTYLE
  5
48
102
{ACAD_REACTORS
330
2F
102
}
330
2F
100
AcDbVisualStyle
  2
Realistic
 70
     8
177
     3
291
     0
 70
    58
 90
        2
176
     1
 90
        3
176
     1
 90
        0
176
     1
 90
        2
176
     1
 40
0.6
176
     1
 40
30.0
176
     1
 62
     7
420
 16777215
176
     1
 90
        0
176
     1
 90
        0
176
     1
 62
     7
176
     1
 62
   257
176
     1
 90
        1
176
     1
 90
        1
176
     1
 40
1.0
176
     1
 90
        8
176
     1
 62
   257
176
     1
 40
1.0
176
     1
 90
        1
176
     1
 90
        6
176
     1
 90
        2
176
     1
 62
     7
176
     1
 90
        3
176
     1
 90
        0
176
     1
 90
        0
176
     1
290
     0
176
     1
 90
       13
176
     1
 40
0.0
176
     1
 90
        0
176
     1
290
     0
176
     1
290
     1
176
     1
290
     1
176
     1
290
     0
176
     1
290
     0
176
     1
290
     0
176
     1
290
     0
176
     1
290
     0
176
     1
290
     0
176
     1
 90
       50
176
     1
 40
0.0
176
     1
 40
1.0
176
     1
 90
        0
176
     1
 62
    18
176
     1
 90
       50
176
     1
 90
        3
176
     1
 62
     5
420
      255
176
     1
290
     0
176
     1
 90
       50
176
     1
 90
       50
176
     1
 90
       50
176
     1
290
     0
176
     1
 90
       50
176
     1
 62
   256
176
     0
 40
1.0
176
     0
 90
        2
176
     1
  1
strokes_ogs.tif
176
     1
290
     0
176
     1
 40
1.0
176
     1
 40
1.0
176
     1
  0
VISUALSTYLE
  5
49
102
{ACAD_REACTORS
330
2F
102
}
330
2F
100
AcDbVisualStyle
  2
Wireframe
 70
     5
177
     3
291
     0
 70
    58
 90
        0
176
     1
 90
        2
176
     1
 90
        0
176
     1
 90
        0
176
     1
 40
0.6
176
     1
 40
30.0
176
     1
 62
     7
420
 16777215
176
     1
 90
        1
176
     1
 90
        4
176
     1
 62
     7
176
     1
 62
   257
176
     1
 90
        1
176
     1
 90
        1
176
     1
 40
1.0
176
     1
 90
        0
176
     1
 62
   257
176
     1
 40
1.0
176
     1
 90
        1
176
     1
 90
        6
176
     1
 90
        2
176
     1
 62
     7
176
     1
 90
        3
176
     1
 90
        0
176
     1
 90
        0
176
     1
290
     0
176
     1
 90
        1
176
     1
 40
0.0
176
     1
 90
        0
176
     1
290
     0
176
     1
290
     1
176
     1
290
     1
176
     1
290
     0
176
     1
290
     0
176
     1
290
     0
176
     1
290
     0
176
     1
290
     0
176
     1
290
     0
176
     1
 90
       50
176
     1
 40
0.0
176
     1
 40
1.0
176
     1
 90
        0
176
     1
 62
    18
176
     1
 90
       50
176
     1
 90
        3
176
     1
 62
     5
420
      255
176
     1
290
     0
176
     1
 90
       50
176
     1
 90
       50
176
     1
 90
       50
176
     1
290
     0
176
     1
 90
       50
176
     1
 62
   256
176
     0
 40
1.0
176
     0
 90
        2
176
     1
  1
strokes_ogs.tif
176
     1
290
     0
176
     1
 40
1.0
176
     1
 40
1.0
176
     1
  0
DICTIONARYVAR
  5
12D
102
{ACAD_REACTORS
330
127
102
}
330
127
100
DictionaryVariables
280
     0
  1
1:1
  0
DICTIONARYVAR
  5
129
102
{ACAD_REACTORS
330
127
102
}
330
127
100
DictionaryVariables
280
     0
  1
STANDARD
  0
DICTIONARYVAR
  5
128
102
{ACAD_REACTORS
330
127
102
}
330
127
100
DictionaryVariables
280
     0
  1
STANDARD
  0
DICTIONARYVAR
  5
12A
102
{ACAD_REACTORS
330
127
102
}
330
127
100
DictionaryVariables
280
     0
  1

  0
DICTIONARYVAR
  5
12B
102
{ACAD_REACTORS
330
127
102
}
330
127
100
DictionaryVariables
280
     0
  1

  0
DICTIONARYVAR
  5
12F
102
{ACAD_REACTORS
330
127
102
}
330
127
100
DictionaryVariables
280
     0
  1
1
  0
DICTIONARYVAR
  5
130
102
{ACAD_REACTORS
330
127
102
}
330
127
100
DictionaryVariables
280
     0
  1
15
  0
DICTIONARYVAR
  5
12E
102
{ACAD_REACTORS
330
127
102
}
330
127
100
DictionaryVariables
280
     0
  1
0
  0
DICTIONARYVAR
  5
12C
102
{ACAD_REACTORS
330
127
102
}
330
127
100
DictionaryVariables
280
     0
  1
0
  0
DICTIONARY
  5
3A
330
39
100
AcDbDictionary
280
     1
281
     1
  3
BUMPTILE
360
3B
  3
DIFFUSETILE
360
3C
  3
OPACITYTILE
360
3D
  3
REFLECTIONTILE
360
3E
  3
REFRACTIONTILE
360
3F
  3
SPECULARTILE
360
40
  0
DICTIONARY
  5
15
330
14
100
AcDbDictionary
280
     1
281
     1
  3
BUMPTILE
360
16
  3
DIFFUSETILE
360
17
  3
OPACITYTILE
360
18
  3
REFLECTIONTILE
360
19
  3
REFRACTIONTILE
360
1A
  3
SPECULARTILE
360
1B
  0
DICTIONARY
  5
C
330
A
100
AcDbDictionary
280
     1
281
     1
  3
BUMPTILE
360
D
  3
DIFFUSETILE
360
E
  3
OPACITYTILE
360
F
  3
REFLECTIONTILE
360
10
  3
REFRACTIONTILE
360
11
  3
SPECULARTILE
360
12
  0
DICTIONARY
  5
47
330
46
100
AcDbDictionary
280
     1
281
     1
  3
ACAD_ROUNDTRIP_2008_TABLESTYLE_CELLSTYLEMAP
360
131
  0
XRECORD
  5
3B
102
{ACAD_REACTORS
330
3A
102
}
330
3A
100
AcDbXrecord
280
     1
270
     1
271
     1
  0
XRECORD
  5
3C
102
{ACAD_REACTORS
330
3A
102
}
330
3A
100
AcDbXrecord
280
     1
270
     1
271
     1
  0
XRECORD
  5
3D
102
{ACAD_REACTORS
330
3A
102
}
330
3A
100
AcDbXrecord
280
     1
270
     1
271
     1
  0
XRECORD
  5
3E
102
{ACAD_REACTORS
330
3A
102
}
330
3A
100
AcDbXrecord
280
     1
270
     1
271
     1
  0
XRECORD
  5
3F
102
{ACAD_REACTORS
330
3A
102
}
330
3A
100
AcDbXrecord
280
     1
270
     1
271
     1
  0
XRECORD
  5
40
102
{ACAD_REACTORS
330
3A
102
}
330
3A
100
AcDbXrecord
280
     1
270
     1
271
     1
  0
XRECORD
  5
16
102
{ACAD_REACTORS
330
15
102
}
330
15
100
AcDbXrecord
280
     1
270
     1
271
     1
  0
XRECORD
  5
17
102
{ACAD_REACTORS
330
15
102
}
330
15
100
AcDbXrecord
280
     1
270
     1
271
     1
  0
XRECORD
  5
18
102
{ACAD_REACTORS
330
15
102
}
330
15
100
AcDbXrecord
280
     1
270
     1
271
     1
  0
XRECORD
  5
19
102
{ACAD_REACTORS
330
15
102
}
330
15
100
AcDbXrecord
280
     1
270
     1
271
     1
  0
XRECORD
  5
1A
102
{ACAD_REACTORS
330
15
102
}
330
15
100
AcDbXrecord
280
     1
270
     1
271
     1
  0
XRECORD
  5
1B
102
{ACAD_REACTORS
330
15
102
}
330
15
100
AcDbXrecord
280
     1
270
     1
271
     1
  0
XRECORD
  5
D
102
{ACAD_REACTORS
330
C
102
}
330
C
100
AcDbXrecord
280
     1
270
     1
271
     1
  0
XRECORD
  5
E
102
{ACAD_REACTORS
330
C
102
}
330
C
100
AcDbXrecord
280
     1
270
     1
271
     1
  0
XRECORD
  5
F
102
{ACAD_REACTORS
330
C
102
}
330
C
100
AcDbXrecord
280
     1
270
     1
271
     1
  0
XRECORD
  5
10
102
{ACAD_REACTORS
330
C
102
}
330
C
100
AcDbXrecord
280
     1
270
     1
271
     1
  0
XRECORD
  5
11
102
{ACAD_REACTORS
330
C
102
}
330
C
100
AcDbXrecord
280
     1
270
     1
271
     1
  0
XRECORD
  5
12
102
{ACAD_REACTORS
330
C
102
}
330
C
100
AcDbXrecord
280
     1
270
     1
271
     1
  0
CELLSTYLEMAP
  5
131
102
{ACAD_REACTORS
330
47
102
}
330
47
100
AcDbCellStyleMap
 90
        3
300
CELLSTYLE
  1
TABLEFORMAT_BEGIN
 90
        5
170
     1
 91
        0
 92
    32768
 62
   257
 93
        1
300
CONTENTFORMAT
  1
CONTENTFORMAT_BEGIN
 90
        0
 91
        0
 92
      512
 93
        0
300

 40
0.0
140
1.0
 94
        5
 62
     0
340
25
144
6.0
309
CONTENTFORMAT_END
171
     1
301
MARGIN
  1
CELLMARGIN_BEGIN
 40
1.5
 40
1.5
 40
1.5
 40
1.5
 40
0.18
 40
0.18
309
CELLMARGIN_END
 94
        6
 95
        1
302
GRIDFORMAT
  1
GRIDFORMAT_BEGIN
 90
        0
 91
        1
 62
     0
 92
       -2
340
0
 93
        0
 40
1.125
309
GRIDFORMAT_END
 95
        2
302
GRIDFORMAT
  1
GRIDFORMAT_BEGIN
 90
        0
 91
        1
 62
     0
 92
       -2
340
0
 93
        0
 40
1.125
309
GRIDFORMAT_END
 95
        4
302
GRIDFORMAT
  1
GRIDFORMAT_BEGIN
 90
        0
 91
        1
 62
     0
 92
       -2
340
0
 93
        0
 40
1.125
309
GRIDFORMAT_END
 95
        8
302
GRIDFORMAT
  1
GRIDFORMAT_BEGIN
 90
        0
 91
        1
 62
     0
 92
       -2
340
0
 93
        0
 40
1.125
309
GRIDFORMAT_END
 95
       16
302
GRIDFORMAT
  1
GRIDFORMAT_BEGIN
 90
        0
 91
        1
 62
     0
 92
       -2
340
0
 93
        0
 40
1.125
309
GRIDFORMAT_END
 95
       32
302
GRIDFORMAT
  1
GRIDFORMAT_BEGIN
 90
        0
 91
        1
 62
     0
 92
       -2
340
0
 93
        0
 40
1.125
309
GRIDFORMAT_END
309
TABLEFORMAT_END
  1
CELLSTYLE_BEGIN
 90
        1
 91
        1
300
_TITLE
309
CELLSTYLE_END
300
CELLSTYLE
  1
TABLEFORMAT_BEGIN
 90
        5
170
     1
 91
        0
 92
        0
 62
   257
 93
        1
300
CONTENTFORMAT
  1
CONTENTFORMAT_BEGIN
 90
        0
 91
        0
 92
      512
 93
        0
300

 40
0.0
140
1.0
 94
        5
 62
     0
340
25
144
4.5
309
CONTENTFORMAT_END
171
     1
301
MARGIN
  1
CELLMARGIN_BEGIN
 40
1.5
 40
1.5
 40
1.5
 40
1.5
 40
0.18
 40
0.18
309
CELLMARGIN_END
 94
        6
 95
        1
302
GRIDFORMAT
  1
GRIDFORMAT_BEGIN
 90
        0
 91
        1
 62
     0
 92
       -2
340
0
 93
        0
 40
1.125
309
GRIDFORMAT_END
 95
        2
302
GRIDFORMAT
  1
GRIDFORMAT_BEGIN
 90
        0
 91
        1
 62
     0
 92
       -2
340
0
 93
        0
 40
1.125
309
GRIDFORMAT_END
 95
        4
302
GRIDFORMAT
  1
GRIDFORMAT_BEGIN
 90
        0
 91
        1
 62
     0
 92
       -2
340
0
 93
        0
 40
1.125
309
GRIDFORMAT_END
 95
        8
302
GRIDFORMAT
  1
GRIDFORMAT_BEGIN
 90
        0
 91
        1
 62
     0
 92
       -2
340
0
 93
        0
 40
1.125
309
GRIDFORMAT_END
 95
       16
302
GRIDFORMAT
  1
GRIDFORMAT_BEGIN
 90
        0
 91
        1
 62
     0
 92
       -2
340
0
 93
        0
 40
1.125
309
GRIDFORMAT_END
 95
       32
302
GRIDFORMAT
  1
GRIDFORMAT_BEGIN
 90
        0
 91
        1
 62
     0
 92
       -2
340
0
 93
        0
 40
1.125
309
GRIDFORMAT_END
309
TABLEFORMAT_END
  1
CELLSTYLE_BEGIN
 90
        2
 91
        1
300
_HEADER
309
CELLSTYLE_END
300
CELLSTYLE
  1
TABLEFORMAT_BEGIN
 90
        5
170
     1
 91
        0
 92
        0
 62
   257
 93
        1
300
CONTENTFORMAT
  1
CONTENTFORMAT_BEGIN
 90
        0
 91
        0
 92
      512
 93
        0
300

 40
0.0
140
1.0
 94
        2
 62
     0
340
25
144
4.5
309
CONTENTFORMAT_END
171
     1
301
MARGIN
  1
CELLMARGIN_BEGIN
 40
1.5
 40
1.5
 40
1.5
 40
1.5
 40
0.18
 40
0.18
309
CELLMARGIN_END
 94
        6
 95
        1
302
GRIDFORMAT
  1
GRIDFORMAT_BEGIN
 90
        0
 91
        1
 62
     0
 92
       -2
340
0
 93
        0
 40
1.125
309
GRIDFORMAT_END
 95
        2
302
GRIDFORMAT
  1
GRIDFORMAT_BEGIN
 90
        0
 91
        1
 62
     0
 92
       -2
340
0
 93
        0
 40
1.125
309
GRIDFORMAT_END
 95
        4
302
GRIDFORMAT
  1
GRIDFORMAT_BEGIN
 90
        0
 91
        1
 62
     0
 92
       -2
340
0
 93
        0
 40
1.125
309
GRIDFORMAT_END
 95
        8
302
GRIDFORMAT
  1
GRIDFORMAT_BEGIN
 90
        0
 91
        1
 62
     0
 92
       -2
340
0
 93
        0
 40
1.125
309
GRIDFORMAT_END
 95
       16
302
GRIDFORMAT
  1
GRIDFORMAT_BEGIN
 90
        0
 91
        1
 62
     0
 92
       -2
340
0
 93
        0
 40
1.125
309
GRIDFORMAT_END
 95
       32
302
GRIDFORMAT
  1
GRIDFORMAT_BEGIN
 90
        0
 91
        1
 62
     0
 92
       -2
340
0
 93
        0
 40
1.125
309
GRIDFORMAT_END
309
TABLEFORMAT_END
  1
CELLSTYLE_BEGIN
 90
        3
 91
        2
300
_DATA
309
CELLSTYLE_END
  0
ENDSEC
  0
EOF
