  0
SECTION
  2
HEADER
  9
$ACADVER
  1
AC1027
  9
$ACADMAINTVER
 70
    20
  9
$DWGCODEPAGE
  3
ANSI_932
  9
$REQUIREDVERSIONS
160
                 0
  9
$INSBASE
 10
0.0
 20
0.0
 30
0.0
  9
$EXTMIN
 10
1.630237963692163
 20
3.312729425765353
 30
0.0
  9
$EXTMAX
 10
162.2700769759
 20
188.3392092088637
 30
0.0
  9
$LIMMIN
 10
0.0
 20
0.0
  9
$LIMMAX
 10
420.0
 20
297.0
  9
$ORTHOMODE
 70
     0
  9
$REGENMODE
 70
     1
  9
$FILLMODE
 70
     1
  9
$QTEXTMODE
 70
     0
  9
$MIRRTEXT
 70
     1
  9
$LTSCALE
 40
1.0
  9
$ATTMODE
 70
     1
  9
$TEXTSIZE
 40
3.5
  9
$TRACEWID
 40
1.0
  9
$TEXTSTYLE
  7
Standard
  9
$CLAYER
  8
0
  9
$CELTYPE
  6
ByLayer
  9
$CECOLOR
 62
   256
  9
$CELTSCALE
 40
1.0
  9
$DISPSILH
 70
     0
  9
$DIMSCALE
 40
1.0
  9
$DIMASZ
 40
3.556
  9
$DIMEXO
 40
1.0
  9
$DIMDLI
 40
3.75
  9
$DIMRND
 40
0.0
  9
$DIMDLE
 40
0.0
  9
$DIMEXE
 40
1.0
  9
$DIMTP
 40
0.0
  9
$DIMTM
 40
0.0
  9
$DIMTXT
 40
3.5
  9
$DIMCEN
 40
2.5
  9
$DIMTSZ
 40
0.0
  9
$DIMTOL
 70
     0
  9
$DIMLIM
 70
     0
  9
$DIMTIH
 70
     1
  9
$DIMTOH
 70
     1
  9
$DIMSE1
 70
     0
  9
$DIMSE2
 70
     0
  9
$DIMTAD
 70
     1
  9
$DIMZIN
 70
     0
  9
$DIMBLK
  1

  9
$DIMASO
 70
     1
  9
$DIMSHO
 70
     1
  9
$DIMPOST
  1

  9
$DIMAPOST
  1

  9
$DIMALT
 70
     0
  9
$DIMALTD
 70
     3
  9
$DIMALTF
 40
0.0393700787
  9
$DIMLFAC
 40
10.0
  9
$DIMTOFL
 70
     1
  9
$DIMTVP
 40
0.0
  9
$DIMTIX
 70
     0
  9
$DIMSOXD
 70
     0
  9
$DIMSAH
 70
     0
  9
$DIMBLK1
  1

  9
$DIMBLK2
  1

  9
$DIMSTYLE
  2
ISO-25
  9
$DIMCLRD
 70
     0
  9
$DIMCLRE
 70
     0
  9
$DIMCLRT
 70
     0
  9
$DIMTFAC
 40
1.0
  9
$DIMGAP
 40
1.524
  9
$DIMJUST
 70
     0
  9
$DIMSD1
 70
     0
  9
$DIMSD2
 70
     0
  9
$DIMTOLJ
 70
     0
  9
$DIMTZIN
 70
     0
  9
$DIMALTZ
 70
     0
  9
$DIMALTTZ
 70
     0
  9
$DIMUPT
 70
     0
  9
$DIMDEC
 70
     2
  9
$DIMTDEC
 70
     2
  9
$DIMALTU
 70
     2
  9
$DIMALTTD
 70
     3
  9
$DIMTXSTY
  7
Standard
  9
$DIMAUNIT
 70
     0
  9
$DIMADEC
 70
     2
  9
$DIMALTRND
 40
0.0
  9
$DIMAZIN
 70
     0
  9
$DIMDSEP
 70
    44
  9
$DIMATFIT
 70
     3
  9
$DIMFRAC
 70
     0
  9
$DIMLDRBLK
  1

  9
$DIMLUNIT
 70
     2
  9
$DIMLWD
 70
    -2
  9
$DIMLWE
 70
    -2
  9
$DIMTMOVE
 70
     0
  9
$DIMFXL
 40
1.0
  9
$DIMFXLON
 70
     0
  9
$DIMJOGANG
 40
0.7853981633974483
  9
$DIMTFILL
 70
     0
  9
$DIMTFILLCLR
 70
     0
  9
$DIMARCSYM
 70
     0
  9
$DIMLTYPE
  6

  9
$DIMLTEX1
  6

  9
$DIMLTEX2
  6

  9
$DIMTXTDIRECTION
 70
     0
  9
$LUNITS
 70
     2
  9
$LUPREC
 70
     2
  9
$SKETCHINC
 40
1.0
  9
$FILLETRAD
 40
10.0
  9
$AUNITS
 70
     0
  9
$AUPREC
 70
     2
  9
$MENU
  1
.
  9
$ELEVATION
 40
0.0
  9
$PELEVATION
 40
0.0
  9
$THICKNESS
 40
0.0
  9
$LIMCHECK
 70
     0
  9
$CHAMFERA
 40
0.0
  9
$CHAMFERB
 40
0.0
  9
$CHAMFERC
 40
0.0
  9
$CHAMFERD
 40
0.0
  9
$SKPOLY
 70
     0
  9
$TDCREATE
 40
2457886.674338507
  9
$TDUCREATE
 40
2457886.299338507
  9
$TDUPDATE
 40
2457886.674371829
  9
$TDUUPDATE
 40
2457886.299371829
  9
$TDINDWG
 40
0.0230953935
  9
$TDUSRTIMER
 40
0.0230953009
  9
$USRTIMER
 70
     1
  9
$ANGBASE
 50
0.0
  9
$ANGDIR
 70
     0
  9
$PDMODE
 70
     0
  9
$PDSIZE
 40
-1.0
  9
$PLINEWID
 40
0.0
  9
$SPLFRAME
 70
     0
  9
$SPLINETYPE
 70
     6
  9
$SPLINESEGS
 70
     8
  9
$HANDSEED
  5
16A
  9
$SURFTAB1
 70
     6
  9
$SURFTAB2
 70
     6
  9
$SURFTYPE
 70
     6
  9
$SURFU
 70
     6
  9
$SURFV
 70
     6
  9
$UCSBASE
  2

  9
$UCSNAME
  2

  9
$UCSORG
 10
0.0
 20
0.0
 30
0.0
  9
$UCSXDIR
 10
1.0
 20
0.0
 30
0.0
  9
$UCSYDIR
 10
0.0
 20
1.0
 30
0.0
  9
$UCSORTHOREF
  2

  9
$UCSORTHOVIEW
 70
     0
  9
$UCSORGTOP
 10
0.0
 20
0.0
 30
0.0
  9
$UCSORGBOTTOM
 10
0.0
 20
0.0
 30
0.0
  9
$UCSORGLEFT
 10
0.0
 20
0.0
 30
0.0
  9
$UCSORGRIGHT
 10
0.0
 20
0.0
 30
0.0
  9
$UCSORGFRONT
 10
0.0
 20
0.0
 30
0.0
  9
$UCSORGBACK
 10
0.0
 20
0.0
 30
0.0
  9
$PUCSBASE
  2

  9
$PUCSNAME
  2

  9
$PUCSORG
 10
0.0
 20
0.0
 30
0.0
  9
$PUCSXDIR
 10
1.0
 20
0.0
 30
0.0
  9
$PUCSYDIR
 10
0.0
 20
1.0
 30
0.0
  9
$PUCSORTHOREF
  2

  9
$PUCSORTHOVIEW
 70
     0
  9
$PUCSORGTOP
 10
0.0
 20
0.0
 30
0.0
  9
$PUCSORGBOTTOM
 10
0.0
 20
0.0
 30
0.0
  9
$PUCSORGLEFT
 10
0.0
 20
0.0
 30
0.0
  9
$PUCSORGRIGHT
 10
0.0
 20
0.0
 30
0.0
  9
$PUCSORGFRONT
 10
0.0
 20
0.0
 30
0.0
  9
$PUCSORGBACK
 10
0.0
 20
0.0
 30
0.0
  9
$USERI1
 70
     0
  9
$USERI2
 70
     0
  9
$USERI3
 70
     0
  9
$USERI4
 70
     0
  9
$USERI5
 70
     0
  9
$USERR1
 40
0.0
  9
$USERR2
 40
0.0
  9
$USERR3
 40
0.0
  9
$USERR4
 40
0.0
  9
$USERR5
 40
0.0
  9
$WORLDVIEW
 70
     1
  9
$SHADEDGE
 70
     3
  9
$SHADEDIF
 70
    70
  9
$TILEMODE
 70
     1
  9
$MAXACTVP
 70
    64
  9
$PINSBASE
 10
0.0
 20
0.0
 30
0.0
  9
$PLIMCHECK
 70
     0
  9
$PEXTMIN
 10
1.000000000000000E+20
 20
1.000000000000000E+20
 30
1.000000000000000E+20
  9
$PEXTMAX
 10
-1.000000000000000E+20
 20
-1.000000000000000E+20
 30
-1.000000000000000E+20
  9
$PLIMMIN
 10
0.0
 20
0.0
  9
$PLIMMAX
 10
420.0
 20
297.0
  9
$UNITMODE
 70
     0
  9
$VISRETAIN
 70
     1
  9
$PLINEGEN
 70
     0
  9
$PSLTSCALE
 70
     1
  9
$TREEDEPTH
 70
  3020
  9
$CMLSTYLE
  2
Standard
  9
$CMLJUST
 70
     0
  9
$CMLSCALE
 40
20.0
  9
$PROXYGRAPHICS
 70
     1
  9
$MEASUREMENT
 70
     1
  9
$CELWEIGHT
370
    -1
  9
$ENDCAPS
280
     0
  9
$JOINSTYLE
280
     0
  9
$LWDISPLAY
290
     0
  9
$INSUNITS
 70
     4
  9
$HYPERLINKBASE
  1

  9
$STYLESHEET
  1

  9
$XEDIT
290
     1
  9
$CEPSNTYPE
380
     0
  9
$PSTYLEMODE
290
     1
  9
$FINGERPRINTGUID
  2
{27EF6308-F2FF-4A4C-8419-DB0B10D8C3A8}
  9
$VERSIONGUID
  2
{A442A7B1-F134-4609-B400-07C62B98DF0D}
  9
$EXTNAMES
290
     1
  9
$PSVPSCALE
 40
0.0
  9
$OLESTARTUP
290
     0
  9
$SORTENTS
280
   127
  9
$INDEXCTL
280
     0
  9
$HIDETEXT
280
     1
  9
$XCLIPFRAME
280
     2
  9
$HALOGAP
280
     0
  9
$OBSCOLOR
 70
   257
  9
$OBSLTYPE
280
     0
  9
$INTERSECTIONDISPLAY
280
     0
  9
$INTERSECTIONCOLOR
 70
   257
  9
$DIMASSOC
280
     1
  9
$PROJECTNAME
  1

  9
$CAMERADISPLAY
290
     0
  9
$LENSLENGTH
 40
50.0
  9
$CAMERAHEIGHT
 40
0.0
  9
$STEPSPERSEC
 40
2.0
  9
$STEPSIZE
 40
6.0
  9
$3DDWFPREC
 40
2.0
  9
$PSOLWIDTH
 40
0.25
  9
$PSOLHEIGHT
 40
4.0
  9
$LOFTANG1
 40
1.570796326794896
  9
$LOFTANG2
 40
1.570796326794896
  9
$LOFTMAG1
 40
0.0
  9
$LOFTMAG2
 40
0.0
  9
$LOFTPARAM
 70
     7
  9
$LOFTNORMALS
280
     1
  9
$LATITUDE
 40
37.795
  9
$LONGITUDE
 40
-122.394
  9
$NORTHDIRECTION
 40
0.0
  9
$TIMEZONE
 70
 -8000
  9
$LIGHTGLYPHDISPLAY
280
     1
  9
$TILEMODELIGHTSYNCH
280
     1
  9
$CMATERIAL
347
14
  9
$SOLIDHIST
280
     0
  9
$SHOWHIST
280
     1
  9
$DWFFRAME
280
     2
  9
$DGNFRAME
280
     0
  9
$REALWORLDSCALE
290
     1
  9
$INTERFERECOLOR
 62
     1
  9
$INTERFEREOBJVS
345
48
  9
$INTERFEREVPVS
346
49
  9
$CSHADOW
280
     0
  9
$SHADOWPLANELOCATION
 40
0.0
  0
ENDSEC
  0
SECTION
  2
CLASSES
  0
CLASS
  1
ACDBDICTIONARYWDFLT
  2
AcDbDictionaryWithDefault
  3
ObjectDBX Classes
 90
        0
 91
        1
280
     0
281
     0
  0
CLASS
  1
VISUALSTYLE
  2
AcDbVisualStyle
  3
ObjectDBX Classes
 90
     4095
 91
        3
280
     0
281
     0
  0
CLASS
  1
MATERIAL
  2
AcDbMaterial
  3
ObjectDBX Classes
 90
     1153
 91
        3
280
     0
281
     0
  0
CLASS
  1
SCALE
  2
AcDbScale
  3
ObjectDBX Classes
 90
     1153
 91
       33
280
     0
281
     0
  0
CLASS
  1
TABLESTYLE
  2
AcDbTableStyle
  3
ObjectDBX Classes
 90
     4095
 91
        1
280
     0
281
     0
  0
CLASS
  1
MLEADERSTYLE
  2
AcDbMLeaderStyle
  3
ACDB_MLEADERSTYLE_CLASS
 90
     4095
 91
        0
280
     0
281
     0
  0
CLASS
  1
SUN
  2
AcDbSun
  3
SCENEOE
 90
     1153
 91
        0
280
     1
281
     0
  0
CLASS
  1
ACDBSECTIONVIEWSTYLE
  2
AcDbSectionViewStyle
  3
ObjectDBX Classes
 90
     1025
 91
        0
280
     0
281
     0
  0
CLASS
  1
ACDBDETAILVIEWSTYLE
  2
AcDbDetailViewStyle
  3
ObjectDBX Classes
 90
     1025
 91
        0
280
     0
281
     0
  0
CLASS
  1
DICTIONARYVAR
  2
AcDbDictionaryVar
  3
ObjectDBX Classes
 90
        0
 91
        9
280
     0
281
     0
  0
CLASS
  1
SORTENTSTABLE
  2
AcDbSortentsTable
  3
ObjectDBX Classes
 90
        0
 91
        2
280
     0
281
     0
  0
CLASS
  1
CELLSTYLEMAP
  2
AcDbCellStyleMap
  3
ObjectDBX Classes
 90
     1152
 91
        1
280
     0
281
     0
  0
ENDSEC
  0
SECTION
  2
TABLES
  0
TABLE
  2
VPORT
  5
2C
330
0
100
AcDbSymbolTable
 70
     1
  0
VPORT
  5
2D
330
2C
100
AcDbSymbolTableRecord
100
AcDbViewportTableRecord
  2
*Active
 70
     0
 10
0.0
 20
0.0
 11
1.0
 21
1.0
 12
4.256619957571022
 22
5.734774672432649
 13
0.0
 23
0.0
 14
10.0
 24
10.0
 15
10.0
 25
10.0
 16
0.0
 26
0.0
 36
1.0
 17
0.0
 27
0.0
 37
0.0
 40
21.44177692402331
 41
1.910588235294117
 42
50.0
 43
0.0
 44
0.0
 50
0.0
 51
0.0
 71
     0
 72
  2000
 73
     1
 74
     3
 75
     0
 76
     0
 77
     0
 78
     0
281
     0
 65
     1
110
0.0
120
0.0
130
0.0
111
1.0
121
0.0
131
0.0
112
0.0
122
1.0
132
0.0
 79
     0
146
0.0
348
2E
 60
     3
 61
     5
292
     1
282
     1
141
0.0
142
0.0
 63
   250
421
  3355443
1001
ACAD_NAV_VCDISPLAY
1070
     3
  0
ENDTAB
  0
TABLE
  2
LTYPE
  5
27
330
0
100
AcDbSymbolTable
 70
     1
  0
LTYPE
  5
28
330
27
100
AcDbSymbolTableRecord
100
AcDbLinetypeTableRecord
  2
ByBlock
 70
     0
  3

 72
    65
 73
     0
 40
0.0
  0
LTYPE
  5
29
330
27
100
AcDbSymbolTableRecord
100
AcDbLinetypeTableRecord
  2
ByLayer
 70
     0
  3

 72
    65
 73
     0
 40
0.0
  0
LTYPE
  5
13
330
27
100
AcDbSymbolTableRecord
100
AcDbLinetypeTableRecord
  2
Continuous
 70
     0
  3
Solid line
 72
    65
 73
     0
 40
0.0
  0
ENDTAB
  0
TABLE
  2
LAYER
  5
23
330
0
100
AcDbSymbolTable
 70
     1
  0
LAYER
  5
6
330
23
100
AcDbSymbolTableRecord
100
AcDbLayerTableRecord
  2
0
 70
     0
 62
     7
  6
Continuous
370
    -3
390
7
347
A
348
0
  0
ENDTAB
  0
TABLE
  2
STYLE
  5
24
330
0
100
AcDbSymbolTable
 70
     1
  0
STYLE
  5
25
330
24
100
AcDbSymbolTableRecord
100
AcDbTextStyleTableRecord
  2
Standard
 70
     0
 40
0.0
 41
1.0
 50
0.0
 71
     0
 42
3.5
  3
txt
  4
bigfont
  0
ENDTAB
  0
TABLE
  2
VIEW
  5
2A
330
0
100
AcDbSymbolTable
 70
     0
  0
ENDTAB
  0
TABLE
  2
UCS
  5
2B
330
0
100
AcDbSymbolTable
 70
     0
  0
ENDTAB
  0
TABLE
  2
APPID
  5
31
330
0
100
AcDbSymbolTable
 70
     2
  0
APPID
  5
32
330
31
100
AcDbSymbolTableRecord
100
AcDbRegAppTableRecord
  2
ACAD
 70
     0
  0
APPID
  5
30
330
31
100
AcDbSymbolTableRecord
100
AcDbRegAppTableRecord
  2
ACAD_NAV_VCDISPLAY
 70
     0
  0
ENDTAB
  0
TABLE
  2
DIMSTYLE
  5
33
330
0
100
AcDbSymbolTable
 70
     1
100
AcDbDimStyleTable
 71
     1
340
34
  0
DIMSTYLE
105
34
330
33
100
AcDbSymbolTableRecord
100
AcDbDimStyleTableRecord
  2
ISO-25
 70
     0
 41
2.5
 42
0.625
 43
3.75
 44
1.25
 73
     0
 74
     0
 77
     1
 78
     8
140
2.5
141
2.5
143
0.0393700787
147
0.625
171
     3
172
     1
271
     2
272
     2
274
     3
278
    44
283
     0
284
     8
340
25
  0
ENDTAB
  0
TABLE
  2
BLOCK_RECORD
  5
1
330
0
100
AcDbSymbolTable
 70
     0
  0
BLOCK_RECORD
  5
2
102
{ACAD_XDICTIONARY
360
3
102
}
330
1
100
AcDbSymbolTableRecord
100
AcDbBlockTableRecord
  2
*Model_Space
340
1D
 70
     0
280
     1
281
     0
  0
BLOCK_RECORD
  5
1F
330
1
100
AcDbSymbolTableRecord
100
AcDbBlockTableRecord
  2
*Paper_Space
340
22
 70
     0
280
     1
281
     0
  0
ENDTAB
  0
ENDSEC
  0
SECTION
  2
BLOCKS
  0
BLOCK
  5
5
330
2
100
AcDbEntity
  8
0
100
AcDbBlockBegin
  2
*Model_Space
 70
     0
 10
0.0
 20
0.0
 30
0.0
  3
*Model_Space
  1

  0
ENDBLK
  5
1C
330
2
100
AcDbEntity
  8
0
100
AcDbBlockEnd
  0
BLOCK
  5
20
330
1F
100
AcDbEntity
 67
     1
  8
0
100
AcDbBlockBegin
  2
*Paper_Space
 70
     0
 10
0.0
 20
0.0
 30
0.0
  3
*Paper_Space
  1

  0
ENDBLK
  5
21
330
1F
100
AcDbEntity
 67
     1
  8
0
100
AcDbBlockEnd
  0
ENDSEC
  0
SECTION
  2
ENTITIES
  0
SPLINE
  5
6B
330
2
100
AcDbEntity
  8
0
  6
Continuous
 62
     7
370
    20
100
AcDbSpline
210
0.0
220
0.0
230
1.0
 70
     8
 71
     3
 72
    12
 73
     8
 74
     0
 42
0.000000001
 43
0.0000000001
 40
0.0
 40
0.0
 40
0.0
 40
0.0
 40
0.0576366228627004
 40
0.4245015916457044
 40
0.7641901315348526
 40
0.9793357751910932
 40
1.0
 40
1.0
 40
1.0
 40
1.0
 10
2.962996992173101
 20
6.176416457666844
 30
0.0
 10
2.962977462401519
 20
6.176285291771039
 30
0.0
 10
2.96283362296906
 20
6.175319237051439
 30
0.0
 10
2.963460898780678
 20
6.173556613890566
 30
0.0
 10
2.964677737000981
 20
6.171831792679482
 30
0.0
 10
2.965716933733343
 20
6.170972832687454
 30
0.0
 10
2.966200183699354
 20
6.170729040771025
 30
0.0
 10
2.966242531316107
 20
6.170707677072376
 30
0.0
  0
LINE
  5
6C
330
2
100
AcDbEntity
  8
0
  6
Continuous
 62
     7
370
    20
100
AcDbLine
 10
2.962935655864849
 20
6.177824864686453
 30
0.0
 11
2.962935655864849
 21
6.176417568067153
 31
0.0
  0
LINE
  5
6D
330
2
100
AcDbEntity
  8
0
  6
Continuous
 62
     7
370
    20
100
AcDbLine
 10
2.966235994339249
 20
6.170701616891053
 30
0.0
 11
4.545983256691849
 21
5.258733084703153
 31
0.0
  0
LINE
  5
6E
330
2
100
AcDbEntity
  8
0
  6
Continuous
 62
     7
370
    20
100
AcDbLine
 10
4.551952107077148
 20
5.258412823600453
 30
0.0
 11
4.609336918613688
 21
5.283788021312189
 31
0.0
  0
LINE
  5
6F
330
2
100
AcDbEntity
  8
0
  6
Continuous
 62
     7
370
    20
100
AcDbLine
 10
3.383598384899749
 20
4.572185346362953
 30
0.0
 11
3.478496294334649
 21
4.639788888174253
 31
0.0
  0
SPLINE
  5
70
330
2
100
AcDbEntity
  8
0
  6
Continuous
 62
     7
370
    20
100
AcDbSpline
210
0.0
220
0.0
230
1.0
 70
     8
 71
     3
 72
    11
 73
     7
 74
     0
 42
0.000000001
 43
0.0000000001
 40
0.0
 40
0.0
 40
0.0
 40
0.0
 40
0.0570957809532186
 40
0.3642580504037661
 40
0.7036770494217607
 40
1.0
 40
1.0
 40
1.0
 40
1.0
 10
3.478481168883752
 20
4.639804361081197
 30
0.0
 10
3.47858149548825
 20
4.63986870121685
 30
0.0
 10
3.479221556325465
 20
4.640279176596723
 30
0.0
 10
3.480192778654187
 20
4.641416496136565
 30
0.0
 10
3.4811266912228
 20
4.64320104366484
 30
0.0
 10
3.481177496319733
 20
4.644540140455739
 30
0.0
 10
3.481201176865332
 20
4.645164301111554
 30
0.0
  0
LINE
  5
71
330
2
100
AcDbEntity
  8
0
  6
Continuous
 62
     7
370
    20
100
AcDbLine
 10
5.365926048278449
 20
3.917119330793052
 30
0.0
 11
6.396818183339149
 21
3.321997968739153
 31
0.0
  0
LINE
  5
72
330
2
100
AcDbEntity
  8
0
  6
Continuous
 62
     7
370
    20
100
AcDbLine
 10
6.596451960153049
 20
3.667811274303253
 30
0.0
 11
5.658965982651348
 21
4.209010409366653
 31
0.0
  0
SPLINE
  5
73
330
2
100
AcDbEntity
  8
0
  6
Continuous
 62
     7
370
    20
100
AcDbSpline
210
0.0
220
0.0
230
1.0
 70
     8
 71
     3
 72
    49
 73
    45
 74
     0
 42
0.000000001
 43
0.0000000001
 40
0.0
 40
0.0
 40
0.0
 40
0.0
 40
0.0486396355743979
 40
0.097804672765176
 40
0.1415317851532702
 40
0.1798211103098426
 40
0.212672591244896
 40
0.2404957017445459
 40
0.2656017482874231
 40
0.2886004395172581
 40
0.3027121206895487
 40
0.3159576956320784
 40
0.3310036815633918
 40
0.344114329792802
 40
0.3587554073826589
 40
0.3749055774797766
 40
0.3925556626566108
 40
0.4214368995332601
 40
0.446687361014893
 40
0.4681615752346921
 40
0.4860286185872181
 40
0.5004328303236442
 40
0.5258440347314815
 40
0.5564274177164874
 40
0.5921648095809458
 40
0.6307709613640297
 40
0.6692053445586889
 40
0.7074645794251287
 40
0.7217669757016979
 40
0.7353234654928589
 40
0.7472423842686199
 40
0.7575216336431982
 40
0.7661611495225347
 40
0.7731609458906631
 40
0.7790936631850773
 40
0.7881996382915056
 40
0.8013376383881814
 40
0.8185049000909508
 40
0.8396987960934101
 40
0.8649156576160182
 40
0.8941515704634309
 40
0.9274062942038955
 40
0.9646804536203209
 40
1.0
 40
1.0
 40
1.0
 40
1.0
 10
3.292133257250398
 20
6.210471923405066
 30
0.0
 10
3.27513562608138
 20
6.220286111726128
 30
0.0
 10
3.240956756633928
 20
6.240020500478465
 30
0.0
 10
3.191486168868221
 20
6.268583077481613
 30
0.0
 10
3.14562710364679
 20
6.295063181439944
 30
0.0
 10
3.105453679031407
 20
6.318252933871955
 30
0.0
 10
3.070850064258149
 20
6.338248164715531
 30
0.0
 10
3.040772868703584
 20
6.355552900056029
 30
0.0
 10
3.014327845176572
 20
6.370984000492557
 30
0.0
 10
2.99206144072944
 20
6.383362577756543
 30
0.0
 10
2.972594628992565
 20
6.39246122931488
 30
0.0
 10
2.955211399683443
 20
6.399372994328597
 30
0.0
 10
2.937292968518045
 20
6.405217203127541
 30
0.0
 10
2.91785345795899
 20
6.410162852240128
 30
0.0
 10
2.897112448889833
 20
6.413995230961408
 30
0.0
 10
2.873575660710817
 20
6.416745711751035
 30
0.0
 10
2.84262643888229
 20
6.418222801829697
 30
0.0
 10
2.807064015630955
 20
6.416998846020895
 30
0.0
 10
2.77027055418261
 20
6.413125063015119
 30
0.0
 10
2.739292290604528
 20
6.408649843330685
 30
0.0
 10
2.71371943657179
 20
6.404486002358201
 30
0.0
 10
2.686543873235983
 20
6.399472225198508
 30
0.0
 10
2.653882663519289
 20
6.392472957883928
 30
0.0
 10
2.612171248920502
 20
6.382128734819151
 30
0.0
 10
2.565589142779034
 20
6.368865744411838
 30
0.0
 10
2.516815725457914
 20
6.353183878484918
 30
0.0
 10
2.468234257305047
 20
6.335889999201691
 30
0.0
 10
2.430839297992906
 20
6.321391879348214
 30
0.0
 10
2.404119479780363
 20
6.310485892616894
 30
0.0
 10
2.388188610780399
 20
6.303807882762271
 30
0.0
 10
2.373987065853178
 20
6.297712308541878
 30
0.0
 10
2.361827319638108
 20
6.292386576772527
 30
0.0
 10
2.351669921115562
 20
6.28786311169199
 30
0.0
 10
2.34325876077034
 20
6.284066377362657
 30
0.0
 10
2.334701753928785
 20
6.280161409018736
 30
0.0
 10
2.323817248031411
 20
6.275131957490053
 30
0.0
 10
2.308701050247674
 20
6.26802036615668
 30
0.0
 10
2.289135056290713
 20
6.258597690178016
 30
0.0
 10
2.265248265691456
 20
6.246781816888951
 30
0.0
 10
2.237168343602512
 20
6.232496389302633
 30
0.0
 10
2.205016364180849
 20
6.215671440653448
 30
0.0
 10
2.168950645898593
 20
6.196216073808722
 30
0.0
 10
2.131172113369513
 20
6.175276563792658
 30
0.0
 10
2.105696799634373
 20
6.160660127519197
 30
0.0
 10
2.093302109004688
 20
6.153548685925125
 30
0.0
  0
LINE
  5
74
330
2
100
AcDbEntity
  8
0
  6
Continuous
 62
     7
370
    20
100
AcDbLine
 10
4.642190217258884
 20
5.431203606305617
 30
0.0
 11
3.292236666651949
 21
6.210515850508453
 31
0.0
  0
SPLINE
  5
75
330
2
100
AcDbEntity
  8
0
  6
Continuous
 62
     7
370
    20
100
AcDbSpline
210
0.0
220
0.0
230
1.0
 70
     8
 71
     3
 72
    26
 73
    22
 74
     0
 42
0.000000001
 43
0.0000000001
 40
0.0
 40
0.0
 40
0.0
 40
0.0
 40
0.0375200095885267
 40
0.0828896294166119
 40
0.1250723839240027
 40
0.1826256112056079
 40
0.2375389255326102
 40
0.308712159894632
 40
0.3779906305417669
 40
0.4470988759236766
 40
0.4857962199907104
 40
0.5237849111952887
 40
0.5602797958109461
 40
0.5952800368082483
 40
0.6287854667770764
 40
0.6660956419823779
 40
0.7119727300245158
 40
0.7683017765051271
 40
0.8350826140089749
 40
0.9123152425434039
 40
1.0
 40
1.0
 40
1.0
 40
1.0
 10
1.631751106888628
 20
5.614430001333805
 30
0.0
 10
1.631986751233432
 20
5.609855955885398
 30
0.0
 10
1.632507339384369
 20
5.599750922962666
 30
0.0
 10
1.637386092641489
 20
5.58493366162399
 30
0.0
 10
1.646015494912012
 20
5.568510707505853
 30
0.0
 10
1.65926819040603
 20
5.552377286133237
 30
0.0
 10
1.679400511258629
 20
5.534851732798864
 30
0.0
 10
1.705093012547395
 20
5.518249456578185
 30
0.0
 10
1.734427961117496
 20
5.501641821961786
 30
0.0
 10
1.758905827982942
 20
5.487427829753208
 30
0.0
 10
1.779108615292416
 20
5.47577819658269
 30
0.0
 10
1.794776306298919
 20
5.466729682521066
 30
0.0
 10
1.809936885763495
 20
5.457978332857811
 30
0.0
 10
1.824475546779545
 20
5.449584973433283
 30
0.0
 10
1.839127483961606
 20
5.441126585894474
 30
0.0
 10
1.855285427023613
 20
5.431798721692896
 30
0.0
 10
1.874603548975143
 20
5.420646358090011
 30
0.0
 10
1.898002034098595
 20
5.407138056004676
 30
0.0
 10
1.925743098409095
 20
5.391123846155158
 30
0.0
 10
1.95782195439495
 20
5.372600955669476
 30
0.0
 10
1.980665377172332
 20
5.359422777029093
 30
0.0
 10
1.992810973427552
 20
5.352416084612414
 30
0.0
  0
SPLINE
  5
76
330
2
100
AcDbEntity
  8
0
  6
Continuous
 62
     7
370
    20
100
AcDbSpline
210
0.0
220
0.0
230
1.0
 70
     8
 71
     3
 72
     9
 73
     5
 74
     0
 42
0.000000001
 43
0.0000000001
 40
0.0
 40
0.0
 40
0.0
 40
0.0
 40
0.486184372359161
 40
1.0
 40
1.0
 40
1.0
 40
1.0
 10
1.631818145665869
 20
5.717403919229724
 30
0.0
 10
1.631069205847559
 20
5.700722170808223
 30
0.0
 10
1.629528761808449
 20
5.666410602255423
 30
0.0
 10
1.630829633998142
 20
5.630936126489654
 30
0.0
 10
1.631498042458772
 20
5.612708786458837
 30
0.0
  0
SPLINE
  5
77
330
2
100
AcDbEntity
  8
0
  6
Continuous
 62
     7
370
    20
100
AcDbSpline
210
0.0
220
0.0
230
1.0
 70
     8
 71
     3
 72
    36
 73
    32
 74
     0
 42
0.000000001
 43
0.0000000001
 40
0.0
 40
0.0
 40
0.0
 40
0.0
 40
0.0732616502932108
 40
0.1491333789711245
 40
0.2175782910263746
 40
0.2786027389211509
 40
0.3321991871538944
 40
0.3783575134513932
 40
0.4187730782354212
 40
0.4557294260239845
 40
0.4892385084975914
 40
0.5193016862557172
 40
0.5403967019496584
 40
0.564887132644198
 40
0.5928680083839035
 40
0.6243449829230086
 40
0.6593304759612764
 40
0.6948380098398533
 40
0.7252808710085313
 40
0.7406407826496128
 40
0.7542330991590927
 40
0.7660566585158538
 40
0.7761086076202656
 40
0.7866384052565766
 40
0.8022294944159254
 40
0.8230249064346731
 40
0.849051210057318
 40
0.8803370550426185
 40
0.9167309661280567
 40
0.9587632903386827
 40
1.0
 40
1.0
 40
1.0
 40
1.0
 10
2.09329818207945
 20
6.15353611915367
 30
0.0
 10
2.078094015029472
 20
6.14469256078082
 30
0.0
 10
2.04714400506478
 20
6.126690376322873
 30
0.0
 10
2.002963104153174
 20
6.099866866081185
 30
0.0
 10
1.962048682076765
 20
6.074122807294926
 30
0.0
 10
1.92635867456509
 20
6.050751602154741
 30
0.0
 10
1.895755995377655
 20
6.029843526555821
 30
0.0
 10
1.869780856188138
 20
6.011265321383353
 30
0.0
 10
1.847479202294042
 20
5.994609420578514
 30
0.0
 10
1.827973097156135
 20
5.979424935738403
 30
0.0
 10
1.810729230274981
 20
5.965460723665996
 30
0.0
 10
1.796551021824658
 20
5.953548630337436
 30
0.0
 10
1.784140452212218
 20
5.94279157075485
 30
0.0
 10
1.772307184967954
 20
5.932229303816236
 30
0.0
 10
1.759133441160922
 20
5.92004468600316
 30
0.0
 10
1.744764295020054
 20
5.906165365303608
 30
0.0
 10
1.729842010628195
 20
5.890967655063681
 30
0.0
 10
1.715753873900104
 20
5.875694045116478
 30
0.0
 10
1.704976533935561
 20
5.863206800067427
 30
0.0
 10
1.697419826066282
 20
5.853987080294574
 30
0.0
 10
1.692376039126669
 20
5.847614171252656
 30
0.0
 10
1.688099444753724
 20
5.842032575272551
 30
0.0
 10
1.684289423949939
 20
5.836912360082921
 30
0.0
 10
1.680104802963026
 20
5.831122431148198
 30
0.0
 10
1.674783840723719
 20
5.823460209366817
 30
0.0
 10
1.668033494175073
 20
5.813124896714239
 30
0.0
 10
1.660196936106227
 20
5.799955457762903
 30
0.0
 10
1.651871850121711
 20
5.78381975301298
 30
0.0
 10
1.643319803988862
 20
5.764563543033945
 30
0.0
 10
1.635212878794949
 20
5.743100316661724
 30
0.0
 10
1.633246340012858
 20
5.727494431674159
 30
0.0
 10
1.63227246551205
 20
5.719766044321549
 30
0.0
  0
SPLINE
  5
78
330
2
100
AcDbEntity
  8
0
  6
Continuous
 62
     7
370
    20
100
AcDbSpline
210
0.0
220
0.0
230
1.0
 70
     8
 71
     3
 72
    22
 73
    18
 74
     0
 42
0.000000001
 43
0.0000000001
 40
0.0
 40
0.0
 40
0.0
 40
0.0
 40
0.0842010996496371
 40
0.1637662848506034
 40
0.2266520566631658
 40
0.2736729345247314
 40
0.3194658903968761
 40
0.3859918237736771
 40
0.4599272591993021
 40
0.5324168740177809
 40
0.6103495469286371
 40
0.6762189043752313
 40
0.7501453805531542
 40
0.7997718254855815
 40
0.8612496817122476
 40
0.9360757615717611
 40
1.0
 40
1.0
 40
1.0
 40
1.0
 10
5.336383289666903
 20
3.89937023310265
 30
0.0
 10
5.345312878974545
 20
3.904630561085413
 30
0.0
 10
5.362680415410994
 20
3.914861595768067
 30
0.0
 10
5.385974391975866
 20
3.929706818136954
 30
0.0
 10
5.405072519628077
 20
3.94241766881927
 30
0.0
 10
5.420339956106826
 20
3.952981657499223
 30
0.0
 10
5.435828458713213
 20
3.964041247990734
 30
0.0
 10
5.453775633769874
 20
3.977366496419919
 30
0.0
 10
5.473963006617676
 20
3.993116160067256
 30
0.0
 10
5.494751165029952
 20
4.010208690690051
 30
0.0
 10
5.514252540395629
 20
4.027145527537201
 30
0.0
 10
5.533395427328894
 20
4.044681102399168
 30
0.0
 10
5.549739945295022
 20
4.060474497591449
 30
0.0
 10
5.565336322155267
 20
4.076280916773075
 30
0.0
 10
5.580841773325209
 20
4.092742180721579
 30
0.0
 10
5.597199819281099
 20
4.110943269975575
 30
0.0
 10
5.607947805385052
 20
4.124028406228506
 30
0.0
 10
5.612899554936412
 20
4.130056913982727
 30
0.0
  0
LINE
  5
79
330
2
100
AcDbEntity
  8
0
  6
Continuous
 62
     7
370
    20
100
AcDbLine
 10
4.72362158635625
 20
5.220808901566753
 30
0.0
 11
4.72362631522985
 21
5.220788306187553
 31
0.0
  0
SPLINE
  5
7A
330
2
100
AcDbEntity
  8
0
  6
Continuous
 62
     7
370
    20
100
AcDbSpline
210
0.0
220
0.0
230
1.0
 70
     8
 71
     3
 72
    21
 73
    17
 74
     0
 42
0.000000001
 43
0.0000000001
 40
0.0
 40
0.0
 40
0.0
 40
0.0
 40
0.0692321742318117
 40
0.1563037787588256
 40
0.2267300393304753
 40
0.2807694539071042
 40
0.3287036773014489
 40
0.4198577017381134
 40
0.5148178163812563
 40
0.6069845146763938
 40
0.7036538073632057
 40
0.7930295218615741
 40
0.8433039630949018
 40
0.9058123414632575
 40
0.984493876375896
 40
1.0
 40
1.0
 40
1.0
 40
1.0
 10
4.97192457662628
 20
3.750072543236802
 30
0.0
 10
4.980320956507339
 20
3.752431141446631
 30
0.0
 10
4.999277257069415
 20
3.757756090675234
 30
0.0
 10
5.026442746778072
 20
3.766021152828233
 30
0.0
 10
5.051570206458137
 20
3.774018378570476
 30
0.0
 10
5.071671660381563
 20
3.780705508411664
 30
0.0
 10
5.093960546446466
 20
3.78838113145191
 30
0.0
 10
5.120864932958906
 20
3.798100166009532
 30
0.0
 10
5.152395207670702
 20
3.810245836566371
 30
0.0
 10
5.183855269615799
 20
3.823160786966055
 30
0.0
 10
5.214154724991738
 20
3.836409490006379
 30
0.0
 10
5.239527019297197
 20
3.848216939464555
 30
0.0
 10
5.260980362607235
 20
3.858660907125757
 30
0.0
 10
5.281025130776082
 20
3.868838207802593
 30
0.0
 10
5.29730659486943
 20
3.877311060284228
 30
0.0
 10
5.306850518431347
 20
3.88268044482031
 30
0.0
 10
5.308421735519757
 20
3.883564407132308
 30
0.0
  0
SPLINE
  5
7B
330
2
100
AcDbEntity
  8
0
  6
Continuous
 62
     7
370
    20
100
AcDbSpline
210
0.0
220
0.0
230
1.0
 70
     8
 71
     3
 72
     9
 73
     5
 74
     0
 42
0.000000001
 43
0.0000000001
 40
0.0
 40
0.0
 40
0.0
 40
0.0
 40
0.4062769658541783
 40
1.0
 40
1.0
 40
1.0
 40
1.0
 10
4.291712407014755
 20
3.966712160936742
 30
0.0
 10
4.291541898448233
 20
3.966802201312686
 30
0.0
 10
4.291122212911385
 20
3.967023824450375
 30
0.0
 10
4.290799894926794
 20
3.96722222046796
 30
0.0
 10
4.290608527315023
 20
3.967340012753482
 30
0.0
  0
SPLINE
  5
7C
330
2
100
AcDbEntity
  8
0
  6
Continuous
 62
     7
370
    20
100
AcDbSpline
210
0.0
220
0.0
230
1.0
 70
     8
 71
     3
 72
    29
 73
    25
 74
     0
 42
0.000000001
 43
0.0000000001
 40
0.0
 40
0.0
 40
0.0
 40
0.0
 40
0.0011141957101871
 40
0.0169143594649614
 40
0.0292050743869995
 40
0.0548374706083966
 40
0.0855096172397584
 40
0.1224549193657947
 40
0.1663569528283127
 40
0.2373353503725916
 40
0.2946641692523028
 40
0.3393958264065914
 40
0.3856964493950487
 40
0.4385275595630493
 40
0.5103086143651252
 40
0.586177794103739
 40
0.6575286302168109
 40
0.7266088137655831
 40
0.8075018315004058
 40
0.8887328494643501
 40
0.9184649800200688
 40
0.9514834582657574
 40
0.9961529711616151
 40
1.0
 40
1.0
 40
1.0
 40
1.0
 10
4.28100918638629
 20
3.972653205522935
 30
0.0
 10
4.280999587614278
 20
3.972656214987104
 30
0.0
 10
4.280853870772295
 20
3.972701900999248
 30
0.0
 10
4.28117185434584
 20
3.972427359634425
 30
0.0
 10
4.28321446293719
 20
3.971003677379081
 30
0.0
 10
4.288963700246362
 20
3.967205462240463
 30
0.0
 10
4.299582259659445
 20
3.960359013409237
 30
0.0
 10
4.314393267842259
 20
3.951086872275209
 30
0.0
 10
4.336471073504318
 20
3.93780638697742
 30
0.0
 10
4.362838704444678
 20
3.922889054388868
 30
0.0
 10
4.390155242152559
 20
3.908536811837462
 30
0.0
 10
4.414781010183185
 20
3.896405624586781
 30
0.0
 10
4.439041956314313
 20
3.885168976038779
 30
0.0
 10
4.468183317812636
 20
3.872606879089778
 30
0.0
 10
4.503019989484704
 20
3.858851830619736
 30
0.0
 10
4.541628994899051
 20
3.844946734179324
 30
0.0
 10
4.580649865886107
 20
3.831912792513856
 30
0.0
 10
4.621080751601862
 20
3.819056387201126
 30
0.0
 10
4.663508702278335
 20
3.805970573563444
 30
0.0
 10
4.699371909545504
 20
3.795019367444302
 30
0.0
 10
4.726180058246866
 20
3.786691340241167
 30
0.0
 10
4.746166005274567
 20
3.780351879036326
 30
0.0
 10
4.761284187556377
 20
3.775547645584334
 30
0.0
 10
4.770098338172013
 20
3.772534608352734
 30
0.0
 10
4.770797239833015
 20
3.772295695175769
 30
0.0
  0
SPLINE
  5
7D
330
2
100
AcDbEntity
  8
0
  6
Continuous
 62
     7
370
    20
100
AcDbSpline
210
0.0
220
0.0
230
1.0
 70
     8
 71
     3
 72
    23
 73
    19
 74
     0
 42
0.000000001
 43
0.0000000001
 40
0.0
 40
0.0
 40
0.0
 40
0.0
 40
0.0891775471729646
 40
0.1679352848760179
 40
0.2363499302033581
 40
0.2944401191351672
 40
0.3487629777114462
 40
0.4215411004025162
 40
0.4962103472371969
 40
0.5705070901646387
 40
0.6254559702935298
 40
0.6716286160377423
 40
0.7152048543201728
 40
0.7720106625908528
 40
0.8275277249036875
 40
0.8912054212164063
 40
0.9517603918712795
 40
1.0
 40
1.0
 40
1.0
 40
1.0
 10
3.932457928127246
 20
4.314045274764023
 30
0.0
 10
3.94119346976316
 20
4.302423811572424
 30
0.0
 10
3.957643862487333
 20
4.28053877667713
 30
0.0
 10
3.981291435910266
 20
4.249713464513462
 30
0.0
 10
4.002214715022601
 20
4.223002568559481
 30
0.0
 10
4.021081702779682
 20
4.199604613471516
 30
0.0
 10
4.040871445635333
 20
4.175833938599096
 30
0.0
 10
4.063094380845731
 20
4.150207417505554
 30
0.0
 10
4.088431922665984
 20
4.1224629954873
 30
0.0
 10
4.112684860206607
 20
4.097496370697289
 30
0.0
 10
4.134447915558645
 20
4.076726567320444
 30
0.0
 10
4.153033480371719
 20
4.060198787527282
 30
0.0
 10
4.172411452030027
 20
4.044089370435282
 30
0.0
 10
4.193635226062341
 20
4.02779374164215
 30
0.0
 10
4.218186994690271
 20
4.010500753165885
 30
0.0
 10
4.243764235334852
 20
3.994056480087471
 30
0.0
 10
4.268562828488738
 20
3.979340852140191
 30
0.0
 10
4.284205999628698
 20
3.970822558683682
 30
0.0
 10
4.291142194925553
 20
3.967045540169875
 30
0.0
  0
SPLINE
  5
7E
330
2
100
AcDbEntity
  8
0
  6
Continuous
 62
     7
370
    20
100
AcDbSpline
210
0.0
220
0.0
230
1.0
 70
     8
 71
     3
 72
     9
 73
     5
 74
     0
 42
0.000000001
 43
0.0000000001
 40
0.0
 40
0.0
 40
0.0
 40
0.0
 40
0.4995711959724344
 40
1.0
 40
1.0
 40
1.0
 40
1.0
 10
4.763175542832907
 20
3.774893123821752
 30
0.0
 10
4.767218725208447
 20
3.773524810237018
 30
0.0
 10
4.775312030843632
 20
3.770785834099551
 30
0.0
 10
4.783344535654238
 20
3.768217033997285
 30
0.0
 10
4.787364232429953
 20
3.766931532434322
 30
0.0
  0
LINE
  5
7F
330
2
100
AcDbEntity
  8
0
  6
Continuous
 62
     7
370
    20
100
AcDbLine
 10
5.668352654532974
 20
4.233349769031793
 30
0.0
 11
5.701133260528249
 21
4.352837108515753
 31
0.0
  0
SPLINE
  5
80
330
2
100
AcDbEntity
  8
0
  6
Continuous
 62
     7
370
    20
100
AcDbSpline
210
0.0
220
0.0
230
1.0
 70
     8
 71
     3
 72
    12
 73
     8
 74
     0
 42
0.000000001
 43
0.0000000001
 40
0.0
 40
0.0
 40
0.0
 40
0.0
 40
0.1495995984689668
 40
0.408180418837968
 40
0.5832134967409912
 40
0.7805478867785332
 40
1.0
 40
1.0
 40
1.0
 40
1.0
 10
5.612484109235955
 20
4.13020928904075
 30
0.0
 10
5.616113589057843
 20
4.134500760833864
 30
0.0
 10
5.626016574152885
 20
4.146209981793491
 30
0.0
 10
5.637533866433409
 20
4.165159911839756
 30
0.0
 10
5.649054379970241
 20
4.186617330267137
 30
0.0
 10
5.659049095200732
 20
4.208244549683517
 30
0.0
 10
5.665143660763884
 20
4.224690449562403
 30
0.0
 10
5.668352654532977
 20
4.233349769031793
 30
0.0
  0
SPLINE
  5
81
330
2
100
AcDbEntity
  8
0
  6
Continuous
 62
     7
370
    20
100
AcDbSpline
210
0.0
220
0.0
230
1.0
 70
     8
 71
     3
 72
    15
 73
    11
 74
     0
 42
0.000000001
 43
0.0000000001
 40
0.0
 40
0.0
 40
0.0
 40
0.0
 40
0.1486749337296301
 40
0.2804763779126108
 40
0.379804915321021
 40
0.4522151497323254
 40
0.5447294892053028
 40
0.6692322136658832
 40
0.8295156197387662
 40
1.0
 40
1.0
 40
1.0
 40
1.0
 10
5.701133260528249
 20
4.352837108515753
 30
0.0
 10
5.702186045158254
 20
4.35977107081976
 30
0.0
 10
5.703941889175288
 20
4.370820518000266
 30
0.0
 10
5.705304637954333
 20
4.385925483511421
 30
0.0
 10
5.706352111906706
 20
4.398035767665962
 30
0.0
 10
5.707182933576194
 20
4.408475895901889
 30
0.0
 10
5.70807815673187
 20
4.420042230380444
 30
0.0
 10
5.709285089151101
 20
4.435289474532591
 30
0.0
 10
5.710502203337203
 20
4.453764505477925
 30
0.0
 10
5.709825951521782
 20
4.468179018344325
 30
0.0
 10
5.709477397713293
 20
4.475608548650257
 30
0.0
  0
SPLINE
  5
82
330
2
100
AcDbEntity
  8
0
  6
Continuous
 62
     7
370
    20
100
AcDbSpline
210
0.0
220
0.0
230
1.0
 70
     8
 71
     3
 72
     9
 73
     5
 74
     0
 42
0.000000001
 43
0.0000000001
 40
0.0
 40
0.0
 40
0.0
 40
0.0
 40
0.5605697223195501
 40
1.0
 40
1.0
 40
1.0
 40
1.0
 10
4.933086888453055
 20
3.744795119663669
 30
0.0
 10
4.940474277101943
 20
3.745046120133665
 30
0.0
 10
4.953652635394858
 20
3.745493879725384
 30
0.0
 10
4.965720461805929
 20
3.748656820790909
 30
0.0
 10
4.971023430116749
 20
3.750046712861619
 30
0.0
  0
SPLINE
  5
83
330
2
100
AcDbEntity
  8
0
  6
Continuous
 62
     7
370
    20
100
AcDbSpline
210
0.0
220
0.0
230
1.0
 70
     8
 71
     3
 72
     9
 73
     5
 74
     0
 42
0.000000001
 43
0.0000000001
 40
0.0
 40
0.0
 40
0.0
 40
0.0
 40
0.4315846750605108
 40
1.0
 40
1.0
 40
1.0
 40
1.0
 10
4.903003028539064
 20
3.744234852883962
 30
0.0
 10
4.907616428318577
 20
3.744319771460967
 30
0.0
 10
4.918305871308795
 20
3.744516531406148
 30
0.0
 10
4.928805491766429
 20
3.744705423406035
 30
0.0
 10
4.934773636940597
 20
3.744812792513529
 30
0.0
  0
SPLINE
  5
84
330
2
100
AcDbEntity
  8
0
  6
Continuous
 62
     7
370
    20
100
AcDbSpline
210
0.0
220
0.0
230
1.0
 70
     8
 71
     3
 72
    15
 73
    11
 74
     0
 42
0.000000001
 43
0.0000000001
 40
0.0
 40
0.0
 40
0.0
 40
0.0
 40
0.1918368355478362
 40
0.3447765867382852
 40
0.458652004708921
 40
0.5331639951045735
 40
0.5951780804261278
 40
0.6958473515903316
 40
0.837146007224438
 40
1.0
 40
1.0
 40
1.0
 40
1.0
 10
4.787230189646622
 20
3.76696328757833
 30
0.0
 10
4.794854135388725
 20
3.764581231232695
 30
0.0
 10
4.808556185794913
 20
3.760300107360312
 30
0.0
 10
4.82646381673396
 20
3.755367233916348
 30
0.0
 10
4.839627976878406
 20
3.752132065975916
 30
0.0
 10
4.849198069236582
 20
3.750041410841543
 30
0.0
 10
4.858459386148457
 20
3.748221811158348
 30
0.0
 10
4.870244915507456
 20
3.74628214314427
 30
0.0
 10
4.88570232412411
 20
3.744416959589005
 30
0.0
 10
4.896782531145529
 20
3.744365165053069
 30
0.0
 10
4.902715262501486
 20
3.744337432442403
 30
0.0
  0
SPLINE
  5
85
330
2
100
AcDbEntity
  8
0
  6
Continuous
 62
     7
370
    20
100
AcDbSpline
210
0.0
220
0.0
230
1.0
 70
     8
 71
     3
 72
     9
 73
     5
 74
     0
 42
0.000000001
 43
0.0000000001
 40
0.0
 40
0.0
 40
0.0
 40
0.0
 40
0.9075727177257752
 40
1.0
 40
1.0
 40
1.0
 40
1.0
 10
4.679781181586673
 20
5.457932140472825
 30
0.0
 10
4.662338804367067
 20
5.45352139976111
 30
0.0
 10
4.643120093977318
 20
5.448661468842551
 30
0.0
 10
4.624580302625574
 20
5.442892054590809
 30
0.0
 10
4.622866720096999
 20
5.442358803311204
 30
0.0
  0
SPLINE
  5
86
330
2
100
AcDbEntity
  8
0
  6
Continuous
 62
     7
370
    20
100
AcDbSpline
210
0.0
220
0.0
230
1.0
 70
     8
 71
     3
 72
    16
 73
    12
 74
     0
 42
0.000000001
 43
0.0000000001
 40
0.0
 40
0.0
 40
0.0
 40
0.0
 40
0.1330534287497694
 40
0.2457445256051403
 40
0.3380756251162998
 40
0.4100452122552238
 40
0.4667410744925073
 40
0.5600088228844578
 40
0.6852772949040254
 40
0.8425542071450925
 40
1.0
 40
1.0
 40
1.0
 40
1.0
 10
5.449342463126939
 20
4.852359442451811
 30
0.0
 10
5.448132083161977
 20
4.86071291942739
 30
0.0
 10
5.44589655828234
 20
4.876141467611425
 30
0.0
 10
5.441596716216451
 20
4.896886235329763
 30
0.0
 10
5.43749112790258
 20
4.91362414203064
 30
0.0
 10
5.4337954651559
 20
4.926784640381088
 30
0.0
 10
5.429761747342666
 20
4.939843613978243
 30
0.0
 10
5.424292488754995
 20
4.955806039819719
 30
0.0
 10
5.415843600714079
 20
4.977069579626837
 30
0.0
 10
5.40470796909942
 20
5.001263210494112
 30
0.0
 10
5.395100137648432
 20
5.017490928782438
 30
0.0
 10
5.390293644135496
 20
5.025609141833994
 30
0.0
  0
LINE
  5
87
330
2
100
AcDbEntity
  8
0
  6
Continuous
 62
     7
370
    20
100
AcDbLine
 10
5.31256399002455
 20
5.110501569769453
 30
0.0
 11
5.298520478869249
 21
5.122585721774653
 31
0.0
  0
LINE
  5
88
330
2
100
AcDbEntity
  8
0
  6
Continuous
 62
     7
370
    20
100
AcDbLine
 10
5.326313580647449
 20
5.098447884011052
 30
0.0
 11
5.312401191500749
 21
5.110643324345053
 31
0.0
  0
LINE
  5
89
330
2
100
AcDbEntity
  8
0
  6
Continuous
 62
     7
370
    20
100
AcDbLine
 10
5.336489044761649
 20
5.089181515255453
 30
0.0
 11
5.326166463911749
 21
5.098578700403352
 31
0.0
  0
LINE
  5
8A
330
2
100
AcDbEntity
  8
0
  6
Continuous
 62
     7
370
    20
100
AcDbLine
 10
5.339988274216249
 20
5.085921702876554
 30
0.0
 11
5.336304236099149
 21
5.089352920245254
 31
0.0
  0
LINE
  5
8B
330
2
100
AcDbEntity
  8
0
  6
Continuous
 62
     7
370
    20
100
AcDbLine
 10
5.562845232720649
 20
4.838887125679453
 30
0.0
 11
5.556217642899049
 21
4.847923149778752
 31
0.0
  0
LINE
  5
8C
330
2
100
AcDbEntity
  8
0
  6
Continuous
 62
     7
370
    20
100
AcDbLine
 10
5.709477397713293
 20
4.475608548650257
 30
0.0
 11
5.70982528307075
 21
4.486769138897352
 31
0.0
  0
LINE
  5
8D
330
2
100
AcDbEntity
  8
0
  6
Continuous
 62
     7
370
    20
100
AcDbLine
 10
5.707858696366249
 20
4.510360634033352
 30
0.0
 11
5.706402480603049
 21
4.522492138840753
 31
0.0
  0
LINE
  5
8E
330
2
100
AcDbEntity
  8
0
  6
Continuous
 62
     7
370
    20
100
AcDbLine
 10
2.964868723179049
 20
6.180519016914253
 30
0.0
 11
2.990922293865049
 21
6.195559423129152
 31
0.0
  0
LINE
  5
8F
330
2
100
AcDbEntity
  8
0
  6
Continuous
 62
     7
370
    20
100
AcDbLine
 10
2.990922293865049
 20
6.195559423129152
 30
0.0
 11
2.992439324367949
 21
6.200664440262853
 31
0.0
  0
LINE
  5
90
330
2
100
AcDbEntity
  8
0
  6
Continuous
 62
     7
370
    20
100
AcDbLine
 10
2.992994480549749
 20
6.202532603437752
 30
0.0
 11
3.006739411839949
 21
6.248786114765954
 31
0.0
  0
LINE
  5
91
330
2
100
AcDbEntity
  8
0
  6
Continuous
 62
     7
370
    20
100
AcDbLine
 10
3.006739411839949
 20
6.248786114765954
 30
0.0
 11
3.015108514710649
 21
6.253617495015253
 31
0.0
  0
ARC
  5
92
330
2
100
AcDbEntity
  8
0
  6
Continuous
 62
     7
370
    20
100
AcDbCircle
 10
2.966238995669449
 20
6.177495271035253
 30
0.0
 40
0.0033197418328616
100
AcDbArc
 50
114.378632367
 51
174.3021208926
  0
LINE
  5
93
330
2
100
AcDbEntity
  8
0
  6
Continuous
 62
     7
370
    20
100
AcDbLine
 10
1.899586564672549
 20
5.559827024423353
 30
0.0
 11
3.475209203667349
 21
4.640124732457753
 31
0.0
  0
LWPOLYLINE
  5
94
330
2
100
AcDbEntity
  8
0
  6
Continuous
 62
     7
370
    20
100
AcDbPolyline
 90
       31
 70
   128
 43
0.0
 10
6.396818183339149
 20
3.321997968739153
 10
6.39954987442655
 20
3.320505015320053
 10
6.411200287262149
 20
3.315803190572653
 10
6.423852339573948
 20
3.313201156653553
 10
6.437357701985149
 20
3.312729425765353
 10
6.451558039720249
 20
3.314393531219353
 10
6.466286861991049
 20
3.318173970784453
 10
6.481371492007549
 20
3.324026410409353
 10
6.496635071747749
 20
3.331882239272653
 10
6.511898651484649
 20
3.341649364462453
 10
6.526983281501149
 20
3.353213267933353
 10
6.541712103771949
 20
3.366438364588453
 10
6.555912441507049
 20
3.381169620101053
 10
6.569417803921549
 20
3.397234310524153
 10
6.582069856233349
 20
3.414444093109753
 10
6.59372026906565
 20
3.432597198195252
 10
6.604232439611449
 20
3.451480808077753
 10
6.613483130218846
 20
3.470873518701853
 10
6.621363880979149
 20
3.490547972033353
 10
6.627782313639349
 20
3.510273511008253
 10
6.632663148662149
 20
3.529818854591953
 10
6.63594918750065
 20
3.548954860681153
 10
6.637601895031849
 20
3.567457181135353
 10
6.637601895031849
 20
3.585108887930053
 10
6.63594918750065
 20
3.601703031630253
 10
6.632663148662149
 20
3.617045060541252
 10
6.627782313639349
 20
3.630955109450053
 10
6.621363880979149
 20
3.643270083812953
 10
6.613483130218846
 20
3.653845610972953
 10
6.604232439611449
 20
3.662557701567853
 10
6.596451960153049
 20
3.667811274303253
  0
ARC
  5
95
330
2
100
AcDbEntity
  8
0
  6
Continuous
 62
     7
370
    20
100
AcDbCircle
 10
2.893250345191849
 20
5.954947029058754
 30
0.0
 40
0.2541445409398482
100
AcDbArc
 50
68.88477074120004
 51
117.0740301319001
  0
LWPOLYLINE
  5
96
330
2
100
AcDbEntity
  8
0
  6
Continuous
 62
     7
370
    20
100
AcDbPolyline
 90
       13
 70
   128
 43
0.0
 10
1.890866759984449
 20
5.669354451974653
 10
1.877865444506749
 20
5.660882562347353
 10
1.866728001758449
 20
5.651567688789253
 10
1.857616534834549
 20
5.641545805516752
 10
1.850664112931749
 20
5.630962943298253
 10
1.845972093946249
 20
5.619973483248553
 10
1.843608837965449
 20
5.608737648974052
 10
1.843608872734249
 20
5.597419254623053
 10
1.845972059174149
 20
5.586183459239054
 10
1.850664078159649
 20
5.575194000443353
 10
1.857616500062449
 20
5.564611138224853
 10
1.866727897445449
 20
5.554589256209653
 10
1.871423949882349
 20
5.550364622507353
  0
LINE
  5
97
330
2
100
AcDbEntity
  8
0
  6
Continuous
 62
     7
370
    20
100
AcDbLine
 10
1.890866759984449
 20
5.669354451974653
 30
0.0
 11
2.777578652465149
 21
6.181242206188754
 31
0.0
  0
LWPOLYLINE
  5
98
330
2
100
AcDbEntity
  8
0
  6
Continuous
 62
     7
370
    20
100
AcDbPolyline
 90
       13
 70
   128
 43
0.0
 10
4.561269627832549
 20
5.151539666499854
 10
4.57427087376605
 20
5.160011596274953
 10
4.585408420830649
 20
5.169326409611352
 10
4.59451981821035
 20
5.179348333028353
 10
4.601472274885249
 20
5.189931175176253
 10
4.606164293870749
 20
5.200920635225953
 10
4.608527584623649
 20
5.212156489574353
 10
4.608527549851549
 20
5.223474843777553
 10
4.606164293870749
 20
5.234710679309353
 10
4.601472240116448
 20
5.245700158175653
 10
4.594519852982449
 20
5.256283000323553
 10
4.585408420830649
 20
5.266304902412653
 10
4.580245287535549
 20
5.270923869367453
  0
LINE
  5
99
330
2
100
AcDbEntity
  8
0
  6
Continuous
 62
     7
370
    20
100
AcDbLine
 10
4.561269627832549
 20
5.151539666499854
 30
0.0
 11
3.674557735351849
 21
4.639651912285753
 31
0.0
  0
SPLINE
  5
9A
330
2
100
AcDbEntity
  8
0
  6
Continuous
 62
     7
370
    20
100
AcDbSpline
210
0.0
220
0.0
230
1.0
 70
     8
 71
     3
 72
    29
 73
    25
 74
     0
 42
0.000000001
 43
0.0000000001
 40
0.0
 40
0.0
 40
0.0
 40
0.0
 40
0.0535851817276893
 40
0.1049985613545272
 40
0.1542408773365669
 40
0.2013129703073878
 40
0.2462158027880818
 40
0.2889504838759585
 40
0.3295183004961919
 40
0.3679207574194216
 40
0.4041596291582814
 40
0.438237028220232
 40
0.470155496283519
 40
0.4999181281386449
 40
0.5471013378887793
 40
0.5948861208601095
 40
0.6432829612638058
 40
0.6923019505909683
 40
0.7419528009805032
 40
0.7922448585075366
 40
0.8431871163329745
 40
0.8947882276636029
 40
0.9470565184804058
 40
1.0
 40
1.0
 40
1.0
 40
1.0
 10
4.95279724228892
 20
5.028167239819705
 30
0.0
 10
4.958494992481419
 20
5.026293393266341
 30
0.0
 10
4.969659563616223
 20
5.022621646974576
 30
0.0
 10
4.986017918735733
 20
5.017185344570327
 30
0.0
 10
5.001651909426506
 20
5.01194506542229
 30
0.0
 10
5.016558885817815
 20
5.006898111203419
 30
0.0
 10
5.030739533808739
 20
5.002045170357738
 30
0.0
 10
5.044193704883559
 20
4.997386081853122
 30
0.0
 10
5.056921474556284
 20
4.992920907542155
 30
0.0
 10
5.068922837806251
 20
4.988649628769119
 30
0.0
 10
5.080197931912977
 20
4.984572346640492
 30
0.0
 10
5.090746491084665
 20
4.980688809292878
 30
0.0
 10
5.100569665427459
 20
4.976999971567593
 30
0.0
 10
5.11165734864742
 20
4.972736152484098
 30
0.0
 10
5.124241484272413
 20
4.967748499829592
 30
0.0
 10
5.138559541991108
 20
4.961894961001668
 30
0.0
 10
5.152907975089158
 20
4.955843659573309
 30
0.0
 10
5.167288295522631
 20
4.949595913975347
 30
0.0
 10
5.181700157026681
 20
4.943151404157867
 30
0.0
 10
5.196143431215613
 20
4.936510070429046
 30
0.0
 10
5.210619031047943
 20
4.929672492781881
 30
0.0
 10
5.225123395416906
 20
4.922636371000531
 30
0.0
 10
5.239670124575667
 20
4.915410484303457
 30
0.0
 10
5.249299432732252
 20
4.910476349614267
 30
0.0
 10
5.254144984585563
 20
4.907993450002071
 30
0.0
  0
SPLINE
  5
9B
330
2
100
AcDbEntity
  8
0
  6
Continuous
 62
     7
370
    20
100
AcDbSpline
210
0.0
220
0.0
230
1.0
 70
     8
 71
     3
 72
    19
 73
    15
 74
     0
 42
0.000000001
 43
0.0000000001
 40
0.0
 40
0.0
 40
0.0
 40
0.0
 40
0.0619220830564099
 40
0.1238617320763645
 40
0.1858945325103839
 40
0.2480957302234574
 40
0.3105399623229173
 40
0.3733009988529901
 40
0.4364514996305844
 40
0.5000627898932512
 40
0.6230405097988391
 40
0.7470447719586437
 40
0.8725464949860818
 40
1.0
 40
1.0
 40
1.0
 40
1.0
 10
4.922818357329365
 20
5.032917495141673
 30
0.0
 10
4.923467265492247
 20
5.032914176870463
 30
0.0
 10
4.9247652658993
 20
5.032907539386724
 30
0.0
 10
4.926711059277959
 20
5.032847733700831
 30
0.0
 10
4.928655091245881
 20
5.032751430011686
 30
0.0
 10
4.930597360478073
 20
5.032615049113086
 30
0.0
 10
4.932537859963174
 20
5.032439555985686
 30
0.0
 10
4.934476571968492
 20
5.032224690549689
 30
0.0
 10
4.936413531669256
 20
5.031970539270791
 30
0.0
 10
4.938944950248664
 20
5.031586578404002
 30
0.0
 10
4.942052092685901
 20
5.031022557556763
 30
0.0
 10
4.945695644131677
 20
5.030211413766522
 30
0.0
 10
4.949297408445716
 20
5.029270167773962
 30
0.0
 10
4.951624648630604
 20
5.02853676766869
 30
0.0
 10
4.952797247121134
 20
5.028167238188242
 30
0.0
  0
SPLINE
  5
9C
330
2
100
AcDbEntity
  8
0
  6
Continuous
 62
     7
370
    20
100
AcDbSpline
210
0.0
220
0.0
230
1.0
 70
     8
 71
     3
 72
    10
 73
     6
 74
     0
 42
0.000000001
 43
0.0000000001
 40
0.0
 40
0.0
 40
0.0
 40
0.0
 40
0.2517988254008661
 40
0.4994242405913729
 40
1.0
 40
1.0
 40
1.0
 40
1.0
 10
4.878959143393553
 20
5.032874847309816
 30
0.0
 10
4.882640385190837
 20
5.032874941449179
 30
0.0
 10
4.889941854473365
 20
5.032875128167606
 30
0.0
 10
4.904561551648892
 20
5.032902954052092
 30
0.0
 10
4.91550006686441
 20
5.032911667506755
 30
0.0
 10
4.922818360054399
 20
5.032917497147675
 30
0.0
  0
SPLINE
  5
9D
330
2
100
AcDbEntity
  8
0
  6
Continuous
 62
     7
370
    20
100
AcDbSpline
210
0.0
220
0.0
230
1.0
 70
     8
 71
     3
 72
    16
 73
    12
 74
     0
 42
0.000000001
 43
0.0000000001
 40
0.0
 40
0.0
 40
0.0
 40
0.0
 40
0.0839812781880317
 40
0.167564764214996
 40
0.2508557333556773
 40
0.3339605725530587
 40
0.4169863842582
 40
0.5000405766522577
 40
0.6659785431164065
 40
0.8323485401387397
 40
1.0
 40
1.0
 40
1.0
 40
1.0
 10
4.856588524488623
 20
5.030077524175322
 30
0.0
 10
4.85717880640799
 20
5.030228629068605
 30
0.0
 10
4.858356574272128
 20
5.030530123120147
 30
0.0
 10
4.860153327125263
 20
5.030935638120038
 30
0.0
 10
4.861965754023163
 20
5.031305188514556
 30
0.0
 10
4.863796366500219
 20
5.031635592719548
 30
0.0
 10
4.865644515910143
 20
5.031927611630735
 30
0.0
 10
4.868129595445079
 20
5.032265588272618
 30
0.0
 10
4.871275762245746
 20
5.032588989604152
 30
0.0
 10
4.875101334706128
 20
5.032831314253214
 30
0.0
 10
4.877669874822776
 20
5.032860299471527
 30
0.0
 10
4.878959071942883
 20
5.032874847681124
 30
0.0
  0
SPLINE
  5
9E
330
2
100
AcDbEntity
  8
0
  6
Continuous
 62
     7
370
    20
100
AcDbSpline
210
0.0
220
0.0
230
1.0
 70
     8
 71
     3
 72
    54
 73
    50
 74
     0
 42
0.000000001
 43
0.0000000001
 40
0.0
 40
0.0
 40
0.0
 40
0.0
 40
0.0162060962722691
 40
0.0324019812290866
 40
0.0485881741391937
 40
0.0647651952046482
 40
0.0809335655127972
 40
0.0970938069878186
 40
0.1132464423418655
 40
0.1293919950258376
 40
0.14553098917979
 40
0.1616639495830136
 40
0.1777914016038049
 40
0.1939138711489508
 40
0.2100318846129502
 40
0.2261459688269993
 40
0.2422566510077614
 40
0.2583644587059518
 40
0.2744699197547547
 40
0.2905735622181053
 40
0.3066759143388551
 40
0.3227775044868525
 40
0.3388788611069589
 40
0.3549805126670277
 40
0.3710829876058748
 40
0.3871868142812578
 40
0.4032925209179024
 40
0.4194006355555878
 40
0.4355116859973265
 40
0.4516261997576596
 40
0.4677447040110934
 40
0.4838677255407024
 40
0.4999957906869247
 40
0.5313973443974082
 40
0.5627603760390204
 40
0.5940887869703576
 40
0.6253864914967644
 40
0.6566574154545135
 40
0.6879054947735682
 40
0.7191346740214791
 40
0.7503489049310474
 40
0.7815521449144721
 40
0.8127483555667296
 40
0.8439415011610176
 40
0.8751355471390951
 40
0.9063344585994002
 40
0.9375421987858192
 40
0.9687627275799904
 40
1.0
 40
1.0
 40
1.0
 40
1.0
 10
4.262273970108247
 20
4.791779436989455
 30
0.0
 10
4.265059708599869
 20
4.793379536198582
 30
0.0
 10
4.27062943031435
 20
4.79657872640872
 30
0.0
 10
4.279040905599708
 20
4.801341370130032
 30
0.0
 10
4.287490569674401
 20
4.80607555120236
 30
0.0
 10
4.295982700881156
 20
4.810778795402112
 30
0.0
 10
4.30451615382956
 20
4.815451765087074
 30
0.0
 10
4.313091235146009
 20
4.820094282903633
 30
0.0
 10
4.321707862709845
 20
4.824706396313002
 30
0.0
 10
4.330366058483064
 20
4.829288092584496
 30
0.0
 10
4.339065816558155
 20
4.833839375104366
 30
0.0
 10
4.347807138489221
 20
4.838360242943599
 30
0.0
 10
4.356590023831367
 20
4.842850696329057
 30
0.0
 10
4.365414472674125
 20
4.84731073517843
 30
0.0
 10
4.374280484963016
 20
4.851740359492571
 30
0.0
 10
4.383188060681257
 20
4.856139569250443
 30
0.0
 10
4.392137199801138
 20
4.860508364437274
 30
0.0
 10
4.401127902297029
 20
4.864846745037025
 30
0.0
 10
4.41016016814194
 20
4.869154711034428
 30
0.0
 10
4.419233997308461
 20
4.873432262414445
 30
0.0
 10
4.42834938976852
 20
4.877679399162433
 30
0.0
 10
4.437506345493486
 20
4.88189612126411
 30
0.0
 10
4.44670486445414
 20
4.886082428705559
 30
0.0
 10
4.455944946620791
 20
4.890238321473345
 30
0.0
 10
4.465226591962931
 20
4.894363799554068
 30
0.0
 10
4.474549800450658
 20
4.898458862936085
 30
0.0
 10
4.483914572049403
 20
4.902523511603135
 30
0.0
 10
4.493320906739768
 20
4.90655774555816
 30
0.0
 10
4.502768804443523
 20
4.910561564734424
 30
0.0
 10
4.512258265300004
 20
4.91453496932735
 30
0.0
 10
4.521789288634316
 20
4.918477958555708
 30
0.0
 10
4.531361876809656
 20
4.922390535286716
 30
0.0
 10
4.544009787897895
 20
4.927497711950577
 30
0.0
 10
4.559777818574763
 20
4.933751492810158
 30
0.0
 10
4.578726614114614
 20
4.941088780486396
 30
0.0
 10
4.597795098753238
 20
4.948295503567463
 30
0.0
 10
4.616983254104066
 20
4.955371658203249
 30
0.0
 10
4.636291084134414
 20
4.962317244863404
 30
0.0
 10
4.655718586864406
 20
4.969132262782287
 30
0.0
 10
4.675265761558405
 20
4.975816711930966
 30
0.0
 10
4.694932608228832
 20
4.982370590685619
 30
0.0
 10
4.71471912245356
 20
4.988793903186492
 30
0.0
 10
4.734625316602952
 20
4.995086632251642
 30
0.0
 10
4.754651140147873
 20
5.001248840343587
 30
0.0
 10
4.774796777190438
 20
5.007280292824345
 30
0.0
 10
4.795061535938074
 20
5.013181864112064
 30
0.0
 10
4.815447994431736
 20
5.018950288359881
 30
0.0
 10
4.835946521181253
 20
5.024597759442418
 30
0.0
 10
4.849706627120946
 20
5.028250609513532
 30
0.0
 10
4.856588524488618
 20
5.030077524175313
 30
0.0
  0
SPLINE
  5
9F
330
2
100
AcDbEntity
  8
0
  6
Continuous
 62
     7
370
    20
100
AcDbSpline
210
0.0
220
0.0
230
1.0
 70
     8
 71
     3
 72
    54
 73
    50
 74
     0
 42
0.000000001
 43
0.0000000001
 40
0.0
 40
0.0
 40
0.0
 40
0.0
 40
0.0161245545612231
 40
0.0322441608411308
 40
0.0483593620378413
 40
0.064470701795026
 40
0.080578724147329
 40
0.0966839734655782
 40
0.1127869944018324
 40
0.1288883318342862
 40
0.1449885308120586
 40
0.1610881364998949
 40
0.1771876941228114
 40
0.193287748910705
 40
0.2093888460429693
 40
0.225491530593126
 40
0.2415963474735158
 40
0.2577038413800728
 40
0.2738145567372034
 40
0.2899290376428055
 40
0.3060478278134528
 40
0.322171470529773
 40
0.3383005085820415
 40
0.3544354842160277
 40
0.3705769390791118
 40
0.3867254141666995
 40
0.4028814497689663
 40
0.4190455854179528
 40
0.4352183598350318
 40
0.4514003108787873
 40
0.4675919754933063
 40
0.4837938896569307
 40
0.5000065883314779
 40
0.5312494066495739
 40
0.5624752183488777
 40
0.5936878563833533
 40
0.6248911585616469
 40
0.6560889661377667
 40
0.6872851223954095
 40
0.7184834712285421
 40
0.7496878557208595
 40
0.7809021167267342
 40
0.8121300914562826
 40
0.8433756120671434
 40
0.8746425042655385
 40
0.9059345859191514
 40
0.9372556656842972
 40
0.9686095416498108
 40
1.0
 40
1.0
 40
1.0
 40
1.0
 10
3.849482658301367
 20
4.448686509598568
 30
0.0
 10
3.851110653867245
 20
4.450738749161983
 30
0.0
 10
3.854366145401942
 20
4.454842598500336
 30
0.0
 10
3.859327023142595
 20
4.460976628769998
 30
0.0
 10
3.864343713672492
 20
4.467093434877262
 30
0.0
 10
3.8694218476955
 20
4.473191534800953
 30
0.0
 10
3.874559917046198
 20
4.479271325463392
 30
0.0
 10
3.879758325680175
 20
4.485332700518407
 30
0.0
 10
3.885016965370828
 20
4.49137568842563
 30
0.0
 10
3.890335865090598
 20
4.497400281534012
 30
0.0
 10
3.895715017056944
 20
4.50340648186635
 30
0.0
 10
3.901154423332935
 20
4.509394288854092
 30
0.0
 10
3.906654083342783
 20
4.515363702623242
 30
0.0
 10
3.912213997216673
 20
4.521314723114027
 30
0.0
 10
3.917834164894583
 20
4.527247350316791
 30
0.0
 10
3.923514586366444
 20
4.533161584208791
 30
0.0
 10
3.929255261607791
 20
4.539057424771165
 30
0.0
 10
3.935056190597037
 20
4.544934871984393
 30
0.0
 10
3.940917373310855
 20
4.550793925829529
 30
0.0
 10
3.946838809725447
 20
4.55663458628789
 30
0.0
 10
3.952820499816215
 20
4.562456853341153
 30
0.0
 10
3.95886244355789
 20
4.568260726971349
 30
0.0
 10
3.964964640924466
 20
4.57404620716086
 30
0.0
 10
3.971127091889462
 20
4.579813293892481
 30
0.0
 10
3.977349796425031
 20
4.585561987149267
 30
0.0
 10
3.983632754505399
 20
4.591292286915147
 30
0.0
 10
3.989975966094123
 20
4.597004193172647
 30
0.0
 10
3.996379431191764
 20
4.602697705911473
 30
0.0
 10
4.002843149657977
 20
4.608372825096486
 30
0.0
 10
4.009367121876062
 20
4.614029550787345
 30
0.0
 10
4.015951346270848
 20
4.619667882691663
 30
0.0
 10
4.022595828580612
 20
4.6252878218342
 30
0.0
 10
4.031370852999786
 20
4.632619027623579
 30
0.0
 10
4.042348467432162
 20
4.64162776103549
 30
0.0
 10
4.055623818219473
 20
4.652269687902425
 30
0.0
 10
4.06909701213505
 20
4.66282156665482
 30
0.0
 10
4.082768044548749
 20
4.673283386133668
 30
0.0
 10
4.096636915963079
 20
4.683655148708626
 30
0.0
 10
4.110703625590956
 20
4.693936853067554
 30
0.0
 10
4.124968172444934
 20
4.704128499191825
 30
0.0
 10
4.139430557408449
 20
4.714230085664461
 30
0.0
 10
4.154090773868547
 20
4.724241615472354
 30
0.0
 10
4.16894884314157
 20
4.734163075485435
 30
0.0
 10
4.184004682060317
 20
4.743994512794808
 30
0.0
 10
4.199258597625615
 20
4.753735749647938
 30
0.0
 10
4.214709438964024
 20
4.76338744844747
 30
0.0
 10
4.23036150297831
 20
4.772947132145961
 30
0.0
 10
4.246198725118864
 20
4.782424057659063
 30
0.0
 10
4.256913669208412
 20
4.788659878729754
 30
0.0
 10
4.262274264867539
 20
4.791779607128082
 30
0.0
  0
SPLINE
  5
A0
330
2
100
AcDbEntity
  8
0
  6
Continuous
 62
     7
370
    20
100
AcDbSpline
210
0.0
220
0.0
230
1.0
 70
     8
 71
     3
 72
    16
 73
    12
 74
     0
 42
0.000000001
 43
0.0000000001
 40
0.0
 40
0.0
 40
0.0
 40
0.0
 40
0.0840083459361964
 40
0.1676094353011559
 40
0.2509077768124563
 40
0.3340090214089846
 40
0.4170195725931379
 40
0.5000461825549346
 40
0.666009629608119
 40
0.8323783133738031
 40
1.0
 40
1.0
 40
1.0
 40
1.0
 10
3.844638890588444
 20
4.43577483457442
 30
0.0
 10
3.844645213413143
 20
4.436147609629902
 30
0.0
 10
3.844657828410681
 20
4.436891352597903
 30
0.0
 10
3.844762546996286
 20
4.438003367107079
 30
0.0
 10
3.844930211701472
 20
4.43910860184169
 30
0.0
 10
3.8451668525829
 20
4.440207058253991
 30
0.0
 10
3.84547101030472
 20
4.441298710736478
 30
0.0
 10
3.845965988570813
 20
4.44274418649984
 30
0.0
 10
3.846757097773464
 20
4.444531098692873
 30
0.0
 10
3.847956703335287
 20
4.446641531107536
 30
0.0
 10
3.848972736058549
 20
4.448003147348824
 30
0.0
 10
3.849482658301339
 20
4.448686509598562
 30
0.0
  0
SPLINE
  5
A1
330
2
100
AcDbEntity
  8
0
  6
Continuous
 62
     7
370
    20
100
AcDbSpline
210
0.0
220
0.0
230
1.0
 70
     8
 71
     3
 72
    10
 73
     6
 74
     0
 42
0.000000001
 43
0.0000000001
 40
0.0
 40
0.0
 40
0.0
 40
0.0
 40
0.5005956564376774
 40
0.7486889537303752
 40
1.0
 40
1.0
 40
1.0
 40
1.0
 10
3.844565552909352
 20
4.410454069831802
 30
0.0
 10
3.844575446770685
 20
4.414679228483588
 30
0.0
 10
3.844590243991943
 20
4.420998359641979
 30
0.0
 10
3.844638125149709
 20
4.429438590658117
 30
0.0
 10
3.84463863434858
 20
4.433653700374172
 30
0.0
 10
3.844638890588444
 20
4.43577483457442
 30
0.0
  0
SPLINE
  5
A2
330
2
100
AcDbEntity
  8
0
  6
Continuous
 62
     7
370
    20
100
AcDbSpline
210
0.0
220
0.0
230
1.0
 70
     8
 71
     3
 72
    20
 73
    16
 74
     0
 42
0.000000001
 43
0.0000000001
 40
0.0
 40
0.0
 40
0.0
 40
0.0
 40
0.0640500127701631
 40
0.1275450360738555
 40
0.1905396927340826
 40
0.2530899164431185
 40
0.3152528405963154
 40
0.3770866721727257
 40
0.4386505516027208
 40
0.5000043999615463
 40
0.601550598819569
 40
0.7020226458889848
 40
0.8017179242928678
 40
0.9009408016127327
 40
1.0
 40
1.0
 40
1.0
 40
1.0
 10
3.852793889723049
 20
4.393149089844492
 30
0.0
 10
3.852467701121042
 20
4.393487710264766
 30
0.0
 10
3.851818150321432
 20
4.39416201697996
 30
0.0
 10
3.850912346726083
 20
4.395189393054652
 30
0.0
 10
3.850062735488624
 20
4.396222485879592
 30
0.0
 10
3.849273778095243
 20
4.397262753504493
 30
0.0
 10
3.848544299381354
 20
4.398309808702342
 30
0.0
 10
3.847874613733358
 20
4.399363749039988
 30
0.0
 10
3.847264653620884
 20
4.400424556689453
 30
0.0
 10
3.84659383945463
 20
4.401726116624757
 30
0.0
 10
3.845918293202426
 20
4.403271549165687
 30
0.0
 10
3.845309985309078
 20
4.405063454461256
 30
0.0
 10
3.844879815473693
 20
4.406858036588733
 30
0.0
 10
3.844611872008543
 20
4.408655240674029
 30
0.0
 10
3.844580984519675
 20
4.409854802048327
 30
0.0
 10
3.844565553523825
 20
4.410454087625354
 30
0.0
  0
SPLINE
  5
A3
330
2
100
AcDbEntity
  8
0
  6
Continuous
 62
     7
370
    20
100
AcDbSpline
210
0.0
220
0.0
230
1.0
 70
     8
 71
     3
 72
    23
 73
    19
 74
     0
 42
0.000000001
 43
0.0000000001
 40
0.0
 40
0.0
 40
0.0
 40
0.0
 40
0.0584267647408424
 40
0.1232057100141622
 40
0.1943368402360748
 40
0.2714956225611642
 40
0.3343209045710602
 40
0.3811681640548359
 40
0.4306542379756222
 40
0.4768680926084306
 40
0.5196991379415473
 40
0.5633100814161704
 40
0.6091202333263591
 40
0.6859628504272228
 40
0.768775186437262
 40
0.8393592493383181
 40
0.9198721663669239
 40
1.0
 40
1.0
 40
1.0
 40
1.0
 10
3.088107127914924
 20
4.722315974683747
 30
0.0
 10
3.104730552768801
 20
4.712696144693194
 30
0.0
 10
3.139784707676632
 20
4.692410613062976
 30
0.0
 10
3.195111009495872
 20
4.660433155796443
 30
0.0
 10
3.255813637928532
 20
4.625398496898702
 30
0.0
 10
3.31590236326695
 20
4.590651969057958
 30
0.0
 10
3.369331264834609
 20
4.560047757020765
 30
0.0
 10
3.415115475185774
 20
4.534134161022418
 30
0.0
 10
3.456230203955596
 20
4.510989609981755
 30
0.0
 10
3.496332010328471
 20
4.488583529732871
 30
0.0
 10
3.534891249145425
 20
4.467222380837499
 30
0.0
 10
3.573531700084905
 20
4.446046301263374
 30
0.0
 10
3.622424165302958
 20
4.419616451558136
 30
0.0
 10
3.683531758421535
 20
4.387384089699078
 30
0.0
 10
3.752954205165899
 20
4.351862767811363
 30
0.0
 10
3.825894267967468
 20
4.31739396829543
 30
0.0
 10
3.900543012895121
 20
4.2852095275968
 30
0.0
 10
3.953056567982049
 20
4.263377141404719
 30
0.0
 10
3.979250403532212
 20
4.252487116293368
 30
0.0
  0
LINE
  5
A4
330
2
100
AcDbEntity
  8
0
  6
Continuous
 62
     7
370
    20
100
AcDbLine
 10
1.996058946552049
 20
5.352750352409053
 30
0.0
 11
3.088114551555049
 21
4.722320280331753
 31
0.0
  0
LINE
  5
A5
330
2
100
AcDbEntity
  8
0
  6
Continuous
 62
     7
370
    20
100
AcDbLine
 10
3.010580546011549
 20
6.256231371604753
 30
0.0
 11
4.661518886798449
 21
5.303165270934553
 31
0.0
  0
LINE
  5
A6
330
2
100
AcDbEntity
  8
0
  6
Continuous
 62
     7
370
    20
100
AcDbLine
 10
3.010578112030549
 20
6.256230127082353
 30
0.0
 11
3.010564759910449
 21
6.256239440933052
 31
0.0
  0
SPLINE
  5
A7
330
2
100
AcDbEntity
  8
0
  6
Continuous
 62
     7
370
    20
100
AcDbSpline
210
0.0
220
0.0
230
1.0
 70
     8
 71
     3
 72
    13
 73
     9
 74
     0
 42
0.000000001
 43
0.0000000001
 40
0.0
 40
0.0
 40
0.0
 40
0.0
 40
0.1667374192626151
 40
0.3333899418984537
 40
0.4999999999987696
 40
0.6666100580993728
 40
0.8332625807360201
 40
1.0
 40
1.0
 40
1.0
 40
1.0
 10
2.996261211035744
 20
6.265327525130453
 30
0.0
 10
2.997093620531014
 20
6.26484255014915
 30
0.0
 10
2.998758015688927
 20
6.263872847118165
 30
0.0
 10
3.001202792893588
 20
6.262389613177889
 30
0.0
 10
3.003608757259798
 20
6.260886161376953
 30
0.0
 10
3.005971213888202
 20
6.259359889220139
 30
0.0
 10
3.008295099014866
 20
6.257813245863935
 30
0.0
 10
3.009808086050376
 20
6.256764127367796
 30
0.0
 10
3.010564772206662
 20
6.256239434542477
 30
0.0
  0
SPLINE
  5
A8
330
2
100
AcDbEntity
  8
0
  6
Continuous
 62
     7
370
    20
100
AcDbSpline
210
0.0
220
0.0
230
1.0
 70
     8
 71
     3
 72
    23
 73
    19
 74
     0
 42
0.000000001
 43
0.0000000001
 40
0.0
 40
0.0
 40
0.0
 40
0.0
 40
0.0312808993794098
 40
0.0625360391158393
 40
0.0937743106424526
 40
0.1250046197998244
 40
0.1562358792401338
 40
0.1874770008022381
 40
0.218736887890273
 40
0.2500244278882179
 40
0.3749992213668616
 40
0.5000044039716725
 40
0.6249791974483622
 40
0.7499843800551275
 40
0.8125182390937133
 40
0.8749845969068177
 40
0.9374547545291106
 40
1.0
 40
1.0
 40
1.0
 40
1.0
 10
2.893110500486303
 20
6.299064310011559
 30
0.0
 10
2.894322691690637
 20
6.298885343556793
 30
0.0
 10
2.896746075866736
 20
6.298527558025122
 30
0.0
 10
2.90035949383012
 20
6.297946335405363
 30
0.0
 10
2.903954621746051
 20
6.297332844009243
 30
0.0
 10
2.907530063562404
 20
6.29668387140491
 30
0.0
 10
2.911086194282141
 20
6.296000276846998
 30
0.0
 10
2.914622903764456
 20
6.295281834543539
 30
0.0
 10
2.91814025253937
 20
6.294528589708454
 30
0.0
 10
2.925127728934215
 20
6.292954440687703
 30
0.0
 10
2.935435851699073
 20
6.290338899090018
 30
0.0
 10
2.948735550513796
 20
6.286323827004665
 30
0.0
 10
2.961539228411274
 20
6.281801616045445
 30
0.0
 10
2.971743769822277
 20
6.277623853799905
 30
0.0
 10
2.979601040524628
 20
6.274051580345759
 30
0.0
 10
2.985329768554112
 20
6.271257472024679
 30
0.0
 10
2.990904716991097
 20
6.2683603292373
 30
0.0
 10
2.994474998216313
 20
6.266338864549354
 30
0.0
 10
2.996261211035744
 20
6.265327525130453
 30
0.0
  0
SPLINE
  5
A9
330
2
100
AcDbEntity
  8
0
  6
Continuous
 62
     7
370
    20
100
AcDbSpline
210
0.0
220
0.0
230
1.0
 70
     8
 71
     3
 72
    28
 73
    24
 74
     0
 42
0.000000001
 43
0.0000000001
 40
0.0
 40
0.0
 40
0.0
 40
0.0
 40
0.0227614667330745
 40
0.0455035472898801
 40
0.0682305982163258
 40
0.0909469847054646
 40
0.1136570780999071
 40
0.1363652533765384
 40
0.1590758866207681
 40
0.1817933524975603
 40
0.204522021726579
 40
0.2272662585687054
 40
0.2500304183311265
 40
0.3750082148376306
 40
0.5000023304532314
 40
0.6249801269545544
 40
0.7499742425754437
 40
0.7916878422184205
 40
0.8333484716999651
 40
0.8749830444086381
 40
0.9166185242627296
 40
0.9582818734192525
 40
1.0
 40
1.0
 40
1.0
 40
1.0
 10
2.680944390233637
 20
6.282492235713736
 30
0.0
 10
2.682418312891188
 20
6.282896250950424
 30
0.0
 10
2.685364902851143
 20
6.283703937319844
 30
0.0
 10
2.68981942249867
 20
6.284870175699701
 30
0.0
 10
2.694296490998305
 20
6.286002467990391
 30
0.0
 10
2.698798763076438
 20
6.287097618896003
 30
0.0
 10
2.703325527357433
 20
6.288156483636752
 30
0.0
 10
2.707876973993689
 20
6.289178833032757
 30
0.0
 10
2.712453050361849
 20
6.290164728310543
 30
0.0
 10
2.717053773821911
 20
6.291114152992458
 30
0.0
 10
2.721679124442504
 20
6.292027111185971
 30
0.0
 10
2.726329161488764
 20
6.292903602464321
 30
0.0
 10
2.73799790636273
 20
6.295000509388252
 30
0.0
 10
2.756927742834744
 20
6.297871760999358
 30
0.0
 10
2.783393988120956
 20
6.300658016908684
 30
0.0
 10
2.810151328066193
 20
6.302278400221252
 30
0.0
 10
2.831074759047119
 20
6.302616054730089
 30
0.0
 10
2.846008428012873
 20
6.302421103035433
 30
0.0
 10
2.854960136126221
 20
6.302172694708858
 30
0.0
 10
2.863892485976445
 20
6.301793776127611
 30
0.0
 10
2.872804730620258
 20
6.301281217856583
 30
0.0
 10
2.881700149882214
 20
6.300646757435906
 30
0.0
 10
2.887605761210576
 20
6.300113722988193
 30
0.0
 10
2.890560506719155
 20
6.299847030675962
 30
0.0
  0
SPLINE
  5
AA
330
2
100
AcDbEntity
  8
0
  6
Continuous
 62
     7
370
    20
100
AcDbSpline
210
0.0
220
0.0
230
1.0
 70
     8
 71
     3
 72
    22
 73
    18
 74
     0
 42
0.000000001
 43
0.0000000001
 40
0.0
 40
0.0
 40
0.0
 40
0.0
 40
0.0574774040109556
 40
0.1144900219494454
 40
0.171041206888779
 40
0.2271343946513395
 40
0.2827731059068116
 40
0.3379609483039763
 40
0.3927016186343616
 40
0.446998905025727
 40
0.5008566891631462
 40
0.5879297839412478
 40
0.6734245161937184
 40
0.7573590990988204
 40
0.8397527804574714
 40
0.9206259082815794
 40
1.0
 40
1.0
 40
1.0
 40
1.0
 10
2.537015964343935
 20
6.243658076205738
 30
0.0
 10
2.539623530256457
 20
6.244510625290663
 30
0.0
 10
2.544817576224543
 20
6.246208829395836
 30
0.0
 10
2.552619091572011
 20
6.248702734032754
 30
0.0
 10
2.560388061294912
 20
6.251144220341419
 30
0.0
 10
2.568127454109716
 20
6.253530278172767
 30
0.0
 10
2.575836485395081
 20
6.255861703108353
 30
0.0
 10
2.583515360175155
 20
6.258138288734663
 30
0.0
 10
2.591164035792743
 20
6.260360073988913
 30
0.0
 10
2.598782482560152
 20
6.262527106095987
 30
0.0
 10
2.60795125183077
 20
6.265079026084361
 30
0.0
 10
2.618642138901674
 20
6.2679699662153
 30
0.0
 10
2.630833041188895
 20
6.271144527157952
 30
0.0
 10
2.642880123751437
 20
6.274158763490516
 30
0.0
 10
2.654785254842294
 20
6.277009709851114
 30
0.0
 10
2.666541409332316
 20
6.279708416657111
 30
0.0
 10
2.674369083765392
 20
6.28139488963318
 30
0.0
 10
2.678246308906438
 20
6.282230238047118
 30
0.0
  0
SPLINE
  5
AB
330
2
100
AcDbEntity
  8
0
  6
Continuous
 62
     7
370
    20
100
AcDbSpline
210
0.0
220
0.0
230
1.0
 70
     8
 71
     3
 72
    20
 73
    16
 74
     0
 42
0.000000001
 43
0.0000000001
 40
0.0
 40
0.0
 40
0.0
 40
0.0
 40
0.0653294452888218
 40
0.1302030418952444
 40
0.1946233324475826
 40
0.2585929136274631
 40
0.3221144373898678
 40
0.3851906122037627
 40
0.4478242043129121
 40
0.5100180390163933
 40
0.5717750019682755
 40
0.6791589504828064
 40
0.7859742861974466
 40
0.8938811797236528
 40
1.0
 40
1.0
 40
1.0
 40
1.0
 10
2.385232340341999
 20
6.185938320090809
 30
0.0
 10
2.388376517586252
 20
6.187272910073346
 30
0.0
 10
2.394642932977502
 20
6.189932777681907
 30
0.0
 10
2.40406362868168
 20
6.193866101635132
 30
0.0
 10
2.413457992723897
 20
6.197740173280589
 30
0.0
 10
2.422829836946778
 20
6.201552011283677
 30
0.0
 10
2.432178151228934
 20
6.205302405675254
 30
0.0
 10
2.441503202458573
 20
6.208991148615442
 30
0.0
 10
2.450804924493083
 20
6.212618289151384
 30
0.0
 10
2.460083319009584
 20
6.216183836588133
 30
0.0
 10
2.471639361400176
 20
6.220558802612361
 30
0.0
 10
2.485510006583013
 20
6.225701923523939
 30
0.0
 10
2.501829483239919
 20
6.231587214771922
 30
0.0
 10
2.518202333133889
 20
6.237339990739497
 30
0.0
 10
2.529236103560748
 20
6.241068976923015
 30
0.0
 10
2.534706898074618
 20
6.242917893147103
 30
0.0
  0
SPLINE
  5
AC
330
2
100
AcDbEntity
  8
0
  6
Continuous
 62
     7
370
    20
100
AcDbSpline
210
0.0
220
0.0
230
1.0
 70
     8
 71
     3
 72
    20
 73
    16
 74
     0
 42
0.000000001
 43
0.0000000001
 40
0.0
 40
0.0
 40
0.0
 40
0.0
 40
0.0664771174582377
 40
0.1318308368245134
 40
0.1960630338000099
 40
0.259175684080562
 40
0.3211708703970435
 40
0.3820507901673453
 40
0.441817763822577
 40
0.5004742438773439
 40
0.6266064095206688
 40
0.7503171304371648
 40
0.8335455034455957
 40
0.9167698177531008
 40
1.0
 40
1.0
 40
1.0
 40
1.0
 10
2.235938941212726
 20
6.114417041685911
 30
0.0
 10
2.239082156404555
 20
6.116077235471024
 30
0.0
 10
2.245315469533974
 20
6.119369567394404
 30
0.0
 10
2.254641808653416
 20
6.124230538785367
 30
0.0
 10
2.263850072464062
 20
6.128981093426816
 30
0.0
 10
2.272944097317143
 20
6.133618818833358
 30
0.0
 10
2.28192287742917
 20
6.138144349400876
 30
0.0
 10
2.290786692775034
 20
6.142557507164571
 30
0.0
 10
2.299535408685312
 20
6.146858388444053
 30
0.0
 10
2.31153426586938
 20
6.152679186346215
 30
0.0
 10
2.326804975386406
 20
6.159929096316721
 30
0.0
 10
2.34349174820392
 20
6.167614203264669
 30
0.0
 10
2.35818435595638
 20
6.174194675235968
 30
0.0
 10
2.370926771268409
 20
6.179782482786572
 30
0.0
 10
2.379509940960394
 20
6.183439407996496
 30
0.0
 10
2.383801677095538
 20
6.185267935059361
 30
0.0
  0
SPLINE
  5
AD
330
2
100
AcDbEntity
  8
0
  6
Continuous
 62
     7
370
    20
100
AcDbSpline
210
0.0
220
0.0
230
1.0
 70
     8
 71
     3
 72
    17
 73
    13
 74
     0
 42
0.000000001
 43
0.0000000001
 40
0.0
 40
0.0
 40
0.0
 40
0.0
 40
0.0872065926906208
 40
0.1728764866879501
 40
0.2570107340228897
 40
0.339610445402631
 40
0.4206767946093991
 40
0.5002110233144496
 40
0.6252831384102277
 40
0.7501401388125655
 40
0.8769623489258393
 40
1.0
 40
1.0
 40
1.0
 40
1.0
 10
2.101370929244529
 20
6.040318995032334
 30
0.0
 10
2.105142409525104
 20
6.042493023543523
 30
0.0
 10
2.112618911477563
 20
6.046802771228616
 30
0.0
 10
2.123781915217207
 20
6.053182172511305
 30
0.0
 10
2.134780908736474
 20
6.059426094813117
 30
0.0
 10
2.145619150754663
 20
6.065532657911957
 30
0.0
 10
2.156295825664121
 20
6.071502334781339
 30
0.0
 10
2.168885322409002
 20
6.078485674421614
 30
0.0
 10
2.183480233779926
 20
6.086493949222994
 30
0.0
 10
2.200280381590546
 20
6.095584041584382
 30
0.0
 10
2.217086920428254
 20
6.104565017209113
 30
0.0
 10
2.228390176685701
 20
6.110492497524154
 30
0.0
 10
2.233956201147559
 20
6.1134113467194
 30
0.0
  0
SPLINE
  5
AE
330
2
100
AcDbEntity
  8
0
  6
Continuous
 62
     7
370
    20
100
AcDbSpline
210
0.0
220
0.0
230
1.0
 70
     8
 71
     3
 72
    16
 73
    12
 74
     0
 42
0.000000001
 43
0.0000000001
 40
0.0
 40
0.0
 40
0.0
 40
0.0
 40
0.0610393552753391
 40
0.1230286443290397
 40
0.1859687175689116
 40
0.2498603874375362
 40
0.3746983597101607
 40
0.4997896139994542
 40
0.6603802977880564
 40
0.8271140450823228
 40
1.0
 40
1.0
 40
1.0
 40
1.0
 10
1.972891669116729
 20
5.962702032527964
 30
0.0
 10
1.975396851463736
 20
5.964297767262858
 30
0.0
 10
1.980446203419683
 20
5.967514070584822
 30
0.0
 10
1.988119151752157
 20
5.972354577614352
 30
0.0
 10
1.995938398836473
 20
5.977254142275509
 30
0.0
 10
2.006400891454567
 20
5.983762834271407
 30
0.0
 10
2.019518730991376
 20
5.991840435936859
 30
0.0
 10
2.036802977963432
 20
6.002339260665813
 30
0.0
 10
2.056005216546787
 20
6.013824412006892
 30
0.0
 10
2.077393474875956
 20
6.026434622848904
 30
0.0
 10
2.09204607410212
 20
6.03492154013652
 30
0.0
 10
2.09950508956189
 20
6.039241868992651
 30
0.0
  0
SPLINE
  5
AF
330
2
100
AcDbEntity
  8
0
  6
Continuous
 62
     7
370
    20
100
AcDbSpline
210
0.0
220
0.0
230
1.0
 70
     8
 71
     3
 72
    18
 73
    14
 74
     0
 42
0.000000001
 43
0.0000000001
 40
0.0
 40
0.0
 40
0.0
 40
0.0
 40
0.0499339233551768
 40
0.0998671414677069
 40
0.1498017981161765
 40
0.1997400368939106
 40
0.2496840009330009
 40
0.3733766444643748
 40
0.499527227287853
 40
0.6179425547048784
 40
0.7408147101278995
 40
0.8681617776700322
 40
1.0
 40
1.0
 40
1.0
 40
1.0
 10
1.631171779772418
 20
5.70261425082077
 30
0.0
 10
1.850315826826103
 20
5.877685796471292
 30
0.0
 10
1.854109884728377
 20
5.880661354174885
 30
0.0
 10
1.85986508744366
 20
5.88509730875057
 30
0.0
 10
1.86566707174727
 20
5.889513069402516
 30
0.0
 10
1.871520373245991
 20
5.893906723171637
 30
0.0
 10
1.880329561975647
 20
5.900430276113672
 30
0.0
 10
1.892310766834678
 20
5.909101128248385
 30
0.0
 10
1.907302317547466
 20
5.919624203852537
 30
0.0
 10
1.922513675689159
 20
5.930001799546294
 30
0.0
 10
1.938003816211315
 20
5.940299570306461
 30
0.0
 10
1.954259780697107
 20
5.950870212253922
 30
0.0
 10
1.965454974019955
 20
5.957954102514865
 30
0.0
 10
1.971149565665387
 20
5.961557422362391
 30
0.0
  0
LINE
  5
B0
330
2
100
AcDbEntity
  8
0
  6
Continuous
 62
     7
370
    20
100
AcDbLine
 10
3.391945373318749
 20
4.562173806923953
 30
0.0
 11
3.395680420710649
 21
4.564330003361953
 31
0.0
  0
SPLINE
  5
B1
330
2
100
AcDbEntity
  8
0
  6
Continuous
 62
     7
370
    20
100
AcDbSpline
210
0.0
220
0.0
230
1.0
 70
     8
 71
     3
 72
    19
 73
    15
 74
     0
 42
0.000000001
 43
0.0000000001
 40
0.0
 40
0.0
 40
0.0
 40
0.0
 40
0.0503913181341641
 40
0.1002330271773268
 40
0.149901607057454
 40
0.1997774583707557
 40
0.2502362941785483
 40
0.3750448103984556
 40
0.500066091363768
 40
0.6248746075729624
 40
0.7498958885486818
 40
0.8335104343564257
 40
0.9162914008234576
 40
1.0
 40
1.0
 40
1.0
 40
1.0
 10
3.393112915251058
 20
4.553514566743278
 30
0.0
 10
3.392885217218119
 20
4.553615329956757
 30
0.0
 10
3.392432304613947
 20
4.553815757377375
 30
0.0
 10
3.391814492482713
 20
4.554156587154519
 30
0.0
 10
3.391249470656295
 20
4.55452383415457
 30
0.0
 10
3.390741135048072
 20
4.554920542269685
 30
0.0
 10
3.390069435290642
 20
4.555550926389461
 30
0.0
 10
3.389389796458455
 20
4.556465386439384
 30
0.0
 10
3.389001329535064
 20
4.557684908227797
 30
0.0
 10
3.38905798744732
 20
4.558925124249028
 30
0.0
 10
3.389530330531893
 20
4.559995771829736
 30
0.0
 10
3.390215239505367
 20
4.56086989772885
 30
0.0
 10
3.390977848543321
 20
4.561568838361605
 30
0.0
 10
3.39162156642753
 20
4.561971350426442
 30
0.0
 10
3.391945218676509
 20
4.562173727800477
 30
0.0
  0
SPLINE
  5
B2
330
2
100
AcDbEntity
  8
0
  6
Continuous
 62
     7
370
    20
100
AcDbSpline
210
0.0
220
0.0
230
1.0
 70
     8
 71
     3
 72
    24
 73
    20
 74
     0
 42
0.000000001
 43
0.0000000001
 40
0.0
 40
0.0
 40
0.0
 40
0.0
 40
0.0312763831154445
 40
0.0625307926681651
 40
0.0937707938611704
 40
0.1250039623673152
 40
0.1562378788311768
 40
0.187480123352881
 40
0.2187382699739029
 40
0.2500198811848474
 40
0.3749989487625633
 40
0.5000019378071267
 40
0.6249810053874199
 40
0.749983994429332
 40
0.8000144149999471
 40
0.8500001833187036
 40
0.8999723350132539
 40
0.9499619310725703
 40
1.0
 40
1.0
 40
1.0
 40
1.0
 10
3.522512452938165
 20
4.52358886733799
 30
0.0
 10
3.521057815175805
 20
4.523704230043549
 30
0.0
 10
3.518149561622648
 20
4.523934874405345
 30
0.0
 10
3.513800837312969
 20
4.524330310051217
 30
0.0
 10
3.509464597387617
 20
4.524761779991758
 30
0.0
 10
3.505141661510196
 20
4.525232840415609
 30
0.0
 10
3.500831808627177
 20
4.525742539793116
 30
0.0
 10
3.496535108343545
 20
4.526291129587709
 30
0.0
 10
3.492251507758358
 20
4.526878554660347
 30
0.0
 10
3.483719259240984
 20
4.528129771208315
 30
0.0
 10
3.471048222262093
 20
4.530293234978184
 30
0.0
 10
3.454502466861077
 20
4.533779829010741
 30
0.0
 10
3.438362030618967
 20
4.53785239396967
 30
0.0
 10
3.425824869915234
 20
4.541569791330973
 30
0.0
 10
3.416646242043653
 20
4.544589229142625
 30
0.0
 10
3.410616131304716
 20
4.546688862163499
 30
0.0
 10
3.404682247571589
 20
4.548875584578603
 30
0.0
 10
3.398835156965563
 20
4.551142004468754
 30
0.0
 10
3.395020945271166
 20
4.552723457197044
 30
0.0
 10
3.393112915250739
 20
4.553514566742929
 30
0.0
  0
SPLINE
  5
B3
330
2
100
AcDbEntity
  8
0
  6
Continuous
 62
     7
370
    20
100
AcDbSpline
210
0.0
220
0.0
230
1.0
 70
     8
 71
     3
 72
    19
 73
    15
 74
     0
 42
0.000000001
 43
0.0000000001
 40
0.0
 40
0.0
 40
0.0
 40
0.0
 40
0.0503249124099997
 40
0.1001858729663392
 40
0.1499037537360818
 40
0.1998021870878936
 40
0.2502013273164955
 40
0.3750119498015664
 40
0.5000561460121556
 40
0.6248667685039661
 40
0.74991096470781
 40
0.8334722583496267
 40
0.9163353929657835
 40
1.0
 40
1.0
 40
1.0
 40
1.0
 10
3.533658366166378
 20
4.528639013831766
 30
0.0
 10
3.533623999411383
 20
4.528487463217359
 30
0.0
 10
3.533555582732935
 20
4.52818575915319
 30
0.0
 10
3.533375042870527
 20
4.527742060313912
 30
0.0
 10
3.533138002481377
 20
4.527309040421703
 30
0.0
 10
3.532838867191066
 20
4.52688705887561
 30
0.0
 10
3.532305221190568
 20
4.526276612882202
 30
0.0
 10
3.531402874964592
 20
4.525520389313664
 30
0.0
 10
3.529968638182479
 20
4.52472993025194
 30
0.0
 10
3.528296923942785
 20
4.524113011238391
 30
0.0
 10
3.526646296957538
 20
4.523750223942451
 30
0.0
 10
3.525141558626162
 20
4.523573393026659
 30
0.0
 10
3.523824036340724
 20
4.523516746046926
 30
0.0
 10
3.522951047925313
 20
4.5235647498959
 30
0.0
 10
3.522512452938095
 20
4.523588867337959
 30
0.0
  0
LINE
  5
B4
330
2
100
AcDbEntity
  8
0
  6
Continuous
 62
     7
370
    20
100
AcDbLine
 10
3.534362509962949
 20
4.532392896692353
 30
0.0
 11
3.533658359404849
 21
4.528638993727453
 31
0.0
  0
SPLINE
  5
B5
330
2
100
AcDbEntity
  8
0
  6
Continuous
 62
     7
370
    20
100
AcDbSpline
210
0.0
220
0.0
230
1.0
 70
     8
 71
     3
 72
    32
 73
    28
 74
     0
 42
0.000000001
 43
0.0000000001
 40
0.0
 40
0.0
 40
0.0
 40
0.0
 40
0.0179181723766754
 40
0.0358099639418022
 40
0.0536797711249153
 40
0.0715320065976922
 40
0.0893710960714093
 40
0.1072014750463241
 40
0.1250275855247499
 40
0.142853872699899
 40
0.1606847816328396
 40
0.1785247539299253
 40
0.19637822443313
 40
0.2142496179355631
 40
0.2321433459342473
 40
0.2500638034318945
 40
0.3750251561292739
 40
0.5000037980821999
 40
0.624965150782086
 40
0.7499437927325863
 40
0.7857527043621179
 40
0.8214736619670949
 40
0.8571420256030812
 40
0.8927933118189903
 40
0.9284630881759579
 40
0.9641868670073002
 40
1.0
 40
1.0
 40
1.0
 40
1.0
 10
3.748084627768745
 20
4.576726904723131
 30
0.0
 10
3.747089558651079
 20
4.576157611258251
 30
0.0
 10
3.745100885449694
 20
4.575019862495645
 30
0.0
 10
3.742061698985183
 20
4.573348751584639
 30
0.0
 10
3.738984509572985
 20
4.571705467764285
 30
0.0
 10
3.735865110902138
 20
4.570092439788002
 30
0.0
 10
3.732704628711206
 20
4.568509018440534
 30
0.0
 10
3.729502762429976
 20
4.566955377869328
 30
0.0
 10
3.726259593187373
 20
4.565431471854794
 30
0.0
 10
3.722975100115233
 20
4.563937313164905
 30
0.0
 10
3.719649289166564
 20
4.562472898669106
 30
0.0
 10
3.716282161138793
 20
4.561038229740939
 30
0.0
 10
3.712873710793199
 20
4.559633305491189
 30
0.0
 10
3.709423962374667
 20
4.558258129434006
 30
0.0
 10
3.705932828175657
 20
4.556912689555455
 30
0.0
 10
3.69537053671493
 20
4.552978481628176
 30
0.0
 10
3.677056854276007
 20
4.547055697683858
 30
0.0
 10
3.650000776207985
 20
4.540461239180552
 30
0.0
 10
3.621860256105013
 20
4.53560571389857
 30
0.0
 10
3.599826728842149
 20
4.533300866714967
 30
0.0
 10
3.584552998898381
 20
4.532334589126132
 30
0.0
 10
3.576195544907968
 20
4.531958561039894
 30
0.0
 10
3.567834270967029
 20
4.531735413631423
 30
0.0
 10
3.559468762387294
 20
4.531664110839142
 30
0.0
 10
3.5510997239527
 20
4.531748316714053
 30
0.0
 10
3.542724896050255
 20
4.531974388115991
 30
0.0
 10
3.537152272755819
 20
4.532253278965971
 30
0.0
 10
3.534362480827803
 20
4.532392898567184
 30
0.0
  0
SPLINE
  5
B6
330
2
100
AcDbEntity
  8
0
  6
Continuous
 62
     7
370
    20
100
AcDbSpline
210
0.0
220
0.0
230
1.0
 70
     8
 71
     3
 72
    24
 73
    20
 74
     0
 42
0.000000001
 43
0.0000000001
 40
0.0
 40
0.0
 40
0.0
 40
0.0
 40
0.0312763831187625
 40
0.0625307926738595
 40
0.0937707938682845
 40
0.1250039623748987
 40
0.1562378788382868
 40
0.1874801233585738
 40
0.2187382699772344
 40
0.2500198811848773
 40
0.3749989487688021
 40
0.5000019378071116
 40
0.6249810053925545
 40
0.7499839944293754
 40
0.8000144150041114
 40
0.8500001833249353
 40
0.8999723350194859
 40
0.9499619310767219
 40
1.0
 40
1.0
 40
1.0
 40
1.0
 10
4.675005832886776
 20
5.293535415297208
 30
0.0
 10
4.675865570249982
 20
5.292848283785731
 30
0.0
 10
4.677584440958542
 20
5.291474503514505
 30
0.0
 10
4.680091327624759
 20
5.289385381973549
 30
0.0
 10
4.68254443933608
 20
5.28727659557584
 30
0.0
 10
4.684938753827736
 20
5.285146031387139
 30
0.0
 10
4.687275616106093
 20
5.282994254040394
 30
0.0
 10
4.689554662999173
 20
5.280821118990166
 30
0.0
 10
4.691776000126759
 20
5.278626642212791
 30
0.0
 10
4.696098845755752
 20
5.274199561129504
 30
0.0
 10
4.702136004683815
 20
5.267414217862832
 30
0.0
 10
4.709190270533677
 20
5.258097213703022
 30
0.0
 10
4.715230402254012
 20
5.248544916018309
 30
0.0
 10
4.719227854202406
 20
5.240742625123823
 30
0.0
 10
4.721781162085488
 20
5.234824800168701
 30
0.0
 10
4.723313323960686
 20
5.230856899689885
 30
0.0
 10
4.724669915292929
 20
5.226869057683131
 30
0.0
 10
4.725866712377019
 20
5.222862437868111
 30
0.0
 10
4.726518333638781
 20
5.220177696365983
 30
0.0
 10
4.726844302155736
 20
5.218834675109305
 30
0.0
  0
SPLINE
  5
B7
330
2
100
AcDbEntity
  8
0
  6
Continuous
 62
     7
370
    20
100
AcDbSpline
210
0.0
220
0.0
230
1.0
 70
     8
 71
     3
 72
    19
 73
    15
 74
     0
 42
0.000000001
 43
0.0000000001
 40
0.0
 40
0.0
 40
0.0
 40
0.0
 40
0.0503913183494838
 40
0.1002330274994099
 40
0.1499016073795171
 40
0.1997774585899322
 40
0.2502362941983339
 40
0.3750448110763692
 40
0.5000660913834738
 40
0.6248746082607691
 40
0.7498958885683385
 40
0.8335104346615786
 40
0.9162914011284144
 40
1.0
 40
1.0
 40
1.0
 40
1.0
 10
4.660006096351498
 20
5.294209511606198
 30
0.0
 10
4.66021377751108
 20
5.294323781345665
 30
0.0
 10
4.660626874688558
 20
5.294551074504759
 30
0.0
 10
4.66130577169827
 20
5.294850686902586
 30
0.0
 10
4.662021708632904
 20
5.295116102996991
 30
0.0
 10
4.66277929179445
 20
5.295344629755821
 30
0.0
 10
4.663962062881994
 20
5.295630165262174
 30
0.0
 10
4.665632221556153
 20
5.295876265747827
 30
0.0
 10
4.667779392552543
 20
5.295909090736806
 30
0.0
 10
4.66989309249435
 20
5.295684843909739
 30
0.0
 10
4.671652267625541
 20
5.295249760279482
 30
0.0
 10
4.67304222526284
 20
5.294723856624916
 30
0.0
 10
4.674120351447049
 20
5.294180749356141
 30
0.0
 10
4.674709578072915
 20
5.293751324195131
 30
0.0
 10
4.675005832887258
 20
5.293535415297325
 30
0.0
  0
LINE
  5
B8
330
2
100
AcDbEntity
  8
0
  6
Continuous
 62
     7
370
    20
100
AcDbLine
 10
4.65627091189925
 20
5.292053225897053
 30
0.0
 11
4.66000609837625
 21
5.294209502624052
 31
0.0
  0
LINE
  5
B9
330
2
100
AcDbEntity
  8
0
  6
Continuous
 62
     7
370
    20
100
AcDbLine
 10
4.661517982750249
 20
5.303164749036253
 30
0.0
 11
4.649994406378249
 21
5.296512331625052
 31
0.0
  0
LINE
  5
BA
330
2
100
AcDbEntity
  8
0
  6
Continuous
 62
     7
370
    20
100
AcDbLine
 10
1.632198750672649
 20
5.609585726497753
 30
0.0
 11
1.631562716797249
 21
5.614470393803953
 31
0.0
  0
LINE
  5
BB
330
2
100
AcDbEntity
  8
0
  6
Continuous
 62
     7
370
    20
100
AcDbLine
 10
1.632331089671749
 20
5.719722208111154
 30
0.0
 11
1.632145411729849
 21
5.717389234897153
 31
0.0
  0
SPLINE
  5
BC
330
2
100
AcDbEntity
  8
0
  6
Continuous
 62
     7
370
    20
100
AcDbSpline
210
0.0
220
0.0
230
1.0
 70
     8
 71
     3
 72
    11
 73
     7
 74
     0
 42
0.000000001
 43
0.0000000001
 40
0.0
 40
0.0
 40
0.0
 40
0.0
 40
0.0935178523420429
 40
0.3802092802498384
 40
0.6823722853209226
 40
1.0
 40
1.0
 40
1.0
 40
1.0
 10
1.968741731423617
 20
5.961194855020227
 30
0.0
 10
1.968799493390122
 20
5.961159552796251
 30
0.0
 10
1.969034332355737
 20
5.961016026904321
 30
0.0
 10
1.969563224623256
 20
5.960978960826277
 30
0.0
 10
1.970315648953786
 20
5.961099795256549
 30
0.0
 10
1.970866770954638
 20
5.96140217691345
 30
0.0
 10
1.971149207616017
 20
5.961557140180213
 30
0.0
  0
SPLINE
  5
BD
330
2
100
AcDbEntity
  8
0
  6
Continuous
 62
     7
370
    20
100
AcDbSpline
210
0.0
220
0.0
230
1.0
 70
     8
 71
     3
 72
    34
 73
    30
 74
     0
 42
0.000000001
 43
0.0000000001
 40
0.0007318990990033
 40
0.0007318990990033
 40
0.0007318990990033
 40
0.0007318990990033
 40
0.0478246678594996
 40
0.0957643187826658
 40
0.1437450651653655
 40
0.1917764190808195
 40
0.2399938378430332
 40
0.2880766744669411
 40
0.3358484140877331
 40
0.3836504099128032
 40
0.4315076185069036
 40
0.4794219609433967
 40
0.5273922376461158
 40
0.5754165776601454
 40
0.6037826597608681
 40
0.6321442807944147
 40
0.6604931483528269
 40
0.688801838497044
 40
0.7170222187724689
 40
0.7451644640572301
 40
0.7732601602943388
 40
0.8013715083586642
 40
0.8296202147296053
 40
0.8581773512076241
 40
0.8868446308562182
 40
0.91535428478069
 40
0.9437418813566813
 40
0.9719894057533288
 40
1.0
 40
1.0
 40
1.0
 40
1.0
 10
5.446469673233067
 20
4.857558108058567
 30
0.0
 10
5.446472125342941
 20
4.855559669820125
 30
0.0
 10
5.446477324823379
 20
4.851526909858172
 30
0.0
 10
5.446534989626393
 20
4.845468966542641
 30
0.0
 10
5.446594367496246
 20
4.839369974405101
 30
0.0
 10
5.446644871877318
 20
4.833255281837928
 30
0.0
 10
5.446677156190745
 20
4.827129191266028
 30
0.0
 10
5.446607034436197
 20
4.820985321932503
 30
0.0
 10
5.446563013075684
 20
4.814867197502063
 30
0.0
 10
5.446528006873926
 20
4.808760773556203
 30
0.0
 10
5.446503509790344
 20
4.802651392778674
 30
0.0
 10
5.446483767075149
 20
4.796536285018675
 30
0.0
 10
5.446466457184064
 20
4.790414763646624
 30
0.0
 10
5.446450214373586
 20
4.785124347520634
 30
0.0
 10
5.44643385796388
 20
4.780667254424912
 30
0.0
 10
5.446418914295416
 20
4.77704685485051
 30
0.0
 10
5.446399595419708
 20
4.773427643618314
 30
0.0
 10
5.4463738048061
 20
4.769812640777354
 30
0.0
 10
5.446340398921151
 20
4.766204465363609
 30
0.0
 10
5.446299818567949
 20
4.762603434415986
 30
0.0
 10
5.446246654902322
 20
4.75900360719323
 30
0.0
 10
5.446176787410496
 20
4.755394628163996
 30
0.0
 10
5.446087953957773
 20
4.751760692399359
 30
0.0
 10
5.445964928245053
 20
4.748093118876774
 30
0.0
 10
5.445790616556483
 20
4.744401298998992
 30
0.0
 10
5.445601616901583
 20
4.740713789298788
 30
0.0
 10
5.445450796000651
 20
4.737053915320555
 30
0.0
 10
5.445366375543794
 20
4.733431308010379
 30
0.0
 10
5.445445825738888
 20
4.731062364441768
 30
0.0
 10
5.445485383534835
 20
4.729882881041083
 30
0.0
  0
SPLINE
  5
BE
330
2
100
AcDbEntity
  8
0
  6
Continuous
 62
     7
370
    20
100
AcDbSpline
210
0.0
220
0.0
230
1.0
 70
     8
 71
     3
 72
    55
 73
    51
 74
     0
 42
0.000000001
 43
0.0000000001
 40
0.0
 40
0.0
 40
0.0
 40
0.0
 40
0.0172774819150178
 40
0.0352616651732681
 40
0.0530476746996003
 40
0.0704553481316977
 40
0.087710218994559
 40
0.1049915888946806
 40
0.1224361046494979
 40
0.1400335578230323
 40
0.1571638703350228
 40
0.1738342899396934
 40
0.1914613118604584
 40
0.2096915537960533
 40
0.2272605657839005
 40
0.2444655950246546
 40
0.2619420769029691
 40
0.2801060976332104
 40
0.2979708583565596
 40
0.3147318158695149
 40
0.3317176289788226
 40
0.3493097973396822
 40
0.3668172383467453
 40
0.3842343638131671
 40
0.4017039660403546
 40
0.4191974566123866
 40
0.4366739906069846
 40
0.4541100429551236
 40
0.471529997618665
 40
0.4889657070286255
 40
0.506441068077786
 40
0.5239288411562664
 40
0.5413935117895528
 40
0.5588462509416249
 40
0.576300330030803
 40
0.5937615222156012
 40
0.6112282491378146
 40
0.6286979704162726
 40
0.6461703124498765
 40
0.6636432856251236
 40
0.6811140503616857
 40
0.6985820019687102
 40
0.7362662367845042
 40
0.7739573290123131
 40
0.8116216651541583
 40
0.8494460694606862
 40
0.8860990891420511
 40
0.9247763323732346
 40
0.9623061585061256
 40
1.0
 40
1.0
 40
1.0
 40
1.0
 10
5.259501077072128
 20
4.915258708448683
 30
0.0
 10
5.260630812699702
 20
4.914332076959229
 30
0.0
 10
5.262936493563949
 20
4.912440911945665
 30
0.0
 10
5.266397835037613
 20
4.909535899855999
 30
0.0
 10
5.269862173987551
 20
4.906583632128496
 30
0.0
 10
5.273272486008298
 20
4.90362571922502
 30
0.0
 10
5.276643771664888
 20
4.900654633212681
 30
0.0
 10
5.280011022223296
 20
4.897642725593362
 30
0.0
 10
5.283393895209245
 20
4.894575604182753
 30
0.0
 10
5.286760457439866
 20
4.891487377975607
 30
0.0
 10
5.290069948010182
 20
4.888405337538427
 30
0.0
 10
5.293372302034914
 20
4.885271995748649
 30
0.0
 10
5.296740755690736
 20
4.882069367511172
 30
0.0
 10
5.300162078791153
 20
4.878801199393947
 30
0.0
 10
5.303546315646826
 20
4.87551060827506
 30
0.0
 10
5.306874117077114
 20
4.872233561864192
 30
0.0
 10
5.31023362900303
 20
4.868902279180616
 30
0.0
 10
5.313630974965407
 20
4.8655337817171
 30
0.0
 10
5.316976293901344
 20
4.862187534063084
 30
0.0
 10
5.320233891242117
 20
4.858851535531957
 30
0.0
 10
5.323469930748691
 20
4.855532736193117
 30
0.0
 10
5.326751183426728
 20
4.852177358597195
 30
0.0
 10
5.330052502960241
 20
4.848773458734304
 30
0.0
 10
5.333340461614084
 20
4.845365583834829
 30
0.0
 10
5.336623336949286
 20
4.841953909732443
 30
0.0
 10
5.339905606629574
 20
4.838533168239919
 30
0.0
 10
5.343181549903668
 20
4.835110258179933
 30
0.0
 10
5.346448681440537
 20
4.831688450738852
 30
0.0
 10
5.349709616409315
 20
4.828268663885562
 30
0.0
 10
5.352969683360943
 20
4.824847889511518
 30
0.0
 10
5.356230772459406
 20
4.821426616511304
 30
0.0
 10
5.35949024406567
 20
4.818007439637244
 30
0.0
 10
5.36274455551497
 20
4.814593407851956
 30
0.0
 10
5.365992913179911
 20
4.811187146059385
 30
0.0
 10
5.369237048274092
 20
4.807788131495542
 30
0.0
 10
5.372477892327569
 20
4.804396508564304
 30
0.0
 10
5.375715309082345
 20
4.801013139528976
 30
0.0
 10
5.378948724503636
 20
4.797639251546059
 30
0.0
 10
5.382177501206672
 20
4.794276170885416
 30
0.0
 10
5.385400855679436
 20
4.790925086244632
 30
0.0
 10
5.388617893037927
 20
4.787587121308925
 30
0.0
 10
5.39306626345204
 20
4.782980831149684
 30
0.0
 10
5.398732579413775
 20
4.777132538883181
 30
0.0
 10
5.405595782968279
 20
4.770090602864625
 30
0.0
 10
5.412422919800938
 20
4.763120152789541
 30
0.0
 10
5.419119759418966
 20
4.756307875466327
 30
0.0
 10
5.425816899731926
 20
4.749502907878217
 30
0.0
 10
5.432469391727397
 20
4.742889749412348
 30
0.0
 10
5.439069129023013
 20
4.736278505589236
 30
0.0
 10
5.443343526886525
 20
4.732017853032604
 30
0.0
 10
5.445485385700806
 20
4.729882881856683
 30
0.0
  0
SPLINE
  5
BF
330
2
100
AcDbEntity
  8
0
  6
Continuous
 62
     7
370
    20
100
AcDbSpline
210
0.0
220
0.0
230
1.0
 70
     8
 71
     3
 72
    14
 73
    10
 74
     0
 42
0.000000001
 43
0.0000000001
 40
0.0
 40
0.0
 40
0.0
 40
0.0
 40
0.25
 40
0.25
 40
0.5
 40
0.5
 40
0.75
 40
0.75
 40
1.0
 40
1.0
 40
1.0
 40
1.0
 10
5.254144991010287
 20
4.907993696583114
 30
0.0
 10
5.254754296764182
 20
4.908244598314297
 30
0.0
 10
5.25540865250827
 20
4.908619253668366
 30
0.0
 10
5.256682417463473
 20
4.909621733157177
 30
0.0
 10
5.25729861648773
 20
4.910249868766602
 30
0.0
 10
5.258337176488053
 20
4.911647213405234
 30
0.0
 10
5.25875634896896
 20
4.912412589467217
 30
0.0
 10
5.259321579152048
 20
4.91390164452634
 30
0.0
 10
5.259468589308179
 20
4.914622088627814
 30
0.0
 10
5.259501099067172
 20
4.915258708171378
 30
0.0
  0
SPLINE
  5
C0
330
2
100
AcDbEntity
  8
0
  6
Continuous
 62
     7
370
    20
100
AcDbSpline
210
0.0
220
0.0
230
1.0
 70
     8
 71
     3
 72
    11
 73
     7
 74
     0
 42
0.000000001
 43
0.0000000001
 40
0.0
 40
0.0
 40
0.0
 40
0.0
 40
0.2504256128983165
 40
0.4999908319406702
 40
0.7495606469181051
 40
1.0
 40
1.0
 40
1.0
 40
1.0
 10
4.646715127241879
 20
5.295065666899949
 30
0.0
 10
4.646984898849332
 20
5.295152352596621
 30
0.0
 10
4.647523515202841
 20
5.295325426161642
 30
0.0
 10
4.648342515085015
 20
5.295662290269046
 30
0.0
 10
4.649166451447782
 20
5.296050209378804
 30
0.0
 10
4.649718084756125
 20
5.296358098503948
 30
0.0
 10
4.649994381067681
 20
5.29651231078294
 30
0.0
  0
LINE
  5
C1
330
2
100
AcDbEntity
  8
0
  6
Continuous
 62
     7
370
    20
100
AcDbLine
 10
4.646715139218949
 20
5.295065679991153
 30
0.0
 11
4.60933691791325
 21
5.283788021100853
 31
0.0
  0
SPLINE
  5
C2
330
2
100
AcDbEntity
  8
0
  6
Continuous
 62
     7
370
    20
100
AcDbSpline
210
0.0
220
0.0
230
1.0
 70
     8
 71
     3
 72
    11
 73
     7
 74
     0
 42
0.000000001
 43
0.0000000001
 40
0.0
 40
0.0
 40
0.0
 40
0.0
 40
0.2411962610102952
 40
0.5000031881832129
 40
0.7347700411019273
 40
1.0
 40
1.0
 40
1.0
 40
1.0
 10
4.595912700082317
 20
5.273386546462874
 30
0.0
 10
4.600499759345044
 20
5.274777326080254
 30
0.0
 10
4.610008796699693
 20
5.277660431480968
 30
0.0
 10
4.623954739044471
 20
5.281899064624759
 30
0.0
 10
4.638390686260359
 20
5.286247910381224
 30
0.0
 10
4.647883800379812
 20
5.289119615829306
 30
0.0
 10
4.652919549025024
 20
5.290642950178567
 30
0.0
  0
LWPOLYLINE
  5
C3
330
2
100
AcDbEntity
  8
0
  6
Continuous
 62
     7
370
    20
100
AcDbPolyline
 90
       10
 70
   128
 43
0.0
 10
4.631529152388649
 20
5.090947304850253
 10
4.64872442489405
 20
5.101896116925553
 10
4.663984474277749
 20
5.113762383325453
 10
4.677163366015848
 20
5.126432551294152
 10
4.688134880837149
 20
5.139785380244053
 10
4.696794148952449
 20
5.153693125874953
 10
4.703058275942449
 20
5.168022744697153
 10
4.706867351115649
 20
5.182637078193553
 10
4.708184864760349
 20
5.197396338327853
 10
4.70699833403585
 20
5.212159311919153
  0
SPLINE
  5
C4
330
2
100
AcDbEntity
  8
0
  6
Continuous
 62
     7
370
    20
100
AcDbSpline
210
0.0
220
0.0
230
1.0
 70
     8
 71
     3
 72
    11
 73
     7
 74
     0
 42
0.000000001
 43
0.0000000001
 40
0.0
 40
0.0
 40
0.0
 40
0.0
 40
0.2499999823311526
 40
0.4999999838330057
 40
0.7499999806043915
 40
1.0
 40
1.0
 40
1.0
 40
1.0
 10
4.652919507828688
 20
5.29064293450313
 30
0.0
 10
4.653194911467471
 20
5.290726467948476
 30
0.0
 10
4.653745718766156
 20
5.290893534845573
 30
0.0
 10
4.654583343386855
 20
5.291221676916806
 30
0.0
 10
4.655425718517321
 20
5.291600499923948
 30
0.0
 10
4.655989155585903
 20
5.291902309545796
 30
0.0
 10
4.656270874132941
 20
5.292053214363548
 30
0.0
  0
LINE
  5
C5
330
2
100
AcDbEntity
  8
0
  6
Continuous
 62
     7
370
    20
100
AcDbLine
 10
4.723573045827949
 20
5.221278440037252
 30
0.0
 11
4.72362363785405
 21
5.220810275439253
 31
0.0
  0
SPLINE
  5
C6
330
2
100
AcDbEntity
  8
0
  6
Continuous
 62
     7
370
    20
100
AcDbSpline
210
0.0
220
0.0
230
1.0
 70
     8
 71
     3
 72
    15
 73
    11
 74
     0
 42
0.000000001
 43
0.0000000001
 40
0.0
 40
0.0
 40
0.0
 40
0.0
 40
0.1270572114892509
 40
0.2516124523060652
 40
0.3746710204448024
 40
0.5000107524815843
 40
0.6253078346494373
 40
0.7495463506608786
 40
0.8750081529176028
 40
1.0
 40
1.0
 40
1.0
 40
1.0
 10
4.887437771129806
 20
4.894638792687453
 30
0.0
 10
4.886522832303594
 20
4.899291495646055
 30
0.0
 10
4.884710971338954
 20
4.908505281999019
 30
0.0
 10
4.882096422532761
 20
4.922241767765164
 30
0.0
 10
4.879567919352323
 20
4.935929156975804
 30
0.0
 10
4.877049462177991
 20
4.949646611089999
 30
0.0
 10
4.874593868792432
 20
4.963420318940784
 30
0.0
 10
4.872238372095303
 20
4.977216015682925
 30
0.0
 10
4.869913575269022
 20
4.991005484731859
 30
0.0
 10
4.868455488225027
 20
5.000238332163359
 30
0.0
 10
4.867727812691782
 20
5.004846093548902
 30
0.0
  0
SPLINE
  5
C7
330
2
100
AcDbEntity
  8
0
  6
Continuous
 62
     7
370
    20
100
AcDbSpline
210
0.0
220
0.0
230
1.0
 70
     8
 71
     3
 72
    81
 73
    77
 74
     0
 42
0.000000001
 43
0.0000000001
 40
0.0
 40
0.0
 40
0.0
 40
0.0
 40
0.006569482767016
 40
0.0131799654676216
 40
0.0198433369839515
 40
0.0265168340599403
 40
0.0331516120239437
 40
0.0397349201561617
 40
0.046298305679423
 40
0.0528741703847082
 40
0.0594740024043902
 40
0.0660947205969434
 40
0.0727316495026317
 40
0.0793719665651059
 40
0.0859998704313228
 40
0.0926048119151199
 40
0.0991931183982537
 40
0.1057743391099103
 40
0.1123564181343442
 40
0.1189456827774219
 40
0.1255506504690905
 40
0.1321703257760954
 40
0.138791915827673
 40
0.1454032177179152
 40
0.152011313009513
 40
0.1720700649978348
 40
0.1919296403965154
 40
0.2118605985078497
 40
0.2317377392721924
 40
0.2518075022161754
 40
0.2718111539708737
 40
0.2916234318230322
 40
0.3068217893435854
 40
0.3221989570595673
 40
0.3374251416441658
 40
0.3527113911150189
 40
0.3680773132904049
 40
0.383222930766467
 40
0.3987355088993578
 40
0.4138864549427217
 40
0.4290295519608435
 40
0.4456721261571321
 40
0.4621245656161398
 40
0.478646396141535
 40
0.4953319272883235
 40
0.5117325033983196
 40
0.5282534442742568
 40
0.5447964106615502
 40
0.5613006201675903
 40
0.5778661321695121
 40
0.5951871593322813
 40
0.6125246152365503
 40
0.629852869608797
 40
0.6470164309935864
 40
0.6643108703882933
 40
0.6815250845792813
 40
0.6989779678620307
 40
0.7162524041615061
 40
0.7334939308392871
 40
0.7506961246177737
 40
0.7680830908776112
 40
0.7854819707057295
 40
0.8007494986769552
 40
0.8160957105823783
 40
0.8315435318273545
 40
0.8467892458912285
 40
0.8621601935547325
 40
0.877634034263753
 40
0.8929680784679783
 40
0.9081431550622143
 40
0.92338835996447
 40
0.9387787097598591
 40
0.9541836736059964
 40
0.9694038254347303
 40
0.9845743805099214
 40
1.0
 40
1.0
 40
1.0
 40
1.0
 10
5.411438939406633
 20
4.114302308547749
 30
0.0
 10
5.40988477322435
 20
4.115253875648011
 30
0.0
 10
5.406766741357935
 20
4.117162948548628
 30
0.0
 10
5.402105103936849
 20
4.120109851749681
 30
0.0
 10
5.397443434226151
 20
4.123118631837001
 30
0.0
 10
5.392796971040517
 20
4.126178170931937
 30
0.0
 10
5.388184122428134
 20
4.129266973323021
 30
0.0
 10
5.383609835159466
 20
4.132378263135883
 30
0.0
 10
5.379064352807406
 20
4.135518250045386
 30
0.0
 10
5.374531476139834
 20
4.138696339953529
 30
0.0
 10
5.370002151751096
 20
4.141917445526944
 30
0.0
 10
5.365475217046358
 20
4.145181246769041
 30
0.0
 10
5.360955654793381
 20
4.148483557892461
 30
0.0
 10
5.356446326190372
 20
4.151815325696537
 30
0.0
 10
5.351950491075757
 20
4.155166102883841
 30
0.0
 10
5.34746773900449
 20
4.158529074578218
 30
0.0
 10
5.343000980252188
 20
4.161905450131289
 30
0.0
 10
5.338549322725406
 20
4.165299632512029
 30
0.0
 10
5.334108999234215
 20
4.168715011447372
 30
0.0
 10
5.329667938632691
 20
4.172151880040541
 30
0.0
 10
5.325218294004598
 20
4.175609906503659
 30
0.0
 10
5.320760635300772
 20
4.179086923074842
 30
0.0
 10
5.31630585059941
 20
4.182579307415586
 30
0.0
 10
5.311862683860747
 20
4.186084784462643
 30
0.0
 10
5.304427331645617
 20
4.191989216425996
 30
0.0
 10
5.294081002816429
 20
4.200311697604908
 30
0.0
 10
5.280782277301556
 20
4.211090363293163
 30
0.0
 10
5.267604825462329
 20
4.221920785829862
 30
0.0
 10
5.254399077171417
 20
4.232832500488586
 30
0.0
 10
5.241274542836996
 20
4.243819909371255
 30
0.0
 10
5.228240446307465
 20
4.254839068379505
 30
0.0
 10
5.216266704195723
 20
4.264960876880582
 30
0.0
 10
5.205293759106394
 20
4.274249109520937
 30
0.0
 10
5.195340359722005
 20
4.282742031403252
 30
0.0
 10
5.185408417363128
 20
4.291322950124262
 30
0.0
 10
5.175537053846616
 20
4.30000558432781
 30
0.0
 10
5.16575460427453
 20
4.308789571598724
 30
0.0
 10
5.156042865700102
 20
4.317775905810837
 30
0.0
 10
5.14637883036088
 20
4.326850064623924
 30
0.0
 10
5.136817903981608
 20
4.336096220067375
 30
0.0
 10
5.12708944446393
 20
4.345765777599044
 30
0.0
 10
5.117155203887538
 20
4.355911398072683
 30
0.0
 10
5.107049998542631
 20
4.366617986797891
 30
0.0
 10
5.096970537896556
 20
4.377581328124179
 30
0.0
 10
5.087033893147054
 20
4.388860820177088
 30
0.0
 10
5.077207127496059
 20
4.400459754751887
 30
0.0
 10
5.067491538790821
 20
4.41236933654898
 30
0.0
 10
5.057852846511474
 20
4.424655459723853
 30
0.0
 10
5.048364166399973
 20
4.437367233175713
 30
0.0
 10
5.038904799521819
 20
4.450725762175599
 30
0.0
 10
5.029474838461972
 20
4.464777955105782
 30
0.0
 10
5.020143142802565
 20
4.479569058778265
 30
0.0
 10
5.011122836692747
 20
4.494865538163123
 30
0.0
 10
5.002429398893859
 20
4.510711434266514
 30
0.0
 10
4.994107647162497
 20
4.527083538185551
 30
0.0
 10
4.986124913624549
 20
4.544073092788654
 30
0.0
 10
4.978499722027045
 20
4.561531499190344
 30
0.0
 10
4.97126132627714
 20
4.579412138274021
 30
0.0
 10
4.964393260551156
 20
4.597547716891692
 30
0.0
 10
4.957806369742947
 20
4.6159906329649
 30
0.0
 10
4.951573562543067
 20
4.634743964930299
 30
0.0
 10
4.945839907386771
 20
4.65297156773258
 30
0.0
 10
4.940604779464101
 20
4.670593305443139
 30
0.0
 10
4.935815937894042
 20
4.687604684673795
 30
0.0
 10
4.931137092284235
 20
4.704669684157742
 30
0.0
 10
4.926667239335176
 20
4.721820128433432
 30
0.0
 10
4.922259790111949
 20
4.739015673735258
 30
0.0
 10
4.917950695927127
 20
4.756283152633349
 30
0.0
 10
4.913787109390987
 20
4.773516893397344
 30
0.0
 10
4.909730920153521
 20
4.790692135040165
 30
0.0
 10
4.905762294437786
 20
4.807914526253154
 30
0.0
 10
4.901853623662498
 20
4.825244761928042
 30
0.0
 10
4.898062469550617
 20
4.842593065110932
 30
0.0
 10
4.894419077377397
 20
4.859887510724332
 30
0.0
 10
4.890876197262492
 20
4.877211925831149
 30
0.0
 10
4.888590265382937
 20
4.888797642368404
 30
0.0
 10
4.887437771129806
 20
4.894638792687453
 30
0.0
  0
SPLINE
  5
C8
330
2
100
AcDbEntity
  8
0
  6
Continuous
 62
     7
370
    20
100
AcDbSpline
210
0.0
220
0.0
230
1.0
 70
     8
 71
     3
 72
    96
 73
    92
 74
     0
 42
0.000000001
 43
0.0000000001
 40
0.0
 40
0.0
 40
0.0
 40
0.0
 40
0.0051794833761757
 40
0.0103592870298507
 40
0.0155394492638881
 40
0.0207199942081047
 40
0.025900932610749
 40
0.031082262641903
 40
0.0362639707159105
 40
0.0414460323396662
 40
0.0466284129936869
 40
0.0518110690533272
 40
0.056993948758222
 40
0.0621769932390595
 40
0.0673601376120399
 40
0.0725433122699184
 40
0.07772644598955
 40
0.0829094683872725
 40
0.0880923112815212
 40
0.0932749108219731
 40
0.0984572097164233
 40
0.1036391595093828
 40
0.1088207228813884
 40
0.1140018759337886
 40
0.1191826104198789
 40
0.1243629358794806
 40
0.1295428816306905
 40
0.1347224985694412
 40
0.1399018609956605
 40
0.1450810766716562
 40
0.1502602863722245
 40
0.1554396488917145
 40
0.1606192873483953
 40
0.1657992780600532
 40
0.1709797016073911
 40
0.1761606491747957
 40
0.1813422271780747
 40
0.1865245627181231
 40
0.1917078099108602
 40
0.1968921571410285
 40
0.2020778352845471
 40
0.2072651262760012
 40
0.2273748636824225
 40
0.2474679379841058
 40
0.2675010243571671
 40
0.2875468304375443
 40
0.3077035175642909
 40
0.3277857715212698
 40
0.3477218261708931
 40
0.3677879267654873
 40
0.3879296457808294
 40
0.4079991615653293
 40
0.4359409877262043
 40
0.4638871117933677
 40
0.4918974470981938
 40
0.5198009641850915
 40
0.5477594207136267
 40
0.5756061377314448
 40
0.6036514835850879
 40
0.6239596421737137
 40
0.6441541291512137
 40
0.6642462566359051
 40
0.6844831137836401
 40
0.7047961504635678
 40
0.7249286670666653
 40
0.7449835393697294
 40
0.7651198205358835
 40
0.7853306797510086
 40
0.805583048699335
 40
0.8144450278822027
 40
0.8233022036626378
 40
0.8321522734571891
 40
0.840993979354725
 40
0.8498270528944754
 40
0.8586537867399957
 40
0.8674784855971291
 40
0.8763046439071208
 40
0.8851347331946966
 40
0.8939688995162256
 40
0.9028059993058587
 40
0.9116447553923258
 40
0.9204839007084455
 40
0.9293223073975621
 40
0.9381590427093495
 40
0.9469935206060336
 40
0.9558257793368779
 40
0.9646565002661436
 40
0.9734870032161865
 40
0.9823192461755708
 40
0.9911558290195195
 40
1.0
 40
1.0
 40
1.0
 40
1.0
 10
4.934162133730404
 20
4.042853001003921
 30
0.0
 10
4.935150250018873
 20
4.04342020433886
 30
0.0
 10
4.937126543696773
 20
4.044554646082211
 30
0.0
 10
4.940154061497745
 20
4.046219241944594
 30
0.0
 10
4.943226552819611
 20
4.047856308160675
 30
0.0
 10
4.946347585091999
 20
4.049462854170021
 30
0.0
 10
4.949514891742885
 20
4.051039239559468
 30
0.0
 10
4.952727765133625
 20
4.05258493161939
 30
0.0
 10
4.95598507588498
 20
4.054099642037066
 30
0.0
 10
4.959285804214943
 20
4.055583022017916
 30
0.0
 10
4.962628898186295
 20
4.057034743639008
 30
0.0
 10
4.966013312406673
 20
4.058454477610953
 30
0.0
 10
4.969437998408459
 20
4.059841898741675
 30
0.0
 10
4.972901908142807
 20
4.061196683791639
 30
0.0
 10
4.976403993655518
 20
4.062518511652227
 30
0.0
 10
4.979943209724093
 20
4.063807061599309
 30
0.0
 10
4.983518509026017
 20
4.065062018725174
 30
0.0
 10
4.987128843451847
 20
4.066283074396005
 30
0.0
 10
4.990773168394721
 20
4.067469923199326
 30
0.0
 10
4.994450442658068
 20
4.068622263873703
 30
0.0
 10
4.99815962957186
 20
4.069739799402093
 30
0.0
 10
5.00189969781239
 20
4.070822237462138
 30
0.0
 10
5.005669622266809
 20
4.071869290905647
 30
0.0
 10
5.009468384818648
 20
4.072880678384668
 30
0.0
 10
5.01329497510776
 20
4.073856125041014
 30
0.0
 10
5.01714839107872
 20
4.074795363532083
 30
0.0
 10
5.021027639912816
 20
4.07569813444042
 30
0.0
 10
5.024931737124011
 20
4.076564189671378
 30
0.0
 10
5.028859714442084
 20
4.077393285934743
 30
0.0
 10
5.032810599793505
 20
4.078185221537609
 30
0.0
 10
5.036783411215129
 20
4.078939852554201
 30
0.0
 10
5.040777170153964
 20
4.079657042350648
 30
0.0
 10
5.044790878344181
 20
4.080336663622126
 30
0.0
 10
5.048823524434978
 20
4.080978577941049
 30
0.0
 10
5.052874091969081
 20
4.081582640368802
 30
0.0
 10
5.056941575682862
 20
4.082148697874912
 30
0.0
 10
5.06102498522141
 20
4.082676586693706
 30
0.0
 10
5.06512334713077
 20
4.08316612865846
 30
0.0
 10
5.069235713077242
 20
4.083617128593449
 30
0.0
 10
5.073361145830758
 20
4.084029367008755
 30
0.0
 10
5.077498789381589
 20
4.084402609176269
 30
0.0
 10
5.085625379488906
 20
4.085056724327851
 30
0.0
 10
5.097792731725864
 20
4.085749147447586
 30
0.0
 10
5.114000128453605
 20
4.086090417886477
 30
0.0
 10
5.130191148052796
 20
4.085887241233519
 30
0.0
 10
5.146336132611807
 20
4.085095467433221
 30
0.0
 10
5.162341610662014
 20
4.083668455337506
 30
0.0
 10
5.178124243864086
 20
4.081729230098904
 30
0.0
 10
5.193653096890788
 20
4.079321353789874
 30
0.0
 10
5.208858253137924
 20
4.076364270853568
 30
0.0
 10
5.223704530876827
 20
4.072900810951866
 30
0.0
 10
5.239982866169478
 20
4.068457063241043
 30
0.0
 10
5.257366725182278
 20
4.062844729371176
 30
0.0
 10
5.275453736326099
 20
4.055885293236917
 30
0.0
 10
5.292245265276076
 20
4.048253366904249
 30
0.0
 10
5.307695646506483
 20
4.040062086068052
 30
0.0
 10
5.321608524611914
 20
4.031415614155609
 30
0.0
 10
5.333931443214115
 20
4.022391502902076
 30
0.0
 10
5.343619272930837
 20
4.013975341746018
 30
0.0
 10
5.351092855946263
 20
4.006325887318419
 30
0.0
 10
5.356732680110179
 20
3.999528766140049
 30
0.0
 10
5.361351846014062
 20
3.992725796196467
 30
0.0
 10
5.365133210534196
 20
3.985984421592315
 30
0.0
 10
5.368057346718462
 20
3.979306362827393
 30
0.0
 10
5.369866391617899
 20
3.972670457127721
 30
0.0
 10
5.370616131955205
 20
3.9661163064429
 30
0.0
 10
5.370439016072193
 20
3.959636338341134
 30
0.0
 10
5.369317497129676
 20
3.953204197131729
 30
0.0
 10
5.367629984453279
 20
3.948017039645589
 30
0.0
 10
5.365881981098232
 20
3.94403689525349
 30
0.0
 10
5.364462934072107
 20
3.941253907459083
 30
0.0
 10
5.362847025526963
 20
3.938473041393724
 30
0.0
 10
5.361033214970564
 20
3.93569279875579
 30
0.0
 10
5.359020572771946
 20
3.932911496893127
 30
0.0
 10
5.356811455331862
 20
3.930127735782475
 30
0.0
 10
5.354412132419189
 20
3.927340505313375
 30
0.0
 10
5.351827153375583
 20
3.924548395261214
 30
0.0
 10
5.349061373748203
 20
3.92175044559829
 30
0.0
 10
5.346117262531303
 20
3.918945537296174
 30
0.0
 10
5.342996331047396
 20
3.9161326793294
 30
0.0
 10
5.339700098400363
 20
3.91331109433234
 30
0.0
 10
5.336229732459166
 20
3.910480066297669
 30
0.0
 10
5.332586237320247
 20
3.90763900731908
 30
0.0
 10
5.328770244105537
 20
3.904787437268237
 30
0.0
 10
5.324781896825222
 20
3.901924996195484
 30
0.0
 10
5.32062180537984
 20
3.899051610171406
 30
0.0
 10
5.316290368760504
 20
3.896167452643597
 30
0.0
 10
5.31178944135278
 20
3.893272991095445
 30
0.0
 10
5.307116036974075
 20
3.890368969319702
 30
0.0
 10
5.302285609979133
 20
3.887456609092059
 30
0.0
 10
5.298927087976728
 20
3.885511327644534
 30
0.0
 10
5.297247106278778
 20
3.884538269487744
 30
0.0
  0
SPLINE
  5
C9
330
2
100
AcDbEntity
  8
0
  6
Continuous
 62
     7
370
    20
100
AcDbSpline
210
0.0
220
0.0
230
1.0
 70
     8
 71
     3
 72
    68
 73
    64
 74
     0
 42
0.000000001
 43
0.0000000001
 40
0.0
 40
0.0
 40
0.0
 40
0.0
 40
0.006378094384112
 40
0.0127546581335726
 40
0.0191301576191236
 40
0.0255049481486459
 40
0.0318792783274244
 40
0.0382532949623381
 40
0.0446270487166028
 40
0.0510005803582068
 40
0.0573740565612538
 40
0.0637476171152497
 40
0.0701213518808985
 40
0.0764953071706517
 40
0.0828694915968419
 40
0.0892439114981943
 40
0.0956186241560343
 40
0.1019936790384792
 40
0.108369108600579
 40
0.114744930247927
 40
0.1211211253814973
 40
0.1274975086412911
 40
0.1338738271847184
 40
0.1402498337088973
 40
0.1466252862173316
 40
0.1529999474311055
 40
0.1593736409649136
 40
0.1657465239675169
 40
0.1721188700596941
 40
0.178490949065299
 40
0.1848630283893488
 40
0.2103934029836475
 40
0.235929394748163
 40
0.2614643029164773
 40
0.2869965644686876
 40
0.3125304180137691
 40
0.3380687863047026
 40
0.363605207804493
 40
0.3891374388098681
 40
0.4190312589088321
 40
0.4489324764661581
 40
0.478830272496346
 40
0.5087262080891907
 40
0.5386247241623538
 40
0.5611805043251597
 40
0.58373972232221
 40
0.6062981177229938
 40
0.6288527564113327
 40
0.6514120861059954
 40
0.6749920782327236
 40
0.6985815321812519
 40
0.7221624045231616
 40
0.7457473961721206
 40
0.7693266657287975
 40
0.7965387239202801
 40
0.8237337641779708
 40
0.8509348285309915
 40
0.8781458357306586
 40
0.9053516313937871
 40
0.9325507231022152
 40
0.9550273659096664
 40
0.9775100175568923
 40
1.0
 40
1.0
 40
1.0
 40
1.0
 10
5.606313266902732
 20
4.121773847247284
 30
0.0
 10
5.444506606757226
 20
4.149074474904875
 30
0.0
 10
5.441626174100596
 20
4.150730668413482
 30
0.0
 10
5.43731975685562
 20
4.153286482482666
 30
0.0
 10
5.433024178445944
 20
4.155890432676889
 30
0.0
 10
5.428740137372613
 20
4.158544925107224
 30
0.0
 10
5.424467124190051
 20
4.161245525308343
 30
0.0
 10
5.420205013407255
 20
4.163989611871657
 30
0.0
 10
5.415953617431552
 20
4.166774015040911
 30
0.0
 10
5.411712750834218
 20
4.169595885553901
 30
0.0
 10
5.407482192879947
 20
4.172453369108994
 30
0.0
 10
5.403261711745207
 20
4.175344525187719
 30
0.0
 10
5.399051099589609
 20
4.178267418708028
 30
0.0
 10
5.394850173643055
 20
4.181220092431805
 30
0.0
 10
5.390658773843852
 20
4.184200555467731
 30
0.0
 10
5.386476710261335
 20
4.187206895348887
 30
0.0
 10
5.382303627702675
 20
4.190237684200791
 30
0.0
 10
5.378139185320529
 20
4.19329144941623
 30
0.0
 10
5.373983032263495
 20
4.196366702543709
 30
0.0
 10
5.369834886433637
 20
4.199462000153681
 30
0.0
 10
5.365694309806832
 20
4.202575619466067
 30
0.0
 10
5.36156152951549
 20
4.205706560326698
 30
0.0
 10
5.357437846003171
 20
4.208854992231295
 30
0.0
 10
5.353324344909334
 20
4.21202081808456
 30
0.0
 10
5.349222173746809
 20
4.215204021886343
 30
0.0
 10
5.34513241246215
 20
4.218404558337182
 30
0.0
 10
5.341056185555158
 20
4.221622546749966
 30
0.0
 10
5.336992995201288
 20
4.224857104331453
 30
0.0
 10
5.332942025543269
 20
4.228107281012617
 30
0.0
 10
5.328902544358991
 20
4.231372226661822
 30
0.0
 10
5.320835808775482
 20
4.237936787109454
 30
0.0
 10
5.308809608097873
 20
4.247887289540281
 30
0.0
 10
5.29284187443758
 20
4.261273792140382
 30
0.0
 10
5.276872714175198
 20
4.274716418083222
 30
0.0
 10
5.260984640907821
 20
4.288296037106993
 30
0.0
 10
5.245233980895763
 20
4.302076914867555
 30
0.0
 10
5.229655969786224
 20
4.316110176958361
 30
0.0
 10
5.214237930515875
 20
4.330420021816976
 30
0.0
 10
5.198221438294384
 20
4.346001631563375
 30
0.0
 10
5.181764478560888
 20
4.36313223541166
 30
0.0
 10
5.164743538328774
 20
4.381893468293212
 30
0.0
 10
5.147808106222897
 20
4.401346513277818
 30
0.0
 10
5.131053507453749
 20
4.421667456438415
 30
0.0
 10
5.115978774740836
 20
4.441327268267208
 30
0.0
 10
5.102601561284911
 20
4.460176873625757
 30
0.0
 10
5.090897150397237
 20
4.478009406485645
 30
0.0
 10
5.079660147444293
 20
4.49675352561999
 30
0.0
 10
5.068874542566245
 20
4.516363962656244
 30
0.0
 10
5.058389534641721
 20
4.537095844374235
 30
0.0
 10
5.048264110525751
 20
4.558950310361016
 30
0.0
 10
5.038587093246521
 20
4.581900416739731
 30
0.0
 10
5.029413912405075
 20
4.605453330820148
 30
0.0
 10
5.020815449068541
 20
4.62952774289801
 30
0.0
 10
5.012341828435408
 20
4.655252480682395
 30
0.0
 10
5.004129549041703
 20
4.682615472158591
 30
0.0
 10
4.996161612263458
 20
4.71155940927875
 30
0.0
 10
4.988760541121854
 20
4.740743357634277
 30
0.0
 10
4.981743540409121
 20
4.770081692011505
 30
0.0
 10
4.975066844686613
 20
4.799531959475965
 30
0.0
 10
4.969110924991561
 20
4.827364636682837
 30
0.0
 10
4.96379274276862
 20
4.85355078420681
 30
0.0
 10
4.959044908574064
 20
4.878075835285011
 30
0.0
 10
4.956028529376194
 20
4.894457196717121
 30
0.0
 10
4.954520093933751
 20
4.902649212560852
 30
0.0
  0
SPLINE
  5
CA
330
2
100
AcDbEntity
  8
0
  6
Continuous
 62
     7
370
    20
100
AcDbSpline
210
0.0
220
0.0
230
1.0
 70
     8
 71
     3
 72
    18
 73
    14
 74
     0
 42
0.000000001
 43
0.0000000001
 40
0.0
 40
0.0
 40
0.0
 40
0.0
 40
0.0909670023877896
 40
0.1818628570527201
 40
0.2727441101048202
 40
0.3636310800390527
 40
0.4545289416640141
 40
0.5454393888825165
 40
0.6363609256371037
 40
0.7272890077755024
 40
0.818213876346976
 40
0.9091219533600296
 40
1.0
 40
1.0
 40
1.0
 40
1.0
 10
4.93841482468649
 20
4.999198779855669
 30
0.0
 10
4.938842751284062
 20
4.996261477030975
 30
0.0
 10
4.939698269786381
 20
4.990389168724599
 30
0.0
 10
4.941036129864786
 20
4.98159058392502
 30
0.0
 10
4.942415206549721
 20
4.972801227752441
 30
0.0
 10
4.943835391954433
 20
4.964018490207006
 30
0.0
 10
4.945290910272001
 20
4.95524064358169
 30
0.0
 10
4.946777506014125
 20
4.946466835434627
 30
0.0
 10
4.948290608806436
 20
4.937696460175502
 30
0.0
 10
4.949825825994162
 20
4.928929305489844
 30
0.0
 10
4.951378742649232
 20
4.920165594133985
 30
0.0
 10
4.95294425538262
 20
4.911405715822549
 30
0.0
 10
4.953994872301988
 20
4.905567725332442
 30
0.0
 10
4.954520093982722
 20
4.902649212294251
 30
0.0
  0
SPLINE
  5
CB
330
2
100
AcDbEntity
  8
0
  6
Continuous
 62
     7
370
    20
100
AcDbSpline
210
0.0
220
0.0
230
1.0
 70
     8
 71
     3
 72
    47
 73
    43
 74
     0
 42
0.000000001
 43
0.0000000001
 40
0.0
 40
0.0
 40
0.0
 40
0.0
 40
0.0184748911616587
 40
0.0369435597747873
 40
0.0554095599624932
 40
0.0738738162136635
 40
0.0923365755247215
 40
0.1107980685919029
 40
0.1292585080338352
 40
0.1477180866524997
 40
0.1661769757338878
 40
0.1846353233891769
 40
0.2030932529373461
 40
0.2215508613302302
 40
0.240008217621093
 40
0.2584653614778929
 40
0.2769223017425201
 40
0.295379015037361
 40
0.3138354469513854
 40
0.332291567574027
 40
0.350747351789132
 40
0.3692027054012572
 40
0.387657461600773
 40
0.4061113820566585
 40
0.4245643983446998
 40
0.4430169127990505
 40
0.4614693247390501
 40
0.4799219572609252
 40
0.4983750591249477
 40
0.5168288066963171
 40
0.5352833059361868
 40
0.5537385944394538
 40
0.5721946435161123
 40
0.6197406454145675
 40
0.6672886654245818
 40
0.7148340950210882
 40
0.7623680226794896
 40
0.8098790961166173
 40
0.8573926434894174
 40
0.9049382972516092
 40
0.9524863936820231
 40
1.0
 40
1.0
 40
1.0
 40
1.0
 10
5.356376719712905
 20
4.486834991018694
 30
0.0
 10
5.357296376824075
 20
4.4882164022478
 30
0.0
 10
5.359135381295688
 20
4.490978759431367
 30
0.0
 10
5.361839167823002
 20
4.495139571822906
 30
0.0
 10
5.364502866908647
 20
4.499311761272885
 30
0.0
 10
5.367122408289922
 20
4.503496567089557
 30
0.0
 10
5.369698530887865
 20
4.507693310920203
 30
0.0
 10
5.372230629756784
 20
4.511901708359652
 30
0.0
 10
5.374718471406088
 20
4.516121352194293
 30
0.0
 10
5.377161742849736
 20
4.520351864405176
 30
0.0
 10
5.379560172490006
 20
4.524592855620671
 30
0.0
 10
5.3819134977956
 20
4.528843936154315
 30
0.0
 10
5.384221474004887
 20
4.533104713224219
 30
0.0
 10
5.386483871898063
 20
4.53737479185486
 30
0.0
 10
5.388700478243441
 20
4.541653774855389
 30
0.0
 10
5.390871096445167
 20
4.545941262797244
 30
0.0
 10
5.392995543674745
 20
4.550236854904433
 30
0.0
 10
5.395073661919583
 20
4.554540146476176
 30
0.0
 10
5.397105279286628
 20
4.558850744464974
 30
0.0
 10
5.39909039175097
 20
4.563168222902683
 30
0.0
 10
5.401029181181865
 20
4.567492122356949
 30
0.0
 10
5.402921810652911
 20
4.571821997592946
 30
0.0
 10
5.404768470102995
 20
4.576157394781184
 30
0.0
 10
5.406569351973272
 20
4.580497893740377
 30
0.0
 10
5.408324748414321
 20
4.584843072294907
 30
0.0
 10
5.410035269689621
 20
4.589192294427585
 30
0.0
 10
5.411701515218661
 20
4.593545006325354
 30
0.0
 10
5.413324097462816
 20
4.597900651358894
 30
0.0
 10
5.414903627964883
 20
4.602258675372169
 30
0.0
 10
5.416440720470637
 20
4.60661852461969
 30
0.0
 10
5.417935988927031
 20
4.610979643593958
 30
0.0
 10
5.419390051246805
 20
4.615341486523357
 30
0.0
 10
5.421546121174114
 20
4.621995176727507
 30
0.0
 10
5.424298215722262
 20
4.630939157847382
 30
0.0
 10
5.427493771680007
 20
4.642164080215309
 30
0.0
 10
5.430433098595629
 20
4.65337166795197
 30
0.0
 10
5.433122446077169
 20
4.664554446412573
 30
0.0
 10
5.435570264406579
 20
4.675707166050772
 30
0.0
 10
5.437783608236522
 20
4.68683238762688
 30
0.0
 10
5.439760841212968
 20
4.697936068471895
 30
0.0
 10
5.441528014142427
 20
4.709023040715923
 30
0.0
 10
5.44252076847898
 20
4.71640778037046
 30
0.0
 10
5.4430169655526
 20
4.720098810538888
 30
0.0
  0
SPLINE
  5
CC
330
2
100
AcDbEntity
  8
0
  6
Continuous
 62
     7
370
    20
100
AcDbSpline
210
0.0
220
0.0
230
1.0
 70
     8
 71
     3
 72
    33
 73
    29
 74
     0
 42
0.000000001
 43
0.0000000001
 40
0.0
 40
0.0
 40
0.0
 40
0.0
 40
0.0123893409513963
 40
0.0245080234867114
 40
0.0364737275032317
 40
0.0483758395884858
 40
0.060275926908529
 40
0.0722100133565279
 40
0.0841919364739278
 40
0.0962171534322811
 40
0.1082665697593008
 40
0.1203103608344323
 40
0.1323274362331655
 40
0.1443221732149678
 40
0.1563013449002544
 40
0.1682713888479858
 40
0.1802384151163547
 40
0.19220821608222
 40
0.2462290228331615
 40
0.3002600074939727
 40
0.3542528671064515
 40
0.4007656367667197
 40
0.4472805347214016
 40
0.4938053915881426
 40
0.5403603662443027
 40
0.5868732659008941
 40
0.793556773382787
 40
1.0
 40
1.0
 40
1.0
 40
1.0
 10
5.344066113452925
 20
4.439218284805262
 30
0.0
 10
5.34395414942793
 20
4.43934886838191
 30
0.0
 10
5.34373266735192
 20
4.439607182797182
 30
0.0
 10
5.343454277229974
 20
4.440049338875089
 30
0.0
 10
5.343216757941876
 20
4.440519255203764
 30
0.0
 10
5.343018857865793
 20
4.441017319974601
 30
0.0
 10
5.342854942468035
 20
4.441538425197179
 30
0.0
 10
5.342720554096513
 20
4.442079019169869
 30
0.0
 10
5.342610975994977
 20
4.442635212131511
 30
0.0
 10
5.34252159504718
 20
4.443203239032731
 30
0.0
 10
5.342447911309181
 20
4.443779357811052
 30
0.0
 10
5.342385090820401
 20
4.44435996422439
 30
0.0
 10
5.342329675767341
 20
4.444942757095185
 30
0.0
 10
5.342281818974719
 20
4.445527501281732
 30
0.0
 10
5.342241049141778
 20
4.446114189108199
 30
0.0
 10
5.342207034484145
 20
4.446702915735608
 30
0.0
 10
5.342179436881059
 20
4.447293772563543
 30
0.0
 10
5.342132468919252
 20
4.448581028731224
 30
0.0
 10
5.342115371587529
 20
4.450581247068873
 30
0.0
 10
5.342244142940281
 20
4.453322073902384
 30
0.0
 10
5.342661162926832
 20
4.455973114336273
 30
0.0
 10
5.343333782810866
 20
4.458464881855896
 30
0.0
 10
5.343975474731357
 20
4.460827945848881
 30
0.0
 10
5.344655203870035
 20
4.463186715075284
 30
0.0
 10
5.345404101730927
 20
4.465529140432725
 30
0.0
 10
5.347193582877547
 20
4.470504424943088
 30
0.0
 10
5.350860244956296
 20
4.477744253774867
 30
0.0
 10
5.354538607924865
 20
4.483805920456952
 30
0.0
 10
5.356376719712905
 20
4.486834991018694
 30
0.0
  0
SPLINE
  5
CD
330
2
100
AcDbEntity
  8
0
  6
Continuous
 62
     7
370
    20
100
AcDbSpline
210
0.0
220
0.0
230
1.0
 70
     8
 71
     3
 72
    21
 73
    17
 74
     0
 42
0.000000001
 43
0.0000000001
 40
0.0
 40
0.0
 40
0.0
 40
0.0
 40
0.0714172811933816
 40
0.1428424391804506
 40
0.2142725391210554
 40
0.2857050797314378
 40
0.3571380227483753
 40
0.4285699028639355
 40
0.4999998041582416
 40
0.5714273514764992
 40
0.6428527357451745
 40
0.7142767422945904
 40
0.7857007826659761
 40
0.8571269304636725
 40
0.9285582714866423
 40
1.0
 40
1.0
 40
1.0
 40
1.0
 10
5.3911313637324
 20
4.363931818826773
 30
0.0
 10
5.389994305574234
 20
4.365594597009593
 30
0.0
 10
5.387720063848863
 20
4.368920336767271
 30
0.0
 10
5.384316448588855
 20
4.373976491055397
 30
0.0
 10
5.380918597364947
 20
4.37908389802981
 30
0.0
 10
5.37752737888404
 20
4.384248338957211
 30
0.0
 10
5.374142941326159
 20
4.389469564795541
 30
0.0
 10
5.370765702409021
 20
4.394748976329729
 30
0.0
 10
5.367396056884848
 20
4.400087550866561
 30
0.0
 10
5.36403443882791
 20
4.405486398275101
 30
0.0
 10
5.360681304012632
 20
4.410946568233782
 30
0.0
 10
5.357337183578635
 20
4.416469282956173
 30
0.0
 10
5.354002530759504
 20
4.422055223643751
 30
0.0
 10
5.350678318747426
 20
4.427707188174117
 30
0.0
 10
5.347363804316068
 20
4.433420273187536
 30
0.0
 10
5.345165397018549
 20
4.437285520592616
 30
0.0
 10
5.344066113452925
 20
4.439218284805262
 30
0.0
  0
SPLINE
  5
CE
330
2
100
AcDbEntity
  8
0
  6
Continuous
 62
     7
370
    20
100
AcDbSpline
210
0.0
220
0.0
230
1.0
 70
     8
 71
     3
 72
    10
 73
     6
 74
     0
 42
0.000000001
 43
0.0000000001
 40
0.0
 40
0.0
 40
0.0
 40
0.0
 40
0.3333539341242482
 40
0.6666929053159804
 40
1.0
 40
1.0
 40
1.0
 40
1.0
 10
5.391404848681903
 20
4.36302800888909
 30
0.0
 10
5.391394463097951
 20
4.363141270784543
 30
0.0
 10
5.391373692396216
 20
4.363367789491574
 30
0.0
 10
5.391282459416911
 20
4.363675963365844
 30
0.0
 10
5.391181727355025
 20
4.363846536391851
 30
0.0
 10
5.3911313637324
 20
4.363931818826773
 30
0.0
  0
SPLINE
  5
CF
330
2
100
AcDbEntity
  8
0
  6
Continuous
 62
     7
370
    20
100
AcDbSpline
210
0.0
220
0.0
230
1.0
 70
     8
 71
     3
 72
    48
 73
    44
 74
     0
 42
0.000000001
 43
0.0000000001
 40
0.0
 40
0.0
 40
0.0
 40
0.0
 40
0.0209262622833323
 40
0.0418515962900439
 40
0.0627769584808274
 40
0.083703074125557
 40
0.1046304582345514
 40
0.1255594364335866
 40
0.1464901657174563
 40
0.1674226550240208
 40
0.1883567855767946
 40
0.2092923309500514
 40
0.2302289768156568
 40
0.2511663403358188
 40
0.2721039891702028
 40
0.2930414600700639
 40
0.3139782770357041
 40
0.334913968831938
 40
0.3558480785327751
 40
0.3767801709015011
 40
0.3977098524485786
 40
0.4186367879287161
 40
0.4395607162067526
 40
0.4604814658707017
 40
0.4813989705891009
 40
0.5023135146420498
 40
0.5232267437215432
 40
0.5441405166065458
 40
0.5650563615647039
 40
0.5859754862477442
 40
0.6068987890937622
 40
0.6278268713317904
 40
0.6487600495491303
 40
0.6696983687854864
 40
0.6906416161213277
 40
0.7115893347310685
 40
0.7325408383747342
 40
0.7771700357981139
 40
0.8218005270403462
 40
0.8664173150917216
 40
0.9110027313029696
 40
0.9555371944665338
 40
1.0
 40
1.0
 40
1.0
 40
1.0
 10
5.436530993898005
 20
4.301710315276384
 30
0.0
 10
5.43598888942921
 20
4.301777794661724
 30
0.0
 10
5.434904704539054
 20
4.301912750439062
 30
0.0
 10
5.433297640945832
 20
4.30218693928122
 30
0.0
 10
5.431706210464419
 20
4.302512801069763
 30
0.0
 10
5.430132847981425
 20
4.30289486940112
 30
0.0
 10
5.428578344054721
 20
4.303331086076963
 30
0.0
 10
5.427043914726238
 20
4.303821161078081
 30
0.0
 10
5.425530646216826
 20
4.304364332764803
 30
0.0
 10
5.424039643018369
 20
4.304959968380146
 30
0.0
 10
5.422571987467067
 20
4.305607403410295
 30
0.0
 10
5.421128749812867
 20
4.306305984890021
 30
0.0
 10
5.419710984729423
 20
4.307055060026343
 30
0.0
 10
5.418319731464713
 20
4.307853979455082
 30
0.0
 10
5.416956012911668
 20
4.308702096519722
 30
0.0
 10
5.415620835296156
 20
4.309598767685175
 30
0.0
 10
5.414315186434942
 20
4.310543352238804
 30
0.0
 10
5.413040039239212
 20
4.311535213418695
 30
0.0
 10
5.411796334149255
 20
4.31257371302276
 30
0.0
 10
5.410584973641141
 20
4.313658210553285
 30
0.0
 10
5.409406843675549
 20
4.314788069614001
 30
0.0
 10
5.408262809020232
 20
4.315962656898942
 30
0.0
 10
5.407153713046945
 20
4.317181341474032
 30
0.0
 10
5.406080381227115
 20
4.318443498633415
 30
0.0
 10
5.405043601738192
 20
4.319748499692382
 30
0.0
 10
5.404044163796724
 20
4.321095794817171
 30
0.0
 10
5.403082315728735
 20
4.322484364052736
 30
0.0
 10
5.402158174886474
 20
4.323913167194433
 30
0.0
 10
5.401271845677526
 20
4.325381196000742
 30
0.0
 10
5.400423406197774
 20
4.326887439189
 30
0.0
 10
5.399612915252199
 20
4.328430888085602
 30
0.0
 10
5.398840411502208
 20
4.330010534688959
 30
0.0
 10
5.39810591492825
 20
4.331625371326202
 30
0.0
 10
5.397409426969467
 20
4.333274391498739
 30
0.0
 10
5.396750933707956
 20
4.334956584349228
 30
0.0
 10
5.396130398249487
 20
4.336670953451876
 30
0.0
 10
5.395328345937961
 20
4.339073911628505
 30
0.0
 10
5.394410686997926
 20
4.342216986802469
 30
0.0
 10
5.393467209304191
 20
4.346161711413929
 30
0.0
 10
5.392692735986241
 20
4.350223012110769
 30
0.0
 10
5.392090047383612
 20
4.354393037765594
 30
0.0
 10
5.391642746202943
 20
4.358653952497295
 30
0.0
 10
5.391484105278124
 20
4.361570772933977
 30
0.0
 10
5.391404848681903
 20
4.36302800888909
 30
0.0
  0
SPLINE
  5
D0
330
2
100
AcDbEntity
  8
0
  6
Continuous
 62
     7
370
    20
100
AcDbSpline
210
0.0
220
0.0
230
1.0
 70
     8
 71
     3
 72
    11
 73
     7
 74
     0
 42
0.000000001
 43
0.0000000001
 40
0.0
 40
0.0
 40
0.0
 40
0.0
 40
0.2500066396855289
 40
0.4999780163544016
 40
0.7499907599775245
 40
1.0
 40
1.0
 40
1.0
 40
1.0
 10
5.437215816678459
 20
4.301328893855721
 30
0.0
 10
5.437170992885428
 20
4.301380100698304
 30
0.0
 10
5.437081351621691
 20
4.301482507160834
 30
0.0
 10
5.436916231249873
 20
4.301593771731206
 30
0.0
 10
5.436734033060329
 20
4.301675335900506
 30
0.0
 10
5.436598673302629
 20
4.30169865553889
 30
0.0
 10
5.436530993898005
 20
4.301710315276384
 30
0.0
  0
SPLINE
  5
D1
330
2
100
AcDbEntity
  8
0
  6
Continuous
 62
     7
370
    20
100
AcDbSpline
210
0.0
220
0.0
230
1.0
 70
     8
 71
     3
 72
    17
 73
    13
 74
     0
 42
0.000000001
 43
0.0000000001
 40
0.0
 40
0.0
 40
0.0
 40
0.0
 40
0.1000008770644291
 40
0.2000007897094268
 40
0.300000280226119
 40
0.3999997722144725
 40
0.4999995490121866
 40
0.5999997317533125
 40
0.7000002569591456
 40
0.8000008536493123
 40
0.9000010200428341
 40
1.0
 40
1.0
 40
1.0
 40
1.0
 10
5.48150862324877
 20
4.248079678447875
 30
0.0
 10
5.480028679833599
 20
4.249762169384441
 30
0.0
 10
5.47706880727599
 20
4.253127135031444
 30
0.0
 10
5.472629538448594
 20
4.258250557448478
 30
0.0
 10
5.468191849069551
 20
4.263429052092951
 30
0.0
 10
5.463756445982584
 20
4.268667750221201
 30
0.0
 10
5.459323939959571
 20
4.273964808753978
 30
0.0
 10
5.454894789737583
 20
4.279320387423938
 30
0.0
 10
5.450469278219938
 20
4.284733682742737
 30
0.0
 10
5.446047624941038
 20
4.290205784532464
 30
0.0
 10
5.441629524858328
 20
4.295731184328023
 30
0.0
 10
5.438687046919952
 20
4.299462998059119
 30
0.0
 10
5.437215816678459
 20
4.301328893855721
 30
0.0
  0
SPLINE
  5
D2
330
2
100
AcDbEntity
  8
0
  6
Continuous
 62
     7
370
    20
100
AcDbSpline
210
0.0
220
0.0
230
1.0
 70
     8
 71
     3
 72
    29
 73
    25
 74
     0
 42
0.000000001
 43
0.0000000001
 40
0.0
 40
0.0
 40
0.0
 40
0.0
 40
0.0561088067729281
 40
0.1129005399008523
 40
0.1701400145710538
 40
0.2276186116700535
 40
0.2851601904502245
 40
0.3426276567974746
 40
0.3999288880791179
 40
0.457027965668793
 40
0.5139567147948405
 40
0.5708418146638145
 40
0.6279203805066632
 40
0.6630662326307714
 40
0.6979617338984526
 40
0.7328971393106105
 40
0.7681730461347229
 40
0.8036729737853075
 40
0.839079616449742
 40
0.8741586067353527
 40
0.9088855894308059
 40
0.9387122832360867
 40
0.9688757820804452
 40
1.0
 40
1.0
 40
1.0
 40
1.0
 10
5.513269130319354
 20
4.270265371132577
 30
0.0
 10
5.512778750907816
 20
4.269470395051815
 30
0.0
 10
5.511792023449093
 20
4.267870766867073
 30
0.0
 10
5.510248188927272
 20
4.265518161941944
 30
0.0
 10
5.508644438905458
 20
4.263201708633848
 30
0.0
 10
5.506978241201685
 20
4.260945637393307
 30
0.0
 10
5.505252149457851
 20
4.258769563610091
 30
0.0
 10
5.503467652825566
 20
4.256694419991789
 30
0.0
 10
5.501627129848265
 20
4.254740581255685
 30
0.0
 10
5.499733106359205
 20
4.252929508450751
 30
0.0
 10
5.497788413803118
 20
4.251279155184091
 30
0.0
 10
5.495794752197736
 20
4.249820029895515
 30
0.0
 10
5.494028581442656
 20
4.248667148969888
 30
0.0
 10
5.49251046922011
 20
4.247705702118451
 30
0.0
 10
5.491241323674892
 20
4.247065253605772
 30
0.0
 10
5.489979789960709
 20
4.24666861582456
 30
0.0
 10
5.488729826992354
 20
4.246418551137826
 30
0.0
 10
5.487480921660965
 20
4.246230762034022
 30
0.0
 10
5.486246515877987
 20
4.246125430773201
 30
0.0
 10
5.485050552741312
 20
4.246153396882636
 30
0.0
 10
5.48396752039418
 20
4.246348427722906
 30
0.0
 10
5.483015697207464
 20
4.246727487650314
 30
0.0
 10
5.482185119801834
 20
4.247271658936679
 30
0.0
 10
5.481736466397078
 20
4.24780753854045
 30
0.0
 10
5.48150862324877
 20
4.248079678447875
 30
0.0
  0
SPLINE
  5
D3
330
2
100
AcDbEntity
  8
0
  6
Continuous
 62
     7
370
    20
100
AcDbSpline
210
0.0
220
0.0
230
1.0
 70
     8
 71
     3
 72
    50
 73
    46
 74
     0
 42
0.000000001
 43
0.0000000001
 40
0.0
 40
0.0
 40
0.0
 40
0.0
 40
0.0202512632631938
 40
0.0405774403640561
 40
0.0609634409404144
 40
0.0813938836902765
 40
0.1018532380252003
 40
0.1223259699290135
 40
0.1427966997594484
 40
0.1632544740847617
 40
0.1836997578989268
 40
0.2041347645043869
 40
0.2245615093249386
 40
0.244981802610667
 40
0.2653972449673394
 40
0.2858092254935767
 40
0.3062189223100173
 40
0.3266273052684221
 40
0.3470351406350528
 40
0.367442997551158
 40
0.3878511808337304
 40
0.4082593832190823
 40
0.4286671091262256
 40
0.449073895737742
 40
0.4694794561502013
 40
0.4898841676091874
 40
0.5102886162929062
 40
0.5306934210442083
 40
0.5510992341586889
 40
0.5715067420426394
 40
0.5919166657194262
 40
0.6123296270687303
 40
0.632745138078256
 40
0.6633524592706405
 40
0.6939590802784177
 40
0.724561822989966
 40
0.7551588281236147
 40
0.7857496410741608
 40
0.8163352939748646
 40
0.8469182738850388
 40
0.8775021899552614
 40
0.9080927141274436
 40
0.9386980846575363
 40
0.969329251167357
 40
1.0
 40
1.0
 40
1.0
 40
1.0
 10
5.601050480050902
 20
4.555381406830219
 30
0.0
 10
5.600902788801382
 20
4.553458635412626
 30
0.0
 10
5.600606859960205
 20
4.549605979826796
 30
0.0
 10
5.600084759646683
 20
4.543835889531087
 30
0.0
 10
5.599503832074272
 20
4.538056388621258
 30
0.0
 10
5.598858108708536
 20
4.532268927617788
 30
0.0
 10
5.598148699556103
 20
4.526472864487201
 30
0.0
 10
5.597374848837578
 20
4.520668154637155
 30
0.0
 10
5.596536183360909
 20
4.514854004039645
 30
0.0
 10
5.595632314596274
 20
4.509028944806757
 30
0.0
 10
5.594665487777318
 20
4.503195538215299
 30
0.0
 10
5.593637578710717
 20
4.497354587886075
 30
0.0
 10
5.59255052257839
 20
4.491506853252669
 30
0.0
 10
5.591406255185219
 20
4.485653072601267
 30
0.0
 10
5.590206725539025
 20
4.479794010502795
 30
0.0
 10
5.588953882321009
 20
4.473930448830639
 30
0.0
 10
5.587649669796255
 20
4.468063193204176
 30
0.0
 10
5.586296017090776
 20
4.462193071680769
 30
0.0
 10
5.584894849819942
 20
4.456320946470231
 30
0.0
 10
5.583448026172598
 20
4.450447685872547
 30
0.0
 10
5.581957574584245
 20
4.444574342729189
 30
0.0
 10
5.580423730613479
 20
4.438700979534964
 30
0.0
 10
5.578846425611873
 20
4.432827572577462
 30
0.0
 10
5.577225653771125
 20
4.426954172492582
 30
0.0
 10
5.575561364359725
 20
4.421080742116324
 30
0.0
 10
5.573853100136969
 20
4.415207734102605
 30
0.0
 10
5.57210035748948
 20
4.409335553417404
 30
0.0
 10
5.570302622799274
 20
4.403464596039174
 30
0.0
 10
5.568459370083221
 20
4.397595268637951
 30
0.0
 10
5.566570080004519
 20
4.391727997089834
 30
0.0
 10
5.564634186562713
 20
4.385863199165002
 30
0.0
 10
5.56265133802552
 20
4.380001542207175
 30
0.0
 10
5.560282038798306
 20
4.373168270414815
 30
0.0
 10
5.557491101794562
 20
4.36536571715885
 30
0.0
 10
5.554231156833786
 20
4.35659967216778
 30
0.0
 10
5.55084297615176
 20
4.34784747934326
 30
0.0
 10
5.547319069657526
 20
4.339112655026296
 30
0.0
 10
5.543652028940658
 20
4.33039867840306
 30
0.0
 10
5.539834432879933
 20
4.321708999535564
 30
0.0
 10
5.535859298258239
 20
4.313047142122801
 30
0.0
 10
5.531717210897507
 20
4.304415917125867
 30
0.0
 10
5.527400197096971
 20
4.295817617868326
 30
0.0
 10
5.52289425738096
 20
4.287256428123144
 30
0.0
 10
5.518208723796533
 20
4.278729629549534
 30
0.0
 10
5.514916370096876
 20
4.273088004860646
 30
0.0
 10
5.513269130319354
 20
4.270265371132577
 30
0.0
  0
LINE
  5
D4
330
2
100
AcDbEntity
  8
0
  6
Continuous
 62
     7
370
    20
100
AcDbLine
 10
4.717740985148449
 20
5.216988829856353
 30
0.0
 11
4.711238397614149
 21
5.216582372539153
 31
0.0
  0
SPLINE
  5
D5
330
2
100
AcDbEntity
  8
0
  6
Continuous
 62
     7
370
    20
100
AcDbSpline
210
0.0
220
0.0
230
1.0
 70
     8
 71
     3
 72
     8
 73
     4
 74
     0
 42
0.000000001
 43
0.0000000001
 40
0.0
 40
0.0
 40
0.0
 40
0.0
 40
1.0
 40
1.0
 40
1.0
 40
1.0
 10
4.711238363648741
 20
5.216582364179767
 30
0.0
 10
4.709948815055335
 20
5.216501754845982
 30
0.0
 10
4.708663735245796
 20
5.216546296607744
 30
0.0
 10
4.707409789127255
 20
5.216715065240788
 30
0.0
  0
SPLINE
  5
D6
330
2
100
AcDbEntity
  8
0
  6
Continuous
 62
     7
370
    20
100
AcDbSpline
210
0.0
220
0.0
230
1.0
 70
     8
 71
     3
 72
    10
 73
     6
 74
     0
 42
0.000000001
 43
0.0000000001
 40
0.0
 40
0.0
 40
0.0
 40
0.0
 40
0.5
 40
0.5
 40
1.0
 40
1.0
 40
1.0
 40
1.0
 10
4.706998223044154
 20
5.212159727591131
 30
0.0
 10
4.706906132502479
 20
5.212656904847526
 30
0.0
 10
4.70689685776357
 20
5.213436521865906
 30
0.0
 10
4.707049155021437
 20
5.215122261445666
 30
0.0
 10
4.707209797535313
 20
5.216018095797428
 30
0.0
 10
4.707409769772329
 20
5.216715033565272
 30
0.0
  0
LINE
  5
D7
330
2
100
AcDbEntity
  8
0
  6
Continuous
 62
     7
370
    20
100
AcDbLine
 10
3.744817259907949
 20
4.579059550362252
 30
0.0
 11
4.631529152388649
 21
5.090947304850253
 31
0.0
  0
ARC
  5
D8
330
2
100
AcDbEntity
  8
0
  6
Continuous
 62
     7
370
    20
100
AcDbCircle
 10
3.759167368453249
 20
4.595705345791152
 30
0.0
 40
0.0219774457272776
100
AcDbArc
 50
229.2358322406001
 51
239.7165918305
  0
SPLINE
  5
D9
330
2
100
AcDbEntity
  8
0
  6
Continuous
 62
     7
370
    20
100
AcDbSpline
210
0.0
220
0.0
230
1.0
 70
     8
 71
     3
 72
    28
 73
    24
 74
     0
 42
0.000000001
 43
0.0000000001
 40
0.0
 40
0.0
 40
0.0
 40
0.0
 40
0.0475933672728399
 40
0.0952041087456347
 40
0.1428254928466379
 40
0.1904523148245676
 40
0.2380807708914457
 40
0.2857083139052041
 40
0.3333334927342648
 40
0.3809557775793658
 40
0.4285753736286362
 40
0.4761930254979251
 40
0.5238098149618012
 40
0.5714269545162367
 40
0.6190455793346544
 40
0.6666665401866946
 40
0.7142901998841236
 40
0.7619162358010372
 40
0.8095434509834916
 40
0.8571695963145582
 40
0.9047912061316043
 40
0.9524034495969724
 40
1.0
 40
1.0
 40
1.0
 40
1.0
 10
4.867727809031951
 20
5.004846093148204
 30
0.0
 10
4.867605032747763
 20
5.005325793267077
 30
0.0
 10
4.867359435359286
 20
5.006285368621785
 30
0.0
 10
4.866963121620038
 20
5.007717601289874
 30
0.0
 10
4.86654730327148
 20
5.009141115116428
 30
0.0
 10
4.866110802148217
 20
5.010552542526954
 30
0.0
 10
4.865655083397933
 20
5.011948986136179
 30
0.0
 10
4.865180946943885
 20
5.013327511820166
 30
0.0
 10
4.864689409976655
 20
5.014685285715676
 30
0.0
 10
4.864181467171068
 20
5.016019537163369
 30
0.0
 10
4.863658152544002
 20
5.017327567217991
 30
0.0
 10
4.863120521330781
 20
5.018606744327216
 30
0.0
 10
4.862569654042355
 20
5.01985450317691
 30
0.0
 10
4.862006655213166
 20
5.021068343161935
 30
0.0
 10
4.861432654065722
 20
5.022245826656584
 30
0.0
 10
4.860848804996751
 20
5.023384581837227
 30
0.0
 10
4.860256288279394
 20
5.024482292629828
 30
0.0
 10
4.859656310677
 20
5.025536742303721
 30
0.0
 10
4.859050105931347
 20
5.0265456633576
 30
0.0
 10
4.858438934702638
 20
5.027507317647549
 30
0.0
 10
4.857824084822055
 20
5.02841835918533
 30
0.0
 10
4.857206868003633
 20
5.029281844441733
 30
0.0
 10
4.856794616343426
 20
5.029812326442089
 30
0.0
 10
4.856588524488604
 20
5.030077523723157
 30
0.0
  0
SPLINE
  5
DA
330
2
100
AcDbEntity
  8
0
  6
Continuous
 62
     7
370
    20
100
AcDbSpline
210
0.0
220
0.0
230
1.0
 70
     8
 71
     3
 72
    13
 73
     9
 74
     0
 42
0.000000001
 43
0.0000000001
 40
0.0
 40
0.0
 40
0.0
 40
0.0
 40
0.1666670853013976
 40
0.3333331850799819
 40
0.4999996291752268
 40
0.666665833474493
 40
0.8333316907083162
 40
1.0
 40
1.0
 40
1.0
 40
1.0
 10
5.445067393895055
 20
4.727487508388831
 30
0.0
 10
5.444901394402436
 20
4.727077350003715
 30
0.0
 10
5.444569396398779
 20
4.7262570356588
 30
0.0
 10
5.444143269408765
 20
4.72502159138423
 30
0.0
 10
5.443770216617993
 20
4.723785632694539
 30
0.0
 10
5.443457551824834
 20
4.722551336326729
 30
0.0
 10
5.443199171875545
 20
4.721320506041715
 30
0.0
 10
5.44307768750586
 20
4.720506041183192
 30
0.0
 10
5.44301694487419
 20
4.720098805758265
 30
0.0
  0
ARC
  5
DB
330
2
100
AcDbEntity
  8
0
  6
Continuous
 62
     7
370
    20
100
AcDbCircle
 10
5.002260832199449
 20
4.985554785974653
 30
0.0
 40
0.0652875886787929
100
AcDbArc
 50
139.2553959246002
 51
167.9372562720998
  0
SPLINE
  5
DC
330
2
100
AcDbEntity
  8
0
  6
Continuous
 62
     7
370
    20
100
AcDbSpline
210
0.0
220
0.0
230
1.0
 70
     8
 71
     3
 72
    84
 73
    80
 74
     0
 42
0.000000001
 43
0.0000000001
 40
0.0
 40
0.0
 40
0.0
 40
0.0
 40
0.0064043308438067
 40
0.0128021100169743
 40
0.0191926677626775
 40
0.0255759766452674
 40
0.0319519581016069
 40
0.0383204258752367
 40
0.0446810702997349
 40
0.0510334423029999
 40
0.0573769372865674
 40
0.0637107790433462
 40
0.0700342753976828
 40
0.076348917802136
 40
0.0826576342412829
 40
0.0889638108634956
 40
0.0952713093101229
 40
0.1015844910847782
 40
0.1079082413809825
 40
0.1142479891796192
 40
0.1206072193567893
 40
0.1269824436951549
 40
0.1333683972425281
 40
0.1397592096156226
 40
0.1461484049647408
 40
0.1525289023488508
 40
0.1588930255094692
 40
0.165236024079076
 40
0.171561797246106
 40
0.1778759549463821
 40
0.1841843893666183
 40
0.1904933359350817
 40
0.1968094377031894
 40
0.2031392310343471
 40
0.2094842179552158
 40
0.2158426891764758
 40
0.2222127284504049
 40
0.228592259114412
 40
0.2349790509587921
 40
0.2413707088191971
 40
0.2477644308784065
 40
0.2541570889169041
 40
0.2897981062020665
 40
0.3253322671632597
 40
0.3609332139426853
 40
0.396513535796232
 40
0.432151236006711
 40
0.4677476225962594
 40
0.503355333649036
 40
0.5285424532675136
 40
0.5537609647663138
 40
0.5787783771347
 40
0.6038118490097391
 40
0.629032460666815
 40
0.6541643727775909
 40
0.6791901675219121
 40
0.7042772563867165
 40
0.7294284387972775
 40
0.7545844498840527
 40
0.7668649523799757
 40
0.7791408372049176
 40
0.7914132747454464
 40
0.8036830648002663
 40
0.8159508260558215
 40
0.8282175063424189
 40
0.840484172506124
 40
0.8527516111539576
 40
0.8650203211567003
 40
0.8772904758925356
 40
0.8895619777575513
 40
0.9018345264081068
 40
0.9141076877032258
 40
0.9263809572502166
 40
0.9386538221018327
 40
0.950925826401624
 40
0.9631966082374963
 40
0.9754659286017711
 40
0.9877336977770989
 40
1.0
 40
1.0
 40
1.0
 40
1.0
 10
5.157043553034677
 20
3.826902390902224
 30
0.0
 10
5.155707594738554
 20
3.826561724388569
 30
0.0
 10
5.153037044840025
 20
3.82588073986524
 30
0.0
 10
5.149023724694404
 20
3.824902567720476
 30
0.0
 10
5.14500865267772
 20
3.823957418232711
 30
0.0
 10
5.140991986411492
 20
3.823048895416682
 30
0.0
 10
5.136974735063823
 20
3.822176689192628
 30
0.0
 10
5.132957711526628
 20
3.821341501583845
 30
0.0
 10
5.128941871135031
 20
3.820543740449158
 30
0.0
 10
5.124928233251241
 20
3.819783872004535
 30
0.0
 10
5.120917910522367
 20
3.819062317826616
 30
0.0
 10
5.116912057372609
 20
3.818379506047813
 30
0.0
 10
5.11291135807806
 20
3.817735653730768
 30
0.0
 10
5.108915784665438
 20
3.817131634122739
 30
0.0
 10
5.104924558127308
 20
3.816568440125777
 30
0.0
 10
5.100936489056607
 20
3.816046985549968
 30
0.0
 10
5.096950193186824
 20
3.815568207525933
 30
0.0
 10
5.092964087953872
 20
3.815133053063267
 30
0.0
 10
5.088976383190491
 20
3.814742462149099
 30
0.0
 10
5.084985627296605
 20
3.814397491518384
 30
0.0
 10
5.080992192864066
 20
3.814099094675373
 30
0.0
 10
5.076997872734244
 20
3.813846432244512
 30
0.0
 10
5.073006314898043
 20
3.813638912705295
 30
0.0
 10
5.069021631476448
 20
3.813475851791537
 30
0.0
 10
5.065048165624299
 20
3.81335650226586
 30
0.0
 10
5.061090506352714
 20
3.81328007017437
 30
0.0
 10
5.057152696263729
 20
3.813245593170021
 30
0.0
 10
5.053236598896601
 20
3.813252434621174
 30
0.0
 10
5.049342686541127
 20
3.813301950542664
 30
0.0
 10
5.04546927330962
 20
3.813395303055252
 30
0.0
 10
5.041614220175342
 20
3.813533514085518
 30
0.0
 10
5.037775272351241
 20
3.813717558728147
 30
0.0
 10
5.033950150685956
 20
3.813948409672616
 30
0.0
 10
5.030137793609243
 20
3.814227059816094
 30
0.0
 10
5.026338023686197
 20
3.814553595185238
 30
0.0
 10
5.022551995052848
 20
3.814927712685872
 30
0.0
 10
5.01878163860098
 20
3.815349095026445
 30
0.0
 10
5.015028940050417
 20
3.815817369944223
 30
0.0
 10
5.011295959498292
 20
3.816332115794029
 30
0.0
 10
5.007584891595788
 20
3.816892918572378
 30
0.0
 10
5.003898059627283
 20
3.817499027104978
 30
0.0
 10
4.994655323717452
 20
3.819142280772564
 30
0.0
 10
4.980199685591823
 20
3.822353536111636
 30
0.0
 10
4.96132345754985
 20
3.828073185486289
 30
0.0
 10
4.943665318157877
 20
3.835031166338677
 30
0.0
 10
4.927357404210525
 20
3.843142344087581
 30
0.0
 10
4.912530205691071
 20
3.852284569697546
 30
0.0
 10
4.899353084637809
 20
3.86238364300733
 30
0.0
 10
4.888987030476555
 20
3.872214441934088
 30
0.0
 10
4.880994928953369
 20
3.881467953142179
 30
0.0
 10
4.874924318201932
 20
3.889886778623862
 30
0.0
 10
4.869896616188139
 20
3.898560608410835
 30
0.0
 10
4.865861804089988
 20
3.907447394669689
 30
0.0
 10
4.862713629788031
 20
3.916502871029002
 30
0.0
 10
4.860655881687919
 20
3.925693083378011
 30
0.0
 10
4.859722488966183
 20
3.934951604270353
 30
0.0
 10
4.859770057813842
 20
3.944246908057171
 30
0.0
 10
4.860809497304788
 20
3.953555218326556
 30
0.0
 10
4.862536452816636
 20
3.961245610592253
 30
0.0
 10
4.864419711754406
 20
3.967309296752348
 30
0.0
 10
4.866059466269295
 20
3.971776156147254
 30
0.0
 10
4.867940627645026
 20
3.976211602924554
 30
0.0
 10
4.870060703292189
 20
3.98061154946963
 30
0.0
 10
4.872417542907733
 20
3.984971804911729
 30
0.0
 10
4.875009154615241
 20
3.989288239003808
 30
0.0
 10
4.877833374358457
 20
3.993556783329511
 30
0.0
 10
4.880887610122943
 20
3.997773408353606
 30
0.0
 10
4.88416838699057
 20
4.001934206253881
 30
0.0
 10
4.887672175172753
 20
4.006035216267773
 30
0.0
 10
4.891395306103522
 20
4.010072441872571
 30
0.0
 10
4.895334029177387
 20
4.014041851810944
 30
0.0
 10
4.899484512565453
 20
4.01793939677455
 30
0.0
 10
4.903842881379384
 20
4.021761002109542
 30
0.0
 10
4.908405056514867
 20
4.025502672308366
 30
0.0
 10
4.913167342157589
 20
4.029160178072087
 30
0.0
 10
4.918124508991025
 20
4.032730162025615
 30
0.0
 10
4.923276816950257
 20
4.036206080003689
 30
0.0
 10
4.928603739123672
 20
4.039593382514917
 30
0.0
 10
4.93230940586698
 20
4.041766506846165
 30
0.0
 10
4.934162128453172
 20
4.042853004043567
 30
0.0
  0
SPLINE
  5
DD
330
2
100
AcDbEntity
  8
0
  6
Continuous
 62
     7
370
    20
100
AcDbSpline
210
0.0
220
0.0
230
1.0
 70
     8
 71
     3
 72
    53
 73
    49
 74
     0
 42
0.000000001
 43
0.0000000001
 40
0.0
 40
0.0
 40
0.0
 40
0.0
 40
0.0217649496014611
 40
0.0435201082853226
 40
0.0652671801252443
 40
0.0870077348407642
 40
0.1087432084196375
 40
0.1304749036790956
 40
0.152203990682874
 40
0.1739315069432762
 40
0.1956583573501124
 40
0.2173853137809745
 40
0.2391130143596841
 40
0.2608419623419889
 40
0.2825725246193099
 40
0.3043049298425656
 40
0.3260392661787541
 40
0.3477754787228152
 40
0.3695133673725617
 40
0.3912526544593515
 40
0.4129930836674978
 40
0.4347343645826257
 40
0.4564761795110355
 40
0.4782182007763118
 40
0.4999601086871991
 40
0.5217016100686407
 40
0.5434424572478313
 40
0.5651824673880874
 40
0.5869215420651459
 40
0.6086596869826848
 40
0.6303970317267939
 40
0.6521338494621644
 40
0.6738705764760581
 40
0.6956078314796478
 40
0.7173464345796534
 40
0.7390874258367685
 40
0.7608320833307422
 40
0.7825818159881452
 40
0.8043365246411228
 40
0.8260947292242796
 40
0.847854618328639
 40
0.8696140625849848
 40
0.8913706049373733
 40
0.9131214526829214
 40
0.934863471300056
 40
0.9565931800615931
 40
0.9783067494039967
 40
1.0
 40
1.0
 40
1.0
 40
1.0
 10
5.2972471066356
 20
3.884538269544522
 30
0.0
 10
5.296418854885402
 20
3.884061008414788
 30
0.0
 10
5.294762723972343
 20
3.883106700850252
 30
0.0
 10
5.2922325038321
 20
3.881675543573811
 30
0.0
 10
5.289670369122176
 20
3.880245507365691
 30
0.0
 10
5.287073678755898
 20
3.878816924833996
 30
0.0
 10
5.284444108341
 20
3.877390187068894
 30
0.0
 10
5.281782177376129
 20
3.875965694215496
 30
0.0
 10
5.279088715439088
 20
3.874543867633535
 30
0.0
 10
5.276364470039153
 20
3.873125145574158
 30
0.0
 10
5.273610212325691
 20
3.871709983283212
 30
0.0
 10
5.270826709515022
 20
3.870298851930339
 30
0.0
 10
5.268014733095822
 20
3.868892237863932
 30
0.0
 10
5.265175057499167
 20
3.867490641791489
 30
0.0
 10
5.26230846139714
 20
3.866094577988334
 30
0.0
 10
5.259415728224826
 20
3.864704573524782
 30
0.0
 10
5.256497647325264
 20
3.863321167450298
 30
0.0
 10
5.253555013432331
 20
3.861944910176312
 30
0.0
 10
5.250588628850116
 20
3.860576360620776
 30
0.0
 10
5.247599277498022
 20
3.859216084310659
 30
0.0
 10
5.244587688664133
 20
3.857864657098637
 30
0.0
 10
5.241554576421592
 20
3.856522658986245
 30
0.0
 10
5.238500634553883
 20
3.855190675903024
 30
0.0
 10
5.235426537253005
 20
3.853869298916108
 30
0.0
 10
5.232332937034997
 20
3.852559123562639
 30
0.0
 10
5.229220463363833
 20
3.851260749135795
 30
0.0
 10
5.226089721178718
 20
3.849974778026107
 30
0.0
 10
5.222941289551059
 20
3.848701815092788
 30
0.0
 10
5.219775720420159
 20
3.847442467073324
 30
0.0
 10
5.21659353742883
 20
3.846197342031951
 30
0.0
 10
5.213395234864799
 20
3.844967048843252
 30
0.0
 10
5.210181276697059
 20
3.843752196731486
 30
0.0
 10
5.206952095773588
 20
3.842553394792219
 30
0.0
 10
5.203708092949231
 20
3.841371251773113
 30
0.0
 10
5.200449637019753
 20
3.840206375082888
 30
0.0
 10
5.197177062201388
 20
3.839059372877386
 30
0.0
 10
5.193890681611057
 20
3.837930847012992
 30
0.0
 10
5.190590848915262
 20
3.836821456251035
 30
0.0
 10
5.187278192203327
 20
3.835731769002644
 30
0.0
 10
5.183953565383335
 20
3.834662307623911
 30
0.0
 10
5.180617900650069
 20
3.833613623179352
 30
0.0
 10
5.17727217332415
 20
3.832586257255075
 30
0.0
 10
5.173917399319597
 20
3.831580729614453
 30
0.0
 10
5.170554619026139
 20
3.830597603617891
 30
0.0
 10
5.167184960758445
 20
3.829637234875425
 30
0.0
 10
5.163809400159303
 20
3.828700709134637
 30
0.0
 10
5.160429654544484
 20
3.827786343895599
 30
0.0
 10
5.158171901252931
 20
3.827196949934848
 30
0.0
 10
5.157043553034677
 20
3.826902390902224
 30
0.0
  0
SPLINE
  5
DE
330
2
100
AcDbEntity
  8
0
  6
Continuous
 62
     7
370
    20
100
AcDbSpline
210
0.0
220
0.0
230
1.0
 70
     8
 71
     3
 72
    12
 73
     8
 74
     0
 42
0.000000001
 43
0.0000000001
 40
0.0
 40
0.0
 40
0.0
 40
0.0
 40
0.1999984526967446
 40
0.3999967647509437
 40
0.599996342676146
 40
0.7999990865881835
 40
1.0
 40
1.0
 40
1.0
 40
1.0
 10
5.445485384708962
 20
4.72988288148889
 30
0.0
 10
5.445489587827033
 20
4.729729512678268
 30
0.0
 10
5.445497994060221
 20
4.729422775164878
 30
0.0
 10
5.445454003788411
 20
4.728947862753775
 30
0.0
 10
5.445368903341909
 20
4.728465689014582
 30
0.0
 10
5.445243469420946
 20
4.7279777918859
 30
0.0
 10
5.44512608472384
 20
4.727650935224415
 30
0.0
 10
5.445067392643877
 20
4.727487507641555
 30
0.0
  0
LINE
  5
DF
330
2
100
AcDbEntity
  8
0
  6
Continuous
 62
     7
370
    20
100
AcDbLine
 10
4.786088791875649
 20
3.767318197619053
 30
0.0
 11
4.770896615779849
 21
3.772585700690652
 31
0.0
  0
LWPOLYLINE
  5
E0
330
2
100
AcDbEntity
  8
0
  6
Continuous
 62
     7
370
    20
100
AcDbPolyline
 90
        3
 70
   128
 43
0.0
 10
4.787355191932549
 20
3.766933581213253
 10
4.786942632235549
 20
3.767038243297153
 10
4.786088791875649
 20
3.767318197619053
  0
SPLINE
  5
E1
330
2
100
AcDbEntity
  8
0
  6
Continuous
 62
     7
370
    20
100
AcDbSpline
210
0.0
220
0.0
230
1.0
 70
     8
 71
     3
 72
    19
 73
    15
 74
     0
 42
0.000000001
 43
0.0000000001
 40
0.0
 40
0.0
 40
0.0
 40
0.0
 40
0.0629081285180798
 40
0.1247493259661975
 40
0.1860162051402686
 40
0.2472058910814468
 40
0.3088090294287978
 40
0.3712992173000211
 40
0.4351240356604202
 40
0.5006984847227979
 40
0.6316324582099437
 40
0.7553975450906949
 40
0.8765524059023551
 40
1.0
 40
1.0
 40
1.0
 40
1.0
 10
3.455844654810462
 20
4.615239434438156
 30
0.0
 10
3.456037869761017
 20
4.615404404164253
 30
0.0
 10
3.456421022708277
 20
4.615731545705738
 30
0.0
 10
3.457055721811321
 20
4.616176665235039
 30
0.0
 10
3.457725697604149
 20
4.616581191915853
 30
0.0
 10
3.458435074830616
 20
4.616942777989402
 30
0.0
 10
3.459182186960352
 20
4.617262495104528
 30
0.0
 10
3.459966980713933
 20
4.61754057014037
 30
0.0
 10
3.460789290482298
 20
4.617777517691635
 30
0.0
 10
3.461924086303164
 20
4.618036807646621
 30
0.0
 10
3.463346870554224
 20
4.618248000195041
 30
0.0
 10
3.46501334437157
 20
4.618275955097221
 30
0.0
 10
3.466599518018021
 20
4.618083761845311
 30
0.0
 10
3.467547981184079
 20
4.617772306806508
 30
0.0
 10
3.468026657884129
 20
4.617615119605652
 30
0.0
  0
SPLINE
  5
E2
330
2
100
AcDbEntity
  8
0
  6
Continuous
 62
     7
370
    20
100
AcDbSpline
210
0.0
220
0.0
230
1.0
 70
     8
 71
     3
 72
    11
 73
     7
 74
     0
 42
0.000000001
 43
0.0000000001
 40
0.0
 40
0.0
 40
0.0
 40
0.0
 40
0.2652207020836427
 40
0.4999968119576029
 40
0.7587971869075227
 40
1.0
 40
1.0
 40
1.0
 40
1.0
 10
3.398896651548299
 20
4.566711143126532
 30
0.0
 10
3.40393390537001
 20
4.571002771313109
 30
0.0
 10
3.413430188398033
 20
4.579093393178359
 30
0.0
 10
3.427815177010128
 20
4.591382492875005
 30
0.0
 10
3.441780506383337
 20
4.603256755068805
 30
0.0
 10
3.451267906371699
 20
4.611340036660441
 30
0.0
 10
3.455844652322231
 20
4.615239432315405
 30
0.0
  0
SPLINE
  5
E3
330
2
100
AcDbEntity
  8
0
  6
Continuous
 62
     7
370
    20
100
AcDbSpline
210
0.0
220
0.0
230
1.0
 70
     8
 71
     3
 72
    38
 73
    34
 74
     0
 42
0.000000001
 43
0.0000000001
 40
0.0
 40
0.0
 40
0.0
 40
0.0
 40
0.0243584371420147
 40
0.049021209488103
 40
0.0737339870724767
 40
0.098494579332298
 40
0.1232660007798709
 40
0.1480244978881214
 40
0.1727511419215545
 40
0.1974459329898695
 40
0.2221567075808533
 40
0.2467989461510284
 40
0.2714139268803437
 40
0.2960853668700145
 40
0.3206832807560883
 40
0.3453496909151115
 40
0.3700223460738562
 40
0.3947059773361978
 40
0.4193944323005793
 40
0.4440847718452027
 40
0.4687725786458093
 40
0.5130552964685588
 40
0.5573237311499054
 40
0.6015832960402951
 40
0.6458393687890318
 40
0.6900971500904461
 40
0.7343538524456093
 40
0.7786329847770075
 40
0.822914840185443
 40
0.8672072081056104
 40
0.911502454444089
 40
0.9558263283933211
 40
1.0
 40
1.0
 40
1.0
 40
1.0
 10
5.59850567850411
 20
4.670639389683567
 30
0.0
 10
5.59856057206381
 20
4.669727761821045
 30
0.0
 10
5.59867104502535
 20
4.667893116184162
 30
0.0
 10
5.598852320602586
 20
4.665109630278574
 30
0.0
 10
5.599024240676381
 20
4.662317974203462
 30
0.0
 10
5.599186035011431
 20
4.659522566698484
 30
0.0
 10
5.59933796763256
 20
4.65672501359732
 30
0.0
 10
5.599481712873285
 20
4.653925370711004
 30
0.0
 10
5.599618054087506
 20
4.651124024073568
 30
0.0
 10
5.599747111974599
 20
4.648319622250632
 30
0.0
 10
5.599865944688271
 20
4.645513162207061
 30
0.0
 10
5.599972884959615
 20
4.642707620435697
 30
0.0
 10
5.600062452233878
 20
4.639902837354624
 30
0.0
 10
5.600110390808811
 20
4.637103410540363
 30
0.0
 10
5.60013776644366
 20
4.634301946335888
 30
0.0
 10
5.600185841695978
 20
4.631489123542351
 30
0.0
 10
5.600238087033718
 20
4.628668789614026
 30
0.0
 10
5.60029775565242
 20
4.625843412366839
 30
0.0
 10
5.600361451402456
 20
4.623015545728144
 30
0.0
 10
5.600427905375008
 20
4.620187319269268
 30
0.0
 10
5.600512990512551
 20
4.616612987622533
 30
0.0
 10
5.600613898964024
 20
4.612298904226577
 30
0.0
 10
5.60072896366961
 20
4.60724671919916
 30
0.0
 10
5.600840397510713
 20
4.602199373489055
 30
0.0
 10
5.600948281609642
 20
4.597152408226046
 30
0.0
 10
5.601051483485418
 20
4.59210202281195
 30
0.0
 10
5.601151971234313
 20
4.587043830391911
 30
0.0
 10
5.60123913172448
 20
4.581976476042934
 30
0.0
 10
5.601309047516203
 20
4.576897857385096
 30
0.0
 10
5.601361993649951
 20
4.57180600194035
 30
0.0
 10
5.601367783417421
 20
4.566704153597611
 30
0.0
 10
5.601333936803143
 20
4.561594142805414
 30
0.0
 10
5.601192849405165
 20
4.55820198724127
 30
0.0
 10
5.601122425436376
 20
4.556508788124979
 30
0.0
  0
SPLINE
  5
E4
330
2
100
AcDbEntity
  8
0
  6
Continuous
 62
     7
370
    20
100
AcDbSpline
210
0.0
220
0.0
230
1.0
 70
     8
 71
     3
 72
     9
 73
     5
 74
     0
 42
0.000000001
 43
0.0000000001
 40
0.0
 40
0.0
 40
0.0
 40
0.0
 40
0.5000000104900121
 40
1.0
 40
1.0
 40
1.0
 40
1.0
 10
5.601122416337759
 20
4.556508786357087
 30
0.0
 10
5.60111355371344
 20
4.55632154627189
 30
0.0
 10
5.601095828465178
 20
4.55594706610935
 30
0.0
 10
5.601065596212295
 20
4.555569959924248
 30
0.0
 10
5.601050480086175
 20
4.555381406835653
 30
0.0
  0
LINE
  5
E5
330
2
100
AcDbEntity
  8
0
  6
Continuous
 62
     7
370
    20
100
AcDbLine
 10
5.315675931617749
 20
3.884987307141853
 30
0.0
 11
5.336383289666903
 21
3.89937023310265
 31
0.0
  0
SPLINE
  5
E6
330
2
100
AcDbEntity
  8
0
  6
Continuous
 62
     7
370
    20
100
AcDbSpline
210
0.0
220
0.0
230
1.0
 70
     8
 71
     3
 72
    10
 73
     6
 74
     0
 42
0.000000001
 43
0.0000000001
 40
0.0
 40
0.0
 40
0.0
 40
0.0
 40
0.3333332501969719
 40
0.6666666154802711
 40
1.0
 40
1.0
 40
1.0
 40
1.0
 10
5.311675657979222
 20
3.882703290280151
 30
0.0
 10
5.312117861908515
 20
3.882955372628268
 30
0.0
 10
5.313002269919777
 20
3.883459537411538
 30
0.0
 10
5.314347956402816
 20
3.884225578015698
 30
0.0
 10
5.315233315845073
 20
3.884733373021936
 30
0.0
 10
5.315675995578976
 20
3.884987270532381
 30
0.0
  0
SPLINE
  5
E7
330
2
100
AcDbEntity
  8
0
  6
Continuous
 62
     7
370
    20
100
AcDbSpline
210
0.0
220
0.0
230
1.0
 70
     8
 71
     3
 72
    18
 73
    14
 74
     0
 42
0.000000001
 43
0.0000000001
 40
0.0
 40
0.0
 40
0.0
 40
0.0
 40
0.0879075411675726
 40
0.1780635143034662
 40
0.2699821016686754
 40
0.3627154165423061
 40
0.4551664981360667
 40
0.5463734561818036
 40
0.6358107338124676
 40
0.7237404638672032
 40
0.8115948768595227
 40
0.9022565615386339
 40
1.0
 40
1.0
 40
1.0
 40
1.0
 10
5.309424923379687
 20
3.881723322486828
 30
0.0
 10
5.309434794752259
 20
3.881719093294089
 30
0.0
 10
5.30945478997983
 20
3.88171052673755
 30
0.0
 10
5.309549705089828
 20
3.881731039465791
 30
0.0
 10
5.309684088863048
 20
3.881772639988884
 30
0.0
 10
5.309857725857925
 20
3.881836025951332
 30
0.0
 10
5.31006365204828
 20
3.881918468362473
 30
0.0
 10
5.31029704252071
 20
3.882018273576006
 30
0.0
 10
5.310552756384922
 20
3.882133576155866
 30
0.0
 10
5.310826261572397
 20
3.882262790856638
 30
0.0
 10
5.31111166402809
 20
3.882403848053401
 30
0.0
 10
5.311405513010285
 20
3.882555402939858
 30
0.0
 10
5.311583381093401
 20
3.882652774502387
 30
0.0
 10
5.311675657979222
 20
3.882703290280151
 30
0.0
  0
SPLINE
  5
E8
330
2
100
AcDbEntity
  8
0
  6
Continuous
 62
     7
370
    20
100
AcDbSpline
210
0.0
220
0.0
230
1.0
 70
     8
 71
     3
 72
    11
 73
     7
 74
     0
 42
0.000000001
 43
0.0000000001
 40
0.0
 40
0.0
 40
0.0
 40
0.0
 40
0.2500002725274599
 40
0.4999997452100489
 40
0.7500002839447408
 40
1.0
 40
1.0
 40
1.0
 40
1.0
 10
5.308421779191564
 20
3.883339028110248
 30
0.0
 10
5.308506476117714
 20
3.883169614798935
 30
0.0
 10
5.308675869699038
 20
3.882830788718327
 30
0.0
 10
5.308927403084181
 20
3.882400928193439
 30
0.0
 10
5.309177320931199
 20
3.882023204354877
 30
0.0
 10
5.309342389320724
 20
3.881823282999863
 30
0.0
 10
5.309424923379687
 20
3.881723322486828
 30
0.0
  0
SPLINE
  5
E9
330
2
100
AcDbEntity
  8
0
  6
Continuous
 62
     7
370
    20
100
AcDbSpline
210
0.0
220
0.0
230
1.0
 70
     8
 71
     3
 72
    25
 73
    21
 74
     0
 42
0.000000001
 43
0.0000000001
 40
0.0
 40
0.0
 40
0.0
 40
0.0
 40
0.021505006400228
 40
0.0429616881519735
 40
0.0644825533750307
 40
0.0861388472616929
 40
0.1078502999773659
 40
0.1295149633498912
 40
0.1510494150829725
 40
0.1723947419145875
 40
0.1936278970417506
 40
0.3034995799847846
 40
0.4136419314380894
 40
0.5237566716210738
 40
0.63378129790758
 40
0.7438646747644269
 40
0.8079434386694892
 40
0.8719394912310185
 40
0.9359531322298064
 40
1.0
 40
1.0
 40
1.0
 40
1.0
 10
4.857116274555728
 20
5.41312999695218
 30
0.0
 10
4.856510428169275
 20
5.41339491745324
 30
0.0
 10
4.855300096814874
 20
5.413924163143276
 30
0.0
 10
4.853464914805484
 20
5.414761190713699
 30
0.0
 10
4.851619774872321
 20
5.415616983378408
 30
0.0
 10
4.849766235019235
 20
5.416483902328708
 30
0.0
 10
4.847910014371166
 20
5.417350654023843
 30
0.0
 10
4.846057536167538
 20
5.418212367582751
 30
0.0
 10
4.844215522178106
 20
5.419062823138816
 30
0.0
 10
4.842385262213102
 20
5.41989846190142
 30
0.0
 10
4.838032587188545
 20
5.421860024335054
 30
0.0
 10
4.831153093468946
 20
5.424850688870522
 30
0.0
 10
4.821731646861238
 20
5.428719265403778
 30
0.0
 10
4.812267743159576
 20
5.432386432479804
 30
0.0
 10
4.802810452559477
 20
5.435712370937675
 30
0.0
 10
4.79471124271593
 20
5.438167540783949
 30
0.0
 10
4.787980169613313
 20
5.439884525187224
 30
0.0
 10
4.782584264314401
 20
5.441063042814684
 30
0.0
 10
4.777215630550242
 20
5.442061602085455
 30
0.0
 10
4.773656719947904
 20
5.442577206215641
 30
0.0
 10
4.771876802946596
 20
5.442835075170443
 30
0.0
  0
SPLINE
  5
EA
330
2
100
AcDbEntity
  8
0
  6
Continuous
 62
     7
370
    20
100
AcDbSpline
210
0.0
220
0.0
230
1.0
 70
     8
 71
     3
 72
    12
 73
     8
 74
     0
 42
0.000000001
 43
0.0000000001
 40
0.0
 40
0.0
 40
0.0
 40
0.0
 40
0.1980157668889068
 40
0.4007836716175162
 40
0.6015615655815078
 40
0.7974789112754097
 40
1.0
 40
1.0
 40
1.0
 40
1.0
 10
4.899203109861937
 20
5.392879723536729
 30
0.0
 10
4.896447921873624
 20
5.394275654949913
 30
0.0
 10
4.890871424732505
 20
5.397101018434305
 30
0.0
 10
4.882455476411971
 20
5.401283396227358
 30
0.0
 10
4.874037340133992
 20
5.405362292794896
 30
0.0
 10
4.865578742141171
 20
5.409301037850761
 30
0.0
 10
4.859968094158713
 20
5.411839652201761
 30
0.0
 10
4.857116274555728
 20
5.41312999695218
 30
0.0
  0
SPLINE
  5
EB
330
2
100
AcDbEntity
  8
0
  6
Continuous
 62
     7
370
    20
100
AcDbSpline
210
0.0
220
0.0
230
1.0
 70
     8
 71
     3
 72
    17
 73
    13
 74
     0
 42
0.000000001
 43
0.0000000001
 40
0.0
 40
0.0
 40
0.0
 40
0.0
 40
0.087700869977265
 40
0.175389292530572
 40
0.26308120248661
 40
0.350779241698903
 40
0.4384721444639636
 40
0.586104805204637
 40
0.7338223886776744
 40
0.8814523759605025
 40
0.9407203717006998
 40
1.0
 40
1.0
 40
1.0
 40
1.0
 10
5.001661496213217
 20
5.33568601205027
 30
0.0
 10
4.998736854473485
 20
5.337455950144994
 30
0.0
 10
4.992887986089742
 20
5.340995575126331
 30
0.0
 10
4.984067598256899
 20
5.346240519936154
 30
0.0
 10
4.975211805536065
 20
5.351437554168117
 30
0.0
 10
4.966315893086984
 20
5.356581739265266
 30
0.0
 10
4.955343847470343
 20
5.362833060274935
 30
0.0
 10
4.942259457669118
 20
5.370128137454836
 30
0.0
 10
4.92702092483687
 20
5.378398247679616
 30
0.0
 10
4.914714878273906
 20
5.384898750039585
 30
0.0
 10
4.90542266835977
 20
5.389716677969364
 30
0.0
 10
4.901276431645232
 20
5.391825306044129
 30
0.0
 10
4.899203109861937
 20
5.392879723536729
 30
0.0
  0
SPLINE
  5
EC
330
2
100
AcDbEntity
  8
0
  6
Continuous
 62
     7
370
    20
100
AcDbSpline
210
0.0
220
0.0
230
1.0
 70
     8
 71
     3
 72
    10
 73
     6
 74
     0
 42
0.000000001
 43
0.0000000001
 40
0.0
 40
0.0
 40
0.0
 40
0.0
 40
0.2675638718421584
 40
0.9158096884090047
 40
1.0
 40
1.0
 40
1.0
 40
1.0
 10
4.674460256812334
 20
5.456130393975128
 30
0.0
 10
4.675839231225957
 20
5.456687142497527
 30
0.0
 10
4.680559143968179
 20
5.458592764834772
 30
0.0
 10
4.686213924440645
 20
5.459711436015384
 30
0.0
 10
4.690757244654953
 20
5.459653618663454
 30
0.0
 10
4.701765148157916
 20
5.45959092510826
 30
0.0
  0
LINE
  5
ED
330
2
100
AcDbEntity
  8
0
  6
Continuous
 62
     7
370
    20
100
AcDbLine
 10
5.597095476142549
 20
4.672735109407453
 30
0.0
 11
5.596947351042349
 21
4.672935598109052
 31
0.0
  0
LINE
  5
EE
330
2
100
AcDbEntity
  8
0
  6
Continuous
 62
     7
370
    20
100
AcDbLine
 10
5.59708222833545
 20
4.672732118538252
 30
0.0
 11
5.598295845783349
 21
4.670877668308753
 31
0.0
  0
LINE
  5
EF
330
2
100
AcDbEntity
  8
0
  6
Continuous
 62
     7
370
    20
100
AcDbLine
 10
5.384807208686449
 20
4.918661368780752
 30
0.0
 11
5.446469673233067
 21
4.857558108058567
 31
0.0
  0
SPLINE
  5
F0
330
2
100
AcDbEntity
  8
0
  6
Continuous
 62
     7
370
    20
100
AcDbSpline
210
0.0
220
0.0
230
1.0
 70
     8
 71
     3
 72
     8
 73
     4
 74
     0
 42
0.000000001
 43
0.0000000001
 40
0.0
 40
0.0
 40
0.0
 40
0.0
 40
1.0
 40
1.0
 40
1.0
 40
1.0
 10
4.703924283879453
 20
5.459705806533982
 30
0.0
 10
4.703224970652348
 20
5.459880355253826
 30
0.0
 10
4.702470018150277
 20
5.459841536836353
 30
0.0
 10
4.701765148157916
 20
5.45959092510826
 30
0.0
  0
SPLINE
  5
F1
330
2
100
AcDbEntity
  8
0
  6
Continuous
 62
     7
370
    20
100
AcDbSpline
210
0.0
220
0.0
230
1.0
 70
     8
 71
     3
 72
     9
 73
     5
 74
     0
 42
0.000000001
 43
0.0000000001
 40
0.0
 40
0.0
 40
0.0
 40
0.0
 40
0.7814143373837675
 40
1.0
 40
1.0
 40
1.0
 40
1.0
 10
4.703924286206042
 20
5.459705807625796
 30
0.0
 10
4.711718612632845
 20
5.458914341608807
 30
0.0
 10
4.721693252275237
 20
5.457901478164759
 30
0.0
 10
4.732035176675298
 20
5.454919314972649
 30
0.0
 10
4.771876802946596
 20
5.442835075170443
 30
0.0
  0
SPLINE
  5
F2
330
2
100
AcDbEntity
  8
0
  6
Continuous
 62
     7
370
    20
100
AcDbSpline
210
0.0
220
0.0
230
1.0
 70
     8
 71
     3
 72
    10
 73
     6
 74
     0
 42
0.000000001
 43
0.0000000001
 40
0.0
 40
0.0
 40
0.0
 40
0.0
 40
0.3333361369495759
 40
0.6666662599004737
 40
1.0
 40
1.0
 40
1.0
 40
1.0
 10
4.854917073680896
 20
5.415019327741958
 30
0.0
 10
4.854696625135833
 20
5.415118016729819
 30
0.0
 10
4.854255732023002
 20
5.415315392925012
 30
0.0
 10
4.853619610236523
 20
5.415606896849427
 30
0.0
 10
4.853193540791062
 20
5.415802185756477
 30
0.0
 10
4.85298050491246
 20
5.415899830739797
 30
0.0
  0
SPLINE
  5
F3
330
2
100
AcDbEntity
  8
0
  6
Continuous
 62
     7
370
    20
100
AcDbSpline
210
0.0
220
0.0
230
1.0
 70
     8
 71
     3
 72
    14
 73
    10
 74
     0
 42
0.000000001
 43
0.0000000001
 40
0.0
 40
0.0
 40
0.0
 40
0.0
 40
0.1428542422296909
 40
0.2857142097880453
 40
0.4285702155936488
 40
0.5714260827582868
 40
0.7142880288463786
 40
0.8571534188342045
 40
1.0
 40
1.0
 40
1.0
 40
1.0
 10
4.857116274257579
 20
5.413129996916188
 30
0.0
 10
4.857046177937441
 20
5.413269096845326
 30
0.0
 10
4.856905982487837
 20
5.413547302278461
 30
0.0
 10
4.856649166280297
 20
5.413912819006391
 30
0.0
 10
4.85636100873787
 20
5.414236140692681
 30
0.0
 10
4.856040690961267
 20
5.414511326255802
 30
0.0
 10
4.855691493141822
 20
5.414735554146176
 30
0.0
 10
4.855317965006724
 20
5.414911561672957
 30
0.0
 10
4.85505069825799
 20
5.414983407295524
 30
0.0
 10
4.854917073680896
 20
5.415019327741958
 30
0.0
  0
LWPOLYLINE
  5
F4
330
2
100
AcDbEntity
  8
0
  6
Continuous
 62
     7
370
    20
100
AcDbPolyline
 90
        3
 70
   128
 43
0.0
 10
5.00191370254295
 20
5.335536082216153
 10
5.001787761435349
 20
5.335611173399353
 10
5.001661716018049
 20
5.335686304730353
  0
SPLINE
  5
F5
330
2
100
AcDbEntity
  8
0
  6
Continuous
 62
     7
370
    20
100
AcDbSpline
210
0.0
220
0.0
230
1.0
 70
     8
 71
     3
 72
    29
 73
    25
 74
     0
 42
0.000000001
 43
0.0000000001
 40
0.0
 40
0.0
 40
0.0
 40
0.0
 40
0.0388654616608528
 40
0.0777825554981439
 40
0.1166458679822751
 40
0.1554261246966369
 40
0.1942172836410199
 40
0.2330735037604118
 40
0.2719586511420469
 40
0.3108313310297846
 40
0.3496598514248724
 40
0.388441300841664
 40
0.4272464490661239
 40
0.4661237295691203
 40
0.505018627031182
 40
0.5438694838690057
 40
0.5826776545054928
 40
0.6422039434742483
 40
0.7017793937621124
 40
0.7614752540553932
 40
0.8212431973045932
 40
0.8808870251030979
 40
0.9404287233992556
 40
1.0
 40
1.0
 40
1.0
 40
1.0
 10
5.299290590832823
 20
5.121877847392827
 30
0.0
 10
5.295739212274962
 20
5.12490487719726
 30
0.0
 10
5.288631737206686
 20
5.130962958169321
 30
0.0
 10
5.277905720002443
 20
5.139985832799495
 30
0.0
 10
5.267127752210768
 20
5.148948893765142
 30
0.0
 10
5.256290149480046
 20
5.15783997883177
 30
0.0
 10
5.24538111030014
 20
5.166669957173892
 30
0.0
 10
5.2343878096144
 20
5.175447015091322
 30
0.0
 10
5.223310797502868
 20
5.184168750158631
 30
0.0
 10
5.212158804753823
 20
5.19282634444109
 30
0.0
 10
5.200939745742767
 20
5.201414913163173
 30
0.0
 10
5.189650062400408
 20
5.209937360456549
 30
0.0
 10
5.178277498120587
 20
5.218401424460248
 30
0.0
 10
5.166815370951079
 20
5.226811296697755
 30
0.0
 10
5.155267503262589
 20
5.235159671996648
 30
0.0
 10
5.143641988530385
 20
5.243435503350374
 30
0.0
 10
5.129860457677454
 20
5.253096200279863
 30
0.0
 10
5.113856086718877
 20
5.264099326847093
 30
0.0
 10
5.095552150020917
 20
5.276395356343236
 30
0.0
 10
5.077058571367668
 20
5.288546935634531
 30
0.0
 10
5.058417568964129
 20
5.300548062627573
 30
0.0
 10
5.039676886857716
 20
5.312383831079593
 30
0.0
 10
5.02085869143695
 20
5.324064228515915
 30
0.0
 10
5.008229745611149
 20
5.331711507060029
 30
0.0
 10
5.001913704679287
 20
5.335536095823668
 30
0.0
  0
SPLINE
  5
F6
330
2
100
AcDbEntity
  8
0
  6
Continuous
 62
     7
370
    20
100
AcDbSpline
210
0.0
220
0.0
230
1.0
 70
     8
 71
     3
 72
     9
 73
     5
 74
     0
 42
0.000000001
 43
0.0000000001
 40
0.0
 40
0.0
 40
0.0
 40
0.0
 40
0.5000000114168508
 40
1.0
 40
1.0
 40
1.0
 40
1.0
 10
5.313154236676195
 20
5.109950450062386
 30
0.0
 10
5.310849027033323
 20
5.111944490353541
 30
0.0
 10
5.306238607852852
 20
5.115932570844789
 30
0.0
 10
5.301606596470909
 20
5.119896088573646
 30
0.0
 10
5.299290590832823
 20
5.121877847392827
 30
0.0
  0
SPLINE
  5
F7
330
2
100
AcDbEntity
  8
0
  6
Continuous
 62
     7
370
    20
100
AcDbSpline
210
0.0
220
0.0
230
1.0
 70
     8
 71
     3
 72
    10
 73
     6
 74
     0
 42
0.000000001
 43
0.0000000001
 40
0.0
 40
0.0
 40
0.0
 40
0.0
 40
0.3333331783476186
 40
0.666667104187663
 40
1.0
 40
1.0
 40
1.0
 40
1.0
 10
5.326869341362341
 20
5.097924858193308
 30
0.0
 10
5.325342783939677
 20
5.099282423625631
 30
0.0
 10
5.322289665671077
 20
5.101997557534588
 30
0.0
 10
5.317685117679398
 20
5.106036488432221
 30
0.0
 10
5.314664528788286
 20
5.108645797529494
 30
0.0
 10
5.313154236676195
 20
5.109950450062386
 30
0.0
  0
SPLINE
  5
F8
330
2
100
AcDbEntity
  8
0
  6
Continuous
 62
     7
370
    20
100
AcDbSpline
210
0.0
220
0.0
230
1.0
 70
     8
 71
     3
 72
    11
 73
     7
 74
     0
 42
0.000000001
 43
0.0000000001
 40
4.268131965419298
 40
4.268131965419298
 40
4.268131965419298
 40
4.268131965419298
 40
4.268243720079303
 40
19.3220817411893
 40
34.3759197623093
 40
45.161625818
 40
45.161625818
 40
45.161625818
 40
45.161625818
 10
5.384807254289977
 20
4.918661325897506
 30
0.0
 10
5.384807242019066
 20
4.918661519535541
 30
0.0
 10
5.383154272304954
 20
4.944745592956872
 30
0.0
 10
5.376589390787409
 20
4.995663223002608
 30
0.0
 10
5.359267674113826
 20
5.050874396470051
 30
0.0
 10
5.344000438796945
 20
5.078581324779038
 30
0.0
 10
5.336940033793536
 20
5.0887402716894
 30
0.0
  0
SPLINE
  5
F9
330
2
100
AcDbEntity
  8
0
  6
Continuous
 62
     7
370
    20
100
AcDbSpline
210
0.0
220
0.0
230
1.0
 70
     8
 71
     3
 72
    13
 73
     9
 74
     0
 42
0.000000001
 43
0.0000000001
 40
0.0
 40
0.0
 40
0.0
 40
0.0
 40
0.166666570704822
 40
0.3333320038524905
 40
0.5000247479716835
 40
0.666668314060166
 40
0.8332885387271611
 40
1.0
 40
1.0
 40
1.0
 40
1.0
 10
4.897017672156914
 20
5.394561574736078
 30
0.0
 10
4.894866049752006
 20
5.395662863011887
 30
0.0
 10
4.890562819627758
 20
5.397865432046828
 30
0.0
 10
4.884058973010043
 20
5.401142524320182
 30
0.0
 10
4.877535962846391
 20
5.40437173108677
 30
0.0
 10
4.870996555705598
 20
5.407530319671433
 30
0.0
 10
4.864434305033684
 20
5.410629976569262
 30
0.0
 10
4.860085920957406
 20
5.412639591652697
 30
0.0
 10
4.857911133818618
 20
5.413644674221465
 30
0.0
  0
SPLINE
  5
FA
330
2
100
AcDbEntity
  8
0
  6
Continuous
 62
     7
370
    20
100
AcDbSpline
210
0.0
220
0.0
230
1.0
 70
     8
 71
     3
 72
     9
 73
     5
 74
     0
 42
0.000000001
 43
0.0000000001
 40
0.0
 40
0.0
 40
0.0
 40
0.0
 40
0.5000061456628351
 40
1.0
 40
1.0
 40
1.0
 40
1.0
 10
4.857911133818618
 20
5.413644674221465
 30
0.0
 10
4.857406545982408
 20
5.413875600835253
 30
0.0
 10
4.85639738271394
 20
5.414337448386117
 30
0.0
 10
4.855410311218777
 20
5.414791477428213
 30
0.0
 10
4.854916781537403
 20
5.415018489158951
 30
0.0
  0
LINE
  5
FB
330
2
100
AcDbEntity
  8
0
  6
Continuous
 62
     7
370
    20
100
AcDbLine
 10
4.999451592181249
 20
5.337060271646652
 30
0.0
 11
5.000691809559649
 21
5.336635631814553
 31
0.0
  0
LINE
  5
FC
330
2
100
AcDbEntity
  8
0
  6
Continuous
 62
     7
370
    20
100
AcDbLine
 10
4.999451557409149
 20
5.337060211421653
 30
0.0
 11
4.995626209338649
 21
5.339207611194853
 31
0.0
  0
LINE
  5
FD
330
2
100
AcDbEntity
  8
0
  6
Continuous
 62
     7
370
    20
100
AcDbLine
 10
4.91560701408485
 20
5.384127252989353
 30
0.0
 11
4.898517376331749
 21
5.393720730321254
 31
0.0
  0
SPLINE
  5
FE
330
2
100
AcDbEntity
  8
0
  6
Continuous
 62
     7
370
    20
100
AcDbSpline
210
0.0
220
0.0
230
1.0
 70
     8
 71
     3
 72
    13
 73
     9
 74
     0
 42
0.000000001
 43
0.0000000001
 40
0.0
 40
0.0
 40
0.0
 40
0.0
 40
0.1666623903481731
 40
0.3333333545798028
 40
0.5000000021051121
 40
0.6666666461361991
 40
0.8333376044923197
 40
1.0
 40
1.0
 40
1.0
 40
1.0
 10
5.001913704679164
 20
5.335536095823413
 30
0.0
 10
5.001826377144851
 20
5.335660690881246
 30
0.0
 10
5.001651717583696
 20
5.335909887406657
 30
0.0
 10
5.001335854149425
 20
5.336219602889588
 30
0.0
 10
5.000984602785751
 20
5.336478624352412
 30
0.0
 10
5.000596924588158
 20
5.336678510190747
 30
0.0
 10
5.000179877859655
 20
5.336823963799605
 30
0.0
 10
4.999879808453625
 20
5.336869594812728
 30
0.0
 10
4.999729777604782
 20
5.336892409733192
 30
0.0
  0
LINE
  5
FF
330
2
100
AcDbEntity
  8
0
  6
Continuous
 62
     7
370
    20
100
AcDbLine
 10
5.001345611493049
 20
5.335876207761254
 30
0.0
 11
4.999728440077849
 21
5.336892485420353
 31
0.0
  0
LINE
  5
100
330
2
100
AcDbEntity
  8
0
  6
Continuous
 62
     7
370
    20
100
AcDbLine
 10
4.999451557409149
 20
5.337060211421653
 30
0.0
 11
4.999725971324749
 21
5.336894753507053
 31
0.0
  0
LINE
  5
101
330
2
100
AcDbEntity
  8
0
  6
Continuous
 62
     7
370
    20
100
AcDbLine
 10
5.340565092822349
 20
5.085368861588653
 30
0.0
 11
5.336940026576449
 21
5.088740275733652
 31
0.0
  0
LINE
  5
102
330
2
100
AcDbEntity
  8
0
  6
Continuous
 62
     7
370
    20
100
AcDbLine
 10
5.376941070501048
 20
5.050301821362852
 30
0.0
 11
5.380126803268849
 21
5.047527680108353
 31
0.0
  0
SPLINE
  5
103
330
2
100
AcDbEntity
  8
0
  6
Continuous
 62
     7
370
    20
100
AcDbSpline
210
0.0
220
0.0
230
1.0
 70
     8
 71
     3
 72
    25
 73
    21
 74
     0
 42
0.000000001
 43
0.0000000001
 40
0.0
 40
0.0
 40
0.0
 40
0.0
 40
0.0678161232863048
 40
0.1357348366259217
 40
0.2036809906868119
 40
0.2716065915693508
 40
0.3394948032807219
 40
0.4073635323075397
 40
0.4752454466122282
 40
0.5546783201044851
 40
0.6341374082574541
 40
0.7135763113509601
 40
0.7582947147507692
 40
0.803204503892611
 40
0.8481318767954
 40
0.8928346844296836
 40
0.9376602880826784
 40
0.9584455354153483
 40
0.9792233418528564
 40
1.0
 40
1.0
 40
1.0
 40
1.0
 10
5.386626484796125
 20
5.032272965420058
 30
0.0
 10
5.386207991340551
 20
5.032937864834451
 30
0.0
 10
5.385370371345937
 20
5.034268669501717
 30
0.0
 10
5.384147067429451
 20
5.036207362064054
 30
0.0
 10
5.382957483279037
 20
5.03809440031546
 30
0.0
 10
5.381812847447031
 20
5.039915933485823
 30
0.0
 10
5.380721604824138
 20
5.041663326014084
 30
0.0
 10
5.379694545286036
 20
5.043325115567273
 30
0.0
 10
5.378681851831203
 20
5.044985197713224
 30
0.0
 10
5.377696457988498
 20
5.046626077858046
 30
0.0
 10
5.376821509329121
 20
5.048155216741847
 30
0.0
 10
5.376181011509335
 20
5.049327076260419
 30
0.0
 10
5.375858715814686
 20
5.050060397988845
 30
0.0
 10
5.375682739466226
 20
5.050548588519421
 30
0.0
 10
5.375577498945964
 20
5.050952473505811
 30
0.0
 10
5.37566209886018
 20
5.051138156651292
 30
0.0
 10
5.375947848431358
 20
5.051037704995925
 30
0.0
 10
5.376287353142131
 20
5.050818999076602
 30
0.0
 10
5.376581615049011
 20
5.050601154509529
 30
0.0
 10
5.376821218386235
 20
5.050401624319097
 30
0.0
 10
5.376941016744323
 20
5.050301861980726
 30
0.0
  0
ARC
  5
104
330
2
100
AcDbEntity
  8
0
  6
Continuous
 62
     7
370
    20
100
AcDbCircle
 10
5.38475319108875
 20
5.030298505023253
 30
0.0
 40
0.0027217035084555
100
AcDbArc
 50
6.209568252399795
 51
46.50733898020024
  0
SPLINE
  5
105
330
2
100
AcDbEntity
  8
0
  6
Continuous
 62
     7
370
    20
100
AcDbSpline
210
0.0
220
0.0
230
1.0
 70
     8
 71
     3
 72
     9
 73
     5
 74
     0
 42
0.000000001
 43
0.0000000001
 40
0.0
 40
0.0
 40
0.0
 40
0.0
 40
0.6112301635297947
 40
1.0
 40
1.0
 40
1.0
 40
1.0
 10
5.381518112119089
 20
5.044668161184437
 30
0.0
 10
5.381432803990858
 20
5.044769632569403
 30
0.0
 10
5.381293236061588
 20
5.044935644312635
 30
0.0
 10
5.381156232340798
 20
5.045069798214164
 30
0.0
 10
5.381102969426669
 20
5.045121953204523
 30
0.0
  0
SPLINE
  5
106
330
2
100
AcDbEntity
  8
0
  6
Continuous
 62
     7
370
    20
100
AcDbSpline
210
0.0
220
0.0
230
1.0
 70
     8
 71
     3
 72
    36
 73
    32
 74
     0
 42
0.000000001
 43
0.0000000001
 40
0.0
 40
0.0
 40
0.0
 40
0.0
 40
0.0282388656688547
 40
0.0569159444692653
 40
0.0860323524935276
 40
0.1155891560655373
 40
0.1455873745460123
 40
0.1760279829508908
 40
0.2069119143969499
 40
0.2382400623875238
 40
0.2700132829501735
 40
0.3022323966371602
 40
0.3348981903987689
 40
0.3680114193386653
 40
0.4015728083597513
 40
0.4355830537083565
 40
0.4700428244239136
 40
0.5049527637007745
 40
0.5403134901682593
 40
0.5761255990945884
 40
0.6123896635198994
 40
0.6491062353231585
 40
0.6862758462274106
 40
0.7238990087474823
 40
0.7619762170839559
 40
0.8005079479668943
 40
0.8394946614526469
 40
0.8789368016767021
 40
0.9188347975654275
 40
0.9591890635092919
 40
1.0
 40
1.0
 40
1.0
 40
1.0
 10
5.519127592112719
 20
4.868068405398147
 30
0.0
 10
5.517830229284347
 20
4.869909883997119
 30
0.0
 10
5.515215371040312
 20
4.87362141741739
 30
0.0
 10
5.511262120761097
 20
4.879174770831101
 30
0.0
 10
5.50724800168975
 20
4.884772503805631
 30
0.0
 10
5.50317294784415
 20
4.890410356396021
 30
0.0
 10
5.499036976963252
 20
4.896089496415359
 30
0.0
 10
5.494840083863542
 20
4.901809604019351
 30
0.0
 10
5.490582269664142
 20
4.907570766955933
 30
0.0
 10
5.486263533777997
 20
4.913372961300723
 30
0.0
 10
5.481883876104092
 20
4.919216193690241
 30
0.0
 10
5.477443296425746
 20
4.925100462376057
 30
0.0
 10
5.472941794574097
 20
4.931025767888714
 30
0.0
 10
5.468379370382177
 20
4.936992110121002
 30
0.0
 10
5.463756023696414
 20
4.942999489127679
 30
0.0
 10
5.459071754372471
 20
4.949047904908233
 30
0.0
 10
5.454326562275483
 20
4.955137357467483
 30
0.0
 10
5.449520447279113
 20
4.961267846800686
 30
0.0
 10
5.444653409265121
 20
4.967439372896823
 30
0.0
 10
5.439725448122394
 20
4.973651935745588
 30
0.0
 10
5.43473656374793
 20
4.979905535309944
 30
0.0
 10
5.429686756040656
 20
4.986200171634664
 30
0.0
 10
5.424576024922658
 20
4.992535844436007
 30
0.0
 10
5.41940437025643
 20
4.998912554663942
 30
0.0
 10
5.414171792157367
 20
5.005330298567137
 30
0.0
 10
5.408878289804665
 20
5.011789090246079
 30
0.0
 10
5.403523865956927
 20
5.018288875976371
 30
0.0
 10
5.398108509799334
 20
5.024829859630701
 30
0.0
 10
5.392632262080548
 20
5.031411266881153
 30
0.0
 10
5.387094967797549
 20
5.038036037316414
 30
0.0
 10
5.383384023804039
 20
5.042449176485026
 30
0.0
 10
5.381518112119016
 20
5.044668161184537
 30
0.0
  0
LINE
  5
107
330
2
100
AcDbEntity
  8
0
  6
Continuous
 62
     7
370
    20
100
AcDbLine
 10
5.519731127733948
 20
4.867211763160153
 30
0.0
 11
5.51912753534015
 21
4.868068435655953
 31
0.0
  0
LINE
  5
108
330
2
100
AcDbEntity
  8
0
  6
Continuous
 62
     7
370
    20
100
AcDbLine
 10
5.31315391735595
 20
5.109950885592553
 30
0.0
 11
5.31244538563205
 21
5.110532457479052
 31
0.0
  0
LINE
  5
109
330
2
100
AcDbEntity
  8
0
  6
Continuous
 62
     7
370
    20
100
AcDbLine
 10
5.326869397482649
 20
5.097924825513553
 30
0.0
 11
5.326192959529249
 21
5.098480418186353
 31
0.0
  0
SPLINE
  5
10A
330
2
100
AcDbEntity
  8
0
  6
Continuous
 62
     7
370
    20
100
AcDbSpline
210
0.0
220
0.0
230
1.0
 70
     8
 71
     3
 72
    12
 73
     8
 74
     0
 42
0.000000001
 43
0.0000000001
 40
0.0
 40
0.0
 40
0.0
 40
0.0
 40
0.1999977031372894
 40
0.3999997392079858
 40
0.6000004451581686
 40
0.8000024926834981
 40
1.0
 40
1.0
 40
1.0
 40
1.0
 10
5.3811029663436
 20
5.04512197785128
 30
0.0
 10
5.381075177592942
 20
5.04530095843633
 30
0.0
 10
5.381019599489579
 20
5.045658923484028
 30
0.0
 10
5.380870501125979
 20
5.046170238914958
 30
0.0
 10
5.38067355405461
 20
5.046656088347023
 30
0.0
 10
5.380429636261112
 20
5.047114087453501
 30
0.0
 10
5.380227804559845
 20
5.047389815555925
 30
0.0
 10
5.380126889854661
 20
5.047527678042309
 30
0.0
  0
SPLINE
  5
10B
330
2
100
AcDbEntity
  8
0
  6
Continuous
 62
     7
370
    20
100
AcDbSpline
210
0.0
220
0.0
230
1.0
 70
     8
 71
     3
 72
    10
 73
     6
 74
     0
 42
0.000000001
 43
0.0000000001
 40
0.0
 40
0.0
 40
0.0
 40
0.0
 40
0.0743532119703418
 40
0.5376501414970349
 40
1.0
 40
1.0
 40
1.0
 40
1.0
 10
5.582782279947249
 20
4.725431899996442
 30
0.0
 10
5.582431508147614
 20
4.728668673763106
 30
0.0
 10
5.579895067519029
 20
4.752073874796458
 30
0.0
 10
5.569361240482677
 20
4.793389076574801
 30
0.0
 10
5.555522680701558
 20
4.829364254133809
 30
0.0
 10
5.548610480238681
 20
4.847333438999054
 30
0.0
  0
SPLINE
  5
10C
330
2
100
AcDbEntity
  8
0
  6
Continuous
 62
     7
370
    20
100
AcDbSpline
210
0.0
220
0.0
230
1.0
 70
     8
 71
     3
 72
    13
 73
     9
 74
     0
 42
0.000000001
 43
0.0000000001
 40
0.0
 40
0.0
 40
0.0
 40
0.0
 40
0.1666708666267747
 40
0.3333334859308348
 40
0.4999977480969572
 40
0.6666665301965855
 40
0.8333366644070848
 40
1.0
 40
1.0
 40
1.0
 40
1.0
 10
5.556740535974288
 20
4.847079692899928
 30
0.0
 10
5.557381709571291
 20
4.845583140070894
 30
0.0
 10
5.558664025038303
 20
4.842590108466284
 30
0.0
 10
5.560519763523654
 20
4.838082659459026
 30
0.0
 10
5.562331321909378
 20
4.83355620148566
 30
0.0
 10
5.564096818353678
 20
4.829003760611383
 30
0.0
 10
5.565824551547337
 20
4.824424278870074
 30
0.0
 10
5.566946271593645
 20
4.821340586409802
 30
0.0
 10
5.568224064186462
 20
4.817789074705977
 30
0.0
  0
LINE
  5
10D
330
2
100
AcDbEntity
  8
0
  6
Continuous
 62
     7
370
    20
100
AcDbLine
 10
5.55674053145315
 20
4.847079705926953
 30
0.0
 11
5.556895367383849
 21
4.846866682327153
 31
0.0
  0
SPLINE
  5
10E
330
2
100
AcDbEntity
  8
0
  6
Continuous
 62
     7
370
    20
100
AcDbSpline
210
0.0
220
0.0
230
1.0
 70
     8
 71
     3
 72
     9
 73
     5
 74
     0
 42
0.000000001
 43
0.0000000001
 40
0.0
 40
0.0
 40
0.0
 40
0.0
 40
0.4999706855309418
 40
1.0
 40
1.0
 40
1.0
 40
1.0
 10
5.563262445651382
 20
4.83816816735996
 30
0.0
 10
5.562203885011737
 20
4.839621031820994
 30
0.0
 10
5.5600866396006
 20
4.842526931112852
 30
0.0
 10
5.557959186643597
 20
4.845419942242733
 30
0.0
 10
5.556895397799945
 20
4.846866532614757
 30
0.0
  0
SPLINE
  5
10F
330
2
100
AcDbEntity
  8
0
  6
Continuous
 62
     7
370
    20
100
AcDbSpline
210
0.0
220
0.0
230
1.0
 70
     8
 71
     3
 72
    31
 73
    27
 74
     0
 42
0.000000001
 43
0.0000000001
 40
0.0
 40
0.0
 40
0.0
 40
0.0
 40
0.0415526522063457
 40
0.0832151705541287
 40
0.1249577307671656
 40
0.1665838444778134
 40
0.2080044270478748
 40
0.2497475532891957
 40
0.2916674103238129
 40
0.3333122245745801
 40
0.3749350340738638
 40
0.4166812797622704
 40
0.458481703228919
 40
0.5001350152656267
 40
0.5416805796167205
 40
0.5832649039101431
 40
0.6249753934074958
 40
0.6667110423749183
 40
0.7083829095737573
 40
0.7499999554135469
 40
0.7915161346730636
 40
0.8330815793628179
 40
0.8749208813440121
 40
0.9167023280930227
 40
0.9583755728538232
 40
1.0
 40
1.0
 40
1.0
 40
1.0
 10
5.636173516245911
 20
4.722433191558266
 30
0.0
 10
5.63522962535451
 20
4.724187813672104
 30
0.0
 10
5.633339347903089
 20
4.727701697159879
 30
0.0
 10
5.63047421369865
 20
4.732924380608166
 30
0.0
 10
5.627589561531976
 20
4.738110527864344
 30
0.0
 10
5.624691380216673
 20
4.743244692097071
 30
0.0
 10
5.621774378407143
 20
4.74833886654838
 30
0.0
 10
5.618831184107664
 20
4.753404228994224
 30
0.0
 10
5.61586541010056
 20
4.758439791200631
 30
0.0
 10
5.612886467858158
 20
4.763430798634629
 30
0.0
 10
5.609893679730173
 20
4.768375567296503
 30
0.0
 10
5.606880680813871
 20
4.773286803582493
 30
0.0
 10
5.603852256921745
 20
4.778159323217957
 30
0.0
 10
5.600811556167522
 20
4.782986917862833
 30
0.0
 10
5.597761564311252
 20
4.78776959737255
 30
0.0
 10
5.594697295534238
 20
4.792518065209206
 30
0.0
 10
5.591610850121326
 20
4.797236071414525
 30
0.0
 10
5.588508562652086
 20
4.801921709154726
 30
0.0
 10
5.58539666732878
 20
4.80656949280954
 30
0.0
 10
5.582275292872317
 20
4.811175357750164
 30
0.0
 10
5.579145011243611
 20
4.815743340212334
 30
0.0
 10
5.575997546368996
 20
4.820285744136429
 30
0.0
 10
5.572828925658957
 20
4.824806443138629
 30
0.0
 10
5.569645147348309
 20
4.829300557927721
 30
0.0
 10
5.566458398177701
 20
4.833755936769483
 30
0.0
 10
5.564327346850632
 20
4.836697998573512
 30
0.0
 10
5.563262445651382
 20
4.83816816735996
 30
0.0
  0
SPLINE
  5
110
330
2
100
AcDbEntity
  8
0
  6
Continuous
 62
     7
370
    20
100
AcDbSpline
210
0.0
220
0.0
230
1.0
 70
     8
 71
     3
 72
    32
 73
    28
 74
     0
 42
0.000000001
 43
0.0000000001
 40
0.0
 40
0.0
 40
0.0
 40
0.0
 40
0.0260411908652263
 40
0.0522122514889349
 40
0.0785159442495213
 40
0.1049025099047415
 40
0.1313073561509899
 40
0.1576553336252636
 40
0.1839448348885145
 40
0.2102019479915928
 40
0.2363602354966609
 40
0.2624677181627409
 40
0.2887836099136689
 40
0.3152150852469801
 40
0.341456904352877
 40
0.3675674537079912
 40
0.393701420889125
 40
0.4531175278623265
 40
0.5123619549805511
 40
0.5716572427576458
 40
0.6310211974957382
 40
0.6903483045867196
 40
0.7497085519089916
 40
0.8090284849193666
 40
0.8729154908794358
 40
0.9364389745577144
 40
1.0
 40
1.0
 40
1.0
 40
1.0
 10
5.706170163408214
 20
4.522719897860222
 30
0.0
 10
5.705911350460873
 20
4.524587376854323
 30
0.0
 10
5.70539243384277
 20
4.528331648128047
 30
0.0
 10
5.704535159306075
 20
4.533970963483631
 30
0.0
 10
5.703602717690403
 20
4.539645214108633
 30
0.0
 10
5.702588269689217
 20
4.54534295964587
 30
0.0
 10
5.701493090493495
 20
4.551046352023893
 30
0.0
 10
5.700319569898813
 20
4.556740269187827
 30
0.0
 10
5.6990667118878
 20
4.562415605940012
 30
0.0
 10
5.697734865862735
 20
4.56806248439236
 30
0.0
 10
5.696333760909387
 20
4.5736770774062
 30
0.0
 10
5.694866039351343
 20
4.57927414141826
 30
0.0
 10
5.693329418708458
 20
4.584866496361172
 30
0.0
 10
5.691729084550465
 20
4.590441447340848
 30
0.0
 10
5.690073418295475
 20
4.595970467507202
 30
0.0
 10
5.688369568381793
 20
4.601447185460214
 30
0.0
 10
5.68587563244949
 20
4.609196615799329
 30
0.0
 10
5.68249096040363
 20
4.619142862306847
 30
0.0
 10
5.67810471353065
 20
4.63118256105632
 30
0.0
 10
5.673517462767623
 20
4.643010258519097
 30
0.0
 10
5.668746093859659
 20
4.654627118415923
 30
0.0
 10
5.663817278874404
 20
4.666016180445179
 30
0.0
 10
5.65875108215777
 20
4.677184622975071
 30
0.0
 10
5.653433159688431
 20
4.688425777448648
 30
0.0
 10
5.647876348963197
 20
4.699737172099567
 30
0.0
 10
5.642088440677956
 20
4.711159203435899
 30
0.0
 10
5.638145545977297
 20
4.718674455495944
 30
0.0
 10
5.636173516245911
 20
4.722433191558266
 30
0.0
  0
SPLINE
  5
111
330
2
100
AcDbEntity
  8
0
  6
Continuous
 62
     7
370
    20
100
AcDbSpline
210
0.0
220
0.0
230
1.0
 70
     8
 71
     3
 72
    10
 73
     6
 74
     0
 42
0.000000001
 43
0.0000000001
 40
0.0
 40
0.0
 40
0.0
 40
0.0
 40
0.3333328434284032
 40
0.6666659750797745
 40
1.0
 40
1.0
 40
1.0
 40
1.0
 10
5.707601188641461
 20
4.51082079610311
 30
0.0
 10
5.707456727812581
 20
4.512138719441137
 30
0.0
 10
5.707167806029908
 20
4.51477456725676
 30
0.0
 10
5.706690696355437
 20
4.518741839045005
 30
0.0
 10
5.706343674545613
 20
4.521393877070659
 30
0.0
 10
5.706170163408214
 20
4.522719897860222
 30
0.0
  0
SPLINE
  5
112
330
2
100
AcDbEntity
  8
0
  6
Continuous
 62
     7
370
    20
100
AcDbSpline
210
0.0
220
0.0
230
1.0
 70
     8
 71
     3
 72
    14
 73
    10
 74
     0
 42
0.000000001
 43
0.0000000001
 40
0.0
 40
0.0
 40
0.0
 40
0.0
 40
0.1422329435478042
 40
0.2855909700320369
 40
0.4289688184507937
 40
0.5717442872304149
 40
0.7138797718437521
 40
0.8560680038906603
 40
1.0
 40
1.0
 40
1.0
 40
1.0
 10
5.709575213984853
 20
4.487285255732144
 30
0.0
 10
5.709501143304496
 20
4.488394845168615
 30
0.0
 10
5.70935241603411
 20
4.490622801052778
 30
0.0
 10
5.709121175709685
 20
4.49396333798288
 30
0.0
 10
5.708866871917842
 20
4.497320078261371
 30
0.0
 10
5.708586178635934
 20
4.50068122019992
 30
0.0
 10
5.708278796690135
 20
4.504045791965614
 30
0.0
 10
5.70794802280398
 20
4.507427783160467
 30
0.0
 10
5.707717268806875
 20
4.509685205823364
 30
0.0
 10
5.707601188641461
 20
4.51082079610311
 30
0.0
  0
SPLINE
  5
113
330
2
100
AcDbEntity
  8
0
  6
Continuous
 62
     7
370
    20
100
AcDbSpline
210
0.0
220
0.0
230
1.0
 70
     8
 71
     3
 72
    33
 73
    29
 74
     0
 42
0.000000001
 43
0.0000000001
 40
0.0
 40
0.0
 40
0.0
 40
0.0
 40
0.0381287977717034
 40
0.0763770738318075
 40
0.1147337053786043
 40
0.1531823641557528
 40
0.1917063763703665
 40
0.230288918623093
 40
0.2689130421005764
 40
0.3075616971018084
 40
0.3462177578413038
 40
0.3848640474735823
 40
0.4234833632850233
 40
0.4620585020008472
 40
0.5005722851565848
 40
0.5390078176633532
 40
0.5773627554423363
 40
0.6156574755401595
 40
0.6539141905568167
 40
0.6921548750006577
 40
0.7304011865801657
 40
0.7686743879580245
 40
0.8069952693367222
 40
0.8453840722413017
 40
0.8838604148538578
 40
0.9224432192366879
 40
0.961150640757298
 40
1.0
 40
1.0
 40
1.0
 40
1.0
 10
5.56886542389997
 20
4.815971672473979
 30
0.0
 10
5.569457672428527
 20
4.814259304999184
 30
0.0
 10
5.570644025322815
 20
4.810829204269737
 30
0.0
 10
5.572357600531559
 20
4.805637620546394
 30
0.0
 10
5.574025313527403
 20
4.800403852672967
 30
0.0
 10
5.575641371861673
 20
4.795127807221851
 30
0.0
 10
5.577206117229433
 20
4.789813213556119
 30
0.0
 10
5.578718273676688
 20
4.784462887816065
 30
0.0
 10
5.58017705764696
 20
4.779079930954888
 30
0.0
 10
5.581581613876296
 20
4.77366739767657
 30
0.0
 10
5.582931169047352
 20
4.768228378326044
 30
0.0
 10
5.584224993058312
 20
4.762765970484057
 30
0.0
 10
5.585462409980801
 20
4.757283278264416
 30
0.0
 10
5.586642802375433
 20
4.751783411724193
 30
0.0
 10
5.587765594144618
 20
4.746269447555786
 30
0.0
 10
5.588830464872271
 20
4.740743817579629
 30
0.0
 10
5.589837187224034
 20
4.735206848039011
 30
0.0
 10
5.59078542938144
 20
4.729656409138905
 30
0.0
 10
5.591675252265148
 20
4.724089332097623
 30
0.0
 10
5.592506763954059
 20
4.718502374793576
 30
0.0
 10
5.593280139400929
 20
4.712892364442205
 30
0.0
 10
5.593995599830116
 20
4.707256193443271
 30
0.0
 10
5.594653456029171
 20
4.701590847179669
 30
0.0
 10
5.595253952621027
 20
4.695893354387408
 30
0.0
 10
5.59579784559708
 20
4.690161015634743
 30
0.0
 10
5.596284236177309
 20
4.684390592975983
 30
0.0
 10
5.596718685466445
 20
4.678581391431473
 30
0.0
 10
5.596960933547134
 20
4.674683976699288
 30
0.0
 10
5.597082279258238
 20
4.672731702977272
 30
0.0
  0
SPLINE
  5
114
330
2
100
AcDbEntity
  8
0
  6
Continuous
 62
     7
370
    20
100
AcDbSpline
210
0.0
220
0.0
230
1.0
 70
     8
 71
     3
 72
     8
 73
     4
 74
     0
 42
0.000000001
 43
0.0000000001
 40
0.0
 40
0.0
 40
0.0
 40
0.0
 40
1.0
 40
1.0
 40
1.0
 40
1.0
 10
5.56872562471692
 20
4.81636344948661
 30
0.0
 10
5.568772271427707
 20
4.816232894332166
 30
0.0
 10
5.568818871161181
 20
4.816102301995217
 30
0.0
 10
5.56886542389997
 20
4.815971672473979
 30
0.0
  0
SPLINE
  5
115
330
2
100
AcDbEntity
  8
0
  6
Continuous
 62
     7
370
    20
100
AcDbSpline
210
0.0
220
0.0
230
1.0
 70
     8
 71
     3
 72
    12
 73
     8
 74
     0
 42
0.000000001
 43
0.0000000001
 40
0.0
 40
0.0
 40
0.0
 40
0.0
 40
0.2001349539242115
 40
0.4000162657399153
 40
0.5999832669296592
 40
0.7998267092121311
 40
1.0
 40
1.0
 40
1.0
 40
1.0
 10
5.568224064186462
 20
4.817789074705977
 30
0.0
 10
5.568254314348617
 20
4.81769842571712
 30
0.0
 10
5.568314776335224
 20
4.817517242623887
 30
0.0
 10
5.568421968622293
 20
4.817223259488783
 30
0.0
 10
5.568530600699091
 20
4.816927454229487
 30
0.0
 10
5.568636949855402
 20
4.81663392539132
 30
0.0
 10
5.568696050185299
 20
4.816453657670305
 30
0.0
 10
5.56872562471692
 20
4.81636344948661
 30
0.0
  0
SPLINE
  5
116
330
2
100
AcDbEntity
  8
0
  6
Continuous
 62
     7
370
    20
100
AcDbSpline
210
0.0
220
0.0
230
1.0
 70
     8
 71
     3
 72
    22
 73
    18
 74
     0
 42
0.000000001
 43
0.0000000001
 40
0.0
 40
0.0
 40
0.0
 40
0.0
 40
0.0642949725872688
 40
0.1287508480141098
 40
0.193287098532445
 40
0.2578633571670401
 40
0.3224473976179603
 40
0.3869915530542273
 40
0.4514373946713504
 40
0.5157606755943088
 40
0.5800507732903251
 40
0.6444504260232936
 40
0.7089912518281483
 40
0.77358715950479
 40
0.8490859031281024
 40
0.924418689215693
 40
1.0
 40
1.0
 40
1.0
 40
1.0
 10
5.548551081844026
 20
4.847285904804885
 30
0.0
 10
5.548728475222059
 20
4.847405243424875
 30
0.0
 10
5.549083705917945
 20
4.847644219318421
 30
0.0
 10
5.549655245531249
 20
4.847943753781569
 30
0.0
 10
5.550251253085826
 20
4.848189062836926
 30
0.0
 10
5.550867575804736
 20
4.848372112010743
 30
0.0
 10
5.551494847770812
 20
4.848493522503574
 30
0.0
 10
5.552123826093041
 20
4.848556869217672
 30
0.0
 10
5.552744695285329
 20
4.848569789931982
 30
0.0
 10
5.553347835197909
 20
4.848542583675177
 30
0.0
 10
5.553922176627339
 20
4.848488632214275
 30
0.0
 10
5.554461703842619
 20
4.848406439941325
 30
0.0
 10
5.554963187260987
 20
4.848289750379894
 30
0.0
 10
5.555451719969596
 20
4.848121852039461
 30
0.0
 10
5.555918483810409
 20
4.847879727599018
 30
0.0
 10
5.556362462301047
 20
4.847544373003376
 30
0.0
 10
5.556614395232108
 20
4.847234769478786
 30
0.0
 10
5.556740569138681
 20
4.847079712789605
 30
0.0
  0
SPLINE
  5
117
330
2
100
AcDbEntity
  8
0
  6
Continuous
 62
     7
370
    20
100
AcDbSpline
210
0.0
220
0.0
230
1.0
 70
     8
 71
     3
 72
    20
 73
    16
 74
     0
 42
0.000000001
 43
0.0000000001
 40
0.0
 40
0.0
 40
0.0
 40
0.0
 40
0.0305934079824371
 40
0.0616320070790272
 40
0.0932801405833802
 40
0.1256928814929745
 40
0.185912040479858
 40
0.2507339640251837
 40
0.3674580302534897
 40
0.5010115979579695
 40
0.7501837274075686
 40
0.8044305072990438
 40
0.8751835995862693
 40
0.9517274721215107
 40
1.0
 40
1.0
 40
1.0
 40
1.0
 10
5.519731199678583
 20
4.867211735916535
 30
0.0
 10
5.519826100351308
 20
4.867070556997171
 30
0.0
 10
5.520017282678448
 20
4.866786144742002
 30
0.0
 10
5.520349558594341
 20
4.866329323978862
 30
0.0
 10
5.520714986151198
 20
4.865849664517041
 30
0.0
 10
5.521225862197445
 20
4.865207411886483
 30
0.0
 10
5.521920708684514
 20
4.864375709397474
 30
0.0
 10
5.52304644293093
 20
4.863095976846302
 30
0.0
 10
5.524577213422921
 20
4.861462562792992
 30
0.0
 10
5.527014897069778
 20
4.859030199574156
 30
0.0
 10
5.529068522048748
 20
4.857111944361696
 30
0.0
 10
5.53071747351189
 20
4.855634751620971
 30
0.0
 10
5.53158629707985
 20
4.854877524842764
 30
0.0
 10
5.532407587939748
 20
4.854186393460391
 30
0.0
 10
5.532914973774233
 20
4.853778768029373
 30
0.0
 10
5.548551081844026
 20
4.847285904804885
 30
0.0
  0
ARC
  5
118
330
2
100
AcDbEntity
  8
0
  6
Continuous
 62
     7
370
    20
100
AcDbCircle
 10
5.634767241955549
 20
4.722345462595454
 30
0.0
 40
0.0014090120959318
100
AcDbArc
 50
3.569954145499815
 51
54.45255609090024
  0
LINE
  5
119
330
2
100
AcDbEntity
  8
0
  6
Continuous
 62
     7
370
    20
100
AcDbLine
 10
5.706170105007949
 20
4.522719936454752
 30
0.0
 11
5.706406618370749
 21
4.522418783074753
 31
0.0
  0
SPLINE
  5
11A
330
2
100
AcDbEntity
  8
0
  6
Continuous
 62
     7
370
    20
100
AcDbSpline
210
0.0
220
0.0
230
1.0
 70
     8
 71
     3
 72
     9
 73
     5
 74
     0
 42
0.000000001
 43
0.0000000001
 40
0.0
 40
0.0
 40
0.0
 40
0.0
 40
0.010469704991314
 40
1.0
 40
1.0
 40
1.0
 40
1.0
 10
5.709823162029105
 20
4.486769048544443
 30
0.0
 10
5.709823784146337
 20
4.486770938995876
 30
0.0
 10
5.709883204849348
 20
4.486951502959591
 30
0.0
 10
5.709728413982042
 20
4.48711925426307
 30
0.0
 10
5.709575243729455
 20
4.48728524925989
 30
0.0
  0
SPLINE
  5
11B
330
2
100
AcDbEntity
  8
0
  6
Continuous
 62
     7
370
    20
100
AcDbSpline
210
0.0
220
0.0
230
1.0
 70
     8
 71
     3
 72
    12
 73
     8
 74
     0
 42
0.000000001
 43
0.0000000001
 40
0.0
 40
0.0
 40
0.0
 40
0.0
 40
0.1999981289724879
 40
0.4000003160904155
 40
0.5999997973553067
 40
0.8000016095335876
 40
1.0
 40
1.0
 40
1.0
 40
1.0
 10
5.707601188638317
 20
4.510820796102533
 30
0.0
 10
5.707656487848895
 20
4.510771761657998
 30
0.0
 10
5.707767087392119
 20
4.510673691773977
 30
0.0
 10
5.707846705953508
 20
4.510513643299674
 30
0.0
 10
5.707860314232634
 20
4.510346171126133
 30
0.0
 10
5.707807832710384
 20
4.510172254811251
 30
0.0
 10
5.707714907061836
 20
4.510052819254378
 30
0.0
 10
5.707668444635014
 20
4.509993101986783
 30
0.0
  0
SPLINE
  5
11C
330
2
100
AcDbEntity
  8
0
  6
Continuous
 62
     7
370
    20
100
AcDbSpline
210
0.0
220
0.0
230
1.0
 70
     8
 71
     3
 72
    37
 73
    33
 74
     0
 42
0.000000001
 43
0.0000000001
 40
0.0
 40
0.0
 40
0.0
 40
0.0
 40
0.0196037415794224
 40
0.039207703720064
 40
0.0588118795864393
 40
0.0784163518105728
 40
0.0980211476711467
 40
0.1176262213732121
 40
0.1372315054677767
 40
0.1568369622985925
 40
0.1764426356029644
 40
0.1960486550188298
 40
0.2156550969703264
 40
0.2352619494026033
 40
0.2548690110927625
 40
0.2744760453970059
 40
0.2940829026348425
 40
0.3136894630515228
 40
0.3332955130904154
 40
0.4169576396739773
 40
0.5006216880045092
 40
0.5842859544943964
 40
0.6679520542524112
 40
0.7048489525526859
 40
0.7417428209244063
 40
0.7786336066583278
 40
0.8155234096282802
 40
0.8524160810181179
 40
0.889317246832512
 40
0.9262254525714423
 40
0.9631250952067066
 40
1.0
 40
1.0
 40
1.0
 40
1.0
 10
5.476976322832192
 20
4.450518202120997
 30
0.0
 10
5.47668740264484
 20
4.450870811221818
 30
0.0
 10
5.476109559019496
 20
4.451576033390654
 30
0.0
 10
5.475210157057535
 20
4.452564115468268
 30
0.0
 10
5.47428803897414
 20
4.453499772572135
 30
0.0
 10
5.473341762632356
 20
4.454377133530433
 30
0.0
 10
5.472372984918814
 20
4.455196825464727
 30
0.0
 10
5.471382534985078
 20
4.455957769683848
 30
0.0
 10
5.470371464237863
 20
4.45665935519783
 30
0.0
 10
5.469340765419679
 20
4.457300869037426
 30
0.0
 10
5.468291446121842
 20
4.457881599013832
 30
0.0
 10
5.467224523238751
 20
4.458401028946644
 30
0.0
 10
5.466141018891211
 20
4.458858853875565
 30
0.0
 10
5.46504195391372
 20
4.459254735628295
 30
0.0
 10
5.463928355671292
 20
4.459588355790602
 30
0.0
 10
5.462801249872039
 20
4.459859414762811
 30
0.0
 10
5.461661682598886
 20
4.460067582281688
 30
0.0
 10
5.46051063482592
 20
4.460212763430446
 30
0.0
 10
5.458084547888709
 20
4.460384712049739
 30
0.0
 10
5.454310025668472
 20
4.460119688203768
 30
0.0
 10
5.449149659942547
 20
4.458617712301109
 30
0.0
 10
5.443969762435357
 20
4.456016666362334
 30
0.0
 10
5.439794361294985
 20
4.453053154637603
 30
0.0
 10
5.436633046984333
 20
4.450325011441739
 30
0.0
 10
5.434439347468067
 20
4.448224472442398
 30
0.0
 10
5.432280118225808
 20
4.445949211795342
 30
0.0
 10
5.430160149030464
 20
4.443508291545011
 30
0.0
 10
5.428084733524219
 20
4.440909594839965
 30
0.0
 10
5.426058782994742
 20
4.438161704335646
 30
0.0
 10
5.424089651754962
 20
4.435271323807784
 30
0.0
 10
5.422176372189825
 20
4.432259822378188
 30
0.0
 10
5.420957514920362
 20
4.430153155176361
 30
0.0
 10
5.420348290637265
 20
4.429100174775854
 30
0.0
  0
LINE
  5
11D
330
2
100
AcDbEntity
  8
0
  6
Continuous
 62
     7
370
    20
100
AcDbLine
 10
5.420278371499249
 20
4.428981978531252
 30
0.0
 11
5.42034826151285
 21
4.429100204697553
 31
0.0
  0
LINE
  5
11E
330
2
100
AcDbEntity
  8
0
  6
Continuous
 62
     7
370
    20
100
AcDbLine
 10
5.42018702769065
 20
4.428816133322053
 30
0.0
 11
5.420278371499249
 21
4.428981978531252
 31
0.0
  0
LINE
  5
11F
330
2
100
AcDbEntity
  8
0
  6
Continuous
 62
     7
370
    20
100
AcDbLine
 10
5.420050724781049
 20
4.428583013758452
 30
0.0
 11
5.42018702769065
 21
4.428816133322053
 31
0.0
  0
LINE
  5
120
330
2
100
AcDbEntity
  8
0
  6
Continuous
 62
     7
370
    20
100
AcDbLine
 10
5.419954617323449
 20
4.428413052822252
 30
0.0
 11
5.420050724781049
 21
4.428583013758452
 31
0.0
  0
LINE
  5
121
330
2
100
AcDbEntity
  8
0
  6
Continuous
 62
     7
370
    20
100
AcDbLine
 10
5.419782082875649
 20
4.428104870834952
 30
0.0
 11
5.419954617323449
 21
4.428413052822252
 31
0.0
  0
LINE
  5
122
330
2
100
AcDbEntity
  8
0
  6
Continuous
 62
     7
370
    20
100
AcDbLine
 10
5.419643589386449
 20
4.427857377715453
 30
0.0
 11
5.419782082875649
 21
4.428104870834952
 31
0.0
  0
LINE
  5
123
330
2
100
AcDbEntity
  8
0
  6
Continuous
 62
     7
370
    20
100
AcDbLine
 10
5.419520221344949
 20
4.427651259844153
 30
0.0
 11
5.419643589386449
 21
4.427857377715453
 31
0.0
  0
LINE
  5
124
330
2
100
AcDbEntity
  8
0
  6
Continuous
 62
     7
370
    20
100
AcDbLine
 10
5.419448140751749
 20
4.427524983634753
 30
0.0
 11
5.419520221344949
 21
4.427651259844153
 31
0.0
  0
LINE
  5
125
330
2
100
AcDbEntity
  8
0
  6
Continuous
 62
     7
370
    20
100
AcDbLine
 10
5.41938217987985
 20
4.427408986212553
 30
0.0
 11
5.419448140751749
 21
4.427524983634753
 31
0.0
  0
LINE
  5
126
330
2
100
AcDbEntity
  8
0
  6
Continuous
 62
     7
370
    20
100
AcDbLine
 10
5.419276197416449
 20
4.427227862937253
 30
0.0
 11
5.41938217987985
 21
4.427408986212553
 31
0.0
  0
LINE
  5
127
330
2
100
AcDbEntity
  8
0
  6
Continuous
 62
     7
370
    20
100
AcDbLine
 10
5.419152307806649
 20
4.427013715228753
 30
0.0
 11
5.419276197416449
 21
4.427227862937253
 31
0.0
  0
LINE
  5
128
330
2
100
AcDbEntity
  8
0
  6
Continuous
 62
     7
370
    20
100
AcDbLine
 10
5.419018647507349
 20
4.426780355207353
 30
0.0
 11
5.419152307806649
 21
4.427013715228753
 31
0.0
  0
LINE
  5
129
330
2
100
AcDbEntity
  8
0
  6
Continuous
 62
     7
370
    20
100
AcDbLine
 10
5.418909187926349
 20
4.426591001062153
 30
0.0
 11
5.419018647507349
 21
4.426780355207353
 31
0.0
  0
LINE
  5
12A
330
2
100
AcDbEntity
  8
0
  6
Continuous
 62
     7
370
    20
100
AcDbLine
 10
5.418829144740048
 20
4.426450571548753
 30
0.0
 11
5.418909187926349
 21
4.426591001062153
 31
0.0
  0
LINE
  5
12B
330
2
100
AcDbEntity
  8
0
  6
Continuous
 62
     7
370
    20
100
AcDbLine
 10
5.418714191315749
 20
4.426246361697852
 30
0.0
 11
5.418829144740048
 21
4.426450571548753
 31
0.0
  0
LINE
  5
12C
330
2
100
AcDbEntity
  8
0
  6
Continuous
 62
     7
370
    20
100
AcDbLine
 10
5.418640998045049
 20
4.426121731577953
 30
0.0
 11
5.418714191315749
 21
4.426246361697852
 31
0.0
  0
LINE
  5
12D
330
2
100
AcDbEntity
  8
0
  6
Continuous
 62
     7
370
    20
100
AcDbLine
 10
5.418568430655649
 20
4.425994050179053
 30
0.0
 11
5.418640998045049
 21
4.426121731577953
 31
0.0
  0
SPLINE
  5
12E
330
2
100
AcDbEntity
  8
0
  6
Continuous
 62
     7
370
    20
100
AcDbSpline
210
0.0
220
0.0
230
1.0
 70
     8
 71
     3
 72
    29
 73
    25
 74
     0
 42
0.000000001
 43
0.0000000001
 40
0.0
 40
0.0
 40
0.0
 40
0.0
 40
0.0180289736281462
 40
0.0362507534833534
 40
0.0546676010151135
 40
0.0732817065760527
 40
0.092095191621857
 40
0.1111101108752455
 40
0.1303284544502328
 40
0.1497521499335563
 40
0.169383064420679
 40
0.1892230065043096
 40
0.2092737282138169
 40
0.2295369269043412
 40
0.2500142470947476
 40
0.3730646914520125
 40
0.5000048413350098
 40
0.6280164748427552
 40
0.7500023091440747
 40
0.8126377602920193
 40
0.8749857419600655
 40
0.9147658632603583
 40
0.9564344402524254
 40
1.0
 40
1.0
 40
1.0
 40
1.0
 10
5.37502653914912
 20
4.477597522508879
 30
0.0
 10
5.37581854709133
 20
4.479080703194279
 30
0.0
 10
5.377411032901231
 20
4.482062926059908
 30
0.0
 10
5.379751011560207
 20
4.486574414351531
 30
0.0
 10
5.382071517562483
 20
4.491143640894462
 30
0.0
 10
5.384368011746209
 20
4.495771699400538
 30
0.0
 10
5.38664173059464
 20
4.500458292464927
 30
0.0
 10
5.388892338179492
 20
4.505203501432299
 30
0.0
 10
5.39111992626297
 20
4.510007304541248
 30
0.0
 10
5.393324471567425
 20
4.514869708074348
 30
0.0
 10
5.395505976648694
 20
4.519790710794181
 30
0.0
 10
5.397664457675054
 20
4.524770313075743
 30
0.0
 10
5.399799848670142
 20
4.52980851649861
 30
0.0
 10
5.401912403285805
 20
4.534905316070476
 30
0.0
 10
5.407481340865936
 20
4.548650419934134
 30
0.0
 10
5.416037060359962
 20
4.571412055553935
 30
0.0
 10
5.426550039902907
 20
4.603287119622667
 30
0.0
 10
5.435715809895115
 20
4.635078151710972
 30
0.0
 10
5.442117148389444
 20
4.66140487070648
 30
0.0
 10
5.44632649826433
 20
4.682131111168496
 30
0.0
 10
5.448724713693861
 20
4.695914669394523
 30
0.0
 10
5.450529225738956
 20
4.707904902554856
 30
0.0
 10
5.451943513296809
 20
4.718306267879635
 30
0.0
 10
5.452779106323443
 20
4.725376743661107
 30
0.0
 10
5.453206201373845
 20
4.728990662296107
 30
0.0
  0
SPLINE
  5
12F
330
2
100
AcDbEntity
  8
0
  6
Continuous
 62
     7
370
    20
100
AcDbSpline
210
0.0
220
0.0
230
1.0
 70
     8
 71
     3
 72
    23
 73
    19
 74
     0
 42
0.000000001
 43
0.0000000001
 40
0.0
 40
0.0
 40
0.0
 40
0.0
 40
0.0645674427304298
 40
0.126869628639263
 40
0.1869108505289119
 40
0.2446959050992521
 40
0.3002301736737462
 40
0.3535197194517194
 40
0.4045714054283194
 40
0.4533930383546745
 40
0.499993545764465
 40
0.5795451944967894
 40
0.6628685658208453
 40
0.7499976169649329
 40
0.8124983157397329
 40
0.8749988084824671
 40
0.9374993012252003
 40
1.0
 40
1.0
 40
1.0
 40
1.0
 10
5.45321125800857
 20
4.728990966396064
 30
0.0
 10
5.453495745771421
 20
4.731521939251265
 30
0.0
 10
5.4540547404489
 20
4.736495089381679
 30
0.0
 10
5.454799777116964
 20
4.743807768564626
 30
0.0
 10
5.455456324750749
 20
4.750843514574515
 30
0.0
 10
5.456019335411363
 20
4.757601461717543
 30
0.0
 10
5.456490085948813
 20
4.76408183807082
 30
0.0
 10
5.456868321862287
 20
4.770284614940216
 30
0.0
 10
5.457153938625793
 20
4.776209770192505
 30
0.0
 10
5.457347631788834
 20
4.781857499274662
 30
0.0
 10
5.457471971571012
 20
4.788577651270998
 30
0.0
 10
5.457443906808594
 20
4.796576784513343
 30
0.0
 10
5.457195317480725
 20
4.80606290813867
 30
0.0
 10
5.456756441458881
 20
4.814839760424512
 30
0.0
 10
5.456271596588779
 20
4.822804920632028
 30
0.0
 10
5.455841352827148
 20
4.829844807516627
 30
0.0
 10
5.455394255827365
 20
4.836879317891557
 30
0.0
 10
5.455084581996036
 20
4.84156526563224
 30
0.0
 10
5.454929744825164
 20
4.843908243364367
 30
0.0
  0
SPLINE
  5
130
330
2
100
AcDbEntity
  8
0
  6
Continuous
 62
     7
370
    20
100
AcDbSpline
210
0.0
220
0.0
230
1.0
 70
     8
 71
     3
 72
    18
 73
    14
 74
     0
 42
0.000000001
 43
0.0000000001
 40
0.0
 40
0.0
 40
0.0
 40
0.0
 40
0.0503186931177407
 40
0.1001932201253464
 40
0.1499319042201918
 40
0.1998455860203472
 40
0.2502418681283706
 40
0.3750859328192176
 40
0.5001639893024447
 40
0.6250167098520322
 40
0.7500922083015703
 40
0.8749962018902525
 40
1.0
 40
1.0
 40
1.0
 40
1.0
 10
5.364440109723813
 20
4.472786169518791
 30
0.0
 10
5.364593517686188
 20
4.47272781085851
 30
0.0
 10
5.364898979469691
 20
4.472611608673327
 30
0.0
 10
5.365386814897974
 20
4.472487707246891
 30
0.0
 10
5.365892469033258
 20
4.472402482665646
 30
0.0
 10
5.366418317650341
 20
4.472359423138478
 30
0.0
 10
5.367228304708205
 20
4.472356328793085
 30
0.0
 10
5.368350102921088
 20
4.472494471130049
 30
0.0
 10
5.369765349124506
 20
4.47292778990303
 30
0.0
 10
5.371146362097525
 20
4.473591973972058
 30
0.0
 10
5.372429081007673
 20
4.474476104687355
 30
0.0
 10
5.373591432697953
 20
4.475527685297978
 30
0.0
 10
5.374200343437103
 20
4.476339221958658
 30
0.0
 10
5.374504920395615
 20
4.476745152338823
 30
0.0
  0
SPLINE
  5
131
330
2
100
AcDbEntity
  8
0
  6
Continuous
 62
     7
370
    20
100
AcDbSpline
210
0.0
220
0.0
230
1.0
 70
     8
 71
     3
 72
    21
 73
    17
 74
     0
 42
0.000000001
 43
0.0000000001
 40
0.0
 40
0.0
 40
0.0
 40
0.0
 40
0.0599806238013809
 40
0.119961368327835
 40
0.1799420616317884
 40
0.2399225525533144
 40
0.2999027195647302
 40
0.3598824792245717
 40
0.419861795570944
 40
0.4798407759031997
 40
0.5398197258857264
 40
0.5997990226359279
 40
0.6998484736805614
 40
0.7998989668528793
 40
0.8999496614901483
 40
1.0
 40
1.0
 40
1.0
 40
1.0
 10
5.408197437991887
 20
4.421354279829708
 30
0.0
 10
5.408379055447721
 20
4.421288086647308
 30
0.0
 10
5.408742290724941
 20
4.421155700149277
 30
0.0
 10
5.409330874172576
 20
4.421029880673268
 30
0.0
 10
5.409944959793553
 20
4.420958917948785
 30
0.0
 10
5.410582591089037
 20
4.42094854174297
 30
0.0
 10
5.411237184508689
 20
4.42099748020121
 30
0.0
 10
5.411903191011952
 20
4.421105665190431
 30
0.0
 10
5.412574653847214
 20
4.421272038760401
 30
0.0
 10
5.413245628861616
 20
4.421495144690448
 30
0.0
 10
5.413910250075056
 20
4.42177302446654
 30
0.0
 10
5.414707570244101
 20
4.422176640740302
 30
0.0
 10
5.415616911991532
 20
4.422749437202952
 30
0.0
 10
5.416586942198507
 20
4.423532873400069
 30
0.0
 10
5.417466951889594
 20
4.424414496726972
 30
0.0
 10
5.417947478320852
 20
4.425065910553811
 30
0.0
 10
5.418187741108873
 20
4.425391616887558
 30
0.0
  0
SPLINE
  5
132
330
2
100
AcDbEntity
  8
0
  6
Continuous
 62
     7
370
    20
100
AcDbSpline
210
0.0
220
0.0
230
1.0
 70
     8
 71
     3
 72
    16
 73
    12
 74
     0
 42
0.000000001
 43
0.0000000001
 40
0.0
 40
0.0
 40
0.0
 40
0.0
 40
0.1111285063668709
 40
0.2222439669511977
 40
0.3333501081811986
 40
0.444450657422814
 40
0.5555493426048348
 40
0.6666498918436857
 40
0.7777560330681516
 40
0.8888714936441868
 40
1.0
 40
1.0
 40
1.0
 40
1.0
 10
5.408198072711858
 20
4.421353999062697
 30
0.0
 10
5.406638239778025
 20
4.423235298486392
 30
0.0
 10
5.403518757024871
 20
4.426997676481157
 30
0.0
 10
5.398784103231182
 20
4.432663124071699
 30
0.0
 10
5.394009292593239
 20
4.438344075564085
 30
0.0
 10
5.389190339561978
 20
4.444042126726658
 30
0.0
 10
5.384328242836408
 20
4.449756875818545
 30
0.0
 10
5.379422992846683
 20
4.455488334087824
 30
0.0
 10
5.374473629273803
 20
4.461236858164776
 30
0.0
 10
5.369484003469358
 20
4.467001010012356
 30
0.0
 10
5.36612134829004
 20
4.470857524432521
 30
0.0
 10
5.364439922006005
 20
4.47278589483181
 30
0.0
  0
SPLINE
  5
133
330
2
100
AcDbEntity
  8
0
  6
Continuous
 62
     7
370
    20
100
AcDbSpline
210
0.0
220
0.0
230
1.0
 70
     8
 71
     3
 72
    16
 73
    12
 74
     0
 42
0.000000001
 43
0.0000000001
 40
0.0
 40
0.0
 40
0.0
 40
0.0
 40
0.1111117146832404
 40
0.222222932556916
 40
0.3333339580059476
 40
0.4444449793632553
 40
0.5555560817662532
 40
0.6666672586387833
 40
0.7777784218756171
 40
0.8888894108045032
 40
1.0
 40
1.0
 40
1.0
 40
1.0
 10
5.474469602125722
 20
4.356788536906435
 30
0.0
 10
5.475914360177561
 20
4.354967427833194
 30
0.0
 10
5.478803869821344
 20
4.351325217829371
 30
0.0
 10
5.483074870488758
 20
4.345888442822002
 30
0.0
 10
5.487301185978895
 20
4.340470888024041
 30
0.0
 10
5.491479465898358
 20
4.335074265060312
 30
0.0
 10
5.4956121189839
 20
4.329697891400187
 30
0.0
 10
5.499700281524225
 20
4.324341569990881
 30
0.0
 10
5.503744244390382
 20
4.31900551630769
 30
0.0
 10
5.507748780610464
 20
4.313687771316672
 30
0.0
 10
5.510383875377482
 20
4.310158996683398
 30
0.0
 10
5.511701420390978
 20
4.308394612540549
 30
0.0
  0
LINE
  5
134
330
2
100
AcDbEntity
  8
0
  6
Continuous
 62
     7
370
    20
100
AcDbLine
 10
5.474553633162949
 20
4.356934564871053
 30
0.0
 11
5.474469521749849
 21
4.356788534185152
 31
0.0
  0
LINE
  5
135
330
2
100
AcDbEntity
  8
0
  6
Continuous
 62
     7
370
    20
100
AcDbLine
 10
5.474644837886449
 20
4.357088465499253
 30
0.0
 11
5.474553633162949
 21
4.356934564871053
 31
0.0
  0
LINE
  5
136
330
2
100
AcDbEntity
  8
0
  6
Continuous
 62
     7
370
    20
100
AcDbLine
 10
5.474722238469049
 20
4.357228653822253
 30
0.0
 11
5.474644837886449
 21
4.357088465499253
 31
0.0
  0
LINE
  5
137
330
2
100
AcDbEntity
  8
0
  6
Continuous
 62
     7
370
    20
100
AcDbLine
 10
5.474783018436649
 20
4.357332806683153
 30
0.0
 11
5.474722238469049
 21
4.357228653822253
 31
0.0
  0
LINE
  5
138
330
2
100
AcDbEntity
  8
0
  6
Continuous
 62
     7
370
    20
100
AcDbLine
 10
5.474863096398348
 20
4.357470827255953
 30
0.0
 11
5.474783018436649
 21
4.357332806683153
 31
0.0
  0
LINE
  5
139
330
2
100
AcDbEntity
  8
0
  6
Continuous
 62
     7
370
    20
100
AcDbLine
 10
5.475039838151449
 20
4.357771180372752
 30
0.0
 11
5.474863096398348
 21
4.357470827255953
 31
0.0
  0
LINE
  5
13A
330
2
100
AcDbEntity
  8
0
  6
Continuous
 62
     7
370
    20
100
AcDbLine
 10
5.475181773986149
 20
4.358012229803353
 30
0.0
 11
5.475039838151449
 21
4.357771180372752
 31
0.0
  0
LINE
  5
13B
330
2
100
AcDbEntity
  8
0
  6
Continuous
 62
     7
370
    20
100
AcDbLine
 10
5.475299613415549
 20
4.358225513703853
 30
0.0
 11
5.475181773986149
 21
4.358012229803353
 31
0.0
  0
LINE
  5
13C
330
2
100
AcDbEntity
  8
0
  6
Continuous
 62
     7
370
    20
100
AcDbLine
 10
5.475349962040249
 20
4.358312521903153
 30
0.0
 11
5.475299613415549
 21
4.358225513703853
 31
0.0
  0
LINE
  5
13D
330
2
100
AcDbEntity
  8
0
  6
Continuous
 62
     7
370
    20
100
AcDbLine
 10
5.475424650468349
 20
4.358441689107253
 30
0.0
 11
5.475349962040249
 21
4.358312521903153
 31
0.0
  0
LINE
  5
13E
330
2
100
AcDbEntity
  8
0
  6
Continuous
 62
     7
370
    20
100
AcDbLine
 10
5.475542802836749
 20
4.358650717291453
 30
0.0
 11
5.475424650468349
 21
4.358441689107253
 31
0.0
  0
LINE
  5
13F
330
2
100
AcDbEntity
  8
0
  6
Continuous
 62
     7
370
    20
100
AcDbLine
 10
5.475666101334049
 20
4.358866611501852
 30
0.0
 11
5.475542802836749
 21
4.358650717291453
 31
0.0
  0
LINE
  5
140
330
2
100
AcDbEntity
  8
0
  6
Continuous
 62
     7
370
    20
100
AcDbLine
 10
5.475800769997849
 20
4.359100513772652
 30
0.0
 11
5.475666101334049
 21
4.358866611501852
 31
0.0
  0
LINE
  5
141
330
2
100
AcDbEntity
  8
0
  6
Continuous
 62
     7
370
    20
100
AcDbLine
 10
5.475909951411949
 20
4.359291975872054
 30
0.0
 11
5.475800769997849
 21
4.359100513772652
 31
0.0
  0
LINE
  5
142
330
2
100
AcDbEntity
  8
0
  6
Continuous
 62
     7
370
    20
100
AcDbLine
 10
5.475991037731549
 20
4.359432305243653
 30
0.0
 11
5.475909951411949
 21
4.359291975872054
 31
0.0
  0
LINE
  5
143
330
2
100
AcDbEntity
  8
0
  6
Continuous
 62
     7
370
    20
100
AcDbLine
 10
5.476109224872049
 20
4.359634407806953
 30
0.0
 11
5.475991037731549
 21
4.359432305243653
 31
0.0
  0
LINE
  5
144
330
2
100
AcDbEntity
  8
0
  6
Continuous
 62
     7
370
    20
100
AcDbLine
 10
5.476181062067149
 20
4.359761928690552
 30
0.0
 11
5.476109224872049
 21
4.359634407806953
 31
0.0
  0
LINE
  5
145
330
2
100
AcDbEntity
  8
0
  6
Continuous
 62
     7
370
    20
100
AcDbLine
 10
5.476254429195049
 20
4.359888466085052
 30
0.0
 11
5.476181062067149
 21
4.359761928690552
 31
0.0
  0
SPLINE
  5
146
330
2
100
AcDbEntity
  8
0
  6
Continuous
 62
     7
370
    20
100
AcDbSpline
210
0.0
220
0.0
230
1.0
 70
     8
 71
     3
 72
    37
 73
    33
 74
     0
 42
0.000000001
 43
0.0000000001
 40
0.0
 40
0.0
 40
0.0
 40
0.0
 40
0.0195113891168791
 40
0.039020697995411
 40
0.0585290105322667
 40
0.0780370714913407
 40
0.0975453400682758
 40
0.1170540372230718
 40
0.1365631884942864
 40
0.1560726965246303
 40
0.1755824008453363
 40
0.1950921346835272
 40
0.2146017823292997
 40
0.2341113617851132
 40
0.25362112678216
 40
0.2731312289784774
 40
0.2926416284729442
 40
0.3121521514483175
 40
0.3316625487531284
 40
0.4148962381810988
 40
0.4981240042171908
 40
0.5813635616087804
 40
0.6645964142925477
 40
0.7018610096799761
 40
0.7391271371089427
 40
0.7763944373181153
 40
0.813661799963606
 40
0.850928951452725
 40
0.8881954232356909
 40
0.9254612236015184
 40
0.9627279912447402
 40
1.0
 40
1.0
 40
1.0
 40
1.0
 10
5.476976324596197
 20
4.450518201943158
 30
0.0
 10
5.477264339947487
 20
4.450157179454883
 30
0.0
 10
5.477840339942843
 20
4.44943517296933
 30
0.0
 10
5.478669882329332
 20
4.448284097731969
 30
0.0
 10
5.479473376543594
 20
4.447085074083264
 30
0.0
 10
5.480247808156479
 20
4.445834505135794
 30
0.0
 10
5.480993225997458
 20
4.444535128562544
 30
0.0
 10
5.481708843032991
 20
4.443187989123992
 30
0.0
 10
5.482394084054186
 20
4.441794588747058
 30
0.0
 10
5.483048302251639
 20
4.440356310819222
 30
0.0
 10
5.483670855688509
 20
4.438874574978484
 30
0.0
 10
5.484261084293884
 20
4.437350792236986
 30
0.0
 10
5.484818326333021
 20
4.435786388022183
 30
0.0
 10
5.485341877064306
 20
4.434182749941829
 30
0.0
 10
5.485831256091308
 20
4.432541560645836
 30
0.0
 10
5.486286046487397
 20
4.430864557913425
 30
0.0
 10
5.486705799892961
 20
4.429153482739732
 30
0.0
 10
5.487090084130657
 20
4.427409990312625
 30
0.0
 10
5.487817566601861
 20
4.423704798600868
 30
0.0
 10
5.488621192676341
 20
4.417819705677739
 30
0.0
 10
5.489001204855821
 20
4.409531163441801
 30
0.0
 10
5.488672348961838
 20
4.401004868942369
 30
0.0
 10
5.48782238234797
 20
4.393972860587006
 30
0.0
 10
5.486834442261057
 20
4.388560222290468
 30
0.0
 10
5.485991375938778
 20
4.384749520509154
 30
0.0
 10
5.485007187077354
 20
4.380977499246656
 30
0.0
 10
5.483883841807272
 20
4.377256917604755
 30
0.0
 10
5.482623721490437
 20
4.373600720257635
 30
0.0
 10
5.481230313564198
 20
4.370020577318172
 30
0.0
 10
5.47970356620748
 20
4.366532068155024
 30
0.0
 10
5.4780575012127
 20
4.363136013107423
 30
0.0
 10
5.476855444464686
 20
4.360971046360743
 30
0.0
 10
5.476254373830035
 20
4.359888486873778
 30
0.0
  0
SPLINE
  5
147
330
2
100
AcDbEntity
  8
0
  6
Continuous
 62
     7
370
    20
100
AcDbSpline
210
0.0
220
0.0
230
1.0
 70
     8
 71
     3
 72
    31
 73
    27
 74
     0
 42
0.000000001
 43
0.0000000001
 40
0.0
 40
0.0
 40
0.0
 40
0.0
 40
0.0190204988238777
 40
0.0380402472235602
 40
0.0570595822723034
 40
0.0760786160753278
 40
0.0950975865719895
 40
0.1141167247878178
 40
0.1331360894596628
 40
0.1521555683622208
 40
0.1711748812317643
 40
0.1901937760749001
 40
0.2092125490801294
 40
0.2282315043300508
 40
0.2472507961894511
 40
0.2662704341216436
 40
0.3457940430673133
 40
0.4253149381128828
 40
0.504839257271985
 40
0.5843620313910714
 40
0.6864748083897858
 40
0.7885893458424423
 40
0.8907001308316221
 40
0.9271603234149567
 40
0.9636019990850762
 40
1.0
 40
1.0
 40
1.0
 40
1.0
 10
5.511701420390978
 20
4.308394612540549
 30
0.0
 10
5.512536539387925
 20
4.309959671732216
 30
0.0
 10
5.514206744433499
 20
4.313089728368572
 30
0.0
 10
5.516645162181789
 20
4.317799499618988
 30
0.0
 10
5.519036232527704
 20
4.322518951581857
 30
0.0
 10
5.521376515797869
 20
4.327248566719672
 30
0.0
 10
5.523668449432647
 20
4.331987320076168
 30
0.0
 10
5.525912749416546
 20
4.336734562713942
 30
0.0
 10
5.528110627688247
 20
4.341489563065202
 30
0.0
 10
5.530263187656012
 20
4.346251609494751
 30
0.0
 10
5.532371590184498
 20
4.351019995797537
 30
0.0
 10
5.534437035025367
 20
4.355794086268993
 30
0.0
 10
5.536460813318107
 20
4.36057327804737
 30
0.0
 10
5.538444241805224
 20
4.365357027794781
 30
0.0
 10
5.540388685577678
 20
4.370144845950346
 30
0.0
 10
5.544317179090054
 20
4.380016584691183
 30
0.0
 10
5.549976244706361
 20
4.394995474866798
 30
0.0
 10
5.556988193001382
 20
4.41509924513236
 30
0.0
 10
5.563440989276145
 20
4.435214977376093
 30
0.0
 10
5.569911391619668
 20
4.457240198291235
 30
0.0
 10
5.576211525727236
 20
4.481154966062054
 30
0.0
 10
5.581968339299919
 20
4.506910659577922
 30
0.0
 10
5.585492932916054
 20
4.527062617784853
 30
0.0
 10
5.587617813435477
 20
4.541631234978204
 30
0.0
 10
5.588823965266037
 20
4.550716991967772
 30
0.0
 10
5.589528721619772
 20
4.556765299391958
 30
0.0
 10
5.589880888510271
 20
4.559787639817951
 30
0.0
  0
SPLINE
  5
148
330
2
100
AcDbEntity
  8
0
  6
Continuous
 62
     7
370
    20
100
AcDbSpline
210
0.0
220
0.0
230
1.0
 70
     8
 71
     3
 72
    23
 73
    19
 74
     0
 42
0.000000001
 43
0.0000000001
 40
0.0
 40
0.0
 40
0.0
 40
0.0
 40
0.0795694506188544
 40
0.1591405896790386
 40
0.2387105589935942
 40
0.3182810759609543
 40
0.4594969615885429
 40
0.6007115091813333
 40
0.6848593370936863
 40
0.769007162017032
 40
0.853154878549579
 40
0.874130914459468
 40
0.8951069089315517
 40
0.9160835230249332
 40
0.9370617392781635
 40
0.9580404525808939
 40
0.9790158515969235
 40
1.0
 40
1.0
 40
1.0
 40
1.0
 10
5.589886045306775
 20
4.559787819690949
 30
0.0
 10
5.590238635770544
 20
4.562907164194689
 30
0.0
 10
5.590943824179958
 20
4.569145919393781
 30
0.0
 10
5.591892352638907
 20
4.578485641533269
 30
0.0
 10
5.592715199457075
 20
4.587800526097199
 30
0.0
 10
5.593545253792204
 20
4.599479784975193
 30
0.0
 10
5.594149563343786
 20
4.613471100433705
 30
0.0
 10
5.594159418745764
 20
4.627487101262563
 30
0.0
 10
5.593775299493262
 20
4.639211022116175
 30
0.0
 10
5.59326122548513
 20
4.648703826115443
 30
0.0
 10
5.592759350564882
 20
4.655805657768906
 30
0.0
 10
5.592448739892118
 20
4.66051208917421
 30
0.0
 10
5.592295362825977
 20
4.662864507336393
 30
0.0
 10
5.592139997813325
 20
4.665230013217957
 30
0.0
 10
5.591982002768782
 20
4.667608027341623
 30
0.0
 10
5.5918284354505
 20
4.669990446792173
 30
0.0
 10
5.591675401142272
 20
4.672387975749193
 30
0.0
 10
5.591628132858589
 20
4.673932617443927
 30
0.0
 10
5.591604493788569
 20
4.67470509933531
 30
0.0
  0
LINE
  5
149
330
2
100
AcDbEntity
  8
0
  6
Continuous
 62
     7
370
    20
100
AcDbLine
 10
5.474469521749849
 20
4.356788534185152
 30
0.0
 11
5.47441246229135
 21
4.356860314979952
 31
0.0
  0
SPLINE
  5
14A
330
2
100
AcDbEntity
  8
0
  6
Continuous
 62
     7
370
    20
100
AcDbSpline
210
0.0
220
0.0
230
1.0
 70
     8
 71
     3
 72
    14
 73
    10
 74
     0
 42
0.000000001
 43
0.0000000001
 40
0.0
 40
0.0
 40
0.0
 40
0.0
 40
0.1428513852684084
 40
0.2857124497317596
 40
0.4285736872901046
 40
0.5714307863295494
 40
0.7142840640426638
 40
0.8571378753387394
 40
1.0
 40
1.0
 40
1.0
 40
1.0
 10
5.59160468597906
 20
4.674705064364811
 30
0.0
 10
5.591515325187719
 20
4.676623807048612
 30
0.0
 10
5.591336597550204
 20
4.680461422424644
 30
0.0
 10
5.591000326815255
 20
4.686196773178972
 30
0.0
 10
5.590613208266407
 20
4.69191587717696
 30
0.0
 10
5.590170248820194
 20
4.69761662148174
 30
0.0
 10
5.589670979372201
 20
4.703298375446081
 30
0.0
 10
5.589119855382234
 20
4.708962517405689
 30
0.0
 10
5.588705170614156
 20
4.71272209109664
 30
0.0
 10
5.588497822197156
 20
4.71460193263754
 30
0.0
  0
SPLINE
  5
14B
330
2
100
AcDbEntity
  8
0
  6
Continuous
 62
     7
370
    20
100
AcDbSpline
210
0.0
220
0.0
230
1.0
 70
     8
 71
     3
 72
     9
 73
     5
 74
     0
 42
0.000000001
 43
0.0000000001
 40
0.0
 40
0.0
 40
0.0
 40
0.0
 40
0.6291164233816926
 40
1.0
 40
1.0
 40
1.0
 40
1.0
 10
5.588497266164782
 20
4.714606924739758
 30
0.0
 10
5.588251327267371
 20
4.716036264398622
 30
0.0
 10
5.587860399788354
 20
4.718308243965106
 30
0.0
 10
5.586534822707424
 20
4.720020169002031
 30
0.0
 10
5.582782279947249
 20
4.725431899996442
 30
0.0
  0
LINE
  5
14C
330
2
100
AcDbEntity
  8
0
  6
Continuous
 62
     7
370
    20
100
AcDbLine
 10
1.899586564672549
 20
5.561234166704952
 30
0.0
 11
1.899586564672549
 21
5.559827024423353
 31
0.0
  0
SPLINE
  5
14D
330
2
100
AcDbEntity
  8
0
  6
Continuous
 62
     7
370
    20
100
AcDbSpline
210
0.0
220
0.0
230
1.0
 70
     8
 71
     3
 72
    10
 73
     6
 74
     0
 42
0.000000001
 43
0.0000000001
 40
0.0
 40
0.0
 40
0.0
 40
0.0
 40
0.0613314640917372
 40
0.5306694571190299
 40
1.0
 40
1.0
 40
1.0
 40
1.0
 10
3.383941819548029
 20
4.572500360737405
 30
0.0
 10
3.383906742205214
 20
4.5724528264953
 30
0.0
 10
3.383603236088994
 20
4.572041537268372
 30
0.0
 10
3.382464326006354
 20
4.572004770854861
 30
0.0
 10
3.381282357323631
 20
4.572529562223481
 30
0.0
 10
3.38069137767287
 20
4.572791955825175
 30
0.0
  0
SPLINE
  5
14E
330
2
100
AcDbEntity
  8
0
  6
Continuous
 62
     7
370
    20
100
AcDbSpline
210
0.0
220
0.0
230
1.0
 70
     8
 71
     3
 72
    10
 73
     6
 74
     0
 42
0.000000001
 43
0.0000000001
 40
0.0
 40
0.0
 40
0.0
 40
0.0
 40
0.2079507144306556
 40
0.5762878565760581
 40
1.0
 40
1.0
 40
1.0
 40
1.0
 10
3.932457928127246
 20
4.314045274764023
 30
0.0
 10
3.92274199924036
 20
4.324736500478442
 30
0.0
 10
3.907524202992524
 20
4.338583897332764
 30
0.0
 10
3.882445674554876
 20
4.363086776210297
 30
0.0
 10
3.863127958974577
 20
4.382671959519255
 30
0.0
 10
3.852793815855315
 20
4.393149186316101
 30
0.0
  0
SPLINE
  5
14F
330
2
100
AcDbEntity
  8
0
  6
Continuous
 62
     7
370
    20
100
AcDbSpline
210
0.0
220
0.0
230
1.0
 70
     8
 71
     3
 72
     9
 73
     5
 74
     0
 42
0.000000001
 43
0.0000000001
 40
0.0
 40
0.0
 40
0.0
 40
0.0
 40
0.4938261557410812
 40
1.0
 40
1.0
 40
1.0
 40
1.0
 10
1.992820778891858
 20
5.352435671495868
 30
0.0
 10
1.993287470331489
 20
5.352266186087025
 30
0.0
 10
1.994232522419565
 20
5.351922977435815
 30
0.0
 10
1.99544514746843
 20
5.352472369912192
 30
0.0
 10
1.996058946551059
 20
5.352750458013968
 30
0.0
  0
ARC
  5
150
330
2
100
AcDbEntity
  8
0
  6
Continuous
 62
     7
370
    20
100
AcDbCircle
 10
4.726353479179249
 20
5.221647535625653
 30
0.0
 40
0.0028553525694104
100
AcDbArc
 50
197.0511190853
 51
279.898334689
  0
SPLINE
  5
151
330
2
100
AcDbEntity
  8
0
  6
Continuous
 62
     7
370
    20
100
AcDbSpline
210
0.0
220
0.0
230
1.0
 70
     8
 71
     3
 72
    17
 73
    13
 74
     0
 42
0.000000001
 43
0.0000000001
 40
0.0
 40
0.0
 40
0.0
 40
0.0
 40
0.0094020042749428
 40
0.151010516132793
 40
0.2577569574246218
 40
0.3637741787499646
 40
0.4697219116069681
 40
0.5766855234520084
 40
0.6818556204530795
 40
0.7878842899139613
 40
0.8938931208048778
 40
1.0
 40
1.0
 40
1.0
 40
1.0
 10
5.621250611579371
 20
4.140987768827857
 30
0.0
 10
5.620820876628068
 20
4.140310885682235
 30
0.0
 10
5.613918678447881
 20
4.129439110878379
 30
0.0
 10
5.599693153094706
 20
4.11436764248064
 30
0.0
 10
5.579171704914445
 20
4.096732609229857
 30
0.0
 10
5.558546846319437
 20
4.08494042995955
 30
0.0
 10
5.53587017011841
 20
4.077864729997887
 30
0.0
 10
5.511566699970949
 20
4.076470237358599
 30
0.0
 10
5.486303189457871
 20
4.080322838544709
 30
0.0
 10
5.461109969455004
 20
4.088640882705975
 30
0.0
 10
5.43598527418873
 20
4.100131551826488
 30
0.0
 10
5.419623535420344
 20
4.109577281871285
 30
0.0
 10
5.411438884513464
 20
4.114302329989439
 30
0.0
  0
LWPOLYLINE
  5
152
330
2
100
AcDbEntity
  8
0
  6
Continuous
 62
     7
370
    20
100
AcDbPolyline
 90
        9
 70
   128
 43
0.0
 10
4.717740985148449
 20
5.216988829856353
 10
4.719026474566849
 20
5.217145117905853
 10
4.720232894388049
 20
5.217445248767653
 10
4.721312434281349
 20
5.217877399472353
 10
4.722222325735248
 20
5.218424427401053
 10
4.722926511065449
 20
5.219064594166752
 10
4.723397138582148
 20
5.219772627287053
 10
4.723615501403749
 20
5.220520465083253
 10
4.723630348684549
 20
5.220798696349753
  0
ARC
  5
153
330
2
100
AcDbEntity
  8
0
  6
Continuous
 62
     7
370
    20
100
AcDbCircle
 10
3.687029903716549
 20
4.642469476352653
 30
0.0
 40
0.0106709318204387
100
AcDbArc
 50
189.1621198609997
 51
228.8085497326999
  0
ARC
  5
154
330
2
100
AcDbEntity
  8
0
  6
Continuous
 62
     7
370
    20
100
AcDbCircle
 10
3.558968281136449
 20
4.870804440905953
 30
0.0
 40
0.2655515605716036
100
AcDbArc
 50
247.6545467302997
 51
297.1153502375999
  0
SPLINE
  5
155
330
2
100
AcDbEntity
  8
0
  6
Continuous
 62
     7
370
    20
100
AcDbSpline
210
0.0
220
0.0
230
1.0
 70
     8
 71
     3
 72
    11
 73
     7
 74
     0
 42
0.000000001
 43
0.0000000001
 40
0.0
 40
0.0
 40
0.0
 40
0.0
 40
0.0527989496011496
 40
0.5793803334423583
 40
0.8476188534371878
 40
1.0
 40
1.0
 40
1.0
 40
1.0
 10
4.64141097413991
 20
5.431653415073344
 30
0.0
 10
4.641888199013926
 20
5.432265726132513
 30
0.0
 10
4.647124945364444
 20
5.438984817862777
 30
0.0
 10
4.656120221388995
 20
5.446485440760241
 30
0.0
 10
4.667043261262314
 20
5.453536723673025
 30
0.0
 10
4.672487815831301
 20
5.455440645469732
 30
0.0
 10
4.674460256812334
 20
5.456130393975128
 30
0.0
  0
SPLINE
  5
156
330
2
100
AcDbEntity
  8
0
  6
Continuous
 62
     7
370
    20
100
AcDbSpline
210
0.0
220
0.0
230
1.0
 70
     8
 71
     3
 72
     9
 73
     5
 74
     0
 42
0.000000001
 43
0.0000000001
 40
0.0
 40
0.0
 40
0.0
 40
0.0
 40
0.0166152282393654
 40
1.0
 40
1.0
 40
1.0
 40
1.0
 10
5.000691809559134
 20
5.336635631815463
 30
0.0
 10
5.000698917417574
 20
5.336633219230746
 30
0.0
 10
5.001126709220166
 20
5.336488016006182
 30
0.0
 10
5.00139645355081
 20
5.336083802317061
 30
0.0
 10
5.001661716017834
 20
5.335686304730643
 30
0.0
  0
LINE
  5
157
330
2
100
AcDbEntity
  8
0
  6
Continuous
 62
     7
370
    20
100
AcDbLine
 10
5.299290659840149
 20
5.121877823531952
 30
0.0
 11
5.298570410238649
 21
5.122473108132853
 31
0.0
  0
LINE
  5
158
330
2
100
AcDbEntity
  8
0
  6
Continuous
 62
     7
370
    20
100
AcDbLine
 10
5.336325411730549
 20
5.089256303416153
 30
0.0
 11
5.336937523054549
 21
5.088743849716153
 31
0.0
  0
LINE
  5
159
330
2
100
AcDbEntity
  8
0
  6
Continuous
 62
     7
370
    20
100
AcDbLine
 10
5.375733576162946
 20
5.051088440401196
 30
0.0
 11
5.339926903136149
 21
5.085901585241652
 31
0.0
  0
LINE
  5
15A
330
2
100
AcDbEntity
  8
0
  6
Continuous
 62
     7
370
    20
100
AcDbLine
 10
5.563262416978249
 20
4.838168176878554
 30
0.0
 11
5.562767345341849
 21
4.838913520897753
 31
0.0
  0
LINE
  5
15B
330
2
100
AcDbEntity
  8
0
  6
Continuous
 62
     7
370
    20
100
AcDbLine
 10
5.556195424134349
 20
4.847874237469152
 30
0.0
 11
5.55674053145315
 21
4.847079705926953
 31
0.0
  0
SPLINE
  5
15C
330
2
100
AcDbEntity
  8
0
  6
Continuous
 62
     7
370
    20
100
AcDbSpline
210
0.0
220
0.0
230
1.0
 70
     8
 71
     3
 72
     9
 73
     5
 74
     0
 42
0.000000001
 43
0.0000000001
 40
0.0
 40
0.0
 40
0.0
 40
0.0
 40
0.0253978771437099
 40
1.0
 40
1.0
 40
1.0
 40
1.0
 10
5.706406618370294
 20
4.522418783075566
 30
0.0
 10
5.706408799754213
 20
4.522416100409449
 30
0.0
 10
5.706494688189107
 20
4.522310474805289
 30
0.0
 10
5.706353835041221
 20
4.52217557466116
 30
0.0
 10
5.706216559264277
 20
4.522044100694319
 30
0.0
  0
ENDSEC
  0
SECTION
  2
OBJECTS
  0
DICTIONARY
  5
9
330
0
100
AcDbDictionary
281
     1
  3
ACAD_COLOR
350
41
  3
ACAD_GROUP
350
36
  3
ACAD_LAYOUT
350
1E
  3
ACAD_MATERIAL
350
B
  3
ACAD_MLEADERSTYLE
350
44
  3
ACAD_MLINESTYLE
350
37
  3
ACAD_PLOTSETTINGS
350
38
  3
ACAD_PLOTSTYLENAME
350
8
  3
ACAD_SCALELIST
350
42
  3
ACAD_TABLESTYLE
350
43
  3
ACAD_VISUALSTYLE
350
2F
  3
ACDB_RECOMPOSE_DATA
350
169
  3
AcDbVariableDictionary
350
15E
  0
DICTIONARY
  5
3
330
2
100
AcDbDictionary
280
     1
281
     1
  3
ACAD_SORTENTS
360
15D
  0
DICTIONARY
  5
41
102
{ACAD_REACTORS
330
9
102
}
330
9
100
AcDbDictionary
281
     1
  0
DICTIONARY
  5
36
102
{ACAD_REACTORS
330
9
102
}
330
9
100
AcDbDictionary
281
     1
  0
DICTIONARY
  5
1E
102
{ACAD_REACTORS
330
9
102
}
330
9
100
AcDbDictionary
281
     1
  3
Layout1
350
22
  3
Model
350
1D
  0
DICTIONARY
  5
B
102
{ACAD_REACTORS
330
9
102
}
330
9
100
AcDbDictionary
281
     1
  3
ByBlock
350
39
  3
ByLayer
350
14
  3
Global
350
A
  0
DICTIONARY
  5
44
102
{ACAD_REACTORS
330
9
102
}
330
9
100
AcDbDictionary
281
     1
  0
DICTIONARY
  5
37
102
{ACAD_REACTORS
330
9
102
}
330
9
100
AcDbDictionary
281
     1
  3
Standard
350
45
  0
DICTIONARY
  5
38
102
{ACAD_REACTORS
330
9
102
}
330
9
100
AcDbDictionary
281
     1
  0
ACDBDICTIONARYWDFLT
  5
8
102
{ACAD_REACTORS
330
9
102
}
330
9
100
AcDbDictionary
281
     1
  3
Normal
350
7
100
AcDbDictionaryWithDefault
340
7
  0
DICTIONARY
  5
42
102
{ACAD_REACTORS
330
9
102
}
330
9
100
AcDbDictionary
281
     1
  3
A0
350
4A
  3
A1
350
4B
  3
A2
350
4C
  3
A3
350
4D
  3
A4
350
4E
  3
A5
350
4F
  3
A6
350
50
  3
A7
350
51
  3
A8
350
52
  3
A9
350
53
  3
B0
350
54
  3
B1
350
55
  3
B2
350
56
  3
B3
350
57
  3
B4
350
58
  3
B5
350
59
  3
B6
350
5A
  3
B7
350
5B
  3
B8
350
5C
  3
B9
350
5D
  3
C0
350
5E
  3
C1
350
5F
  3
C2
350
60
  3
C3
350
61
  3
C4
350
62
  3
C5
350
63
  3
C6
350
64
  3
C7
350
65
  3
C8
350
66
  3
C9
350
67
  3
D0
350
68
  3
D1
350
69
  3
D2
350
6A
  0
DICTIONARY
  5
43
102
{ACAD_REACTORS
330
9
102
}
330
9
100
AcDbDictionary
281
     1
  3
Standard
350
46
  0
DICTIONARY
  5
2F
102
{ACAD_REACTORS
330
9
102
}
330
9
100
AcDbDictionary
281
     1
  3
2dWireframe
350
2E
  3
Realistic
350
48
  3
Wireframe
350
49
  0
XRECORD
  5
169
102
{ACAD_REACTORS
330
9
102
}
330
9
100
AcDbXrecord
280
     1
 90
        1
330
46
  0
DICTIONARY
  5
15E
102
{ACAD_REACTORS
330
9
102
}
330
9
100
AcDbDictionary
281
     1
  3
CANNOSCALE
350
164
  3
CMLEADERSTYLE
350
160
  3
CTABLESTYLE
350
15F
  3
CVIEWDETAILSTYLE
350
161
  3
CVIEWSECTIONSTYLE
350
162
  3
LAYEREVAL
350
166
  3
LAYERNOTIFY
350
167
  3
LIGHTINGUNITS
350
165
  3
MSLTSCALE
350
163
  0
SORTENTSTABLE
  5
15D
102
{ACAD_REACTORS
330
3
102
}
330
3
100
AcDbSortentsTable
330
2
  0
LAYOUT
  5
22
102
{ACAD_REACTORS
330
1E
102
}
330
1E
100
AcDbPlotSettings
  1

  2
none_device
  4

  6

 40
0.0
 41
0.0
 42
0.0
 43
0.0
 44
0.0
 45
0.0
 46
0.0
 47
0.0
 48
0.0
 49
0.0
140
0.0
141
0.0
142
1.0
143
1.0
 70
   688
 72
     1
 73
     0
 74
     5
  7

 75
    16
147
1.0
 76
     0
 77
     2
 78
   300
148
0.0
149
0.0
100
AcDbLayout
  1
Layout1
 70
     1
 71
     1
 10
0.0
 20
0.0
 11
420.0
 21
297.0
 12
0.0
 22
0.0
 32
0.0
 14
1.000000000000000E+20
 24
1.000000000000000E+20
 34
1.000000000000000E+20
 15
-1.000000000000000E+20
 25
-1.000000000000000E+20
 35
-1.000000000000000E+20
146
0.0
 13
0.0
 23
0.0
 33
0.0
 16
1.0
 26
0.0
 36
0.0
 17
0.0
 27
1.0
 37
0.0
 76
     0
330
1F
  0
LAYOUT
  5
1D
102
{ACAD_REACTORS
330
1E
102
}
330
1E
100
AcDbPlotSettings
  1

  2
none_device
  4
Letter_(8.50_x_11.00_Inches)
  6

 40
6.349999999999998
 41
6.349999999999998
 42
6.350005079999998
 43
6.350005079999998
 44
215.9
 45
279.4
 46
0.0
 47
0.0
 48
0.0
 49
0.0
140
0.0
141
0.0
142
1.0
143
1.0
 70
  1712
 72
     1
 73
     0
 74
     0
  7

 75
     0
147
1.0
 76
     0
 77
     2
 78
   300
148
0.0
149
0.0
100
AcDbLayout
  1
Model
 70
     1
 71
     0
 10
0.0
 20
0.0
 11
420.0
 21
297.0
 12
0.0
 22
0.0
 32
0.0
 14
0.0
 24
0.0
 34
0.0
 15
420.0
 25
297.0
 35
0.0
146
0.0
 13
0.0
 23
0.0
 33
0.0
 16
1.0
 26
0.0
 36
0.0
 17
0.0
 27
1.0
 37
0.0
 76
     0
330
2
331
2D
  0
MATERIAL
  5
39
102
{ACAD_XDICTIONARY
360
3A
102
}
102
{ACAD_REACTORS
330
B
102
}
330
B
100
AcDbMaterial
  1
ByBlock
 72
     0
 43
0.0008202099737533
 43
0.0
 43
0.0
 43
0.0
 43
0.0
 43
0.0008202099737533
 43
0.0
 43
0.0
 43
0.0
 43
0.0
 43
1.0
 43
0.0
 43
0.0
 43
0.0
 43
0.0
 43
1.0
 77
     0
 47
0.0008202099737533
 47
0.0
 47
0.0
 47
0.0
 47
0.0
 47
0.0008202099737533
 47
0.0
 47
0.0
 47
0.0
 47
0.0
 47
1.0
 47
0.0
 47
0.0
 47
0.0
 47
0.0
 47
1.0
171
     0
 49
0.0008202099737533
 49
0.0
 49
0.0
 49
0.0
 49
0.0
 49
0.0008202099737533
 49
0.0
 49
0.0
 49
0.0
 49
0.0
 49
1.0
 49
0.0
 49
0.0
 49
0.0
 49
0.0
 49
1.0
175
     0
142
0.0008202099737533
142
0.0
142
0.0
142
0.0
142
0.0
142
0.0008202099737533
142
0.0
142
0.0
142
0.0
142
0.0
142
1.0
142
0.0
142
0.0
142
0.0
142
0.0
142
1.0
179
     0
144
0.0008202099737533
144
0.0
144
0.0
144
0.0
144
0.0
144
0.0008202099737533
144
0.0
144
0.0
144
0.0
144
0.0
144
1.0
144
0.0
144
0.0
144
0.0
144
0.0
144
1.0
147
0.0008202099737533
147
0.0
147
0.0
147
0.0
147
0.0
147
0.0008202099737533
147
0.0
147
0.0
147
0.0
147
0.0
147
1.0
147
0.0
147
0.0
147
0.0
147
0.0
147
1.0
  0
MATERIAL
  5
14
102
{ACAD_XDICTIONARY
360
15
102
}
102
{ACAD_REACTORS
330
B
102
}
330
B
100
AcDbMaterial
  1
ByLayer
 72
     0
 43
0.0008202099737533
 43
0.0
 43
0.0
 43
0.0
 43
0.0
 43
0.0008202099737533
 43
0.0
 43
0.0
 43
0.0
 43
0.0
 43
1.0
 43
0.0
 43
0.0
 43
0.0
 43
0.0
 43
1.0
 77
     0
 47
0.0008202099737533
 47
0.0
 47
0.0
 47
0.0
 47
0.0
 47
0.0008202099737533
 47
0.0
 47
0.0
 47
0.0
 47
0.0
 47
1.0
 47
0.0
 47
0.0
 47
0.0
 47
0.0
 47
1.0
171
     0
 49
0.0008202099737533
 49
0.0
 49
0.0
 49
0.0
 49
0.0
 49
0.0008202099737533
 49
0.0
 49
0.0
 49
0.0
 49
0.0
 49
1.0
 49
0.0
 49
0.0
 49
0.0
 49
0.0
 49
1.0
175
     0
142
0.0008202099737533
142
0.0
142
0.0
142
0.0
142
0.0
142
0.0008202099737533
142
0.0
142
0.0
142
0.0
142
0.0
142
1.0
142
0.0
142
0.0
142
0.0
142
0.0
142
1.0
179
     0
144
0.0008202099737533
144
0.0
144
0.0
144
0.0
144
0.0
144
0.0008202099737533
144
0.0
144
0.0
144
0.0
144
0.0
144
1.0
144
0.0
144
0.0
144
0.0
144
0.0
144
1.0
147
0.0008202099737533
147
0.0
147
0.0
147
0.0
147
0.0
147
0.0008202099737533
147
0.0
147
0.0
147
0.0
147
0.0
147
1.0
147
0.0
147
0.0
147
0.0
147
0.0
147
1.0
  0
MATERIAL
  5
A
102
{ACAD_XDICTIONARY
360
C
102
}
102
{ACAD_REACTORS
330
B
102
}
330
B
100
AcDbMaterial
  1
Global
 72
     0
 43
0.0008202099737533
 43
0.0
 43
0.0
 43
0.0
 43
0.0
 43
0.0008202099737533
 43
0.0
 43
0.0
 43
0.0
 43
0.0
 43
1.0
 43
0.0
 43
0.0
 43
0.0
 43
0.0
 43
1.0
 77
     0
 47
0.0008202099737533
 47
0.0
 47
0.0
 47
0.0
 47
0.0
 47
0.0008202099737533
 47
0.0
 47
0.0
 47
0.0
 47
0.0
 47
1.0
 47
0.0
 47
0.0
 47
0.0
 47
0.0
 47
1.0
171
     0
 49
0.0008202099737533
 49
0.0
 49
0.0
 49
0.0
 49
0.0
 49
0.0008202099737533
 49
0.0
 49
0.0
 49
0.0
 49
0.0
 49
1.0
 49
0.0
 49
0.0
 49
0.0
 49
0.0
 49
1.0
175
     0
142
0.0008202099737533
142
0.0
142
0.0
142
0.0
142
0.0
142
0.0008202099737533
142
0.0
142
0.0
142
0.0
142
0.0
142
1.0
142
0.0
142
0.0
142
0.0
142
0.0
142
1.0
179
     0
144
0.0008202099737533
144
0.0
144
0.0
144
0.0
144
0.0
144
0.0008202099737533
144
0.0
144
0.0
144
0.0
144
0.0
144
1.0
144
0.0
144
0.0
144
0.0
144
0.0
144
1.0
147
0.0008202099737533
147
0.0
147
0.0
147
0.0
147
0.0
147
0.0008202099737533
147
0.0
147
0.0
147
0.0
147
0.0
147
1.0
147
0.0
147
0.0
147
0.0
147
0.0
147
1.0
  0
MLINESTYLE
  5
45
102
{ACAD_REACTORS
330
37
102
}
330
37
100
AcDbMlineStyle
  2
STANDARD
 70
     0
  3

 62
   256
 51
90.0
 52
90.0
 71
     2
 49
0.5
 62
   256
  6
BYLAYER
 49
-0.5
 62
   256
  6
BYLAYER
  0
ACDBPLACEHOLDER
  5
7
102
{ACAD_REACTORS
330
8
102
}
330
8
  0
SCALE
  5
4A
102
{ACAD_REACTORS
330
42
102
}
330
42
100
AcDbScale
 70
     0
300
1:1
140
1.0
141
1.0
290
     1
  0
SCALE
  5
4B
102
{ACAD_REACTORS
330
42
102
}
330
42
100
AcDbScale
 70
     0
300
1:2
140
1.0
141
2.0
290
     0
  0
SCALE
  5
4C
102
{ACAD_REACTORS
330
42
102
}
330
42
100
AcDbScale
 70
     0
300
1:4
140
1.0
141
4.0
290
     0
  0
SCALE
  5
4D
102
{ACAD_REACTORS
330
42
102
}
330
42
100
AcDbScale
 70
     0
300
1:5
140
1.0
141
5.0
290
     0
  0
SCALE
  5
4E
102
{ACAD_REACTORS
330
42
102
}
330
42
100
AcDbScale
 70
     0
300
1:8
140
1.0
141
8.0
290
     0
  0
SCALE
  5
4F
102
{ACAD_REACTORS
330
42
102
}
330
42
100
AcDbScale
 70
     0
300
1:10
140
1.0
141
10.0
290
     0
  0
SCALE
  5
50
102
{ACAD_REACTORS
330
42
102
}
330
42
100
AcDbScale
 70
     0
300
1:16
140
1.0
141
16.0
290
     0
  0
SCALE
  5
51
102
{ACAD_REACTORS
330
42
102
}
330
42
100
AcDbScale
 70
     0
300
1:20
140
1.0
141
20.0
290
     0
  0
SCALE
  5
52
102
{ACAD_REACTORS
330
42
102
}
330
42
100
AcDbScale
 70
     0
300
1:30
140
1.0
141
30.0
290
     0
  0
SCALE
  5
53
102
{ACAD_REACTORS
330
42
102
}
330
42
100
AcDbScale
 70
     0
300
1:40
140
1.0
141
40.0
290
     0
  0
SCALE
  5
54
102
{ACAD_REACTORS
330
42
102
}
330
42
100
AcDbScale
 70
     0
300
1:50
140
1.0
141
50.0
290
     0
  0
SCALE
  5
55
102
{ACAD_REACTORS
330
42
102
}
330
42
100
AcDbScale
 70
     0
300
1:100
140
1.0
141
100.0
290
     0
  0
SCALE
  5
56
102
{ACAD_REACTORS
330
42
102
}
330
42
100
AcDbScale
 70
     0
300
2:1
140
2.0
141
1.0
290
     0
  0
SCALE
  5
57
102
{ACAD_REACTORS
330
42
102
}
330
42
100
AcDbScale
 70
     0
300
4:1
140
4.0
141
1.0
290
     0
  0
SCALE
  5
58
102
{ACAD_REACTORS
330
42
102
}
330
42
100
AcDbScale
 70
     0
300
8:1
140
8.0
141
1.0
290
     0
  0
SCALE
  5
59
102
{ACAD_REACTORS
330
42
102
}
330
42
100
AcDbScale
 70
     0
300
10:1
140
10.0
141
1.0
290
     0
  0
SCALE
  5
5A
102
{ACAD_REACTORS
330
42
102
}
330
42
100
AcDbScale
 70
     0
300
100:1
140
100.0
141
1.0
290
     0
  0
SCALE
  5
5B
102
{ACAD_REACTORS
330
42
102
}
330
42
100
AcDbScale
 70
     0
300
1/128" = 1'-0"
140
0.0078125
141
12.0
290
     0
  0
SCALE
  5
5C
102
{ACAD_REACTORS
330
42
102
}
330
42
100
AcDbScale
 70
     0
300
1/64" = 1'-0"
140
0.015625
141
12.0
290
     0
  0
SCALE
  5
5D
102
{ACAD_REACTORS
330
42
102
}
330
42
100
AcDbScale
 70
     0
300
1/32" = 1'-0"
140
0.03125
141
12.0
290
     0
  0
SCALE
  5
5E
102
{ACAD_REACTORS
330
42
102
}
330
42
100
AcDbScale
 70
     0
300
1/16" = 1'-0"
140
0.0625
141
12.0
290
     0
  0
SCALE
  5
5F
102
{ACAD_REACTORS
330
42
102
}
330
42
100
AcDbScale
 70
     0
300
3/32" = 1'-0"
140
0.09375
141
12.0
290
     0
  0
SCALE
  5
60
102
{ACAD_REACTORS
330
42
102
}
330
42
100
AcDbScale
 70
     0
300
1/8" = 1'-0"
140
0.125
141
12.0
290
     0
  0
SCALE
  5
61
102
{ACAD_REACTORS
330
42
102
}
330
42
100
AcDbScale
 70
     0
300
3/16" = 1'-0"
140
0.1875
141
12.0
290
     0
  0
SCALE
  5
62
102
{ACAD_REACTORS
330
42
102
}
330
42
100
AcDbScale
 70
     0
300
1/4" = 1'-0"
140
0.25
141
12.0
290
     0
  0
SCALE
  5
63
102
{ACAD_REACTORS
330
42
102
}
330
42
100
AcDbScale
 70
     0
300
3/8" = 1'-0"
140
0.375
141
12.0
290
     0
  0
SCALE
  5
64
102
{ACAD_REACTORS
330
42
102
}
330
42
100
AcDbScale
 70
     0
300
1/2" = 1'-0"
140
0.5
141
12.0
290
     0
  0
SCALE
  5
65
102
{ACAD_REACTORS
330
42
102
}
330
42
100
AcDbScale
 70
     0
300
3/4" = 1'-0"
140
0.75
141
12.0
290
     0
  0
SCALE
  5
66
102
{ACAD_REACTORS
330
42
102
}
330
42
100
AcDbScale
 70
     0
300
1" = 1'-0"
140
1.0
141
12.0
290
     0
  0
SCALE
  5
67
102
{ACAD_REACTORS
330
42
102
}
330
42
100
AcDbScale
 70
     0
300
1-1/2" = 1'-0"
140
1.5
141
12.0
290
     0
  0
SCALE
  5
68
102
{ACAD_REACTORS
330
42
102
}
330
42
100
AcDbScale
 70
     0
300
3" = 1'-0"
140
3.0
141
12.0
290
     0
  0
SCALE
  5
69
102
{ACAD_REACTORS
330
42
102
}
330
42
100
AcDbScale
 70
     0
300
6" = 1'-0"
140
6.0
141
12.0
290
     0
  0
SCALE
  5
6A
102
{ACAD_REACTORS
330
42
102
}
330
42
100
AcDbScale
 70
     0
300
1'-0" = 1'-0"
140
12.0
141
12.0
290
     0
  0
TABLESTYLE
  5
46
102
{ACAD_XDICTIONARY
360
47
102
}
102
{ACAD_REACTORS
330
43
102
}
330
43
100
AcDbTableStyle
280
     0
  3
Standard
 70
     0
 71
     0
 40
1.5
 41
1.5
280
     0
281
     0
  7
Standard
140
4.5
170
     2
 62
     0
 63
     7
283
     0
 90
      512
 91
        0
  1

274
    -2
284
     1
 64
     0
275
    -2
285
     1
 65
     0
276
    -2
286
     1
 66
     0
277
    -2
287
     1
 67
     0
278
    -2
288
     1
 68
     0
279
    -2
289
     1
 69
     0
  7
Standard
140
6.0
170
     5
 62
     0
 63
     7
283
     0
 90
      512
 91
        0
  1

274
    -2
284
     1
 64
     0
275
    -2
285
     1
 65
     0
276
    -2
286
     1
 66
     0
277
    -2
287
     1
 67
     0
278
    -2
288
     1
 68
     0
279
    -2
289
     1
 69
     0
  7
Standard
140
4.5
170
     5
 62
     0
 63
     7
283
     0
 90
      512
 91
        0
  1

274
    -2
284
     1
 64
     0
275
    -2
285
     1
 65
     0
276
    -2
286
     1
 66
     0
277
    -2
287
     1
 67
     0
278
    -2
288
     1
 68
     0
279
    -2
289
     1
 69
     0
  0
VISUALSTYLE
  5
2E
102
{ACAD_REACTORS
330
2F
102
}
330
2F
100
AcDbVisualStyle
  2
2dWireframe
 70
     4
177
     3
291
     0
 70
    58
 90
        0
176
     1
 90
        2
176
     1
 90
        0
176
     1
 90
        0
176
     1
 40
0.6
176
     1
 40
30.0
176
     1
 62
     7
420
 16777215
176
     1
 90
        1
176
     1
 90
        4
176
     1
 62
     7
176
     1
 62
   257
176
     1
 90
        1
176
     1
 90
        1
176
     1
 40
1.0
176
     1
 90
        0
176
     1
 62
   257
176
     1
 40
1.0
176
     1
 90
        1
176
     1
 90
        6
176
     1
 90
        2
176
     1
 62
     7
176
     1
 90
        5
176
     1
 90
        0
176
     1
 90
        0
176
     1
290
     0
176
     1
 90
        1
176
     1
 40
0.0
176
     1
 90
        0
176
     1
290
     1
176
     1
290
     1
176
     1
290
     0
176
     1
290
     0
176
     1
290
     0
176
     1
290
     0
176
     1
290
     0
176
     1
290
     0
176
     1
290
     0
176
     1
 90
       50
176
     1
 40
0.0
176
     1
 40
1.0
176
     1
 90
        0
176
     1
 62
    18
176
     1
 90
       50
176
     1
 90
        3
176
     1
 62
     5
420
      255
176
     1
290
     0
176
     1
 90
       50
176
     1
 90
       50
176
     1
 90
       50
176
     1
290
     0
176
     1
 90
       50
176
     1
 62
   256
176
     0
 40
1.0
176
     0
 90
        2
176
     1
  1
strokes_ogs.tif
176
     1
290
     0
176
     1
 40
1.0
176
     1
 40
1.0
176
     1
  0
VISUALSTYLE
  5
48
102
{ACAD_REACTORS
330
2F
102
}
330
2F
100
AcDbVisualStyle
  2
Realistic
 70
     8
177
     3
291
     0
 70
    58
 90
        2
176
     1
 90
        3
176
     1
 90
        0
176
     1
 90
        2
176
     1
 40
0.6
176
     1
 40
30.0
176
     1
 62
     7
420
 16777215
176
     1
 90
        0
176
     1
 90
        0
176
     1
 62
     7
176
     1
 62
   257
176
     1
 90
        1
176
     1
 90
        1
176
     1
 40
1.0
176
     1
 90
        8
176
     1
 62
   257
176
     1
 40
1.0
176
     1
 90
        1
176
     1
 90
        6
176
     1
 90
        2
176
     1
 62
     7
176
     1
 90
        3
176
     1
 90
        0
176
     1
 90
        0
176
     1
290
     0
176
     1
 90
       13
176
     1
 40
0.0
176
     1
 90
        0
176
     1
290
     0
176
     1
290
     1
176
     1
290
     1
176
     1
290
     0
176
     1
290
     0
176
     1
290
     0
176
     1
290
     0
176
     1
290
     0
176
     1
290
     0
176
     1
 90
       50
176
     1
 40
0.0
176
     1
 40
1.0
176
     1
 90
        0
176
     1
 62
    18
176
     1
 90
       50
176
     1
 90
        3
176
     1
 62
     5
420
      255
176
     1
290
     0
176
     1
 90
       50
176
     1
 90
       50
176
     1
 90
       50
176
     1
290
     0
176
     1
 90
       50
176
     1
 62
   256
176
     0
 40
1.0
176
     0
 90
        2
176
     1
  1
strokes_ogs.tif
176
     1
290
     0
176
     1
 40
1.0
176
     1
 40
1.0
176
     1
  0
VISUALSTYLE
  5
49
102
{ACAD_REACTORS
330
2F
102
}
330
2F
100
AcDbVisualStyle
  2
Wireframe
 70
     5
177
     3
291
     0
 70
    58
 90
        0
176
     1
 90
        2
176
     1
 90
        0
176
     1
 90
        0
176
     1
 40
0.6
176
     1
 40
30.0
176
     1
 62
     7
420
 16777215
176
     1
 90
        1
176
     1
 90
        4
176
     1
 62
     7
176
     1
 62
   257
176
     1
 90
        1
176
     1
 90
        1
176
     1
 40
1.0
176
     1
 90
        0
176
     1
 62
   257
176
     1
 40
1.0
176
     1
 90
        1
176
     1
 90
        6
176
     1
 90
        2
176
     1
 62
     7
176
     1
 90
        3
176
     1
 90
        0
176
     1
 90
        0
176
     1
290
     0
176
     1
 90
        1
176
     1
 40
0.0
176
     1
 90
        0
176
     1
290
     0
176
     1
290
     1
176
     1
290
     1
176
     1
290
     0
176
     1
290
     0
176
     1
290
     0
176
     1
290
     0
176
     1
290
     0
176
     1
290
     0
176
     1
 90
       50
176
     1
 40
0.0
176
     1
 40
1.0
176
     1
 90
        0
176
     1
 62
    18
176
     1
 90
       50
176
     1
 90
        3
176
     1
 62
     5
420
      255
176
     1
290
     0
176
     1
 90
       50
176
     1
 90
       50
176
     1
 90
       50
176
     1
290
     0
176
     1
 90
       50
176
     1
 62
   256
176
     0
 40
1.0
176
     0
 90
        2
176
     1
  1
strokes_ogs.tif
176
     1
290
     0
176
     1
 40
1.0
176
     1
 40
1.0
176
     1
  0
DICTIONARYVAR
  5
164
102
{ACAD_REACTORS
330
15E
102
}
330
15E
100
DictionaryVariables
280
     0
  1
1:1
  0
DICTIONARYVAR
  5
160
102
{ACAD_REACTORS
330
15E
102
}
330
15E
100
DictionaryVariables
280
     0
  1
STANDARD
  0
DICTIONARYVAR
  5
15F
102
{ACAD_REACTORS
330
15E
102
}
330
15E
100
DictionaryVariables
280
     0
  1
STANDARD
  0
DICTIONARYVAR
  5
161
102
{ACAD_REACTORS
330
15E
102
}
330
15E
100
DictionaryVariables
280
     0
  1

  0
DICTIONARYVAR
  5
162
102
{ACAD_REACTORS
330
15E
102
}
330
15E
100
DictionaryVariables
280
     0
  1

  0
DICTIONARYVAR
  5
166
102
{ACAD_REACTORS
330
15E
102
}
330
15E
100
DictionaryVariables
280
     0
  1
1
  0
DICTIONARYVAR
  5
167
102
{ACAD_REACTORS
330
15E
102
}
330
15E
100
DictionaryVariables
280
     0
  1
15
  0
DICTIONARYVAR
  5
165
102
{ACAD_REACTORS
330
15E
102
}
330
15E
100
DictionaryVariables
280
     0
  1
0
  0
DICTIONARYVAR
  5
163
102
{ACAD_REACTORS
330
15E
102
}
330
15E
100
DictionaryVariables
280
     0
  1
0
  0
DICTIONARY
  5
3A
330
39
100
AcDbDictionary
280
     1
281
     1
  3
BUMPTILE
360
3B
  3
DIFFUSETILE
360
3C
  3
OPACITYTILE
360
3D
  3
REFLECTIONTILE
360
3E
  3
REFRACTIONTILE
360
3F
  3
SPECULARTILE
360
40
  0
DICTIONARY
  5
15
330
14
100
AcDbDictionary
280
     1
281
     1
  3
BUMPTILE
360
16
  3
DIFFUSETILE
360
17
  3
OPACITYTILE
360
18
  3
REFLECTIONTILE
360
19
  3
REFRACTIONTILE
360
1A
  3
SPECULARTILE
360
1B
  0
DICTIONARY
  5
C
330
A
100
AcDbDictionary
280
     1
281
     1
  3
BUMPTILE
360
D
  3
DIFFUSETILE
360
E
  3
OPACITYTILE
360
F
  3
REFLECTIONTILE
360
10
  3
REFRACTIONTILE
360
11
  3
SPECULARTILE
360
12
  0
DICTIONARY
  5
47
330
46
100
AcDbDictionary
280
     1
281
     1
  3
ACAD_ROUNDTRIP_2008_TABLESTYLE_CELLSTYLEMAP
360
168
  0
XRECORD
  5
3B
102
{ACAD_REACTORS
330
3A
102
}
330
3A
100
AcDbXrecord
280
     1
270
     1
271
     1
  0
XRECORD
  5
3C
102
{ACAD_REACTORS
330
3A
102
}
330
3A
100
AcDbXrecord
280
     1
270
     1
271
     1
  0
XRECORD
  5
3D
102
{ACAD_REACTORS
330
3A
102
}
330
3A
100
AcDbXrecord
280
     1
270
     1
271
     1
  0
XRECORD
  5
3E
102
{ACAD_REACTORS
330
3A
102
}
330
3A
100
AcDbXrecord
280
     1
270
     1
271
     1
  0
XRECORD
  5
3F
102
{ACAD_REACTORS
330
3A
102
}
330
3A
100
AcDbXrecord
280
     1
270
     1
271
     1
  0
XRECORD
  5
40
102
{ACAD_REACTORS
330
3A
102
}
330
3A
100
AcDbXrecord
280
     1
270
     1
271
     1
  0
XRECORD
  5
16
102
{ACAD_REACTORS
330
15
102
}
330
15
100
AcDbXrecord
280
     1
270
     1
271
     1
  0
XRECORD
  5
17
102
{ACAD_REACTORS
330
15
102
}
330
15
100
AcDbXrecord
280
     1
270
     1
271
     1
  0
XRECORD
  5
18
102
{ACAD_REACTORS
330
15
102
}
330
15
100
AcDbXrecord
280
     1
270
     1
271
     1
  0
XRECORD
  5
19
102
{ACAD_REACTORS
330
15
102
}
330
15
100
AcDbXrecord
280
     1
270
     1
271
     1
  0
XRECORD
  5
1A
102
{ACAD_REACTORS
330
15
102
}
330
15
100
AcDbXrecord
280
     1
270
     1
271
     1
  0
XRECORD
  5
1B
102
{ACAD_REACTORS
330
15
102
}
330
15
100
AcDbXrecord
280
     1
270
     1
271
     1
  0
XRECORD
  5
D
102
{ACAD_REACTORS
330
C
102
}
330
C
100
AcDbXrecord
280
     1
270
     1
271
     1
  0
XRECORD
  5
E
102
{ACAD_REACTORS
330
C
102
}
330
C
100
AcDbXrecord
280
     1
270
     1
271
     1
  0
XRECORD
  5
F
102
{ACAD_REACTORS
330
C
102
}
330
C
100
AcDbXrecord
280
     1
270
     1
271
     1
  0
XRECORD
  5
10
102
{ACAD_REACTORS
330
C
102
}
330
C
100
AcDbXrecord
280
     1
270
     1
271
     1
  0
XRECORD
  5
11
102
{ACAD_REACTORS
330
C
102
}
330
C
100
AcDbXrecord
280
     1
270
     1
271
     1
  0
XRECORD
  5
12
102
{ACAD_REACTORS
330
C
102
}
330
C
100
AcDbXrecord
280
     1
270
     1
271
     1
  0
CELLSTYLEMAP
  5
168
102
{ACAD_REACTORS
330
47
102
}
330
47
100
AcDbCellStyleMap
 90
        3
300
CELLSTYLE
  1
TABLEFORMAT_BEGIN
 90
        5
170
     1
 91
        0
 92
    32768
 62
   257
 93
        1
300
CONTENTFORMAT
  1
CONTENTFORMAT_BEGIN
 90
        0
 91
        0
 92
      512
 93
        0
300

 40
0.0
140
1.0
 94
        5
 62
     0
340
25
144
6.0
309
CONTENTFORMAT_END
171
     1
301
MARGIN
  1
CELLMARGIN_BEGIN
 40
1.5
 40
1.5
 40
1.5
 40
1.5
 40
0.18
 40
0.18
309
CELLMARGIN_END
 94
        6
 95
        1
302
GRIDFORMAT
  1
GRIDFORMAT_BEGIN
 90
        0
 91
        1
 62
     0
 92
       -2
340
0
 93
        0
 40
1.125
309
GRIDFORMAT_END
 95
        2
302
GRIDFORMAT
  1
GRIDFORMAT_BEGIN
 90
        0
 91
        1
 62
     0
 92
       -2
340
0
 93
        0
 40
1.125
309
GRIDFORMAT_END
 95
        4
302
GRIDFORMAT
  1
GRIDFORMAT_BEGIN
 90
        0
 91
        1
 62
     0
 92
       -2
340
0
 93
        0
 40
1.125
309
GRIDFORMAT_END
 95
        8
302
GRIDFORMAT
  1
GRIDFORMAT_BEGIN
 90
        0
 91
        1
 62
     0
 92
       -2
340
0
 93
        0
 40
1.125
309
GRIDFORMAT_END
 95
       16
302
GRIDFORMAT
  1
GRIDFORMAT_BEGIN
 90
        0
 91
        1
 62
     0
 92
       -2
340
0
 93
        0
 40
1.125
309
GRIDFORMAT_END
 95
       32
302
GRIDFORMAT
  1
GRIDFORMAT_BEGIN
 90
        0
 91
        1
 62
     0
 92
       -2
340
0
 93
        0
 40
1.125
309
GRIDFORMAT_END
309
TABLEFORMAT_END
  1
CELLSTYLE_BEGIN
 90
        1
 91
        1
300
_TITLE
309
CELLSTYLE_END
300
CELLSTYLE
  1
TABLEFORMAT_BEGIN
 90
        5
170
     1
 91
        0
 92
        0
 62
   257
 93
        1
300
CONTENTFORMAT
  1
CONTENTFORMAT_BEGIN
 90
        0
 91
        0
 92
      512
 93
        0
300

 40
0.0
140
1.0
 94
        5
 62
     0
340
25
144
4.5
309
CONTENTFORMAT_END
171
     1
301
MARGIN
  1
CELLMARGIN_BEGIN
 40
1.5
 40
1.5
 40
1.5
 40
1.5
 40
0.18
 40
0.18
309
CELLMARGIN_END
 94
        6
 95
        1
302
GRIDFORMAT
  1
GRIDFORMAT_BEGIN
 90
        0
 91
        1
 62
     0
 92
       -2
340
0
 93
        0
 40
1.125
309
GRIDFORMAT_END
 95
        2
302
GRIDFORMAT
  1
GRIDFORMAT_BEGIN
 90
        0
 91
        1
 62
     0
 92
       -2
340
0
 93
        0
 40
1.125
309
GRIDFORMAT_END
 95
        4
302
GRIDFORMAT
  1
GRIDFORMAT_BEGIN
 90
        0
 91
        1
 62
     0
 92
       -2
340
0
 93
        0
 40
1.125
309
GRIDFORMAT_END
 95
        8
302
GRIDFORMAT
  1
GRIDFORMAT_BEGIN
 90
        0
 91
        1
 62
     0
 92
       -2
340
0
 93
        0
 40
1.125
309
GRIDFORMAT_END
 95
       16
302
GRIDFORMAT
  1
GRIDFORMAT_BEGIN
 90
        0
 91
        1
 62
     0
 92
       -2
340
0
 93
        0
 40
1.125
309
GRIDFORMAT_END
 95
       32
302
GRIDFORMAT
  1
GRIDFORMAT_BEGIN
 90
        0
 91
        1
 62
     0
 92
       -2
340
0
 93
        0
 40
1.125
309
GRIDFORMAT_END
309
TABLEFORMAT_END
  1
CELLSTYLE_BEGIN
 90
        2
 91
        1
300
_HEADER
309
CELLSTYLE_END
300
CELLSTYLE
  1
TABLEFORMAT_BEGIN
 90
        5
170
     1
 91
        0
 92
        0
 62
   257
 93
        1
300
CONTENTFORMAT
  1
CONTENTFORMAT_BEGIN
 90
        0
 91
        0
 92
      512
 93
        0
300

 40
0.0
140
1.0
 94
        2
 62
     0
340
25
144
4.5
309
CONTENTFORMAT_END
171
     1
301
MARGIN
  1
CELLMARGIN_BEGIN
 40
1.5
 40
1.5
 40
1.5
 40
1.5
 40
0.18
 40
0.18
309
CELLMARGIN_END
 94
        6
 95
        1
302
GRIDFORMAT
  1
GRIDFORMAT_BEGIN
 90
        0
 91
        1
 62
     0
 92
       -2
340
0
 93
        0
 40
1.125
309
GRIDFORMAT_END
 95
        2
302
GRIDFORMAT
  1
GRIDFORMAT_BEGIN
 90
        0
 91
        1
 62
     0
 92
       -2
340
0
 93
        0
 40
1.125
309
GRIDFORMAT_END
 95
        4
302
GRIDFORMAT
  1
GRIDFORMAT_BEGIN
 90
        0
 91
        1
 62
     0
 92
       -2
340
0
 93
        0
 40
1.125
309
GRIDFORMAT_END
 95
        8
302
GRIDFORMAT
  1
GRIDFORMAT_BEGIN
 90
        0
 91
        1
 62
     0
 92
       -2
340
0
 93
        0
 40
1.125
309
GRIDFORMAT_END
 95
       16
302
GRIDFORMAT
  1
GRIDFORMAT_BEGIN
 90
        0
 91
        1
 62
     0
 92
       -2
340
0
 93
        0
 40
1.125
309
GRIDFORMAT_END
 95
       32
302
GRIDFORMAT
  1
GRIDFORMAT_BEGIN
 90
        0
 91
        1
 62
     0
 92
       -2
340
0
 93
        0
 40
1.125
309
GRIDFORMAT_END
309
TABLEFORMAT_END
  1
CELLSTYLE_BEGIN
 90
        3
 91
        2
300
_DATA
309
CELLSTYLE_END
  0
ENDSEC
  0
EOF
