  0
SECTION
  2
HEADER
  9
$ACADVER
  1
AC1018
  9
$ACADMAINTVER
 70
   104
  9
$DWGCODEPAGE
  3
ANSI_932
  9
$INSBASE
 10
0.0
 20
0.0
 30
0.0
  9
$EXTMIN
 10
4.633484870001552
 20
4.024292688379432
 30
-0.0015258207003583
  9
$EXTMAX
 10
54.65332086506919
 20
26.6835941268173
 30
0.0000000349246037
  9
$LIMMIN
 10
-1.017627034636632
 20
-1.669859068535288
  9
$LIMMAX
 10
59.048592115036
 20
34.68254082128058
  9
$ORTHOMODE
 70
     0
  9
$REGENMODE
 70
     1
  9
$FILLMODE
 70
     1
  9
$QTEXTMODE
 70
     0
  9
$MIRRTEXT
 70
     0
  9
$LTSCALE
 40
1.0
  9
$ATTMODE
 70
     1
  9
$TEXTSIZE
 40
2.5
  9
$TRACEWID
 40
1.0
  9
$TEXTSTYLE
  7
Standard
  9
$CLAYER
  8
0
  9
$CELTYPE
  6
ByLayer
  9
$CECOLOR
 62
   256
  9
$CELTSCALE
 40
1.0
  9
$DISPSILH
 70
     0
  9
$DIMSCALE
 40
1.0
  9
$DIMASZ
 40
2.5
  9
$DIMEXO
 40
0.625
  9
$DIMDLI
 40
3.75
  9
$DIMRND
 40
0.0
  9
$DIMDLE
 40
0.0
  9
$DIMEXE
 40
1.25
  9
$DIMTP
 40
0.0
  9
$DIMTM
 40
0.0
  9
$DIMTXT
 40
2.5
  9
$DIMCEN
 40
2.5
  9
$DIMTSZ
 40
0.0
  9
$DIMTOL
 70
     0
  9
$DIMLIM
 70
     0
  9
$DIMTIH
 70
     0
  9
$DIMTOH
 70
     0
  9
$DIMSE1
 70
     0
  9
$DIMSE2
 70
     0
  9
$DIMTAD
 70
     1
  9
$DIMZIN
 70
     8
  9
$DIMBLK
  1

  9
$DIMASO
 70
     1
  9
$DIMSHO
 70
     1
  9
$DIMPOST
  1

  9
$DIMAPOST
  1

  9
$DIMALT
 70
     0
  9
$DIMALTD
 70
     3
  9
$DIMALTF
 40
0.03937007874016
  9
$DIMLFAC
 40
1.0
  9
$DIMTOFL
 70
     1
  9
$DIMTVP
 40
0.0
  9
$DIMTIX
 70
     0
  9
$DIMSOXD
 70
     0
  9
$DIMSAH
 70
     0
  9
$DIMBLK1
  1

  9
$DIMBLK2
  1

  9
$DIMSTYLE
  2
ISO-25
  9
$DIMCLRD
 70
     0
  9
$DIMCLRE
 70
     0
  9
$DIMCLRT
 70
     0
  9
$DIMTFAC
 40
1.0
  9
$DIMGAP
 40
0.625
  9
$DIMJUST
 70
     0
  9
$DIMSD1
 70
     0
  9
$DIMSD2
 70
     0
  9
$DIMTOLJ
 70
     0
  9
$DIMTZIN
 70
     8
  9
$DIMALTZ
 70
     0
  9
$DIMALTTZ
 70
     0
  9
$DIMUPT
 70
     0
  9
$DIMDEC
 70
     2
  9
$DIMTDEC
 70
     2
  9
$DIMALTU
 70
     2
  9
$DIMALTTD
 70
     3
  9
$DIMTXSTY
  7
Standard
  9
$DIMAUNIT
 70
     0
  9
$DIMADEC
 70
     0
  9
$DIMALTRND
 40
0.0
  9
$DIMAZIN
 70
     0
  9
$DIMDSEP
 70
    44
  9
$DIMATFIT
 70
     3
  9
$DIMFRAC
 70
     0
  9
$DIMLDRBLK
  1

  9
$DIMLUNIT
 70
     2
  9
$DIMLWD
 70
    -2
  9
$DIMLWE
 70
    -2
  9
$DIMTMOVE
 70
     0
  9
$LUNITS
 70
     2
  9
$LUPREC
 70
     4
  9
$SKETCHINC
 40
1.0
  9
$FILLETRAD
 40
0.0
  9
$AUNITS
 70
     0
  9
$AUPREC
 70
     0
  9
$MENU
  1
.
  9
$ELEVATION
 40
0.0
  9
$PELEVATION
 40
0.0
  9
$THICKNESS
 40
0.0
  9
$LIMCHECK
 70
     0
  9
$CHAMFERA
 40
0.0
  9
$CHAMFERB
 40
0.0
  9
$CHAMFERC
 40
0.0
  9
$CHAMFERD
 40
0.0
  9
$SKPOLY
 70
     0
  9
$TDCREATE
 40
2458206.677268519
  9
$TDUCREATE
 40
2458206.343935185
  9
$TDUPDATE
 40
2458206.680069444
  9
$TDUUPDATE
 40
2458206.346736111
  9
$TDINDWG
 40
0.0023032407
  9
$TDUSRTIMER
 40
0.0023032407
  9
$USRTIMER
 70
     1
  9
$ANGBASE
 50
0.0
  9
$ANGDIR
 70
     0
  9
$PDMODE
 70
     0
  9
$PDSIZE
 40
0.0
  9
$PLINEWID
 40
0.0
  9
$SPLFRAME
 70
     0
  9
$SPLINETYPE
 70
     6
  9
$SPLINESEGS
 70
     8
  9
$HANDSEED
  5
200
  9
$SURFTAB1
 70
     6
  9
$SURFTAB2
 70
     6
  9
$SURFTYPE
 70
     6
  9
$SURFU
 70
     6
  9
$SURFV
 70
     6
  9
$UCSBASE
  2

  9
$UCSNAME
  2

  9
$UCSORG
 10
0.0
 20
0.0
 30
0.0
  9
$UCSXDIR
 10
1.0
 20
0.0
 30
0.0
  9
$UCSYDIR
 10
0.0
 20
1.0
 30
0.0
  9
$UCSORTHOREF
  2

  9
$UCSORTHOVIEW
 70
     0
  9
$UCSORGTOP
 10
0.0
 20
0.0
 30
0.0
  9
$UCSORGBOTTOM
 10
0.0
 20
0.0
 30
0.0
  9
$UCSORGLEFT
 10
0.0
 20
0.0
 30
0.0
  9
$UCSORGRIGHT
 10
0.0
 20
0.0
 30
0.0
  9
$UCSORGFRONT
 10
0.0
 20
0.0
 30
0.0
  9
$UCSORGBACK
 10
0.0
 20
0.0
 30
0.0
  9
$PUCSBASE
  2

  9
$PUCSNAME
  2

  9
$PUCSORG
 10
0.0
 20
0.0
 30
0.0
  9
$PUCSXDIR
 10
1.0
 20
0.0
 30
0.0
  9
$PUCSYDIR
 10
0.0
 20
1.0
 30
0.0
  9
$PUCSORTHOREF
  2

  9
$PUCSORTHOVIEW
 70
     0
  9
$PUCSORGTOP
 10
0.0
 20
0.0
 30
0.0
  9
$PUCSORGBOTTOM
 10
0.0
 20
0.0
 30
0.0
  9
$PUCSORGLEFT
 10
0.0
 20
0.0
 30
0.0
  9
$PUCSORGRIGHT
 10
0.0
 20
0.0
 30
0.0
  9
$PUCSORGFRONT
 10
0.0
 20
0.0
 30
0.0
  9
$PUCSORGBACK
 10
0.0
 20
0.0
 30
0.0
  9
$USERI1
 70
     0
  9
$USERI2
 70
     0
  9
$USERI3
 70
     0
  9
$USERI4
 70
     0
  9
$USERI5
 70
     0
  9
$USERR1
 40
0.0
  9
$USERR2
 40
0.0
  9
$USERR3
 40
0.0
  9
$USERR4
 40
0.0
  9
$USERR5
 40
0.0
  9
$WORLDVIEW
 70
     1
  9
$SHADEDGE
 70
     3
  9
$SHADEDIF
 70
    70
  9
$TILEMODE
 70
     1
  9
$MAXACTVP
 70
    64
  9
$PINSBASE
 10
0.0
 20
0.0
 30
0.0
  9
$PLIMCHECK
 70
     0
  9
$PEXTMIN
 10
0.0
 20
0.0
 30
0.0
  9
$PEXTMAX
 10
0.0
 20
0.0
 30
0.0
  9
$PLIMMIN
 10
0.0
 20
0.0
  9
$PLIMMAX
 10
12.0
 20
9.0
  9
$UNITMODE
 70
     0
  9
$VISRETAIN
 70
     1
  9
$PLINEGEN
 70
     0
  9
$PSLTSCALE
 70
     1
  9
$TREEDEPTH
 70
  3020
  9
$CMLSTYLE
  2
Standard
  9
$CMLJUST
 70
     0
  9
$CMLSCALE
 40
20.0
  9
$PROXYGRAPHICS
 70
     1
  9
$MEASUREMENT
 70
     1
  9
$CELWEIGHT
370
    -1
  9
$ENDCAPS
280
     0
  9
$JOINSTYLE
280
     0
  9
$LWDISPLAY
290
     0
  9
$INSUNITS
 70
     4
  9
$HYPERLINKBASE
  1

  9
$STYLESHEET
  1

  9
$XEDIT
290
     1
  9
$CEPSNTYPE
380
     0
  9
$PSTYLEMODE
290
     1
  9
$FINGERPRINTGUID
  2
{FD8D47E0-C0B1-4143-B75B-5675F6A93E46}
  9
$VERSIONGUID
  2
{1C76D698-C550-D240-B7C4-BD21E764DDC6}
  9
$EXTNAMES
290
     1
  9
$PSVPSCALE
 40
0.0
  9
$OLESTARTUP
290
     0
  9
$SORTENTS
280
   127
  9
$INDEXCTL
280
     0
  9
$HIDETEXT
280
     1
  9
$XCLIPFRAME
290
     0
  9
$HALOGAP
280
     0
  9
$OBSCOLOR
 70
   257
  9
$OBSLTYPE
280
     0
  9
$INTERSECTIONDISPLAY
280
     0
  9
$INTERSECTIONCOLOR
 70
   257
  9
$DIMASSOC
280
     2
  9
$PROJECTNAME
  1

  0
ENDSEC
  0
SECTION
  2
CLASSES
  0
CLASS
  1
ACDBDICTIONARYWDFLT
  2
AcDbDictionaryWithDefault
  3
ObjectDBX Classes
 90
        0
 91
        1
280
     0
281
     0
  0
CLASS
  1
DICTIONARYVAR
  2
AcDbDictionaryVar
  3
ObjectDBX Classes
 90
        0
 91
       12
280
     0
281
     0
  0
CLASS
  1
TABLESTYLE
  2
AcDbTableStyle
  3
ObjectDBX Classes
 90
     4095
 91
        1
280
     0
281
     0
  0
CLASS
  1
MATERIAL
  2
AcDbMaterial
  3
ObjectDBX Classes
 90
     1153
 91
        3
280
     0
281
     0
  0
CLASS
  1
VISUALSTYLE
  2
AcDbVisualStyle
  3
ObjectDBX Classes
 90
     4095
 91
        3
280
     0
281
     0
  0
CLASS
  1
SCALE
  2
AcDbScale
  3
ObjectDBX Classes
 90
     1153
 91
       17
280
     0
281
     0
  0
CLASS
  1
MLEADERSTYLE
  2
AcDbMLeaderStyle
  3
ACDB_MLEADERSTYLE_CLASS
 90
     4095
 91
        0
280
     0
281
     0
  0
CLASS
  1
CELLSTYLEMAP
  2
AcDbCellStyleMap
  3
ObjectDBX Classes
 90
     1152
 91
        1
280
     0
281
     0
  0
CLASS
  1
EXACXREFPANELOBJECT
  2
ExAcXREFPanelObject
  3
EXAC_ESW
 90
     1025
 91
        0
280
     1
281
     0
  0
CLASS
  1
NPOCOLLECTION
  2
AcDbImpNonPersistentObjectsCollection
  3
ObjectDBX Classes
 90
     1153
 91
        0
280
     0
281
     0
  0
CLASS
  1
LAYER_INDEX
  2
AcDbLayerIndex
  3
ObjectDBX Classes
 90
        0
 91
        0
280
     0
281
     0
  0
CLASS
  1
SPATIAL_INDEX
  2
AcDbSpatialIndex
  3
ObjectDBX Classes
 90
        0
 91
        0
280
     0
281
     0
  0
CLASS
  1
IDBUFFER
  2
AcDbIdBuffer
  3
ObjectDBX Classes
 90
        0
 91
        0
280
     0
281
     0
  0
CLASS
  1
ACDBSECTIONVIEWSTYLE
  2
AcDbSectionViewStyle
  3
ObjectDBX Classes
 90
     1025
 91
        0
280
     0
281
     0
  0
CLASS
  1
ACDBDETAILVIEWSTYLE
  2
AcDbDetailViewStyle
  3
ObjectDBX Classes
 90
     1025
 91
        0
280
     0
281
     0
  0
CLASS
  1
SORTENTSTABLE
  2
AcDbSortentsTable
  3
ObjectDBX Classes
 90
        0
 91
        2
280
     0
281
     0
  0
ENDSEC
  0
SECTION
  2
TABLES
  0
TABLE
  2
VPORT
  5
29
330
0
100
AcDbSymbolTable
 70
     1
  0
VPORT
  5
2A
330
29
100
AcDbSymbolTableRecord
100
AcDbViewportTableRecord
  2
*Active
 70
     0
 10
0.0
 20
0.0
 11
1.0
 21
1.0
 12
29.01548254019969
 22
16.50634087637265
 13
0.0
 23
0.0
 14
10.0
 24
10.0
 15
10.0
 25
10.0
 16
0.0
 26
0.0
 36
1.0
 17
0.0
 27
0.0
 37
0.0
 40
36.67081507133251
 41
1.940058479532163
 42
50.0
 43
0.0
 44
0.0
 50
0.0
 51
0.0
 71
     0
 72
  1000
 73
     1
 74
     3
 75
     0
 76
     1
 77
     0
 78
     0
281
     0
 65
     1
110
0.0
120
0.0
130
0.0
111
1.0
121
0.0
131
0.0
112
0.0
122
1.0
132
0.0
 79
     0
146
0.0
1001
ACAD_NAV_VCDISPLAY
1070
     3
  0
ENDTAB
  0
TABLE
  2
LTYPE
  5
24
330
0
100
AcDbSymbolTable
 70
     1
  0
LTYPE
  5
25
330
24
100
AcDbSymbolTableRecord
100
AcDbLinetypeTableRecord
  2
ByBlock
 70
     0
  3

 72
    65
 73
     0
 40
0.0
  0
LTYPE
  5
26
330
24
100
AcDbSymbolTableRecord
100
AcDbLinetypeTableRecord
  2
ByLayer
 70
     0
  3

 72
    65
 73
     0
 40
0.0
  0
LTYPE
  5
14
330
24
100
AcDbSymbolTableRecord
100
AcDbLinetypeTableRecord
  2
Continuous
 70
     0
  3
Solid line
 72
    65
 73
     0
 40
0.0
  0
ENDTAB
  0
TABLE
  2
LAYER
  5
1E
102
{ACAD_XDICTIONARY
360
1F
102
}
330
0
100
AcDbSymbolTable
 70
     1
  0
LAYER
  5
6
102
{ACAD_XDICTIONARY
360
7
102
}
330
1E
100
AcDbSymbolTableRecord
100
AcDbLayerTableRecord
  2
0
 70
     0
 62
     7
  6
Continuous
370
    -3
390
8
  0
ENDTAB
  0
TABLE
  2
STYLE
  5
21
330
0
100
AcDbSymbolTable
 70
     1
  0
STYLE
  5
22
330
21
100
AcDbSymbolTableRecord
100
AcDbTextStyleTableRecord
  2
Standard
 70
     0
 40
0.0
 41
1.0
 50
0.0
 71
     0
 42
2.5
  3
arial.ttf
  4

1001
ACAD
1000
Arial
1071
       34
  0
ENDTAB
  0
TABLE
  2
VIEW
  5
27
330
0
100
AcDbSymbolTable
 70
     0
  0
ENDTAB
  0
TABLE
  2
UCS
  5
28
330
0
100
AcDbSymbolTable
 70
     0
  0
ENDTAB
  0
TABLE
  2
APPID
  5
2E
330
0
100
AcDbSymbolTable
 70
     6
  0
APPID
  5
13
330
2E
100
AcDbSymbolTableRecord
100
AcDbRegAppTableRecord
  2
ACAD
 70
     0
  0
APPID
  5
19
330
2E
100
AcDbSymbolTableRecord
100
AcDbRegAppTableRecord
  2
ACAD_PSEXT
 70
     0
  0
APPID
  5
32
330
2E
100
AcDbSymbolTableRecord
100
AcDbRegAppTableRecord
  2
AcadAnnotative
 70
     0
  0
APPID
  5
33
330
2E
100
AcDbSymbolTableRecord
100
AcDbRegAppTableRecord
  2
ACAD_DSTYLE_DIMJAG
 70
     0
  0
APPID
  5
34
330
2E
100
AcDbSymbolTableRecord
100
AcDbRegAppTableRecord
  2
ACAD_DSTYLE_DIMTALN
 70
     0
  0
APPID
  5
2D
330
2E
100
AcDbSymbolTableRecord
100
AcDbRegAppTableRecord
  2
ACAD_NAV_VCDISPLAY
 70
     0
  0
ENDTAB
  0
TABLE
  2
DIMSTYLE
  5
2F
330
0
100
AcDbSymbolTable
 70
     2
100
AcDbDimStyleTable
 71
     2
340
30
340
31
  0
DIMSTYLE
105
31
330
2F
100
AcDbSymbolTableRecord
100
AcDbDimStyleTableRecord
  2
Annotative
 70
     0
 40
0.0
 41
2.5
 42
0.625
 43
3.75
 44
1.25
 73
     0
 74
     0
 77
     1
 78
     8
140
2.5
141
2.5
143
0.03937007874016
147
0.625
171
     3
172
     1
271
     2
272
     2
274
     3
278
    44
283
     0
284
     8
340
22
1001
AcadAnnotative
1000
AnnotativeData
1002
{
1070
     1
1070
     1
1002
}
1001
ACAD_DSTYLE_DIMJAG
1070
   388
1040
1.5
1001
ACAD_DSTYLE_DIMTALN
1070
   392
1070
     0
  0
DIMSTYLE
105
30
330
2F
100
AcDbSymbolTableRecord
100
AcDbDimStyleTableRecord
  2
ISO-25
 70
     0
 41
2.5
 42
0.625
 43
3.75
 44
1.25
 73
     0
 74
     0
 77
     1
 78
     8
140
2.5
141
2.5
143
0.03937007874016
147
0.625
171
     3
172
     1
271
     2
272
     2
274
     3
278
    44
283
     0
284
     8
340
22
  0
ENDTAB
  0
TABLE
  2
BLOCK_RECORD
  5
1
330
0
100
AcDbSymbolTable
 70
     0
  0
BLOCK_RECORD
  5
2
102
{ACAD_XDICTIONARY
360
3
102
}
330
1
100
AcDbSymbolTableRecord
100
AcDbBlockTableRecord
  2
*Model_Space
340
16
  0
BLOCK_RECORD
  5
1A
330
1
100
AcDbSymbolTableRecord
100
AcDbBlockTableRecord
  2
*Paper_Space
340
1D
  0
ENDTAB
  0
ENDSEC
  0
SECTION
  2
BLOCKS
  0
BLOCK
  5
5
330
2
100
AcDbEntity
  8
0
100
AcDbBlockBegin
  2
*Model_Space
 70
     0
 10
0.0
 20
0.0
 30
0.0
  3
*Model_Space
  1

  0
ENDBLK
  5
15
330
2
100
AcDbEntity
  8
0
100
AcDbBlockEnd
  0
BLOCK
  5
1B
330
1A
100
AcDbEntity
 67
     1
  8
0
100
AcDbBlockBegin
  2
*Paper_Space
 70
     0
 10
0.0
 20
0.0
 30
0.0
  3
*Paper_Space
  1

  0
ENDBLK
  5
1C
330
1A
100
AcDbEntity
 67
     1
  8
0
100
AcDbBlockEnd
  0
ENDSEC
  0
SECTION
  2
ENTITIES
  0
LINE
  5
59
330
2
100
AcDbEntity
  8
0
  6
Continuous
 62
     7
370
    15
100
AcDbLine
 10
54.60043000958979
 20
21.1059942066952
 30
0.0
 11
53.4292759731722
 21
22.1202433539723
 31
0.0
  0
LINE
  5
5A
330
2
100
AcDbEntity
  8
0
  6
Continuous
 62
     7
370
    15
100
AcDbLine
 10
32.74181692838499
 20
22.1202433539723
 30
0.0
 11
31.57066289196743
 21
21.1059942066952
 31
0.0
  0
LINE
  5
5B
330
2
100
AcDbEntity
  8
0
  6
Continuous
 62
     7
370
    15
100
AcDbLine
 10
40.61232844366981
 20
25.31152701559583
 30
0.0
 11
40.61232844366981
 21
21.40904582107918
 31
0.0
  0
SPLINE
  5
5C
330
2
100
AcDbEntity
  8
0
  6
Continuous
 62
     7
370
    15
100
AcDbSpline
210
0.0
220
0.0
230
1.0
 70
     8
 71
     3
 72
    12
 73
     8
 74
     0
 42
0.000000001
 43
0.0000000001
 40
0.0
 40
0.0
 40
0.0
 40
0.0
 40
0.1814292812455417
 40
0.4157921650614981
 40
0.6513173281689703
 40
0.8893818971947931
 40
1.0
 40
1.0
 40
1.0
 40
1.0
 10
42.8602551771101
 20
26.46627688108565
 30
0.0
 10
42.80963917664294
 20
26.50185684383895
 30
0.0
 10
42.74134877609021
 20
26.55357909900672
 30
0.0
 10
42.61049407181471
 20
26.59825259392295
 30
0.0
 10
42.45828813038449
 20
26.61669622758552
 30
0.0
 10
42.32629165142083
 20
26.6047925035892
 30
0.0
 10
42.24752261356695
 20
26.58426349504059
 30
0.0
 10
42.22253346947951
 20
26.57775075391068
 30
0.0
  0
LINE
  5
5D
330
2
100
AcDbEntity
  8
0
  6
Continuous
 62
     7
370
    15
100
AcDbLine
 10
42.88953402802056
 20
26.4409206523973
 30
0.0
 11
42.8602551771101
 21
26.46627688108565
 31
0.0
  0
SPLINE
  5
5E
330
2
100
AcDbEntity
  8
0
  6
Continuous
 62
     7
370
    15
100
AcDbSpline
210
0.0
220
0.0
230
1.0
 70
     8
 71
     3
 72
    16
 73
    12
 74
     0
 42
0.000000001
 43
0.0000000001
 40
0.0
 40
0.0
 40
0.0
 40
0.0
 40
0.0698495378242813
 40
0.1990379081207492
 40
0.3285182403160749
 40
0.4581529125746114
 40
0.587925197279928
 40
0.7178828956211265
 40
0.8480723407691126
 40
0.9707891010511591
 40
1.0
 40
1.0
 40
1.0
 40
1.0
 10
41.41113415165364
 20
26.34351994662717
 30
0.0
 10
41.3816283929753
 20
26.33403223444846
 30
0.0
 10
41.29755103659204
 20
26.30699677446222
 30
0.0
 10
41.16202464357963
 20
26.23774293630453
 30
0.0
 10
41.01285520228126
 20
26.12949819658401
 30
0.0
 10
40.88017480838274
 20
25.99678028703457
 30
0.0
 10
40.76927301433707
 20
25.84534991757862
 30
0.0
 10
40.68452342043417
 20
25.68082759235144
 30
0.0
 10
40.63088944119556
 20
25.51298289289294
 30
0.0
 10
40.61343346258221
 20
25.38905438276959
 30
0.0
 10
40.61250664203197
 20
25.32402929070922
 30
0.0
 10
40.6123284436606
 20
25.31152701559402
 30
0.0
  0
LINE
  5
5F
330
2
100
AcDbEntity
  8
0
  6
Continuous
 62
     7
370
    15
100
AcDbLine
 10
42.22253346947368
 20
26.57775075391717
 30
0.0
 11
41.71540889584687
 21
26.43135649936497
 31
0.0
  0
LINE
  5
60
330
2
100
AcDbEntity
  8
0
  6
Continuous
 62
     7
370
    15
100
AcDbLine
 10
41.71540889584687
 20
26.43135649936497
 30
0.0
 11
41.41113415165671
 21
26.34351994663366
 31
0.0
  0
LINE
  5
61
330
2
100
AcDbEntity
  8
0
  6
Continuous
 62
     7
370
    15
100
AcDbLine
 10
46.51583182413012
 20
25.40853190483699
 30
0.0
 11
46.47191354776444
 21
25.44656624785783
 31
0.0
  0
LINE
  5
62
330
2
100
AcDbEntity
  8
0
  6
Continuous
 62
     7
370
    15
100
AcDbLine
 10
39.86158895456322
 20
24.79053244834296
 30
0.0
 11
39.86158895456322
 21
21.17941752965469
 31
0.0
  0
SPLINE
  5
63
330
2
100
AcDbEntity
  8
0
  6
Continuous
 62
     7
370
    15
100
AcDbSpline
210
0.0
220
0.0
230
1.0
 70
     8
 71
     3
 72
    12
 73
     8
 74
     0
 42
0.000000001
 43
0.0000000001
 40
0.0
 40
0.0
 40
0.0
 40
0.0
 40
0.1814292812455437
 40
0.4157921650615009
 40
0.6513173281689825
 40
0.8893818971948025
 40
1.0
 40
1.0
 40
1.0
 40
1.0
 10
44.11719623068989
 20
26.54387049152277
 30
0.0
 10
44.08739798211922
 20
26.56643929480481
 30
0.0
 10
44.01910758156645
 20
26.61816154997261
 30
0.0
 10
43.88825287729097
 20
26.66283504488884
 30
0.0
 10
43.73604693586074
 20
26.68127867855141
 30
0.0
 10
43.60405045689705
 20
26.66937495455507
 30
0.0
 10
43.52528141904321
 20
26.64884594600646
 30
0.0
 10
43.50029227495577
 20
26.64233320487658
 30
0.0
  0
LINE
  5
64
330
2
100
AcDbEntity
  8
0
  6
Continuous
 62
     7
370
    15
100
AcDbLine
 10
44.18193225897027
 20
26.49282498902073
 30
0.0
 11
44.1380139826046
 21
26.53085933204157
 31
0.0
  0
LINE
  5
65
330
2
100
AcDbEntity
  8
0
  6
Continuous
 62
     7
370
    15
100
AcDbLine
 10
43.50029227494474
 20
26.64233320487308
 30
0.0
 11
42.86779520267387
 21
26.45974702740911
 31
0.0
  0
LINE
  5
66
330
2
100
AcDbEntity
  8
0
  6
Continuous
 62
     7
370
    15
100
AcDbLine
 10
40.78479945127674
 20
25.85843794851304
 30
0.0
 11
40.66039466257353
 21
25.82252537938079
 31
0.0
  0
SPLINE
  5
67
330
2
100
AcDbEntity
  8
0
  6
Continuous
 62
     7
370
    15
100
AcDbSpline
210
0.0
220
0.0
230
1.0
 70
     8
 71
     3
 72
    16
 73
    12
 74
     0
 42
0.000000001
 43
0.0000000001
 40
0.0
 40
0.0
 40
0.0
 40
0.0
 40
0.0698495378242814
 40
0.1990379081207496
 40
0.3285182403160749
 40
0.4581529125746114
 40
0.5879251972799282
 40
0.7178828956211268
 40
0.8480723407691128
 40
0.9707891010511616
 40
1.0
 40
1.0
 40
1.0
 40
1.0
 10
40.66039466256532
 20
25.82252537938428
 30
0.0
 10
40.63088890388695
 20
25.81303766720554
 30
0.0
 10
40.54681154750369
 20
25.78600220721933
 30
0.0
 10
40.41128515449125
 20
25.71674836906162
 30
0.0
 10
40.26211571319291
 20
25.60850362934109
 30
0.0
 10
40.12943531929439
 20
25.47578571979168
 30
0.0
 10
40.01853352524875
 20
25.32435535033569
 30
0.0
 10
39.93378393134583
 20
25.15983302510851
 30
0.0
 10
39.88014995210716
 20
24.99198832565002
 30
0.0
 10
39.86269397349389
 20
24.86805981552665
 30
0.0
 10
39.86176715294363
 20
24.80303472346633
 30
0.0
 10
39.86158895457226
 20
24.79053244835111
 30
0.0
  0
SPLINE
  5
68
330
2
100
AcDbEntity
  8
0
  6
Continuous
 62
     7
370
    15
100
AcDbSpline
210
0.0
220
0.0
230
1.0
 70
     8
 71
     3
 72
    13
 73
     9
 74
     0
 42
0.000000001
 43
0.0000000001
 40
0.0
 40
0.0
 40
0.0
 40
0.0
 40
0.3436729590918618
 40
0.7876155533047879
 40
1.0
 40
1.0
 40
1.0
 40
1.080037870459543
 40
1.080037870459543
 40
1.080037870459543
 40
1.080037870459543
 10
45.7912705869154
 20
26.14811820398325
 30
0.0
 10
45.76140899054971
 20
26.17046291291647
 30
0.0
 10
45.69297341212575
 20
26.22167159787195
 30
0.0
 10
45.58799464265118
 20
26.26171184506158
 30
0.0
 10
45.51303588949099
 20
26.26842355573491
 30
0.0
 10
45.48877957774005
 20
26.27059543479652
 30
0.0
 10
45.47963849623449
 20
26.27141391551718
 30
0.0
 10
45.47049741472892
 20
26.27223239623784
 30
0.0
 10
45.46135633322339
 20
26.27305087695849
 30
0.0
  0
LINE
  5
69
330
2
100
AcDbEntity
  8
0
  6
Continuous
 62
     7
370
    15
100
AcDbLine
 10
45.85600661518873
 20
26.09707270148107
 30
0.0
 11
45.81208833882309
 21
26.1351070445019
 31
0.0
  0
LINE
  5
6A
330
2
100
AcDbEntity
  8
0
  6
Continuous
 62
     7
370
    15
100
AcDbLine
 10
36.53545589355076
 20
15.84751482664298
 30
0.0
 11
36.54773572216988
 21
15.72611546230541
 31
0.0
  0
LINE
  5
6B
330
2
100
AcDbEntity
  8
0
  6
Continuous
 62
     7
370
    15
100
AcDbLine
 10
49.62335717938731
 20
15.72611546230541
 30
0.0
 11
49.635637007983
 21
15.84751482664298
 31
0.0
  0
SPLINE
  5
6C
330
2
100
AcDbEntity
  8
0
  6
Continuous
 62
     7
370
    15
100
AcDbSpline
210
0.0
220
0.0
230
1.0
 70
     8
 71
     3
 72
     9
 73
     5
 74
     0
 42
0.000000001
 43
0.0000000001
 40
0.0
 40
0.0
 40
0.0
 40
0.0
 40
0.2348382332724162
 40
0.9921728383729282
 40
0.9921728383729282
 40
0.9921728383729282
 40
0.9921728383729282
 10
39.08452689833112
 20
20.81870905623208
 30
0.0
 10
39.07545425483994
 20
20.75903609364828
 30
0.0
 10
39.03712305842974
 20
20.50692257773623
 30
0.0
 10
38.99973714684387
 20
20.2544752374916
 30
0.0
 10
38.97120577245155
 20
20.06177788337679
 30
0.0
  0
SPLINE
  5
6D
330
2
100
AcDbEntity
  8
0
  6
Continuous
 62
     7
370
    15
100
AcDbSpline
210
0.0
220
0.0
230
1.0
 70
     8
 71
     3
 72
     9
 73
     5
 74
     0
 42
0.000000001
 43
0.0000000001
 40
0.0
 40
0.0
 40
0.0
 40
0.0
 40
0.2507808920842258
 40
1.0
 40
1.0
 40
1.0
 40
1.0
 10
47.18999214997348
 20
20.12899414845383
 30
0.0
 10
47.18145975853675
 20
20.18668902298421
 30
0.0
 10
47.14743646686656
 20
20.41674991020276
 30
0.0
 10
47.11262885721612
 20
20.64653471335362
 30
0.0
 10
47.08655033096516
 20
20.81869387858292
 30
0.0
  0
LINE
  5
6E
330
2
100
AcDbEntity
  8
0
  6
Continuous
 62
     7
370
    15
100
AcDbLine
 10
47.19110490882278
 20
20.06679258110586
 30
0.0
 11
47.18999214997348
 21
20.12899414845383
 31
0.0
  0
LINE
  5
6F
330
2
100
AcDbEntity
  8
0
  6
Continuous
 62
     7
370
    15
100
AcDbLine
 10
38.13033492349035
 20
19.18459390606476
 30
0.0
 11
37.98495149557073
 21
19.22656248669628
 31
0.0
  0
LINE
  5
70
330
2
100
AcDbEntity
  8
0
  6
Continuous
 62
     7
370
    15
100
AcDbLine
 10
48.18609678183211
 20
19.22654960482169
 30
0.0
 11
48.04075797806681
 21
19.18459390606476
 31
0.0
  0
LINE
  5
71
330
2
100
AcDbEntity
  8
0
  6
Continuous
 62
     7
370
    15
100
AcDbLine
 10
38.18101433870007
 20
19.70641466130923
 30
0.0
 11
37.89684742539842
 21
19.78844658325981
 31
0.0
  0
LINE
  5
72
330
2
100
AcDbEntity
  8
0
  6
Continuous
 62
     7
370
    15
100
AcDbLine
 10
48.27424547615876
 20
19.78844658325981
 30
0.0
 11
47.99007856285709
 21
19.70641466130923
 31
0.0
  0
LWPOLYLINE
  5
73
330
2
100
AcDbEntity
  8
0
  6
Continuous
 62
     7
370
    15
100
AcDbPolyline
 90
       17
 70
   128
 43
0.0
 10
42.67564253802072
 20
12.49688448508688
 10
42.5635972264128
 20
12.49304008440686
 10
42.46860979779898
 20
12.48209215748493
 10
42.40514122711386
 20
12.4657074269881
 10
42.38285402891634
 20
12.44638031956359
 10
42.40514122711386
 20
12.42705321213909
 10
42.46860979779898
 20
12.41066848164227
 10
42.5635972264128
 20
12.39972055472034
 10
42.67564253802072
 20
12.39587615404032
 10
42.78768784965208
 20
12.39972055472034
 10
42.88267527826588
 20
12.41066848164227
 10
42.94614384895107
 20
12.42705321213909
 10
42.9684310471251
 20
12.44638031956359
 10
42.94614384895107
 20
12.4657074269881
 10
42.88267527826588
 20
12.48209215748493
 10
42.78768784965208
 20
12.49304008440686
 10
42.67564253802072
 20
12.49688448508688
  0
LWPOLYLINE
  5
74
330
2
100
AcDbEntity
  8
0
  6
Continuous
 62
     7
370
    15
100
AcDbPolyline
 90
       17
 70
   128
 43
0.0
 10
43.49545036351301
 20
12.37567448780757
 10
43.38340505190513
 20
12.37183008712757
 10
43.28841762329131
 20
12.36088216020563
 10
43.22494905260614
 20
12.34449742970881
 10
43.20266185440863
 20
12.32517032228429
 10
43.22494905260614
 20
12.30584321485979
 10
43.28841762329131
 20
12.28945848436296
 10
43.38340505190513
 20
12.27851055744102
 10
43.49545036351301
 20
12.27466615676102
 10
43.60749567514438
 20
12.27851055744102
 10
43.70248310375816
 20
12.28945848436296
 10
43.76595167444335
 20
12.30584321485979
 10
43.7882388726174
 20
12.32517032228429
 10
43.76595167444335
 20
12.34449742970881
 10
43.70248310375816
 20
12.36088216020563
 10
43.60749567514438
 20
12.37183008712757
 10
43.49545036351301
 20
12.37567448780757
  0
LINE
  5
75
330
2
100
AcDbEntity
  8
0
  6
Continuous
 62
     7
370
    15
100
AcDbLine
 10
41.91439241434932
 20
12.48963241320388
 30
0.0
 11
41.91439241434932
 21
12.23022249109115
 31
0.0
  0
LWPOLYLINE
  5
76
330
2
100
AcDbEntity
  8
0
  6
Continuous
 62
     7
370
    15
100
AcDbPolyline
 90
        8
 70
   128
 43
0.0
 10
42.1178155175734
 20
12.65432351523774
 10
42.09268999985915
 20
12.64424927252964
 10
42.0386984004692
 20
12.61950466891802
 10
41.99420462652883
 20
12.59420393238893
 10
41.95939920718567
 20
12.56845540455187
 10
41.93443118462659
 20
12.54236934454683
 10
41.91940747575225
 20
12.51605745692865
 10
41.91439241434932
 20
12.48963241320388
  0
ARC
  5
77
330
2
100
AcDbEntity
  8
0
  6
Continuous
 62
     7
370
    15
100
AcDbCircle
 10
43.68813819398321
 20
12.05909702837639
 30
0.0
 40
0.5688502917636146
100
AcDbArc
 50
268.2859860206984
 51
358.1767252639003
  0
LINE
  5
78
330
2
100
AcDbEntity
  8
0
  6
Continuous
 62
     7
370
    15
100
AcDbLine
 10
43.67112346897565
 20
11.49050125492624
 30
0.0
 11
42.49996943255808
 21
11.49050125492624
 31
0.0
  0
ARC
  5
79
330
2
100
AcDbEntity
  8
0
  6
Continuous
 62
     7
370
    15
100
AcDbCircle
 10
42.48295470757398
 20
12.05909702837639
 30
0.0
 40
0.5688502917636416
100
AcDbArc
 50
181.8232747360997
 51
271.7140139793016
  0
LINE
  5
7A
330
2
100
AcDbEntity
  8
0
  6
Continuous
 62
     7
370
    15
100
AcDbLine
 10
41.91439241434932
 20
12.07493577719104
 30
0.0
 11
41.91439241434932
 21
12.04099804558903
 31
0.0
  0
LINE
  5
7B
330
2
100
AcDbEntity
  8
0
  6
Continuous
 62
     7
370
    15
100
AcDbLine
 10
44.25670048718444
 20
12.07493577719104
 30
0.0
 11
44.25670048718444
 21
12.04099804558903
 31
0.0
  0
LINE
  5
7C
330
2
100
AcDbEntity
  8
0
  6
Continuous
 62
     7
370
    15
100
AcDbLine
 10
41.91439241434932
 20
12.23022249109115
 30
0.0
 11
41.91439241434932
 21
12.07493577719104
 31
0.0
  0
LINE
  5
7D
330
2
100
AcDbEntity
  8
0
  6
Continuous
 62
     7
370
    15
100
AcDbLine
 10
44.25670048718444
 20
12.23022249109115
 30
0.0
 11
44.25670048718444
 21
12.07493577719104
 31
0.0
  0
LWPOLYLINE
  5
7E
330
2
100
AcDbEntity
  8
0
  6
Continuous
 62
     7
370
    15
100
AcDbPolyline
 90
        9
 70
   128
 43
0.0
 10
32.78702017078678
 20
20.9394726662779
 10
32.82491330699247
 20
20.99984593324756
 10
32.82077851752144
 20
21.07474036527837
 10
32.77524528656559
 20
21.15275396403768
 10
32.69524563577344
 20
21.22200986631701
 10
32.5929587868072
 20
21.27196448877239
 10
32.48395698516623
 20
21.29501269297822
 10
32.38483476705793
 20
21.28764559880147
 10
32.29208175277165
 20
21.2630428608571
  0
LWPOLYLINE
  5
7F
330
2
100
AcDbEntity
  8
0
  6
Continuous
 62
     7
370
    15
100
AcDbPolyline
 90
        9
 70
   128
 43
0.0
 10
32.29208175277165
 20
21.2630428608571
 10
32.27278945545001
 20
21.19061151254964
 10
32.27692424492108
 20
21.11571708051883
 10
32.32245747590034
 20
21.03770348175952
 10
32.40245712666905
 20
20.96844757948019
 10
32.50474397563528
 20
20.91849295704824
 10
32.61374577727625
 20
20.89544475281899
 10
32.71286799538456
 20
20.90281184699572
 10
32.78702017078678
 20
20.9394726662779
  0
LWPOLYLINE
  5
80
330
2
100
AcDbEntity
  8
0
  6
Continuous
 62
     7
370
    15
100
AcDbPolyline
 90
       17
 70
   128
 43
0.0
 10
33.93023036070605
 20
20.19184359451251
 10
33.96812349691177
 20
20.25221686145878
 10
33.96398870744071
 20
20.32711129351298
 10
33.91845547648487
 20
20.4051248922723
 10
33.83845582569274
 20
20.47438079452822
 10
33.73616897672651
 20
20.52433541698357
 10
33.62716717508551
 20
20.54738362121283
 10
33.52804495700062
 20
20.54001652701268
 10
33.45389278157498
 20
20.50335570775394
 10
33.41599964536928
 20
20.44298244078426
 10
33.42013443486377
 20
20.36808800873005
 10
33.46566766581961
 20
20.29007440997073
 10
33.54566731658832
 20
20.22081850771481
 10
33.64795416555458
 20
20.17086388525944
 10
33.75695596719555
 20
20.14781568105362
 10
33.85607818530386
 20
20.15518277523036
 10
33.93023036070605
 20
20.19184359451251
  0
LINE
  5
81
330
2
100
AcDbEntity
  8
0
  6
Continuous
 62
     7
370
    15
100
AcDbLine
 10
35.08311086300898
 20
19.17086748275983
 30
0.0
 11
34.3644526311019
 21
19.64085086077778
 31
0.0
  0
ARC
  5
82
330
2
100
AcDbEntity
  8
0
  6
Continuous
 62
     7
370
    15
100
AcDbCircle
 10
33.85523947891702
 20
18.85780482245077
 30
0.0
 40
0.9340552084918156
100
AcDbArc
 50
56.96413735989839
 51
75.62988647090077
  0
LINE
  5
83
330
2
100
AcDbEntity
  8
0
  6
Continuous
 62
     7
370
    15
100
AcDbLine
 10
34.0870576192454
 20
19.76263601238993
 30
0.0
 11
34.05338075182857
 21
19.77125211447303
 31
0.0
  0
ARC
  5
84
330
2
100
AcDbEntity
  8
0
  6
Continuous
 62
     7
370
    15
100
AcDbCircle
 10
34.98065331321229
 20
23.39057687429997
 30
0.0
 40
3.736220833969158
100
AcDbArc
 50
236.9641373599995
 51
255.6298864709008
  0
LINE
  5
85
330
2
100
AcDbEntity
  8
0
  6
Continuous
 62
     7
370
    15
100
AcDbLine
 10
32.94380070442594
 20
20.25839272099196
 30
0.0
 11
31.90267229070315
 21
20.9392630250145
 31
0.0
  0
LINE
  5
86
330
2
100
AcDbEntity
  8
0
  6
Continuous
 62
     7
370
    15
100
AcDbLine
 10
36.29685430190298
 20
18.70592830202124
 30
0.0
 11
35.13479659265243
 21
19.1444250674712
 31
0.0
  0
ARC
  5
87
330
2
100
AcDbEntity
  8
0
  6
Continuous
 62
     7
370
    15
100
AcDbCircle
 10
35.22978043807359
 20
19.39382049053505
 30
0.0
 40
0.2668707700874644
100
AcDbArc
 50
236.6610925817991
 51
249.1503439898009
  0
ARC
  5
88
330
2
100
AcDbEntity
  8
0
  6
Continuous
 62
     7
370
    15
100
AcDbCircle
 10
35.25822664177344
 20
16.05863693129949
 30
0.0
 40
2.843747354796554
100
AcDbArc
 50
36.76938027299874
 51
68.5781361935983
  0
LWPOLYLINE
  5
89
330
2
100
AcDbEntity
  8
0
  6
Continuous
 62
     7
370
    15
100
AcDbPolyline
 90
       17
 70
   128
 43
0.0
 10
52.81246763579904
 20
20.56565813038348
 10
52.8866198112247
 20
20.52899731112475
 10
52.98574202933298
 20
20.52163021692459
 10
53.09474383095054
 20
20.54467842115385
 10
53.19703067991676
 20
20.59463304360921
 10
53.27703033070893
 20
20.66388894586514
 10
53.32256356166476
 20
20.74190254462444
 10
53.32669835115925
 20
20.81679697667867
 10
53.28880521493013
 20
20.87717024362492
 10
53.21465303952789
 20
20.91383106290709
 10
53.11553082141961
 20
20.92119815708381
 10
53.00652901977861
 20
20.89814995287797
 10
52.90424217081238
 20
20.84819533042263
 10
52.82424252004364
 20
20.7789394281667
 10
52.77870928908782
 20
20.70092582940739
 10
52.77457449959332
 20
20.62603139735317
 10
52.81246763579904
 20
20.56565813038348
  0
LWPOLYLINE
  5
8A
330
2
100
AcDbEntity
  8
0
  6
Continuous
 62
     7
370
    15
100
AcDbPolyline
 90
       17
 70
   128
 43
0.0
 10
52.97416881802425
 20
21.29445986782136
 10
53.04832099342644
 20
21.2577990485626
 10
53.14744321153478
 20
21.25043195436248
 10
53.25644501317575
 20
21.27348015859173
 10
53.358731862142
 20
21.32343478104708
 10
53.43873151291072
 20
21.39269068330301
 10
53.48426474386653
 20
21.4707042820623
 10
53.48839953336105
 20
21.54559871411652
 10
53.45050639715532
 20
21.6059719810628
 10
53.37635422172969
 20
21.64263280034494
 10
53.2772320036448
 20
21.64999989452167
 10
53.16823020200382
 20
21.62695169031586
 10
53.0659433530376
 20
21.57699706786051
 10
52.98594370224543
 20
21.50774116560457
 10
52.9404104712896
 20
21.42972756684525
 10
52.93627568181853
 20
21.35483313479102
 10
52.97416881802425
 20
21.29445986782136
  0
LWPOLYLINE
  5
8B
330
2
100
AcDbEntity
  8
0
  6
Continuous
 62
     7
370
    15
100
AcDbPolyline
 90
       17
 70
   128
 43
0.0
 10
51.83095862810495
 20
20.54683079605599
 10
51.90511080350717
 20
20.51016997677383
 10
52.0042330216155
 20
20.5028028825971
 10
52.11323482325648
 20
20.52585108680292
 10
52.21552167222268
 20
20.57580570925828
 10
52.29552132299142
 20
20.64506161153763
 10
52.34105455394725
 20
20.72307521029693
 10
52.34518934344177
 20
20.79796964232774
 10
52.30729620723605
 20
20.85834290929742
 10
52.23314403181041
 20
20.89500372857958
 10
52.13402181372552
 20
20.90237082275629
 10
52.02502001208455
 20
20.87932261852704
 10
51.9227331631183
 20
20.8293679960717
 10
51.84273351232616
 20
20.76011209381576
 10
51.79720028137032
 20
20.68209849505647
 10
51.79306549189925
 20
20.60720406302567
 10
51.83095862810495
 20
20.54683079605599
  0
LINE
  5
8C
330
2
100
AcDbEntity
  8
0
  6
Continuous
 62
     7
370
    15
100
AcDbLine
 10
53.22729219713124
 20
20.25839272099196
 30
0.0
 11
54.26842061085403
 21
20.93926302501451
 31
0.0
  0
LINE
  5
8D
330
2
100
AcDbEntity
  8
0
  6
Continuous
 62
     7
370
    15
100
AcDbLine
 10
51.82569377221024
 20
19.65331134438498
 30
0.0
 11
51.08798203854821
 21
19.17086748275983
 31
0.0
  0
LINE
  5
8E
330
2
100
AcDbEntity
  8
0
  6
Continuous
 62
     7
370
    15
100
AcDbLine
 10
51.03629630890475
 20
19.1444250674712
 30
0.0
 11
49.87423859965423
 21
18.70592830202124
 31
0.0
  0
ARC
  5
8F
330
2
100
AcDbEntity
  8
0
  6
Continuous
 62
     7
370
    15
100
AcDbCircle
 10
50.94131246348357
 20
19.39382049051164
 30
0.0
 40
0.2668707700842821
100
AcDbArc
 50
290.8496560101014
 51
303.3389074183014
  0
ARC
  5
90
330
2
100
AcDbEntity
  8
0
  6
Continuous
 62
     7
370
    15
100
AcDbCircle
 10
50.93354263538651
 20
16.03152108110149
 30
0.0
 40
2.876556799973057
100
AcDbArc
 50
111.6079876271994
 51
143.0444959061989
  0
LWPOLYLINE
  5
91
330
2
100
AcDbEntity
  8
0
  6
Continuous
 62
     7
370
    15
100
AcDbPolyline
 90
        8
 70
   128
 43
0.0
 10
41.91439241434932
 20
12.48963241320388
 10
41.91940747575225
 20
12.51605745692865
 10
41.93443118462659
 20
12.54236934454683
 10
41.95939920718567
 20
12.56845540455187
 10
41.99420462652883
 20
12.59420393238893
 10
42.0386984004692
 20
12.61950466891802
 10
42.09268999985915
 20
12.64424927252964
 10
42.1178155175734
 20
12.65432351523774
  0
ARC
  5
92
330
2
100
AcDbEntity
  8
0
  6
Continuous
 62
     7
370
    15
100
AcDbCircle
 10
51.20949309151296
 20
23.40303735883995
 30
0.0
 40
3.736220833969514
100
AcDbArc
 50
284.3701135290992
 51
303.0358626400005
  0
LINE
  5
93
330
2
100
AcDbEntity
  8
0
  6
Continuous
 62
     7
370
    15
100
AcDbLine
 10
52.13676565289666
 20
19.78371259901301
 30
0.0
 11
52.10308878547985
 21
19.7750964969299
 31
0.0
  0
ARC
  5
94
330
2
100
AcDbEntity
  8
0
  6
Continuous
 62
     7
370
    15
100
AcDbCircle
 10
52.33490692580819
 20
18.87026530696729
 30
0.0
 40
0.9340552084928956
100
AcDbArc
 50
104.3701135290992
 51
123.0358626400005
  0
ARC
  5
95
330
2
100
AcDbEntity
  8
0
  6
Continuous
 62
     7
370
    15
100
AcDbCircle
 10
54.87186224310727
 20
22.29987867762545
 30
0.0
 40
1.428428739311296
100
AcDbArc
 50
190.9690890528013
 51
224.3814861082009
  0
LINE
  5
96
330
2
100
AcDbEntity
  8
0
  6
Continuous
 62
     7
370
    15
100
AcDbLine
 10
53.46406592302281
 20
22.05728304268339
 30
0.0
 11
53.46953092311491
 21
22.02807813998476
 31
0.0
  0
LINE
  5
97
330
2
100
AcDbEntity
  8
0
  6
Continuous
 62
     7
370
    15
100
AcDbLine
 10
54.63521995944038
 20
21.04303389538289
 30
0.0
 11
54.64068495953248
 21
21.01382899270766
 31
0.0
  0
LWPOLYLINE
  5
98
330
2
100
AcDbEntity
  8
0
  6
Continuous
 62
     7
370
    15
100
AcDbPolyline
 90
        9
 70
   128
 43
0.0
 10
54.43654306485183
 20
20.79366470890994
 10
54.49195994952219
 20
20.75329968393266
 10
54.54184055473795
 20
20.7326909106904
 10
54.58426799677676
 20
20.73263037273107
 10
54.61761181286096
 20
20.75312039655214
 10
54.64059061881184
 20
20.79337356198402
 10
54.65232135200153
 20
20.85184296246797
 10
54.65235320696968
 20
20.92628165173417
 10
54.64068495953248
 20
21.01382899270766
  0
LINE
  5
99
330
2
100
AcDbEntity
  8
0
  6
Continuous
 62
     7
370
    15
100
AcDbLine
 10
53.85096604664304
 20
21.30078928253678
 30
0.0
 11
54.43654306485183
 21
20.79366470890994
 31
0.0
  0
LWPOLYLINE
  5
9A
330
2
100
AcDbEntity
  8
0
  6
Continuous
 62
     7
370
    15
100
AcDbPolyline
 90
        9
 70
   128
 43
0.0
 10
53.26206934029534
 20
22.1152789413743
 10
53.29423622290872
 20
22.13247588167086
 10
53.32735291064927
 20
22.14279729329965
 10
53.35984940800779
 20
22.14575385894585
 10
53.39018512153129
 20
22.14120541379349
 10
53.41692189612769
 20
22.12936759044267
 10
53.43879219517964
 20
22.11080159628078
 10
53.45475919187288
 20
22.08638760769694
 10
53.46406592302281
 20
22.05728304268339
  0
LINE
  5
9B
330
2
100
AcDbEntity
  8
0
  6
Continuous
 62
     7
370
    15
100
AcDbLine
 10
52.0577911340323
 20
21.32771301041953
 30
0.0
 11
53.26206934029534
 21
22.1152789413743
 31
0.0
  0
ARC
  5
9C
330
2
100
AcDbEntity
  8
0
  6
Continuous
 62
     7
370
    15
100
AcDbCircle
 10
54.52934547407352
 20
21.02562296922248
 30
0.0
 40
0.1072965376963567
100
AcDbArc
 50
9.338634848400069
 51
48.50877017649956
  0
ARC
  5
9D
330
2
100
AcDbEntity
  8
0
  6
Continuous
 62
     7
370
    15
100
AcDbCircle
 10
53.55290617118291
 20
18.96331023843896
 30
0.0
 40
2.797457674838269
100
AcDbArc
 50
122.3069534488992
 51
144.976515639701
  0
ARC
  5
9E
330
2
100
AcDbEntity
  8
0
  6
Continuous
 62
     7
370
    15
100
AcDbCircle
 10
50.20129398301349
 20
16.66032106011912
 30
0.0
 40
2.962970197865763
100
AcDbArc
 50
111.6424862235009
 51
145.9342958116003
  0
LINE
  5
9F
330
2
100
AcDbEntity
  8
0
  6
Continuous
 62
     7
370
    15
100
AcDbLine
 10
49.10850937856176
 20
19.41441150919924
 30
0.0
 11
50.27056708778889
 21
19.85290827464919
 31
0.0
  0
ARC
  5
A0
330
2
100
AcDbEntity
  8
0
  6
Continuous
 62
     7
370
    15
100
AcDbCircle
 10
50.19932920372887
 20
20.03995484194122
 30
0.0
 40
0.2001530775661065
100
AcDbArc
 50
290.8496560101991
 51
303.3389074182009
  0
LINE
  5
A1
330
2
100
AcDbEntity
  8
0
  6
Continuous
 62
     7
370
    15
100
AcDbLine
 10
50.30933138502732
 20
19.87274008610395
 30
0.0
 11
51.0470431201025
 21
20.35518394866186
 31
0.0
  0
ARC
  5
A2
330
2
100
AcDbEntity
  8
0
  6
Continuous
 62
     7
370
    15
100
AcDbCircle
 10
50.67326436080898
 20
20.94628464163942
 30
0.0
 40
0.6993644187096409
100
AcDbArc
 50
302.3069534488992
 51
324.9765156397011
  0
LINE
  5
A3
330
2
100
AcDbEntity
  8
0
  6
Continuous
 62
     7
370
    15
100
AcDbLine
 10
51.24598568737707
 20
20.5449109102677
 30
0.0
 11
51.26202086488717
 21
20.56880516397274
 31
0.0
  0
LWPOLYLINE
  5
A4
330
2
100
AcDbEntity
  8
0
  6
Continuous
 62
     7
370
    15
100
AcDbPolyline
 90
       17
 70
   128
 43
0.0
 10
43.49545036351301
 20
12.61405414913838
 10
43.38340505190513
 20
12.61020974843494
 10
43.28841762329131
 20
12.59926182153644
 10
43.22494905260614
 20
12.58287709101618
 10
43.20266185440863
 20
12.56354998359168
 10
43.22494905260614
 20
12.54422287619059
 10
43.28841762329131
 20
12.52783814567034
 10
43.38340505190513
 20
12.51689021874841
 10
43.49545036351301
 20
12.5130458180684
 10
43.60749567514438
 20
12.51689021874841
 10
43.70248310375816
 20
12.52783814567034
 10
43.76595167444335
 20
12.54422287619059
 10
43.7882388726174
 20
12.56354998359168
 10
43.76595167444335
 20
12.58287709101618
 10
43.70248310375816
 20
12.59926182153644
 10
43.60749567514438
 20
12.61020974843494
 10
43.49545036351301
 20
12.61405414913838
  0
LINE
  5
A5
330
2
100
AcDbEntity
  8
0
  6
Continuous
 62
     7
370
    15
100
AcDbLine
 10
41.91439241434932
 20
12.48559207997606
 30
0.0
 11
41.91439241434932
 21
12.23022249109115
 31
0.0
  0
LWPOLYLINE
  5
A6
330
2
100
AcDbEntity
  8
0
  6
Continuous
 62
     7
370
    15
100
AcDbPolyline
 90
        8
 70
   128
 43
0.0
 10
44.25670048718444
 20
12.48559207997606
 10
44.25168542580496
 20
12.51201712367742
 10
44.23666171693059
 20
12.53832901131901
 10
44.21169369437154
 20
12.56441507130064
 10
44.17688827502831
 20
12.5901635991377
 10
44.13239450108796
 20
12.61546433569021
 10
44.07840290169807
 20
12.6402089392784
 10
44.04441879609706
 20
12.65366454815635
  0
LINE
  5
A7
330
2
100
AcDbEntity
  8
0
  6
Continuous
 62
     7
370
    15
100
AcDbLine
 10
44.25670048718444
 20
12.48559207997606
 30
0.0
 11
44.25670048718444
 21
12.23022249109115
 31
0.0
  0
LWPOLYLINE
  5
A8
330
2
100
AcDbEntity
  8
0
  6
Continuous
 62
     7
370
    15
100
AcDbPolyline
 90
       17
 70
   128
 43
0.0
 10
33.74947567533622
 20
20.93310581646692
 10
33.78736881154194
 20
20.99347908343661
 10
33.78323402204745
 20
21.06837351546742
 10
33.73770079109161
 20
21.1463871142267
 10
33.65770114032287
 20
21.21564301650606
 10
33.55541429135664
 20
21.26559763896143
 10
33.44641248971567
 20
21.28864584316726
 10
33.34729027160737
 20
21.28127874899051
 10
33.27313809620517
 20
21.24461792970835
 10
33.23524495999942
 20
21.18424466273868
 10
33.23937974947052
 20
21.10935023070786
 10
33.28491298042635
 20
21.03133663194858
 10
33.36491263121849
 20
20.96208072966921
 10
33.46719948018472
 20
20.91212610723728
 10
33.57620128180227
 20
20.88907790300803
 10
33.67532349991058
 20
20.89644499718477
 10
33.74947567533622
 20
20.93310581646692
  0
ARC
  5
A9
330
2
100
AcDbEntity
  8
0
  6
Continuous
 62
     7
370
    15
100
AcDbCircle
 10
31.29923065844991
 20
22.29987867762545
 30
0.0
 40
1.428428739311631
100
AcDbArc
 50
315.6185138917991
 51
349.0309109471986
  0
LWPOLYLINE
  5
AA
330
2
100
AcDbEntity
  8
0
  6
Continuous
 62
     7
370
    15
100
AcDbPolyline
 90
        9
 70
   128
 43
0.0
 10
31.53040794202471
 20
21.01382899270766
 10
31.51873969458748
 20
20.92628165173417
 10
31.51877154953223
 20
20.85184296246797
 10
31.53050228274535
 20
20.79337356198402
 10
31.55348108869623
 20
20.75312039655214
 10
31.58682490478043
 20
20.73263037273107
 10
31.62925234681921
 20
20.7326909106904
 10
31.67913295201155
 20
20.75329968393266
 10
31.73454983670536
 20
20.79366470890994
  0
LINE
  5
AB
330
2
100
AcDbEntity
  8
0
  6
Continuous
 62
     7
370
    15
100
AcDbLine
 10
31.53587294211681
 20
21.04303389538289
 30
0.0
 11
31.53040794202471
 21
21.01382899270766
 31
0.0
  0
LINE
  5
AC
330
2
100
AcDbEntity
  8
0
  6
Continuous
 62
     7
370
    15
100
AcDbLine
 10
32.70702697853437
 20
22.05728304268339
 30
0.0
 11
32.70156197844227
 21
22.02807813998476
 31
0.0
  0
LINE
  5
AD
330
2
100
AcDbEntity
  8
0
  6
Continuous
 62
     7
370
    15
100
AcDbLine
 10
31.73454983670536
 20
20.79366470890994
 30
0.0
 11
32.32012685491415
 21
21.30078928253678
 31
0.0
  0
LWPOLYLINE
  5
AE
330
2
100
AcDbEntity
  8
0
  6
Continuous
 62
     7
370
    15
100
AcDbPolyline
 90
        9
 70
   128
 43
0.0
 10
32.90902356126185
 20
22.1152789413743
 10
32.87685667864844
 20
22.13247588167086
 10
32.84373999090789
 20
22.14279729329965
 10
32.8112434935494
 20
22.14575385894585
 10
32.7809077800259
 20
22.14120541379349
 10
32.7541710054295
 20
22.12936759044267
 10
32.73230070637755
 20
22.11080159628078
 10
32.71633370968431
 20
22.08638760769694
 10
32.70702697853437
 20
22.05728304268339
  0
LINE
  5
AF
330
2
100
AcDbEntity
  8
0
  6
Continuous
 62
     7
370
    15
100
AcDbLine
 10
34.11330176752489
 20
21.32771301041953
 30
0.0
 11
32.90902356126185
 21
22.1152789413743
 31
0.0
  0
ARC
  5
B0
330
2
100
AcDbEntity
  8
0
  6
Continuous
 62
     7
370
    15
100
AcDbCircle
 10
31.64174742748367
 20
21.02562296922248
 30
0.0
 40
0.1072965376964565
100
AcDbArc
 50
131.4912298235004
 51
170.6613651515999
  0
ARC
  5
B1
330
2
100
AcDbEntity
  8
0
  6
Continuous
 62
     7
370
    15
100
AcDbCircle
 10
32.61818673037428
 20
18.96331023843896
 30
0.0
 40
2.797457674839639
100
AcDbArc
 50
35.02348436039884
 51
57.69304655110075
  0
ARC
  5
B2
330
2
100
AcDbEntity
  8
0
  6
Continuous
 62
     7
370
    15
100
AcDbCircle
 10
35.97176369782829
 20
20.03995484194122
 30
0.0
 40
0.2001530775650546
100
AcDbArc
 50
236.6610925817991
 51
249.1503439898009
  0
LINE
  5
B3
330
2
100
AcDbEntity
  8
0
  6
Continuous
 62
     7
370
    15
100
AcDbLine
 10
35.90052581376827
 20
19.85290827464919
 30
0.0
 11
37.0625835229954
 21
19.41441150919924
 31
0.0
  0
ARC
  5
B4
330
2
100
AcDbEntity
  8
0
  6
Continuous
 62
     7
370
    15
100
AcDbCircle
 10
35.96979891854369
 20
16.66032106011912
 30
0.0
 40
2.962970197865845
100
AcDbArc
 50
34.06570418839967
 51
68.35751377649905
  0
LINE
  5
B5
330
2
100
AcDbEntity
  8
0
  6
Continuous
 62
     7
370
    15
100
AcDbLine
 10
35.12404978145469
 20
20.35518394866186
 30
0.0
 11
35.86176151652984
 21
19.87274008610395
 31
0.0
  0
ARC
  5
B6
330
2
100
AcDbEntity
  8
0
  6
Continuous
 62
     7
370
    15
100
AcDbCircle
 10
35.49782854074823
 20
20.94628464163942
 30
0.0
 40
0.6993644187097793
100
AcDbArc
 50
215.0234843603987
 51
237.6930465511008
  0
LINE
  5
B7
330
2
100
AcDbEntity
  8
0
  6
Continuous
 62
     7
370
    15
100
AcDbLine
 10
34.90907203667001
 20
20.56880516397274
 30
0.0
 11
34.92510721418012
 21
20.5449109102677
 31
0.0
  0
LINE
  5
B8
330
2
100
AcDbEntity
  8
0
  6
Continuous
 62
     7
370
    15
100
AcDbLine
 10
43.08757311474429
 20
21.70783700540781
 30
0.0
 11
43.08757311474429
 21
25.96690407057515
 31
0.0
  0
ARC
  5
B9
330
2
100
AcDbEntity
  8
0
  6
Continuous
 62
     7
370
    15
100
AcDbCircle
 10
42.4785120129465
 20
25.99082242267178
 30
0.0
 40
0.6095305679687014
100
AcDbArc
 50
357.7511011825993
 51
47.59820542870055
  0
LINE
  5
BA
330
2
100
AcDbEntity
  8
0
  6
Continuous
 62
     7
370
    15
100
AcDbLine
 10
46.71387091083036
 20
24.93451532301487
 30
0.0
 11
46.71387091083036
 21
21.01546562177532
 31
0.0
  0
LINE
  5
BB
330
2
100
AcDbEntity
  8
0
  6
Continuous
 62
     7
370
    15
100
AcDbLine
 10
46.38090059640933
 20
25.52205362571766
 30
0.0
 11
46.47191354776444
 21
25.44656624785783
 31
0.0
  0
ARC
  5
BC
330
2
100
AcDbEntity
  8
0
  6
Continuous
 62
     7
370
    15
100
AcDbCircle
 10
46.10480980903261
 20
24.95843367511147
 30
0.0
 40
0.6095305679684526
100
AcDbArc
 50
357.7511011825993
 51
47.59820542879981
  0
LINE
  5
BD
330
2
100
AcDbEntity
  8
0
  6
Continuous
 62
     7
370
    15
100
AcDbLine
 10
44.37997134567058
 20
26.01880840719861
 30
0.0
 11
44.37997134567058
 21
21.62980120355892
 31
0.0
  0
LINE
  5
BE
330
2
100
AcDbEntity
  8
0
  6
Continuous
 62
     7
370
    15
100
AcDbLine
 10
45.5427168744128
 20
21.41491295499276
 30
0.0
 11
45.5427168744128
 21
25.94876447029196
 31
0.0
  0
ARC
  5
BF
330
2
100
AcDbEntity
  8
0
  6
Continuous
 62
     7
370
    15
100
AcDbCircle
 10
44.94824393916437
 20
25.97196607761738
 30
0.0
 40
0.5949255292314126
100
AcDbArc
 50
357.7649448216986
 51
111.3846782332999
  0
LINE
  5
C0
330
2
100
AcDbEntity
  8
0
  6
Continuous
 62
     7
370
    15
100
AcDbLine
 10
44.73131755659585
 20
26.52593298084886
 30
0.0
 11
44.27126444968067
 21
26.3931270882954
 31
0.0
  0
LINE
  5
C1
330
2
100
AcDbEntity
  8
0
  6
Continuous
 62
     7
370
    15
100
AcDbLine
 10
39.4572219907268
 20
24.19203341566561
 30
0.0
 11
39.4572219907268
 21
21.01546562177532
 31
0.0
  0
ARC
  5
C2
330
2
100
AcDbEntity
  8
0
  6
Continuous
 62
     7
370
    15
100
AcDbCircle
 10
40.59009089055135
 20
24.14263173492036
 30
0.0
 40
1.133945532305417
100
AcDbArc
 50
128.036487570099
 51
177.5030511755998
  0
LINE
  5
C3
330
2
100
AcDbEntity
  8
0
  6
Continuous
 62
     7
370
    15
100
AcDbLine
 10
44.11719623068989
 20
26.54387049152277
 30
0.0
 11
44.1380139826046
 21
26.53085933204157
 31
0.0
  0
ARC
  5
C4
330
2
100
AcDbEntity
  8
0
  6
Continuous
 62
     7
370
    15
100
AcDbCircle
 10
43.77091024387278
 20
26.04272675929522
 30
0.0
 40
0.6095305679687375
100
AcDbArc
 50
357.7511011825993
 51
47.59820542870055
  0
LINE
  5
C5
330
2
100
AcDbEntity
  8
0
  6
Continuous
 62
     7
370
    15
100
AcDbLine
 10
46.05404570188904
 20
25.62305611965893
 30
0.0
 11
46.05404570188904
 21
21.26774612675645
 31
0.0
  0
LINE
  5
C6
330
2
100
AcDbEntity
  8
0
  6
Continuous
 62
     7
370
    15
100
AcDbLine
 10
46.40539191281431
 20
21.14338069407567
 30
0.0
 11
46.40539191281431
 21
25.31878137546878
 31
0.0
  0
ARC
  5
C7
330
2
100
AcDbEntity
  8
0
  6
Continuous
 62
     7
370
    15
100
AcDbCircle
 10
45.82851898099415
 20
25.35238821869568
 30
0.0
 40
0.5778510183331242
100
AcDbArc
 50
356.6658924962008
 51
73.03118074210131
  0
LINE
  5
C8
330
2
100
AcDbEntity
  8
0
  6
Continuous
 62
     7
370
    15
100
AcDbLine
 10
45.7912705869154
 20
26.14811820398325
 30
0.0
 11
45.81208833882309
 21
26.1351070445019
 31
0.0
  0
ARC
  5
C9
330
2
100
AcDbEntity
  8
0
  6
Continuous
 62
     7
370
    15
100
AcDbCircle
 10
45.44498460009125
 20
25.64697447175556
 30
0.0
 40
0.609530567968673
100
AcDbArc
 50
357.7511011825993
 51
47.59820542870055
  0
ARC
  5
CA
330
2
100
AcDbEntity
  8
0
  6
Continuous
 62
     7
370
    15
100
AcDbCircle
 10
43.08552540536308
 20
22.95911013147367
 30
0.0
 40
6.657355944000397
100
AcDbArc
 50
267.1490205892011
 51
304.5438631266313
  0
ARC
  5
CB
330
2
100
AcDbEntity
  8
0
  6
Continuous
 62
     7
370
    15
100
AcDbCircle
 10
42.90668767489828
 20
21.51676492179009
 30
0.0
 40
5.208372353962475
100
AcDbArc
 50
229.1782061223306
 51
267.9798835934996
  0
SPLINE
  5
CC
330
2
100
AcDbEntity
  8
0
  6
Continuous
 62
     7
370
    15
100
AcDbSpline
210
0.0
220
0.0
230
1.0
 70
     8
 71
     3
 72
    12
 73
     8
 74
     0
 42
0.000000001
 43
0.0000000001
 40
0.0
 40
0.0
 40
0.0
 40
0.0
 40
0.1675681985174032
 40
0.4277512044741458
 40
0.6823838153901852
 40
0.9355543983428468
 40
1.0
 40
1.0
 40
1.0
 40
1.0
 10
42.68978755747361
 20
16.31498762971432
 30
0.0
 10
42.69813652925813
 20
16.31438185284737
 30
0.0
 10
42.71944894276237
 20
16.31283548673032
 30
0.0
 10
42.76160067644759
 20
16.31040324164136
 30
0.0
 10
42.81129136477273
 20
16.30819957651987
 30
0.0
 10
42.84673998348393
 20
16.30708040594037
 30
0.0
 10
42.86400279264859
 20
16.30668235658773
 30
0.0
 10
42.86750548607798
 20
16.30660159077268
 30
0.0
  0
LWPOLYLINE
  5
CD
330
2
100
AcDbEntity
  8
0
  6
Continuous
 62
     7
370
    15
100
AcDbPolyline
 90
       71
 70
   128
 43
0.0
 10
44.58835562219769
 20
13.32024882941704
 10
44.14488953314952
 20
13.26271563422138
 10
43.69289423649465
 20
13.22529004762916
 10
43.23600893255499
 20
13.20827339843897
 10
42.77791219320429
 20
13.21180269473818
 10
42.32229234401503
 20
13.2358495206993
 10
41.87281776810201
 20
13.2802202654
 10
41.43310737046053
 20
13.34455768169949
 10
41.00670144066149
 20
13.42834376254593
 10
40.59703314857796
 20
13.53090391171359
 10
40.2074009023629
 20
13.65141237517032
 10
39.84094179178172
 20
13.78889888960177
 10
39.50060633012052
 20
13.94225649445394
 10
39.18913469840394
 20
14.1102504444857
 10
38.90903468305493
 20
14.29152815115654
 10
38.66256148470728
 20
14.48463007297729
 10
38.45169956063333
 20
14.68800146679935
 10
38.27814664708782
 20
14.90000490576496
 10
38.14330009001947
 20
15.11893346282414
 10
38.0482455946842
 20
15.34302445396975
 10
37.99374848394066
 20
15.57047363030541
 10
37.98024753650447
 20
15.79944970478264
 10
38.00785145404461
 20
16.02810909672555
 10
38.07633798607404
 20
16.25461077513095
 10
38.18515571930897
 20
16.47713108166031
 10
38.33342851730293
 20
16.69387841365568
 10
38.51996257472939
 20
16.90310764903314
 10
38.74325602897233
 20
17.10313419703934
 10
39.00151105247926
 20
17.2923475615036
 10
39.29264832763957
 20
17.46922430766788
 10
39.61432378831427
 20
17.6323403280111
 10
39.96394749279591
 20
17.78038230819832
 10
40.3387044766278
 20
17.91215830126674
 10
40.73557741691755
 20
18.02660732441308
 10
41.15137092612386
 20
18.12280790141467
 10
41.58273727935949
 20
18.19998548174962
 10
42.02620336840766
 20
18.25751867694528
 10
42.4781986650625
 20
18.2949442635375
 10
42.93508396900216
 20
18.31196091272768
 10
43.3931807083529
 20
18.30843161642848
 10
43.84880055754211
 20
18.2843847904908
 10
44.29827513345517
 20
18.2400140457901
 10
44.73798553109662
 20
18.17567662946716
 10
45.16439146089573
 20
18.09189054862073
 10
45.57405975297922
 20
17.98933039945306
 10
45.96369199919428
 20
17.86882193601978
 10
46.33015110977544
 20
17.73133542156491
 10
46.67048657143666
 20
17.57797781671271
 10
46.98195820315326
 20
17.40998386670441
 10
47.26205821850226
 20
17.22870616003355
 10
47.50853141684993
 20
17.0356042382128
 10
47.71939334092382
 20
16.83223284436731
 10
47.89294625446934
 20
16.62022940540171
 10
48.02779281153772
 20
16.40130084834252
 10
48.12284730687299
 20
16.17720985719691
 10
48.1773444176165
 20
15.94976068086125
 10
48.19084536505272
 20
15.72078460638403
 10
48.16324144748915
 20
15.4921252144411
 10
48.09475491548315
 20
15.26562353605912
 10
47.98593718224822
 20
15.04310322952977
 10
47.83766438425423
 20
14.82635589753441
 10
47.65113032682779
 20
14.61712666213353
 10
47.42783687258486
 20
14.41710011412733
 10
47.16958184907793
 20
14.22788674966307
 10
46.87844457391759
 20
14.05101000349878
 10
46.55676911324289
 20
13.887893983179
 10
46.20714540876128
 20
13.73985200299177
 10
45.83238842492938
 20
13.60807600989993
 10
45.43551548463963
 20
13.49362698675359
 10
45.01972197543333
 20
13.39742640977541
 10
44.58835562219769
 20
13.32024882941704
  0
LWPOLYLINE
  5
CE
330
2
100
AcDbEntity
  8
0
  6
Continuous
 62
     7
370
    15
100
AcDbPolyline
 90
       80
 70
   128
 43
0.0
 10
46.35862999066387
 20
13.05687066584519
 10
46.79869792148878
 20
13.19585472585483
 10
47.21529011319723
 20
13.35188117018087
 10
47.60577273583376
 20
13.5239635493872
 10
47.96767703250353
 20
13.71101390327789
 10
48.29871492771676
 20
13.91184963927218
 10
48.59679349334306
 20
14.12520100921576
 10
48.86002818073118
 20
14.34971913703279
 10
49.08675473537442
 20
14.58398454683528
 10
49.2755397190503
 20
14.8265161372891
 10
49.42518957228088
 20
15.07578054555267
 10
49.53475816052307
 20
15.33020184183245
 10
49.60355275586159
 20
15.58817149274161
 10
49.6311384167499
 20
15.84805853108643
 10
49.61734073773974
 20
16.10821986736222
 10
49.56224695219265
 20
16.36701067781944
 10
49.4662053807836
 20
16.62279480360878
 10
49.32982322921626
 20
16.87395509518659
 10
49.1539627493905
 20
17.11890363627883
 10
48.93973578789161
 20
17.35609178336479
 10
48.68849675651268
 20
17.58401995659513
 10
48.4018340692916
 20
17.80124712068193
 10
48.08156010009952
 20
18.00639989556376
 10
47.72969972402296
 20
18.19818123931804
 10
47.34847751566627
 20
18.37537864855839
 10
46.94030368459886
 20
18.53687182422325
 10
46.50775883716574
 20
18.68163975443451
 10
46.05357766116378
 20
18.80876716973451
 10
45.58063163625888
 20
18.91745032966445
 10
45.09191087945859
 20
19.00700210433157
 10
44.59050524074195
 20
19.07685631852389
 10
44.07958476799936
 20
19.12657133145966
 10
43.56237966497983
 20
19.15583282881859
 10
43.04215986884742
 20
19.16445580995599
 10
42.52221437664229
 20
19.15238575762809
 10
42.00583045120658
 20
19.11969898261566
 10
41.49627283793165
 20
19.06660214118528
 10
40.99676312415204
 20
18.9934309286904
 10
40.51045937109032
 20
18.90064795711223
 10
40.04043614764813
 20
18.78883983024313
 10
39.58966509198993
 20
18.65871343508688
 10
39.16099612384292
 20
18.51109147259415
 10
38.75713942643285
 20
18.34690725630997
 10
38.38064831186793
 20
18.1671988117717
 10
38.03390307818592
 20
17.97310231359595
 10
37.71909596037597
 20
17.76584490234597
 10
37.43821727040327
 20
17.54673692608118
 10
37.19304281379109
 20
17.31716365601158
 10
36.98512266237623
 20
17.0785765282567
 10
36.81577135432605
 20
16.83248396743196
 10
36.68605958309092
 20
16.58044184996485
 10
36.59680742829781
 20
16.32404366726767
 10
36.54857917079363
 20
16.06491045118944
 10
36.54167972512264
 20
15.80468052538743
 10
36.57615271185387
 20
15.54499914719582
 10
36.65178018161029
 20
15.28750810592754
 10
36.76808399321266
 20
15.03383534286559
 10
36.92432883652174
 20
14.78558465885705
 10
37.11952688131086
 20
14.54432557464869
 10
37.35244402267904
 20
14.31158340788629
 10
37.62160768351339
 20
14.0888296294809
 10
37.92531612446101
 20
13.87747256052333
 10
38.26164920296981
 20
13.67884846844512
 10
38.62848051302618
 20
13.49421311871141
 10
39.02349082899616
 20
13.32473383547413
 10
39.44418276845056
 20
13.17148212131054
 10
39.88789658154642
 20
13.03542688291696
 10
40.35182696664435
 20
12.91742830529392
 10
40.83304080649918
 20
12.8182324134455
 10
41.32849571228979
 20
12.73846635574384
 10
41.83505925853563
 20
12.67863443889348
 10
42.34952878747572
 20
12.63911493953479
 10
42.86865165703349
 20
12.62015771265365
 10
43.38914580529791
 20
12.62188261195238
 10
43.90772050072621
 20
12.64427873206618
 10
44.42109714706313
 20
12.68720447749738
 10
44.92603001192366
 20
12.75038845789223
 10
45.41932674709872
 20
12.83343120373486
 10
45.8978685718487
 20
12.93580769210491
 10
46.35862999066387
 20
13.05687066584519
  0
LWPOLYLINE
  5
CF
330
2
100
AcDbEntity
  8
0
  6
Continuous
 62
     7
370
    15
100
AcDbPolyline
 90
       43
 70
   128
 43
0.0
 10
49.635637007983
 20
15.84751482664298
 10
49.64343286069212
 20
15.96968693846393
 10
49.62960926579984
 20
16.23033693016516
 10
49.57441199879198
 20
16.48961382180439
 10
49.47819003457357
 20
16.74587838140069
 10
49.34155171936487
 20
16.99751042192876
 10
49.16536092460788
 20
17.24291904455997
 10
48.9507315852195
 20
17.4805526970252
 10
48.69902065699696
 20
17.70890898282619
 10
48.41181953744627
 20
17.92654415999757
 10
48.09094400456181
 20
18.13208226889395
 10
47.73842273675271
 20
18.32422383140502
 10
47.35648448697304
 20
18.50175406671825
 10
46.94754399179453
 20
18.66355057151278
 10
46.51418670473441
 20
18.80859041619259
 10
46.05915245006042
 20
18.93595661216304
 10
45.58531810083695
 20
19.04484390934775
 10
45.09567939041111
 20
19.13456388714854
 10
44.59333197232195
 20
19.20454930703926
 10
44.08145184870076
 20
19.25435769859262
 10
43.56327529048343
 20
19.28367415717987
 10
43.04207837676401
 20
19.29231333467491
 10
42.52115628218596
 20
19.28022061145164
 10
42.00380244396234
 20
19.24747244154648
 10
41.49328773964706
 20
19.19427586948695
 10
40.99283980757618
 20
19.12096722108212
 10
40.50562264068008
 20
19.02800997726267
 10
40.03471658277419
 20
18.91599184359585
 10
39.58309885355561
 20
18.78562103484614
 10
39.15362472576879
 20
18.63772179718491
 10
38.74900947306051
 20
18.47322919725765
 10
38.37181120336783
 20
18.29318321024522
 10
38.02441468560912
 20
18.09872214479432
 10
37.70901627238718
 20
17.89107544643988
 10
37.42761001403767
 20
17.67155592439806
 10
37.18197505153054
 20
17.44155145180843
 10
36.973664368215
 20
17.20251619100281
 10
36.80399497123847
 20
16.95596139985251
 10
36.67403956520394
 20
16.70344587711884
 10
36.58461977001667
 20
16.44656610723876
 10
36.53630092639458
 20
16.18694616685101
 10
36.52938852166994
 20
15.92622745679661
 10
36.53545589355076
 20
15.84751482664298
  0
SPLINE
  5
D0
330
2
100
AcDbEntity
  8
0
  6
Continuous
 62
     7
370
    15
100
AcDbSpline
210
0.0
220
0.0
230
1.0
 70
     8
 71
     3
 72
     8
 73
     4
 74
     0
 42
0.000000001
 43
0.0000000001
 40
0.0
 40
0.0
 40
0.0
 40
0.0
 40
1.0
 40
1.0
 40
1.0
 40
1.0
 10
39.09936889644155
 20
20.840156597959
 30
0.0
 10
39.09800159794335
 20
20.8394221568964
 30
0.0
 10
39.09664493220978
 20
20.83860946452376
 30
0.0
 10
39.09529852371392
 20
20.83772120747509
 30
0.0
  0
LWPOLYLINE
  5
D1
330
2
100
AcDbEntity
  8
0
  6
Continuous
 62
     7
370
    15
100
AcDbPolyline
 90
       19
 70
   128
 43
0.0
 10
39.09936889643754
 20
20.84015659795709
 10
39.45404428709614
 20
21.01404497719271
 10
39.83893294848235
 20
21.17105136622474
 10
40.25083269464616
 20
21.30986950767089
 10
40.68631661351836
 20
21.42934446619803
 10
41.14176157809331
 20
21.52848223739589
 10
41.61337839001305
 20
21.60645801755356
 10
42.09724330483226
 20
21.66262306598954
 10
42.5893306767191
 20
21.69651010226838
 10
43.08554645076688
 20
21.70783719396361
 10
43.58176222483808
 20
21.69651010226838
 10
44.0738495967249
 20
21.66262306598954
 10
44.55771451154413
 20
21.60645801755356
 10
45.02933132346385
 20
21.52848223739589
 10
45.4847762880388
 20
21.42934446619803
 10
45.92026020691102
 20
21.30986950767089
 10
46.33215995307483
 20
21.17105136622474
 10
46.71704861446102
 20
21.01404497719271
 10
47.07172400511964
 20
20.84015659795709
  0
SPLINE
  5
D2
330
2
100
AcDbEntity
  8
0
  6
Continuous
 62
     7
370
    15
100
AcDbSpline
210
0.0
220
0.0
230
1.0
 70
     8
 71
     3
 72
     8
 73
     4
 74
     0
 42
0.000000001
 43
0.0000000001
 40
0.0
 40
0.0
 40
0.0
 40
0.0
 40
1.0
 40
1.0
 40
1.0
 40
1.0
 10
47.07579437784244
 20
20.83772120747505
 30
0.0
 10
47.07444735828724
 20
20.8386098676538
 30
0.0
 10
47.0730843381188
 20
20.83942589839467
 30
0.0
 10
47.07172400511479
 20
20.840156597959
 30
0.0
  0
ARC
  5
D3
330
2
100
AcDbEntity
  8
0
  6
Continuous
 62
     7
370
    15
100
AcDbCircle
 10
44.88292080975677
 20
16.0136661281438
 30
0.0
 40
4.664284283669042
100
AcDbArc
 50
58.94361143680064
 51
60.33924946770405
  0
SPLINE
  5
D4
330
2
100
AcDbEntity
  8
0
  6
Continuous
 62
     7
370
    15
100
AcDbSpline
210
0.0
220
0.0
230
1.0
 70
     8
 71
     3
 72
    12
 73
     8
 74
     0
 42
0.000000001
 43
0.0000000001
 40
0.0
 40
0.0
 40
0.0
 40
0.0
 40
0.2500000000000004
 40
0.2500000000000004
 40
0.5000000000000008
 40
0.5000000000000008
 40
1.0
 40
1.0
 40
1.0
 40
1.0
 10
47.36598429586104
 20
19.8634015493844
 30
0.0
 10
47.36561960234285
 20
19.87679252479336
 30
0.0
 10
47.36334242018751
 20
19.89111137005687
 30
0.0
 10
47.35528168202693
 20
19.92013467677649
 30
0.0
 10
47.34950419416992
 20
19.93468568231343
 30
0.0
 10
47.32834545034498
 20
19.97499502942282
 30
0.0
 10
47.30892858645506
 20
19.99745076540229
 30
0.0
 10
47.28913841085343
 20
20.00937191498173
 30
0.0
  0
LWPOLYLINE
  5
D5
330
2
100
AcDbEntity
  8
0
  6
Continuous
 62
     7
370
    15
100
AcDbPolyline
 90
        3
 70
   128
 43
0.0
 10
47.4036055689462
 20
18.48087763542622
 10
47.39906569083248
 20
18.64788113674169
 10
47.36598429586567
 20
19.86340154938513
  0
LWPOLYLINE
  5
D6
330
2
100
AcDbEntity
  8
0
  6
Continuous
 62
     7
370
    15
100
AcDbPolyline
 90
        3
 70
   128
 43
0.0
 10
38.80510860569152
 20
19.86340154938513
 10
38.77202721072467
 20
18.64788113674169
 10
38.76736001579983
 20
18.47619417164929
  0
SPLINE
  5
D7
330
2
100
AcDbEntity
  8
0
  6
Continuous
 62
     7
370
    15
100
AcDbSpline
210
0.0
220
0.0
230
1.0
 70
     8
 71
     3
 72
    12
 73
     8
 74
     0
 42
0.000000001
 43
0.0000000001
 40
0.0
 40
0.0
 40
0.0
 40
0.0
 40
0.2499999999999954
 40
0.2499999999999954
 40
0.4999999999999908
 40
0.4999999999999908
 40
1.0
 40
1.0
 40
1.0
 40
1.0
 10
38.88195449070287
 20
20.00937191498175
 30
0.0
 10
38.87205716352685
 20
20.00340999124354
 30
0.0
 10
38.86235839542337
 20
19.99500085494365
 30
0.0
 10
38.84412124541481
 20
19.97405148832077
 30
0.0
 10
38.83574616224084
 20
19.96164421245964
 30
0.0
 10
38.81454783470275
 20
19.92129750972783
 30
0.0
 10
38.80583816163335
 20
19.89018970200601
 30
0.0
 10
38.80510860569533
 20
19.8634015493844
 30
0.0
  0
ARC
  5
D8
330
2
100
AcDbEntity
  8
0
  6
Continuous
 62
     7
370
    15
100
AcDbCircle
 10
41.2825648064711
 20
16.02315687825365
 30
0.0
 40
4.653261244242114
100
AcDbArc
 50
119.7831070302607
 51
121.0575283144982
  0
ELLIPSE
  5
D9
330
2
100
AcDbEntity
  8
0
  6
Continuous
 62
     7
370
    15
100
AcDbEllipse
 10
48.00705606917495
 20
19.65036685677592
 30
0.0
 11
-0.0171387672703671
 21
0.0559998549327219
 31
0.0
210
0.0
220
0.0
230
1.0
 40
0.4241965134
 41
6.276413276825075
 42
7.084936568821362
  0
LINE
  5
DA
330
2
100
AcDbEntity
  8
0
  6
Continuous
 62
     7
370
    15
100
AcDbLine
 10
47.92675850616848
 20
19.13137427185074
 30
0.0
 11
47.9780672135478
 21
19.68408773168762
 31
0.0
  0
LINE
  5
DB
330
2
100
AcDbEntity
  8
0
  6
Continuous
 62
     7
370
    15
100
AcDbLine
 10
47.92675850616848
 20
19.13137427185074
 30
0.0
 11
47.93382490276522
 21
18.56761662283581
 31
0.0
  0
LINE
  5
DC
330
2
100
AcDbEntity
  8
0
  6
Continuous
 62
     7
370
    15
100
AcDbLine
 10
47.14221461092364
 20
20.44903185875658
 30
0.0
 11
47.99730595716602
 21
19.70850103034464
 31
0.0
  0
LINE
  5
DD
330
2
100
AcDbEntity
  8
0
  6
Continuous
 62
     7
370
    15
100
AcDbLine
 10
38.24433439538871
 20
19.13137427185074
 30
0.0
 11
38.23726799879196
 21
18.56761662283593
 31
0.0
  0
LINE
  5
DE
330
2
100
AcDbEntity
  8
0
  6
Continuous
 62
     7
370
    15
100
AcDbLine
 10
38.19302568800939
 20
19.68408773168762
 30
0.0
 11
38.24433439538871
 21
19.13137427185074
 31
0.0
  0
ELLIPSE
  5
DF
330
2
100
AcDbEntity
  8
0
  6
Continuous
 62
     7
370
    15
100
AcDbEllipse
 10
38.16403683238224
 20
19.65036685677592
 30
0.0
 11
0.0171387672703405
 21
0.0559998549327218
 31
0.0
210
0.0
220
0.0
230
0.9999999999999998
 40
0.4241965134
 41
5.48143404553838
 42
6.289957337533963
  0
LINE
  5
E0
330
2
100
AcDbEntity
  8
0
  6
Continuous
 62
     7
370
    15
100
AcDbLine
 10
38.17378694439117
 20
19.70850103034464
 30
0.0
 11
39.02895158583323
 21
20.44909533425131
 31
0.0
  0
SPLINE
  5
E1
330
2
100
AcDbEntity
  8
0
  6
Continuous
 62
     7
370
    15
100
AcDbSpline
210
0.0
220
0.0
230
1.0
 70
     8
 71
     3
 72
    10
 73
     6
 74
     0
 42
0.000000001
 43
0.0000000001
 40
0.0
 40
0.0
 40
0.0
 40
0.0
 40
0.1192843903783986
 40
0.558564775002333
 40
1.0
 40
1.0
 40
1.0
 40
1.0
 10
39.08489824533689
 20
20.81867033611503
 30
0.0
 10
39.08492161367695
 20
20.81965032952395
 30
0.0
 10
39.08503103898894
 20
20.82423927696473
 30
0.0
 10
39.08814474453152
 20
20.83128892668495
 30
0.0
 10
39.09291004424526
 20
20.83557361943635
 30
0.0
 10
39.09529852371392
 20
20.83772120747509
 30
0.0
  0
SPLINE
  5
E2
330
2
100
AcDbEntity
  8
0
  6
Continuous
 62
     7
370
    15
100
AcDbSpline
210
0.0
220
0.0
230
1.0
 70
     8
 71
     3
 72
    10
 73
     6
 74
     0
 42
0.000000001
 43
0.0000000001
 40
0.0
 40
0.0
 40
0.0
 40
0.0
 40
0.441195233210695
 40
0.8802367975535437
 40
1.0
 40
1.0
 40
1.0
 40
1.0
 10
47.07579437784244
 20
20.83772120747505
 30
0.0
 10
47.07818294857921
 20
20.83557365590715
 30
0.0
 10
47.08294843038373
 20
20.83128903591932
 30
0.0
 10
47.08606279835339
 20
20.82423513937635
 30
0.0
 10
47.08617192648438
 20
20.8196415616529
 30
0.0
 10
47.08619531485758
 20
20.81865706472026
 30
0.0
  0
LINE
  5
E3
330
2
100
AcDbEntity
  8
0
  6
Continuous
 62
     7
370
    15
100
AcDbLine
 10
38.18342481454314
 20
18.62745619151441
 30
0.0
 11
38.18146504676719
 21
19.01472068500006
 31
0.0
  0
LINE
  5
E4
330
2
100
AcDbEntity
  8
0
  6
Continuous
 62
     7
370
    15
100
AcDbLine
 10
37.99632629091059
 20
18.82188975032744
 30
0.0
 11
38.00230610442355
 21
19.1681541890661
 31
0.0
  0
LINE
  5
E5
330
2
100
AcDbEntity
  8
0
  6
Continuous
 62
     7
370
    15
100
AcDbLine
 10
38.18146504676719
 20
19.01472068500006
 30
0.0
 11
38.16743721778914
 21
19.12048494268411
 31
0.0
  0
LINE
  5
E6
330
2
100
AcDbEntity
  8
0
  6
Continuous
 62
     7
370
    15
100
AcDbLine
 10
47.98768028130957
 20
18.6298658737929
 30
0.0
 11
47.98962785479
 21
19.01472068500006
 31
0.0
  0
LINE
  5
E7
330
2
100
AcDbEntity
  8
0
  6
Continuous
 62
     7
370
    15
100
AcDbLine
 10
47.98962785479
 20
19.01472068500006
 30
0.0
 11
48.00365568376804
 21
19.12048494268411
 31
0.0
  0
LINE
  5
E8
330
2
100
AcDbEntity
  8
0
  6
Continuous
 62
     7
370
    15
100
AcDbLine
 10
48.16878679713363
 20
19.1681541890661
 30
0.0
 11
48.1747666106415
 21
18.82188975032254
 31
0.0
  0
SPLINE
  5
E9
330
2
100
AcDbEntity
  8
0
  6
Continuous
 62
     7
370
    15
100
AcDbSpline
210
0.0
220
0.0
230
1.0
 70
     8
 71
     3
 72
     8
 73
     4
 74
     0
 42
0.000000001
 43
0.0000000001
 40
0.0
 40
0.0
 40
0.0
 40
0.0
 40
1.0
 40
1.0
 40
1.0
 40
1.0
 10
37.88081433508665
 20
19.78594704762938
 30
0.0
 10
37.88023690637786
 20
19.78516908672321
 30
0.0
 10
37.87965145804355
 20
19.78429769424218
 30
0.0
 10
37.87906601577507
 20
19.78334330299052
 30
0.0
  0
SPLINE
  5
EA
330
2
100
AcDbEntity
  8
0
  6
Continuous
 62
     7
370
    15
100
AcDbSpline
210
0.0
220
0.0
230
1.0
 70
     8
 71
     3
 72
     8
 73
     4
 74
     0
 42
0.000000001
 43
0.0000000001
 40
0.0
 40
0.0
 40
0.0
 40
0.0
 40
1.0
 40
1.0
 40
1.0
 40
1.0
 10
37.91200181488165
 20
19.14213046562024
 30
0.0
 10
37.90096312613696
 20
19.35695436434861
 30
0.0
 10
37.89056153097764
 20
19.57156184660367
 30
0.0
 10
37.88081433508665
 20
19.78594704762938
 30
0.0
  0
ARC
  5
EB
330
2
100
AcDbEntity
  8
0
  6
Continuous
 62
     7
370
    15
100
AcDbCircle
 10
39.65516786417643
 20
17.95917940081262
 30
0.0
 40
2.10665637852529
100
AcDbArc
 50
143.4852171867002
 51
145.8383162472007
  0
SPLINE
  5
EC
330
2
100
AcDbEntity
  8
0
  6
Continuous
 62
     7
370
    15
100
AcDbSpline
210
0.0
220
0.0
230
1.0
 70
     8
 71
     3
 72
    12
 73
     8
 74
     0
 42
0.000000001
 43
0.0000000001
 40
0.0
 40
0.0
 40
0.0
 40
0.0
 40
0.2499999999999984
 40
0.2499999999999984
 40
0.4999999999999969
 40
0.4999999999999969
 40
1.0
 40
1.0
 40
1.0
 40
1.0
 10
38.00230610442614
 20
19.16815418906363
 30
0.0
 10
38.00253558395633
 20
19.18142806572405
 30
0.0
 10
38.00162247451434
 20
19.19298403741876
 30
0.0
 10
37.99769986126597
 20
19.21162945739577
 30
0.0
 10
37.99469114286268
 20
19.2185713851084
 30
0.0
 10
37.98340659684197
 20
19.23078401902908
 30
0.0
 10
37.97279399414307
 20
19.22723347408056
 30
0.0
 10
37.96204104518762
 20
19.21270350188268
 30
0.0
  0
ARC
  5
ED
330
2
100
AcDbEntity
  8
0
  6
Continuous
 62
     7
370
    15
100
AcDbCircle
 10
39.18852692031055
 20
18.95188650053612
 30
0.0
 40
1.551131288716227
100
AcDbArc
 50
147.5860389818016
 51
174.3059486323998
  0
SPLINE
  5
EE
330
2
100
AcDbEntity
  8
0
  6
Continuous
 62
     7
370
    15
100
AcDbSpline
210
0.0
220
0.0
230
1.0
 70
     8
 71
     3
 72
    12
 73
     8
 74
     0
 42
0.000000001
 43
0.0000000001
 40
0.0
 40
0.0
 40
0.0
 40
0.0
 40
0.2499999999999957
 40
0.2499999999999957
 40
0.4999999999999913
 40
0.4999999999999913
 40
1.0
 40
1.0
 40
1.0
 40
1.0
 10
48.20905185636871
 20
19.21270350188268
 30
0.0
 10
48.2036741651313
 20
19.21997013213378
 30
0.0
 10
48.19839546245799
 20
19.22453186601105
 30
0.0
 10
48.18848942136867
 20
19.22795521782244
 30
0.0
 10
48.18395257918044
 20
19.2267299973368
 30
0.0
 10
48.17264615489563
 20
19.2145332354273
 30
0.0
 10
48.16832773179021
 20
19.19470808995582
 30
0.0
 10
48.16878679713025
 20
19.1681541890636
 30
0.0
  0
ARC
  5
EF
330
2
100
AcDbEntity
  8
0
  6
Continuous
 62
     7
370
    15
100
AcDbCircle
 10
46.520292772786
 20
17.96231731216598
 30
0.0
 40
2.101278864362895
100
AcDbArc
 50
33.95184508790094
 51
36.51688195490028
  0
LINE
  5
F0
330
2
100
AcDbEntity
  8
0
  6
Continuous
 62
     7
370
    15
100
AcDbLine
 10
48.26213825812414
 20
19.20174456090156
 30
0.0
 11
48.26331884594688
 21
19.13587300922046
 31
0.0
  0
SPLINE
  5
F1
330
2
100
AcDbEntity
  8
0
  6
Continuous
 62
     7
370
    15
100
AcDbSpline
210
0.0
220
0.0
230
1.0
 70
     8
 71
     3
 72
    14
 73
    10
 74
     0
 42
0.000000001
 43
0.0000000001
 40
0.0000000000000001
 40
0.0000000000000001
 40
0.0000000000000001
 40
0.0000000000000001
 40
0.0006000000147734
 40
0.0006000000147734
 40
0.0006000000147734
 40
0.0030000018293978
 40
0.0030000018293978
 40
0.0030000018293978
 40
0.0065523447927329
 40
0.0065523447927329
 40
0.0065523447927329
 40
0.0065523447927329
 10
48.29027856646965
 20
19.78594704762933
 30
0.0
 10
48.28946858502004
 20
19.76813186900341
 30
0.0
 10
48.28865408281408
 20
19.75031514268337
 30
0.0
 10
48.28783507048481
 20
19.73249687488707
 30
0.0
 10
48.28455901996969
 20
19.66122377763602
 30
0.0
 10
48.28121080792698
 20
19.58992598294232
 30
0.0
 10
48.27779109775005
 20
19.51860388038798
 30
0.0
 10
48.27272944410939
 20
19.4130371038546
 30
0.0
 10
48.26751114937278
 20
19.30741692680737
 30
0.0
 10
48.26213825813025
 20
19.20174456089955
 30
0.0
  0
SPLINE
  5
F2
330
2
100
AcDbEntity
  8
0
  6
Continuous
 62
     7
370
    15
100
AcDbSpline
210
0.0
220
0.0
230
1.0
 70
     8
 71
     3
 72
     8
 73
     4
 74
     0
 42
0.000000001
 43
0.0000000001
 40
0.0
 40
0.0
 40
0.0
 40
0.0
 40
1.0
 40
1.0
 40
1.0
 40
1.0
 10
48.2920268857813
 20
19.78334330299047
 30
0.0
 10
48.29143844579476
 20
19.78430258113877
 30
0.0
 10
48.29085573323485
 20
19.78516943963586
 30
0.0
 10
48.29027856646965
 20
19.78594704762933
 30
0.0
  0
ARC
  5
F3
330
2
100
AcDbEntity
  8
0
  6
Continuous
 62
     7
370
    15
100
AcDbCircle
 10
46.98256598124666
 20
18.95188650053612
 30
0.0
 40
1.551131288716469
100
AcDbArc
 50
5.694051367600245
 51
32.41396101819834
  0
ELLIPSE
  5
F4
330
2
100
AcDbEntity
  8
0
  6
Continuous
 62
     7
370
    15
100
AcDbEllipse
 10
38.10899864151725
 20
19.06885558326098
 30
0.0
 11
0.0176658622538638
 21
0.1165434939803198
 31
0.0
210
0.0
220
0.0
230
1.0
 40
0.4926395442000001
 41
5.244502075587008
 42
6.218569152574498
  0
ELLIPSE
  5
F5
330
2
100
AcDbEntity
  8
0
  6
Continuous
 62
     7
370
    15
100
AcDbEllipse
 10
48.06209426003992
 20
19.06885558326098
 30
0.0
 11
-0.0176658622538505
 21
0.1165434939803197
 31
0.0
210
0.0
220
0.0
230
0.9999999999999998
 40
0.4926395442
 41
0.0646161546056241
 42
1.038683231592795
  0
LINE
  5
F6
330
2
100
AcDbEntity
  8
0
  6
Continuous
 62
     7
370
    15
100
AcDbLine
 10
38.19302568800939
 20
19.68408773168762
 30
0.0
 11
37.93355815540079
 21
19.75898955658141
 31
0.0
  0
SPLINE
  5
F7
330
2
100
AcDbEntity
  8
0
  6
Continuous
 62
     7
370
    15
100
AcDbSpline
210
0.0
220
0.0
230
1.0
 70
     8
 71
     3
 72
    12
 73
     8
 74
     0
 42
0.000000001
 43
0.0000000001
 40
0.0
 40
0.0
 40
0.0
 40
0.0
 40
0.25
 40
0.25
 40
0.5
 40
0.5
 40
1.0
 40
1.0
 40
1.0
 40
1.0
 10
37.88081433508665
 20
19.78594704762938
 30
0.0
 10
37.88288861501257
 20
19.78874169338578
 30
0.0
 10
37.88674163711352
 20
19.78991662068105
 30
0.0
 10
37.89570388848179
 20
19.7891890404039
 30
0.0
 10
37.90070906623026
 20
19.78738634448601
 30
0.0
 10
37.91576443024104
 20
19.77903874534014
 30
0.0
 10
37.9254990509042
 20
19.76990172982977
 30
0.0
 10
37.93355815539829
 20
19.75898955659146
 30
0.0
  0
SPLINE
  5
F8
330
2
100
AcDbEntity
  8
0
  6
Continuous
 62
     7
370
    15
100
AcDbSpline
210
0.0
220
0.0
230
1.0
 70
     8
 71
     3
 72
     8
 73
     4
 74
     0
 42
0.000000001
 43
0.0000000001
 40
0.0
 40
0.0
 40
0.0
 40
0.0
 40
1.0
 40
1.0
 40
1.0
 40
1.0
 10
48.29027856646965
 20
19.78594704762933
 30
0.0
 10
48.28820428654381
 20
19.78874169338578
 30
0.0
 10
48.28435126444282
 20
19.78991662068102
 30
0.0
 10
48.27424547615876
 20
19.78844658325981
 30
0.0
  0
SPLINE
  5
F9
330
2
100
AcDbEntity
  8
0
100
AcDbSpline
210
0.0
220
0.0
230
1.0
 70
     8
 71
     3
 72
    10
 73
     6
 74
     0
 42
0.000000001
 43
0.0000000001
 40
0.0
 40
0.0
 40
0.0
 40
0.0
 40
0.3852248288516202
 40
0.9303658622867883
 40
1.0
 40
1.0
 40
1.0
 40
1.0
 10
22.5181775310802
 20
14.07722773321953
 30
0.0
 10
22.49738933240513
 20
14.06060182940101
 30
0.0
 10
22.44718324770559
 20
14.02044820433852
 30
0.0
 10
22.40168606066669
 20
13.96307667643009
 30
0.0
 10
22.38969947465875
 20
13.92238637974709
 30
0.0
 10
22.38834178225355
 20
13.91777748554351
 30
0.0
  0
SPLINE
  5
FA
330
2
100
AcDbEntity
  8
0
100
AcDbSpline
210
0.0
220
0.0
230
1.0
 70
     8
 71
     3
 72
    10
 73
     6
 74
     0
 42
0.000000001
 43
0.0000000001
 40
0.0
 40
0.0
 40
0.0
 40
0.0
 40
0.178406816138169
 40
0.5961940725780116
 40
1.0
 40
1.0
 40
1.0
 40
1.0
 10
22.82494852099921
 20
14.09280474306128
 30
0.0
 10
22.81485322471974
 20
14.1006614513162
 30
0.0
 10
22.7811170932591
 20
14.12691674241412
 30
0.0
 10
22.70634092765346
 20
14.13995856769546
 30
0.0
 10
22.64684458036246
 20
14.1288914936216
 30
0.0
 10
22.61760264144669
 20
14.12345212265546
 30
0.0
  0
SPLINE
  5
FB
330
2
100
AcDbEntity
  8
0
100
AcDbSpline
210
0.0
220
0.0
230
1.0
 70
     8
 71
     3
 72
    12
 73
     8
 74
     0
 42
0.000000001
 43
0.0000000001
 40
0.0
 40
0.0
 40
0.0
 40
0.0
 40
0.0291081485275992
 40
0.324446051290663
 40
0.5915218762100177
 40
0.8482103367107132
 40
1.0
 40
1.0
 40
1.0
 40
1.0
 10
22.40970910894396
 20
13.96002575854133
 30
0.0
 10
22.40743092190056
 20
13.95714737610127
 30
0.0
 10
22.38203773038083
 20
13.92506427002899
 30
0.0
 10
22.36117889535313
 20
13.85146908904679
 30
0.0
 10
22.35618692300179
 20
13.7541702788242
 30
0.0
 10
22.37777341677304
 20
13.67454093651511
 30
0.0
 10
22.40989036314295
 20
13.6393807305953
 30
0.0
 10
22.4218249569227
 20
13.62631526758289
 30
0.0
  0
LINE
  5
FC
330
2
100
AcDbEntity
  8
0
100
AcDbLine
 10
22.89724297957503
 20
14.04894088454128
 30
0.0
 11
22.82494852099921
 21
14.09280474306128
 31
0.0
  0
LINE
  5
FD
330
2
100
AcDbEntity
  8
0
100
AcDbLine
 10
22.4218249569227
 20
13.62631526758289
 30
0.0
 11
22.47555695811752
 21
13.56202070927119
 31
0.0
  0
SPLINE
  5
FE
330
2
100
AcDbEntity
  8
0
100
AcDbSpline
210
0.0
220
0.0
230
1.0
 70
     8
 71
     3
 72
     9
 73
     5
 74
     0
 42
0.000000001
 43
0.0000000001
 40
0.0
 40
0.0
 40
0.0
 40
0.0
 40
0.0304439907759075
 40
1.0
 40
1.0
 40
1.0
 40
1.0
 10
12.51495904482858
 20
11.20070029034217
 30
0.0
 10
12.51397266647679
 20
11.20035284918874
 30
0.0
 10
12.48157289474576
 20
11.1889403784621
 30
0.0
 10
12.45555001320861
 20
11.16448340565885
 30
0.0
 10
12.43031937203693
 20
11.14077100071007
 30
0.0
  0
SPLINE
  5
FF
330
2
100
AcDbEntity
  8
0
100
AcDbSpline
210
0.0
220
0.0
230
1.0
 70
     8
 71
     3
 72
     9
 73
     5
 74
     0
 42
0.000000001
 43
0.0000000001
 40
0.0
 40
0.0
 40
0.0
 40
0.0
 40
0.558387413646741
 40
1.0
 40
1.0
 40
1.0
 40
1.0
 10
12.43031937203693
 20
11.14077100071007
 30
0.0
 10
12.41145467913539
 20
11.12153436675648
 30
0.0
 10
12.37767044181103
 20
11.08708403087242
 30
0.0
 10
12.35994993060697
 20
11.04268897074748
 30
0.0
 10
12.3521243298226
 20
11.02308355342429
 30
0.0
  0
SPLINE
  5
100
330
2
100
AcDbEntity
  8
0
100
AcDbSpline
210
0.0
220
0.0
230
1.0
 70
     8
 71
     3
 72
    10
 73
     6
 74
     0
 42
0.000000001
 43
0.0000000001
 40
0.0
 40
0.0
 40
0.0
 40
0.0
 40
0.3341848966245098
 40
0.6760545672849795
 40
1.0
 40
1.0
 40
1.0
 40
1.0
 10
12.77761780998588
 20
11.20272706929793
 30
0.0
 10
12.75092095664217
 20
11.21481109643377
 30
0.0
 10
12.69691334044705
 20
11.2392570298642
 30
0.0
 10
12.60527040500005
 20
11.23771944787828
 30
0.0
 10
12.54866828142503
 20
11.21436793674702
 30
0.0
 10
12.52112910527671
 20
11.20300650120791
 30
0.0
  0
SPLINE
  5
101
330
2
100
AcDbEntity
  8
0
100
AcDbSpline
210
0.0
220
0.0
230
1.0
 70
     8
 71
     3
 72
    11
 73
     7
 74
     0
 42
0.000000001
 43
0.0000000001
 40
0.0
 40
0.0
 40
0.0
 40
0.0
 40
0.1174437488512791
 40
0.4532904660140817
 40
0.7450588621110571
 40
1.0
 40
1.0
 40
1.0
 40
1.0
 10
12.35540448004678
 20
11.0321477808212
 30
0.0
 10
12.34873203910658
 20
11.0207649102943
 30
0.0
 10
12.32297882624675
 20
10.97683113998978
 30
0.0
 10
12.31353994224257
 20
10.89437245823422
 30
0.0
 10
12.32603099560381
 20
10.80037587260963
 30
0.0
 10
12.35886207706885
 20
10.75346311616796
 30
0.0
 10
12.37417183983413
 20
10.73158679836989
 30
0.0
  0
LINE
  5
102
330
2
100
AcDbEntity
  8
0
100
AcDbLine
 10
12.82296305566262
 20
11.17406294913628
 30
0.0
 11
12.78803606224029
 21
11.19702402558483
 31
0.0
  0
LINE
  5
103
330
2
100
AcDbEntity
  8
0
100
AcDbLine
 10
12.37854511594538
 20
10.72418443867646
 30
0.0
 11
12.40626146325414
 21
10.69289655602307
 31
0.0
  0
LINE
  5
104
330
2
100
AcDbEntity
  8
0
100
AcDbLine
 10
22.47555695811752
 20
13.56202070927119
 30
0.0
 11
22.51654738902715
 21
13.52652195479172
 31
0.0
  0
LINE
  5
105
330
2
100
AcDbEntity
  8
0
100
AcDbLine
 10
22.93823341046121
 20
14.0134421300617
 30
0.0
 11
22.89724297957503
 21
14.04894088454128
 31
0.0
  0
LINE
  5
106
330
2
100
AcDbEntity
  8
0
100
AcDbLine
 10
29.70409826239706
 20
15.25934582630874
 30
0.0
 11
27.72122354808292
 21
16.97656570142784
 31
0.0
  0
LINE
  5
107
330
2
100
AcDbEntity
  8
0
100
AcDbLine
 10
27.58244359937743
 20
17.09675266254281
 30
0.0
 11
27.51003035470257
 21
17.15946437200173
 31
0.0
  0
LINE
  5
108
330
2
100
AcDbEntity
  8
0
100
AcDbLine
 10
27.44813132120376
 20
17.21307050748143
 30
0.0
 11
26.42486684397667
 21
18.09924353955093
 31
0.0
  0
LINE
  5
109
330
2
100
AcDbEntity
  8
0
100
AcDbLine
 10
26.31957870903705
 20
18.09659922625553
 30
0.0
 11
8.265942733474446
 21
12.88496343109607
 31
0.0
  0
LINE
  5
10A
330
2
100
AcDbEntity
  8
0
100
AcDbLine
 10
26.3774757747295
 20
13.11696085255176
 30
0.0
 11
29.59814937239577
 21
10.32777569965552
 31
0.0
  0
LINE
  5
10B
330
2
100
AcDbEntity
  8
0
100
AcDbLine
 10
30.6078663401951
 20
10.63555061654378
 30
0.0
 11
30.6078663401951
 21
10.68626317691322
 31
0.0
  0
LINE
  5
10C
330
2
100
AcDbEntity
  8
0
100
AcDbLine
 10
8.895089116311936
 20
5.337816558714138
 30
0.0
 11
28.74381627691614
 21
11.06765054334858
 31
0.0
  0
LINE
  5
10D
330
2
100
AcDbEntity
  8
0
100
AcDbLine
 10
4.652321352001521
 20
6.844839775873133
 30
0.0
 11
4.652321352001521
 21
6.794127215503586
 31
0.0
  0
LINE
  5
10E
330
2
100
AcDbEntity
  8
0
100
AcDbLine
 10
22.51887189343796
 20
14.07766306719269
 30
0.0
 11
22.61406421085684
 21
14.12248129591145
 31
0.0
  0
LINE
  5
10F
330
2
100
AcDbEntity
  8
0
100
AcDbLine
 10
12.51417973537198
 20
11.2007536631883
 30
0.0
 11
12.52013142778187
 21
11.20374243546722
 31
0.0
  0
LINE
  5
110
330
2
100
AcDbEntity
  8
0
100
AcDbLine
 10
12.78012263881632
 20
11.20193741669274
 30
0.0
 11
12.78803606224029
 21
11.19702402558483
 31
0.0
  0
LINE
  5
111
330
2
100
AcDbEntity
  8
0
100
AcDbLine
 10
12.37854511594538
 20
10.72418443867646
 30
0.0
 11
12.37425288475064
 21
10.72921369828422
 31
0.0
  0
LWPOLYLINE
  5
112
330
2
100
AcDbEntity
  8
0
100
AcDbPolyline
 90
        6
 70
   128
 43
0.0
 10
12.78578538136058
 20
10.73134556970887
 10
12.85880620881124
 20
10.82334491922273
 10
12.90127813869209
 20
10.92811556007336
 10
12.90746257885462
 20
11.03150582543585
 10
12.8765267759544
 20
11.11955378249057
 10
12.82296305566262
 20
11.17406294913628
  0
ARC
  5
113
330
2
100
AcDbEntity
  8
0
100
AcDbCircle
 10
12.57763237767334
 20
10.89365605290725
 30
0.0
 40
0.2639552346495445
100
AcDbArc
 50
229.5154980495005
 51
322.0541318141993
  0
LWPOLYLINE
  5
114
330
2
100
AcDbEntity
  8
0
100
AcDbPolyline
 90
       11
 70
   128
 43
0.0
 10
22.51654738902715
 20
13.52652195479172
 10
22.52223459533965
 20
13.52179601862318
 10
22.60434920978994
 20
13.4841502756266
 10
22.70308110658493
 20
13.48510738351263
 10
22.8050971647871
 20
13.52453858738602
 10
22.89661690411756
 20
13.59711805976761
 10
22.96528202370737
 20
13.69304395181945
 10
23.00181888603777
 20
13.79936088822151
 10
23.0012929365916
 20
13.90170988310191
 10
22.96377369739156
 20
13.98626818229917
 10
22.93823341046121
 20
14.0134421300617
  0
LWPOLYLINE
  5
115
330
2
100
AcDbEntity
  8
0
100
AcDbPolyline
 90
       14
 70
   128
 43
0.0
 10
22.39703746600745
 20
13.54468234525153
 10
22.45712719131291
 20
13.46180364516955
 10
22.54650383775947
 20
13.41232076585971
 10
22.65548116950999
 20
13.40159579387111
 10
22.77225252810644
 20
13.430791515537
 10
22.88416187693361
 20
13.4967437470613
 10
22.97908215152421
 20
13.59230557697847
 10
23.04672862189386
 20
13.70712134115045
 10
23.0797682226023
 20
13.82874862954025
 10
23.07462359057203
 20
13.94400803433522
 10
23.03185090221985
 20
14.04040936299909
 10
22.95608395363843
 20
14.10750515542654
 10
22.85553541532545
 20
14.13802531008887
 10
22.75106643766267
 20
14.13101364616225
  0
LWPOLYLINE
  5
116
330
2
100
AcDbEntity
  8
0
100
AcDbPolyline
 90
        3
 70
   128
 43
0.0
 10
22.37326394608681
 20
13.69247284274369
 10
22.37274706472235
 20
13.6519759030739
 10
22.39703746600745
 20
13.54468234525153
  0
LWPOLYLINE
  5
117
330
2
100
AcDbEntity
  8
0
100
AcDbPolyline
 90
       14
 70
   128
 43
0.0
 10
12.39056191614253
 20
10.58967717515219
 10
12.47033242825426
 20
10.52730842966261
 10
12.57350920249421
 20
10.50222498436934
 10
12.68890976753992
 20
10.51714438487694
 10
12.80403073302638
 20
10.57045068265277
 10
12.90639591285749
 20
10.65636634821337
 10
12.98491351664559
 20
10.76558209617231
 10
13.03107464947442
 20
10.88626218815267
 10
13.03987523475696
 20
11.00532884051691
 10
13.01036312264104
 20
11.10987949244814
 10
12.94573783893213
 20
11.1885848832212
 10
12.8529999523012
 20
11.23291555334487
 10
12.74219993365254
 20
11.2380679666163
 10
12.7076081775
 20
11.23186849387179
  0
ARC
  5
118
330
2
100
AcDbEntity
  8
0
100
AcDbCircle
 10
12.63290350172957
 20
10.76957239853802
 30
0.0
 40
0.3018140743971941
100
AcDbArc
 50
173.769377047998
 51
216.5872708829992
  0
LINE
  5
119
330
2
100
AcDbEntity
  8
0
100
AcDbLine
 10
26.36509858200304
 20
14.8357889031158
 30
0.0
 11
26.61291792744936
 21
14.6211710544629
 31
0.0
  0
LWPOLYLINE
  5
11A
330
2
100
AcDbEntity
  8
0
100
AcDbPolyline
 90
        3
 70
   128
 43
0.0
 10
26.61291792744936
 20
14.6211710544629
 10
26.69540597507023
 20
14.57027618761747
 10
26.75442369842
 20
14.56584830951254
  0
LINE
  5
11B
330
2
100
AcDbEntity
  8
0
100
AcDbLine
 10
29.71647621080388
 20
15.22971998419678
 30
0.0
 11
29.71647621080388
 21
11.47392058901189
 31
0.0
  0
ARC
  5
11C
330
2
100
AcDbEntity
  8
0
100
AcDbCircle
 10
26.60855335814498
 20
14.09752486782533
 30
0.0
 40
0.2220291023610815
100
AcDbArc
 50
205.4159915493008
 51
222.5891566898016
  0
LINE
  5
11D
330
2
100
AcDbEntity
  8
0
100
AcDbLine
 10
26.4450899436869
 20
13.94726963685621
 30
0.0
 11
26.79643621384241
 21
13.64299484138419
 31
0.0
  0
LINE
  5
11E
330
2
100
AcDbEntity
  8
0
100
AcDbLine
 10
8.252904894762423
 20
9.152050205066096
 30
0.0
 11
8.252904894762423
 21
12.85405917761007
 31
0.0
  0
LINE
  5
11F
330
2
100
AcDbEntity
  8
0
100
AcDbLine
 10
23.16236892835562
 20
15.12955283343888
 30
0.0
 11
22.35096947374794
 21
14.89532198665297
 31
0.0
  0
LINE
  5
120
330
2
100
AcDbEntity
  8
0
100
AcDbLine
 10
23.16236892835562
 20
15.43382743998038
 30
0.0
 11
23.16236892835562
 21
15.12955283343888
 31
0.0
  0
LINE
  5
121
330
2
100
AcDbEntity
  8
0
100
AcDbLine
 10
23.16236892835562
 20
15.43382743998038
 30
0.0
 11
22.35096947374794
 21
15.19959659321784
 31
0.0
  0
LINE
  5
122
330
2
100
AcDbEntity
  8
0
100
AcDbLine
 10
22.35096947374794
 20
15.19959659321784
 30
0.0
 11
22.35096947374794
 21
14.89532198665297
 31
0.0
  0
LINE
  5
123
330
2
100
AcDbEntity
  8
0
100
AcDbLine
 10
13.12130162231474
 20
12.23094637738839
 30
0.0
 11
12.30990216773048
 21
11.9967155306259
 31
0.0
  0
LINE
  5
124
330
2
100
AcDbEntity
  8
0
100
AcDbLine
 10
13.12130162231474
 20
12.53522098392984
 30
0.0
 11
13.12130162231474
 21
12.23094637738839
 31
0.0
  0
LINE
  5
125
330
2
100
AcDbEntity
  8
0
100
AcDbLine
 10
13.12130162231474
 20
12.53522098392984
 30
0.0
 11
12.30990216773048
 21
12.3009901371673
 31
0.0
  0
LINE
  5
126
330
2
100
AcDbEntity
  8
0
100
AcDbLine
 10
12.30990216773048
 20
12.3009901371673
 30
0.0
 11
12.30990216773048
 21
11.9967155306259
 31
0.0
  0
ARC
  5
127
330
2
100
AcDbEntity
  8
0
100
AcDbCircle
 10
26.30138272556624
 20
13.16530621959427
 30
0.0
 40
0.6879421310205216
100
AcDbArc
 50
13.1310916353997
 51
43.97729533529893
  0
ARC
  5
128
330
2
100
AcDbEntity
  8
0
100
AcDbCircle
 10
25.27888139295482
 20
14.08194727047781
 30
0.0
 40
0.1442905795690364
100
AcDbArc
 50
287.2089174333017
 51
357.1688175609007
  0
LINE
  5
129
330
2
100
AcDbEntity
  8
0
100
AcDbLine
 10
25.32157073121076
 20
13.94411624437769
 30
0.0
 11
8.383610328148151
 21
9.054548245274872
 31
0.0
  0
LINE
  5
12A
330
2
100
AcDbEntity
  8
0
100
AcDbLine
 10
25.42299585194971
 20
15.39334420030663
 30
0.0
 11
25.42299585194971
 21
14.07482027551731
 31
0.0
  0
LWPOLYLINE
  5
12B
330
2
100
AcDbEntity
  8
0
100
AcDbPolyline
 90
        8
 70
   128
 43
0.0
 10
26.75442369842
 20
14.56584830951254
 10
26.78348017927985
 20
14.58993056389292
 10
26.82853518646522
 20
14.67234036369068
 10
26.85201374526759
 20
14.79050320242365
 10
26.85201374526759
 20
14.93484610101068
 10
26.82853518646522
 20
15.09367461865534
 10
26.78348017927985
 20
15.25412273569451
 10
26.69376709527919
 20
15.46646062775577
  0
LWPOLYLINE
  5
12C
330
2
100
AcDbEntity
  8
0
100
AcDbPolyline
 90
        2
 70
   128
 43
0.0
 10
26.57741876431123
 20
15.60381708927186
 10
26.56220536707988
 20
15.62078091751043
  0
ARC
  5
12D
330
2
100
AcDbEntity
  8
0
100
AcDbCircle
 10
26.60855098442662
 20
15.87246016196262
 30
0.0
 40
0.2220267333199589
100
AcDbArc
 50
179.5141952210007
 51
210.2510457661175
  0
ARC
  5
12E
330
2
100
AcDbEntity
  8
0
100
AcDbCircle
 10
26.19170790958299
 20
15.86682892411798
 30
0.0
 40
0.1442878218854945
100
AcDbArc
 50
287.2081354589999
 51
357.1692786496004
  0
LINE
  5
12F
330
2
100
AcDbEntity
  8
0
100
AcDbLine
 10
26.23439455088198
 20
15.72899994966899
 30
0.0
 11
25.52442021703666
 21
15.52404801328364
 31
0.0
  0
LINE
  5
130
330
2
100
AcDbEntity
  8
0
100
AcDbLine
 10
26.38653223199034
 20
18.10569080261157
 30
0.0
 11
26.38653223199034
 21
15.87434268031
 31
0.0
  0
LINE
  5
131
330
2
100
AcDbEntity
  8
0
100
AcDbLine
 10
26.3358196716209
 20
15.85970322513314
 30
0.0
 11
26.3358196716209
 21
18.04033878706185
 31
0.0
  0
LINE
  5
132
330
2
100
AcDbEntity
  8
0
100
AcDbLine
 10
26.56220536707988
 20
15.62078091751043
 30
0.0
 11
26.47215196879591
 21
15.69876944812032
 31
0.0
  0
ARC
  5
133
330
2
100
AcDbEntity
  8
0
100
AcDbCircle
 10
25.56710824954957
 20
15.38621882174951
 30
0.0
 40
0.1442884408451481
100
AcDbArc
 50
107.2086376752012
 51
177.1694182047008
  0
ARC
  5
134
330
2
100
AcDbEntity
  8
0
100
AcDbCircle
 10
29.67841196396796
 20
15.23121512416122
 30
0.0
 40
0.0380935995960116
100
AcDbArc
 50
357.7506137228003
 51
47.60062473420045
  0
LWPOLYLINE
  5
135
330
2
100
AcDbEntity
  8
0
100
AcDbPolyline
 90
        7
 70
   128
 43
0.0
 10
8.252904894762423
 20
12.85405917761007
 10
8.253467489267237
 20
12.86346600277168
 10
8.25513356740906
 20
12.87153632310271
 10
8.257839321975197
 20
12.87796040653856
 10
8.261480479874549
 20
12.88249228100673
 10
8.265917319642554
 20
12.88495596880706
 10
8.265942733474446
 20
12.88496343109607
  0
LWPOLYLINE
  5
136
330
2
100
AcDbEntity
  8
0
100
AcDbPolyline
 90
        4
 70
   128
 43
0.0
 10
26.3358196716209
 20
18.09105134743139
 10
26.3301076685575
 20
18.09502402275761
 10
26.32461522785573
 20
18.09689469499891
 10
26.31955329520514
 20
18.09659176396653
  0
LINE
  5
137
330
2
100
AcDbEntity
  8
0
100
AcDbLine
 10
26.3358196716209
 20
18.04033878706185
 30
0.0
 11
26.3358196716209
 21
18.09105134743139
 31
0.0
  0
LINE
  5
138
330
2
100
AcDbEntity
  8
0
100
AcDbLine
 10
26.3358196716209
 20
18.09105134743139
 30
0.0
 11
26.38653223199034
 21
18.10569080260826
 31
0.0
  0
ARC
  5
139
330
2
100
AcDbEntity
  8
0
100
AcDbCircle
 10
8.420480688162911
 20
10.92538009843535
 30
0.0
 40
0.2397317941356352
100
AcDbArc
 50
180.5536595746979
 51
216.0803568636976
  0
LINE
  5
13A
330
2
100
AcDbEntity
  8
0
100
AcDbLine
 10
8.180760086670176
 20
12.79942451778007
 30
0.0
 11
8.180760086670176
 21
10.92306356241618
 31
0.0
  0
LINE
  5
13B
330
2
100
AcDbEntity
  8
0
100
AcDbLine
 10
8.231471891364208
 20
12.86477631521066
 30
0.0
 11
8.255157753051733
 21
12.87161383452756
 31
0.0
  0
ARC
  5
13C
330
2
100
AcDbEntity
  8
0
100
AcDbCircle
 10
8.252815609913326
 20
12.7958623611072
 30
0.0
 40
0.0721435193821784
100
AcDbArc
 50
107.2085625795988
 51
177.1698141882998
  0
ARC
  5
13D
330
2
100
AcDbEntity
  8
0
100
AcDbCircle
 10
27.38588596861467
 20
13.19356920813482
 30
0.0
 40
0.1893181815092933
100
AcDbArc
 50
57.13638854679864
 51
107.6021872117997
  0
LINE
  5
13E
330
2
100
AcDbEntity
  8
0
100
AcDbLine
 10
27.48861779447418
 20
13.35258979110719
 30
0.0
 11
30.59217596877088
 21
10.66482957004284
 31
0.0
  0
LWPOLYLINE
  5
13F
330
2
100
AcDbEntity
  8
0
100
AcDbPolyline
 90
        9
 70
   128
 43
0.0
 10
30.54930855970503
 20
10.58483819376148
 10
30.56797070759728
 20
10.59152474818366
 10
30.58366481490919
 20
10.59990301534212
 10
30.59578895083547
 20
10.60965137251571
 10
30.60387618970458
 20
10.62039497723729
 10
30.60761558243564
 20
10.63172076349972
 10
30.6068643480412
 20
10.64319393350209
 10
30.60165109036609
 20
10.65437349600583
 10
30.59217596877088
 20
10.66482957004284
  0
LINE
  5
140
330
2
100
AcDbEntity
  8
0
100
AcDbLine
 10
29.63648474003381
 20
10.32132865473739
 30
0.0
 11
30.54930855970503
 21
10.58483819376148
 31
0.0
  0
LINE
  5
141
330
2
100
AcDbEntity
  8
0
100
AcDbLine
 10
27.32863496203874
 20
13.37402334663419
 30
0.0
 11
26.41581114236755
 21
13.11051380763364
 31
0.0
  0
LWPOLYLINE
  5
142
330
2
100
AcDbEntity
  8
0
100
AcDbPolyline
 90
        9
 70
   128
 43
0.0
 10
28.36544481912497
 20
11.94910102978201
 10
28.29673228145217
 20
11.91897141020768
 10
28.25631028753674
 20
11.87798770457987
 10
28.25033331405689
 20
11.83238948829981
 10
28.27970998738436
 20
11.78911828900107
 10
28.33996956640195
 20
11.75476221666086
 10
28.42193648050261
 20
11.73455121394111
 10
28.51313333786365
 20
11.73156259794091
 10
28.59967563862304
 20
11.74625118975223
  0
LINE
  5
143
330
2
100
AcDbEntity
  8
0
100
AcDbLine
 10
28.59967563862304
 20
11.74625118975223
 30
0.0
 11
28.80252512444898
 21
11.8048087923675
 31
0.0
  0
LWPOLYLINE
  5
144
330
2
100
AcDbEntity
  8
0
100
AcDbPolyline
 90
        9
 70
   128
 43
0.0
 10
28.80252512444898
 20
11.8048087923675
 10
28.87123766212173
 20
11.83493841194183
 10
28.91165965603722
 20
11.87592211754612
 10
28.91763662951701
 20
11.9215203338496
 10
28.88825995618953
 20
11.9647915331484
 10
28.82800037717195
 20
11.99914760548855
 10
28.74603346307131
 20
12.01935860818499
 10
28.65483660571025
 20
12.02234722420855
 10
28.56829430495091
 20
12.00765863239718
  0
LINE
  5
145
330
2
100
AcDbEntity
  8
0
100
AcDbLine
 10
28.56829430495091
 20
12.00765863239718
 30
0.0
 11
28.36544481912497
 21
11.94910102978201
 31
0.0
  0
ARC
  5
146
330
2
100
AcDbEntity
  8
0
100
AcDbCircle
 10
27.38588596861467
 20
13.24428176850425
 30
0.0
 40
0.1893181815092506
100
AcDbArc
 50
57.13638854679864
 51
107.6021872117997
  0
LINE
  5
147
330
2
100
AcDbEntity
  8
0
100
AcDbLine
 10
26.41581114236755
 20
13.98621398370262
 30
0.0
 11
26.41581114236755
 21
13.16122636800313
 31
0.0
  0
ARC
  5
148
330
2
100
AcDbEntity
  8
0
100
AcDbCircle
 10
26.40225313087979
 20
13.14513668985168
 30
0.0
 40
0.0371828407853907
100
AcDbArc
 50
177.7647556206002
 51
291.3848674344981
  0
LINE
  5
149
330
2
100
AcDbEntity
  8
0
100
AcDbLine
 10
27.32863496203874
 20
13.42473590700369
 30
0.0
 11
26.41581114236755
 21
13.16122636800313
 31
0.0
  0
LINE
  5
14A
330
2
100
AcDbEntity
  8
0
100
AcDbLine
 10
30.59217596877088
 20
10.71554213041228
 30
0.0
 11
27.48861779447418
 21
13.40330235147669
 31
0.0
  0
ARC
  5
14B
330
2
100
AcDbEntity
  8
0
100
AcDbCircle
 10
29.62307806549294
 20
10.3588082451966
 30
0.0
 40
0.0398052587247844
100
AcDbArc
 50
231.224807159
 51
289.682434911302
  0
LWPOLYLINE
  5
14C
330
2
100
AcDbEntity
  8
0
100
AcDbPolyline
 90
       10
 70
   128
 43
0.0
 10
26.92256045722002
 20
13.30751229464894
 10
26.89995262193469
 20
13.37765532467682
 10
26.85245886899321
 20
13.47375161772107
 10
26.79643621384241
 20
13.54156972064525
 10
26.74041355866817
 20
13.57078570283105
 10
26.69291980575005
 20
13.55695100289826
 10
26.66118557061967
 20
13.50217206356584
 10
26.65004198915352
 20
13.41478879201282
 10
26.66118557061967
 20
13.30810389334576
 10
26.68030429464844
 20
13.23419807659751
  0
LINE
  5
14D
330
2
100
AcDbEntity
  8
0
100
AcDbLine
 10
5.623703707814797
 20
8.122598713696923
 30
0.0
 11
5.674415512508886
 21
8.137237950734657
 31
0.0
  0
ARC
  5
14E
330
2
100
AcDbEntity
  8
0
100
AcDbCircle
 10
5.705436094664563
 20
8.197726673254813
 30
0.0
 40
0.1110152843941884
100
AcDbArc
 50
179.5143988047016
 51
222.5890500659998
  0
LINE
  5
14F
330
2
100
AcDbEntity
  8
0
100
AcDbLine
 10
26.36509858200304
 20
14.11012367068272
 30
0.0
 11
26.26381412693637
 21
14.08088536698396
 31
0.0
  0
LINE
  5
150
330
2
100
AcDbEntity
  8
0
100
AcDbLine
 10
26.18461500767572
 20
14.05802255057159
 30
0.0
 11
5.674415512508886
 21
8.137237950734657
 31
0.0
  0
LINE
  5
151
330
2
100
AcDbEntity
  8
0
100
AcDbLine
 10
26.13297018581838
 20
15.44615845558355
 30
0.0
 11
26.13297018581838
 21
15.69972125743091
 31
0.0
  0
LINE
  5
152
330
2
100
AcDbEntity
  8
0
100
AcDbLine
 10
5.594424797437653
 20
9.922890828494857
 30
0.0
 11
5.594424797437653
 21
8.198667554239456
 31
0.0
  0
ARC
  5
153
330
2
100
AcDbEntity
  8
0
100
AcDbCircle
 10
5.738538944390228
 20
9.91576410924744
 30
0.0
 40
0.1442902542836914
100
AcDbArc
 50
107.2094559851006
 51
177.1689207830007
  0
LINE
  5
154
330
2
100
AcDbEntity
  8
0
100
AcDbLine
 10
5.695848406825717
 20
10.05359442333267
 30
0.0
 11
8.252905843022375
 21
10.7917533229016
 31
0.0
  0
LINE
  5
155
330
2
100
AcDbEntity
  8
0
100
AcDbLine
 10
25.77798301888407
 20
15.59724528923832
 30
0.0
 11
25.77798301888407
 21
15.34368248739085
 31
0.0
  0
LINE
  5
156
330
2
100
AcDbEntity
  8
0
100
AcDbLine
 10
25.77798301888407
 20
15.34368248739085
 30
0.0
 11
26.13297018581838
 21
15.44615845558355
 31
0.0
  0
LINE
  5
157
330
2
100
AcDbEntity
  8
0
100
AcDbLine
 10
26.13297018581838
 20
14.73618412171486
 30
0.0
 11
26.13297018581838
 21
14.93903398537848
 31
0.0
  0
LINE
  5
158
330
2
100
AcDbEntity
  8
0
100
AcDbLine
 10
26.13297018581838
 20
14.93903398537848
 30
0.0
 11
25.77798301888407
 21
14.83655801718578
 31
0.0
  0
LINE
  5
159
330
2
100
AcDbEntity
  8
0
100
AcDbLine
 10
25.77798301888407
 20
14.83655801718578
 30
0.0
 11
25.77798301888407
 21
14.63370815352222
 31
0.0
  0
LINE
  5
15A
330
2
100
AcDbEntity
  8
0
100
AcDbLine
 10
25.77798301888407
 20
14.63370815352222
 30
0.0
 11
26.13297018581838
 21
14.73618412171486
 31
0.0
  0
LINE
  5
15B
330
2
100
AcDbEntity
  8
0
100
AcDbLine
 10
5.674415512508886
 20
8.137237950734657
 30
0.0
 11
8.895089110175106
 21
5.348052797861832
 31
0.0
  0
ARC
  5
15C
330
2
100
AcDbEntity
  8
0
100
AcDbCircle
 10
30.56895928387712
 20
10.68425683034098
 30
0.0
 40
0.0389587532810231
100
AcDbArc
 50
2.951995516898996
 51
53.42105096629881
  0
LINE
  5
15D
330
2
100
AcDbEntity
  8
0
100
AcDbLine
 10
4.710879132491612
 20
6.895552198678799
 30
0.0
 11
5.623703707814797
 21
7.15906195581855
 31
0.0
  0
LINE
  5
15E
330
2
100
AcDbEntity
  8
0
100
AcDbLine
 10
5.623703707814797
 20
7.15906195581855
 30
0.0
 11
5.623703707814797
 21
8.122598713696923
 31
0.0
  0
LINE
  5
15F
330
2
100
AcDbEntity
  8
0
100
AcDbLine
 10
5.674415512508886
 20
7.173701192856277
 30
0.0
 11
5.674415512508886
 21
8.137237950734657
 31
0.0
  0
ARC
  5
160
330
2
100
AcDbEntity
  8
0
100
AcDbCircle
 10
5.60235843903257
 20
7.177264552491621
 30
0.0
 40
0.0721451271419091
100
AcDbArc
 50
287.2094559851007
 51
357.1689207828996
  0
LINE
  5
161
330
2
100
AcDbEntity
  8
0
100
AcDbLine
 10
4.710879132491612
 20
6.844839638285883
 30
0.0
 11
5.623703707814797
 21
7.108349395449053
 31
0.0
  0
LINE
  5
162
330
2
100
AcDbEntity
  8
0
100
AcDbLine
 10
5.674415512508886
 20
7.173701192856277
 30
0.0
 11
8.895089110175106
 21
4.384516039983452
 31
0.0
  0
ARC
  5
163
330
2
100
AcDbEntity
  8
0
100
AcDbCircle
 10
8.823032036698776
 20
4.388079399618902
 30
0.0
 40
0.0721451271418719
100
AcDbArc
 50
287.2094559851007
 51
357.1689207828996
  0
ARC
  5
164
330
2
100
AcDbEntity
  8
0
100
AcDbCircle
 10
7.874302021125316
 20
4.236100364114392
 30
0.0
 40
0.1893102184800866
100
AcDbArc
 50
237.135268934398
 51
287.6028573529012
  0
LINE
  5
165
330
2
100
AcDbEntity
  8
0
100
AcDbLine
 10
7.77157140907326
 20
4.077088477241858
 30
0.0
 11
4.668013234776566
 21
6.764848698282847
 31
0.0
  0
LWPOLYLINE
  5
166
330
2
100
AcDbEntity
  8
0
100
AcDbPolyline
 90
        9
 70
   128
 43
0.0
 10
4.710879132491612
 20
6.844839638285883
 10
4.692217740251322
 20
6.838153302026263
 10
4.676522121611981
 20
6.829774598542641
 10
4.664398741337677
 20
6.820026459531604
 10
4.656310746816544
 20
6.809282636670886
 10
4.652573621111798
 20
6.797957504849321
 10
4.653324099830825
 20
6.786484116684398
 10
4.658535846155075
 20
6.775304117902294
 10
4.668013234776566
 20
6.764848698282847
  0
LINE
  5
167
330
2
100
AcDbEntity
  8
0
100
AcDbLine
 10
8.84437730548106
 20
4.319164242576228
 30
0.0
 11
7.931552730157875
 21
4.055654485413114
 31
0.0
  0
LINE
  5
168
330
2
100
AcDbEntity
  8
0
100
AcDbLine
 10
6.894743628723631
 20
5.480577020404481
 30
0.0
 11
6.691893387245698
 21
5.422019199650137
 31
0.0
  0
LWPOLYLINE
  5
169
330
2
100
AcDbEntity
  8
0
100
AcDbPolyline
 90
        9
 70
   128
 43
0.0
 10
6.660512809225565
 20
5.683426860457629
 10
6.747053598657515
 20
5.698115015967267
 10
6.838251211694029
 20
5.695126618106257
 10
6.920217370119218
 20
5.674915397247318
 10
6.98047846046424
 20
5.640559761185429
 10
7.009853622464277
 20
5.597288125608372
 10
7.003877404659888
 20
5.551690127467438
 10
6.963454655069
 20
5.5107062037005
 10
6.894743628723631
 20
5.480577020404481
  0
LINE
  5
16A
330
2
100
AcDbEntity
  8
0
100
AcDbLine
 10
6.457662567747647
 20
5.624869039679865
 30
0.0
 11
6.660512809225565
 21
5.683426860457629
 31
0.0
  0
LWPOLYLINE
  5
16B
330
2
100
AcDbEntity
  8
0
100
AcDbPolyline
 90
        9
 70
   128
 43
0.0
 10
6.691893387245698
 20
5.422019199650137
 10
6.605352597837239
 20
5.407331044140498
 10
6.514154984800725
 20
5.410319442001565
 10
6.43218882637548
 20
5.430530662860498
 10
6.371927736007037
 20
5.46488629889891
 10
6.34255257403042
 20
5.508157934476081
 10
6.348528791834866
 20
5.553755932640328
 10
6.388951541425697
 20
5.594739856383846
 10
6.457662567747647
 20
5.624869039679865
  0
LINE
  5
16C
330
2
100
AcDbEntity
  8
0
100
AcDbLine
 10
8.895089110175106
 20
4.384516039983452
 30
0.0
 11
8.895089110175106
 21
5.348052797861832
 31
0.0
  0
LWPOLYLINE
  5
16D
330
2
100
AcDbEntity
  8
0
100
AcDbPolyline
 90
        7
 70
   128
 43
0.0
 10
4.652321352001521
 20
6.844839775873133
 10
4.652573621111798
 20
6.848670065218762
 10
4.656310746816544
 20
6.859995197040376
 10
4.664398741337677
 20
6.870739019901094
 10
4.676522121611981
 20
6.880487158935558
 10
4.692217740251322
 20
6.888865862395697
 10
4.710879132491612
 20
6.895552198678799
  0
LWPOLYLINE
  5
16E
330
2
100
AcDbEntity
  8
0
100
AcDbPolyline
 90
       10
 70
   128
 43
0.0
 10
22.82494852099921
 20
14.09280474306128
 10
22.88506862212742
 20
14.0366374519815
 10
22.91293638651334
 20
13.9486110157489
 10
22.90421892543492
 20
13.8464437044778
 10
22.86009206836803
 20
13.74393275820035
 10
22.78651506450069
 20
13.65492288356417
 10
22.69342503353903
 20
13.59143578738655
 10
22.59339488794132
 20
13.56204571298836
 10
22.49993306513468
 20
13.57072173240637
 10
22.43497694828261
 20
13.61057787726428
  0
LWPOLYLINE
  5
16F
330
2
100
AcDbEntity
  8
0
100
AcDbPolyline
 90
       16
 70
   128
 43
0.0
 10
12.52013142778187
 20
11.20374243546722
 10
12.52132690484278
 20
11.20432444393496
 10
12.61895702823695
 20
11.23221047502133
 10
12.70904249735054
 20
11.22057916338605
 10
12.77786630859404
 20
11.17120103089929
 10
12.81495330196111
 20
11.09159419655932
 10
12.8146555661914
 20
10.99387774644037
 10
12.77701995313856
 20
10.89292818950076
 10
12.70777296419075
 20
10.80411336087309
 10
12.61746079270472
 20
10.7409558670981
 10
12.51983066933397
 20
10.71307021384941
 10
12.42974520022038
 20
10.72470114764696
 10
12.36091987762601
 20
10.77407884385557
 10
12.32383288425893
 20
10.85368567819543
 10
12.32413062000516
 20
10.95140212831438
 10
12.34754443888778
 20
11.02432797531285
  0
ARC
  5
170
330
2
100
AcDbEntity
  8
0
100
AcDbCircle
 10
8.358935179566046
 20
9.157829197495004
 30
0.0
 40
0.1061876548805687
100
AcDbArc
 50
183.1197180373412
 51
283.4368231249491
  0
ARC
  5
171
330
2
100
AcDbEntity
  8
0
100
AcDbCircle
 10
26.39181492987479
 20
18.01991104459646
 30
0.0
 40
0.0859422700508826
100
AcDbArc
 50
67.38216101075011
 51
93.52407748584591
  0
ARC
  5
172
330
2
100
AcDbEntity
  8
0
100
AcDbCircle
 10
27.12321976874614
 20
13.5350136982529
 30
0.0
 40
0.8220687762697671
100
AcDbArc
 50
186.7979389510453
 51
202.7484567292339
  0
ELLIPSE
  5
173
330
2
100
AcDbEntity
  8
0
100
AcDbEllipse
 10
26.72627443471356
 20
13.07597844784754
 30
0.0
 11
0.0067174997863132
 21
0.2552685701850397
 31
0.0
210
0.0
220
0.0
230
0.9999999999999996
 40
0.6665476738279229
 41
2.14015634691585
 42
6.71586156097118
  0
ELLIPSE
  5
174
330
2
100
AcDbEntity
  8
0
100
AcDbEllipse
 10
26.83709256261997
 20
12.8291076452455
 30
0.0
 11
-0.0947216409885809
 21
0.0016859654327447
 31
0.0
210
0.0
220
0.0
230
0.9999999999999998
 40
0.6279380108771444
 41
0.0
 42
6.283185307179586
  0
POLYLINE
  5
175
330
2
100
AcDbEntity
  8
0
100
AcDb2dPolyline
 66
     1
 10
0.0
 20
0.0
 30
0.0
 70
     2
  0
VERTEX
  5
176
330
175
100
AcDbEntity
  8
0
100
AcDbVertex
100
AcDb2dVertex
 10
26.36509858200304
 20
15.43316670205166
 30
0.0
 42
0.0128311895184114
  0
VERTEX
  5
177
330
175
100
AcDbEntity
  8
0
100
AcDbVertex
100
AcDb2dVertex
 10
26.72690984023228
 20
15.73041777346942
 30
0.0
 42
0.0565499357529007
 70
     1
  0
VERTEX
  5
178
330
175
100
AcDbEntity
  8
0
100
AcDbVertex
100
AcDb2dVertex
 10
26.79097016635478
 20
15.79995804753002
 30
0.0
 42
0.0263270558370679
  0
VERTEX
  5
179
330
175
100
AcDbEntity
  8
0
100
AcDbVertex
100
AcDb2dVertex
 10
27.18079054231683
 20
16.39653418084515
 30
0.0
 42
0.0078830553614557
 70
     1
  0
VERTEX
  5
17A
330
175
100
AcDbEntity
  8
0
100
AcDbVertex
100
AcDb2dVertex
 10
28.3427079985886
 20
18.47194075068978
 30
0.0
 42
0.0227848685516318
  0
VERTEX
  5
17B
330
175
100
AcDbEntity
  8
0
100
AcDbVertex
100
AcDb2dVertex
 10
28.97539739173036
 20
19.78490097818485
 30
0.0
 42
-0.0189428181106947
 70
     1
  0
VERTEX
  5
17C
330
175
100
AcDbEntity
  8
0
100
AcDbVertex
100
AcDb2dVertex
 10
29.72413890331063
 20
21.36970504686246
 30
0.0
 42
-0.1211095113645475
  0
VERTEX
  5
17D
330
175
100
AcDbEntity
  8
0
100
AcDbVertex
100
AcDb2dVertex
 10
31.24743245983748
 20
23.1054835129662
 30
0.0
 42
-0.2033912596499449
 70
     1
  0
VERTEX
  5
17E
330
175
100
AcDbEntity
  8
0
100
AcDbVertex
100
AcDb2dVertex
 10
32.62829200017632
 20
23.39713428854907
 30
0.0
 42
-0.2269591852174869
  0
VERTEX
  5
17F
330
175
100
AcDbEntity
  8
0
100
AcDbVertex
100
AcDb2dVertex
 10
33.22774469300663
 20
22.95126725978011
 30
0.0
 42
-0.1299316004560975
 70
     1
  0
VERTEX
  5
180
330
175
100
AcDbEntity
  8
0
100
AcDbVertex
100
AcDb2dVertex
 10
33.51116266439337
 20
21.72149597589692
 30
0.0
  0
SEQEND
  5
181
330
175
100
AcDbEntity
  8
0
  0
POLYLINE
  5
182
330
2
100
AcDbEntity
  8
0
100
AcDb2dPolyline
 66
     1
 10
0.0
 20
0.0
 30
0.0
  0
VERTEX
  5
183
330
182
100
AcDbEntity
  8
0
100
AcDbVertex
100
AcDb2dVertex
 10
26.36509858200304
 20
15.20627115852965
 30
0.0
 42
0.0165798330145082
  0
VERTEX
  5
184
330
182
100
AcDbEntity
  8
0
100
AcDbVertex
100
AcDb2dVertex
 10
26.84470513114013
 20
15.59431388138716
 30
0.0
 42
0.0565499357529005
  0
VERTEX
  5
185
330
182
100
AcDbEntity
  8
0
100
AcDbVertex
100
AcDb2dVertex
 10
26.93626393841146
 20
15.6937049543913
 30
0.0
 42
0.0263270558370679
  0
VERTEX
  5
186
330
182
100
AcDbEntity
  8
0
100
AcDbVertex
100
AcDb2dVertex
 10
27.33644587387426
 20
16.30613828626059
 30
0.0
 42
0.0078830553614558
  0
VERTEX
  5
187
330
182
100
AcDbEntity
  8
0
100
AcDbVertex
100
AcDb2dVertex
 10
28.50113580922462
 20
18.38649703344223
 30
0.0
 42
0.0227848685516318
  0
VERTEX
  5
188
330
182
100
AcDbEntity
  8
0
100
AcDbVertex
100
AcDb2dVertex
 10
29.14094307995938
 20
19.71422831650598
 30
0.0
 42
-0.0189428181106948
  0
VERTEX
  5
189
330
182
100
AcDbEntity
  8
0
100
AcDbVertex
100
AcDb2dVertex
 10
29.88386051347206
 20
21.2867050032032
 30
0.0
 42
-0.1211095113645475
  0
VERTEX
  5
18A
330
182
100
AcDbEntity
  8
0
100
AcDbVertex
100
AcDb2dVertex
 10
31.35046875699365
 20
22.95789109626281
 30
0.0
 42
-0.203391259649945
  0
VERTEX
  5
18B
330
182
100
AcDbEntity
  8
0
100
AcDbVertex
100
AcDb2dVertex
 10
32.59373934339269
 20
23.22048176547285
 30
0.0
 42
-0.2269591852174862
  0
VERTEX
  5
18C
330
182
100
AcDbEntity
  8
0
100
AcDbVertex
100
AcDb2dVertex
 10
33.06849686542873
 20
22.8673617807473
 30
0.0
 42
-0.11758209930704
  0
VERTEX
  5
18D
330
182
100
AcDbEntity
  8
0
100
AcDbVertex
100
AcDb2dVertex
 10
33.33209844959006
 20
21.8385992119256
 30
0.0
 42
-0.1299316004560976
  0
SEQEND
  5
18E
330
182
100
AcDbEntity
  8
0
  0
POLYLINE
  5
18F
330
2
100
AcDbEntity
  8
0
100
AcDb2dPolyline
 66
     1
 10
0.0
 20
0.0
 30
0.0
 70
     2
  0
VERTEX
  5
190
330
18F
100
AcDbEntity
  8
0
100
AcDbVertex
100
AcDb2dVertex
 10
34.11330176697817
 20
21.32771301077708
 30
0.0
 42
-0.0408142346358466
  0
VERTEX
  5
191
330
18F
100
AcDbEntity
  8
0
100
AcDbVertex
100
AcDb2dVertex
 10
35.01605577028974
 20
22.6819152474364
 30
0.0
 42
-0.0611697493178368
 70
     1
  0
VERTEX
  5
192
330
18F
100
AcDbEntity
  8
0
100
AcDbVertex
100
AcDb2dVertex
 10
35.790386697533
 20
23.44647316908845
 30
0.0
 42
-0.0260422063245113
  0
VERTEX
  5
193
330
18F
100
AcDbEntity
  8
0
100
AcDbVertex
100
AcDb2dVertex
 10
37.28454988415143
 20
24.47922151459414
 30
0.0
 42
-0.0377083043789171
 70
     1
  0
VERTEX
  5
194
330
18F
100
AcDbEntity
  8
0
100
AcDbVertex
100
AcDb2dVertex
 10
38.3995697732089
 20
25.05594003174679
 30
0.0
 42
-0.0594833198369622
  0
VERTEX
  5
195
330
18F
100
AcDbEntity
  8
0
100
AcDbVertex
100
AcDb2dVertex
 10
38.97259364558872
 20
25.22265704234747
 30
0.0
 42
-0.0336993279757298
 70
     1
  0
VERTEX
  5
196
330
18F
100
AcDbEntity
  8
0
100
AcDbVertex
100
AcDb2dVertex
 10
40.01853352524875
 20
25.32435535033569
 30
0.0
  0
SEQEND
  5
197
330
18F
100
AcDbEntity
  8
0
  0
POLYLINE
  5
198
330
2
100
AcDbEntity
  8
0
100
AcDb2dPolyline
 66
     1
 10
0.0
 20
0.0
 30
0.0
  0
VERTEX
  5
199
330
198
100
AcDbEntity
  8
0
100
AcDbVertex
100
AcDb2dVertex
 10
34.26286347162582
 20
21.22623044456763
 30
0.0
 42
-0.0412280768290724
  0
VERTEX
  5
19A
330
198
100
AcDbEntity
  8
0
100
AcDbVertex
100
AcDb2dVertex
 10
35.15719266934033
 20
22.57019964545357
 30
0.0
 42
-0.0611697493178367
  0
VERTEX
  5
19B
330
198
100
AcDbEntity
  8
0
100
AcDbVertex
100
AcDb2dVertex
 10
35.90030072760601
 20
23.30392876901216
 30
0.0
 42
-0.0260422063245114
  0
VERTEX
  5
19C
330
198
100
AcDbEntity
  8
0
100
AcDbVertex
100
AcDb2dVertex
 10
37.37904986993928
 20
24.32602310505248
 30
0.0
 42
-0.0377083043789171
  0
VERTEX
  5
19D
330
198
100
AcDbEntity
  8
0
100
AcDbVertex
100
AcDb2dVertex
 10
38.4699887692548
 20
24.89028628142435
 30
0.0
 42
-0.0594833198369626
  0
VERTEX
  5
19E
330
198
100
AcDbEntity
  8
0
100
AcDbVertex
100
AcDb2dVertex
 10
39.00203476614999
 20
25.04508108558503
 30
0.0
 42
-0.0306718678517373
  0
VERTEX
  5
19F
330
198
100
AcDbEntity
  8
0
100
AcDbVertex
100
AcDb2dVertex
 10
39.93167195726767
 20
25.14115072766665
 30
0.0
 42
-0.0336993279757294
  0
SEQEND
  5
1A0
330
198
100
AcDbEntity
  8
0
  0
POLYLINE
  5
1A1
330
2
100
AcDbEntity
  8
0
100
AcDb2dPolyline
 66
     1
 10
0.0
 20
0.0
 30
0.0
 70
     2
  0
VERTEX
  5
1A2
330
1A1
100
AcDbEntity
  8
0
100
AcDbVertex
100
AcDb2dVertex
 10
26.30693032776028
 20
13.43770685649622
 30
0.0
 42
-0.010244397601292
  0
VERTEX
  5
1A3
330
1A1
100
AcDbEntity
  8
0
100
AcDbVertex
100
AcDb2dVertex
 10
26.27078325396332
 20
13.92580137963932
 30
0.0
 42
-0.0117355354486352
 70
     1
  0
VERTEX
  5
1A4
330
1A1
100
AcDbEntity
  8
0
100
AcDbVertex
100
AcDb2dVertex
 10
26.25798261753607
 20
14.35286676988994
 30
0.0
 42
-0.0122705881831081
  0
VERTEX
  5
1A5
330
1A1
100
AcDbEntity
  8
0
100
AcDbVertex
100
AcDb2dVertex
 10
26.27800400394969
 20
15.4622454255897
 30
0.0
 42
-0.1105801249019598
 70
     1
  0
VERTEX
  5
1A6
330
1A1
100
AcDbEntity
  8
0
100
AcDbVertex
100
AcDb2dVertex
 10
26.3103818875752
 20
15.58257515721175
 30
0.0
 42
-0.1875122875448442
  0
VERTEX
  5
1A7
330
1A1
100
AcDbEntity
  8
0
100
AcDbVertex
100
AcDb2dVertex
 10
26.41442387441052
 20
15.67326904784369
 30
0.0
 42
0.1191342593265606
 70
     1
  0
VERTEX
  5
1A8
330
1A1
100
AcDbEntity
  8
0
100
AcDbVertex
100
AcDb2dVertex
 10
26.59206051363162
 20
15.79051400416142
 30
0.0
 42
0.0419399415310854
  0
VERTEX
  5
1A9
330
1A1
100
AcDbEntity
  8
0
100
AcDbVertex
100
AcDb2dVertex
 10
26.99648475954942
 20
16.304755204775
 30
0.0
 42
0.0238997824364109
 70
     1
  0
VERTEX
  5
1AA
330
1A1
100
AcDbEntity
  8
0
100
AcDbVertex
100
AcDb2dVertex
 10
27.58091352789234
 20
17.29132340022966
 30
0.0
 42
0.0198540029837182
  0
VERTEX
  5
1AB
330
1A1
100
AcDbEntity
  8
0
100
AcDbVertex
100
AcDb2dVertex
 10
28.19501249242165
 20
18.57138977898642
 30
0.0
 42
-0.017051440040954
 70
     1
  0
VERTEX
  5
1AC
330
1A1
100
AcDbEntity
  8
0
100
AcDbVertex
100
AcDb2dVertex
 10
28.90160874597995
 20
20.0656755360244
 30
0.0
 42
-0.014732007632294
  0
VERTEX
  5
1AD
330
1A1
100
AcDbEntity
  8
0
100
AcDbVertex
100
AcDb2dVertex
 10
29.72946103192402
 20
21.56226025784417
 30
0.0
 42
-0.0220053834587809
 70
     1
  0
VERTEX
  5
1AE
330
1A1
100
AcDbEntity
  8
0
100
AcDbVertex
100
AcDb2dVertex
 10
30.35589866695818
 20
22.52105685594665
 30
0.0
 42
-0.0483205150447887
  0
VERTEX
  5
1AF
330
1A1
100
AcDbEntity
  8
0
100
AcDbVertex
100
AcDb2dVertex
 10
30.57245460412531
 20
22.76831377879675
 30
0.0
 42
-0.0226309934677905
 70
     1
  0
VERTEX
  5
1B0
330
1A1
100
AcDbEntity
  8
0
100
AcDbVertex
100
AcDb2dVertex
 10
31.1038437494426
 20
23.22475701188728
 30
0.0
 42
-0.1229882588492172
  0
VERTEX
  5
1B1
330
1A1
100
AcDbEntity
  8
0
100
AcDbVertex
100
AcDb2dVertex
 10
32.03196905744107
 20
23.63886774820761
 30
0.0
 42
-0.1679041999812225
 70
     1
  0
VERTEX
  5
1B2
330
1A1
100
AcDbEntity
  8
0
100
AcDbVertex
100
AcDb2dVertex
 10
32.7766288802045
 20
23.52039054725833
 30
0.0
 42
-0.0990599538815539
  0
VERTEX
  5
1B3
330
1A1
100
AcDbEntity
  8
0
100
AcDbVertex
100
AcDb2dVertex
 10
33.27703064240865
 20
23.10910362600965
 30
0.0
 42
-0.112105182288149
 70
     1
  0
VERTEX
  5
1B4
330
1A1
100
AcDbEntity
  8
0
100
AcDbVertex
100
AcDb2dVertex
 10
33.53289177951456
 20
22.59537198324438
 30
0.0
 42
-0.0151178618587017
  0
VERTEX
  5
1B5
330
1A1
100
AcDbEntity
  8
0
100
AcDbVertex
100
AcDb2dVertex
 10
33.62485219049279
 20
22.16087556737432
 30
0.0
 42
-0.0287215728086756
 70
     1
  0
VERTEX
  5
1B6
330
1A1
100
AcDbEntity
  8
0
100
AcDbVertex
100
AcDb2dVertex
 10
33.65306488888655
 20
21.92867648739343
 30
0.0
 42
-0.0255513500870469
  0
VERTEX
  5
1B7
330
1A1
100
AcDbEntity
  8
0
100
AcDbVertex
100
AcDb2dVertex
 10
33.65448143333117
 20
21.814358154275
 30
0.0
 42
-0.0163398925305371
 70
     1
  0
VERTEX
  5
1B8
330
1A1
100
AcDbEntity
  8
0
100
AcDbVertex
100
AcDb2dVertex
 10
33.64173639629576
 20
21.63610422655766
 30
0.0
  0
SEQEND
  5
1B9
330
1A1
100
AcDbEntity
  8
0
  0
POLYLINE
  5
1BA
330
2
100
AcDbEntity
  8
0
100
AcDb2dPolyline
 66
     1
 10
0.0
 20
0.0
 30
0.0
  0
VERTEX
  5
1BB
330
1BA
100
AcDbEntity
  8
0
100
AcDbVertex
100
AcDb2dVertex
 10
26.22728659792284
 20
13.43016521890345
 30
0.0
 42
-0.0102443976012921
  0
VERTEX
  5
1BC
330
1BA
100
AcDbEntity
  8
0
100
AcDbVertex
100
AcDb2dVertex
 10
26.19089743663693
 20
13.92152865333183
 30
0.0
 42
-0.0117355354486352
  0
VERTEX
  5
1BD
330
1BA
100
AcDbEntity
  8
0
100
AcDbVertex
100
AcDb2dVertex
 10
26.17798430467985
 20
14.35234721223419
 30
0.0
 42
-0.012270588183108
  0
VERTEX
  5
1BE
330
1BA
100
AcDbEntity
  8
0
100
AcDbVertex
100
AcDb2dVertex
 10
26.19807653354801
 20
15.46565122581705
 30
0.0
 42
-0.1105801249019612
  0
VERTEX
  5
1BF
330
1BA
100
AcDbEntity
  8
0
100
AcDbVertex
100
AcDb2dVertex
 10
26.23953775381532
 20
15.619738428217
 30
0.0
 42
-0.1875122875448435
  0
VERTEX
  5
1C0
330
1BA
100
AcDbEntity
  8
0
100
AcDbVertex
100
AcDb2dVertex
 10
26.38727473463598
 20
15.7485214511907
 30
0.0
 42
0.1191342593265596
  0
VERTEX
  5
1C1
330
1BA
100
AcDbEntity
  8
0
100
AcDbVertex
100
AcDb2dVertex
 10
26.53353924721219
 20
15.84505996071795
 30
0.0
 42
0.0419399415310854
  0
VERTEX
  5
1C2
330
1BA
100
AcDbEntity
  8
0
100
AcDbVertex
100
AcDb2dVertex
 10
26.92968162424995
 20
16.34877044207029
 30
0.0
 42
0.023899782436411
  0
VERTEX
  5
1C3
330
1BA
100
AcDbEntity
  8
0
100
AcDbVertex
100
AcDb2dVertex
 10
27.51021469282497
 20
17.32876234679762
 30
0.0
 42
0.0198540029837182
  0
VERTEX
  5
1C4
330
1BA
100
AcDbEntity
  8
0
100
AcDbVertex
100
AcDb2dVertex
 10
28.12156668890802
 20
18.60310277232098
 30
0.0
 42
-0.017051440040954
  0
VERTEX
  5
1C5
330
1BA
100
AcDbEntity
  8
0
100
AcDbVertex
100
AcDb2dVertex
 10
28.83049480208797
 20
20.10231986688372
 30
0.0
 42
-0.014732007632294
  0
VERTEX
  5
1C6
330
1BA
100
AcDbEntity
  8
0
100
AcDbVertex
100
AcDb2dVertex
 10
29.66062847928743
 20
21.60302886951455
 30
0.0
 42
-0.0220053834587808
  0
VERTEX
  5
1C7
330
1BA
100
AcDbEntity
  8
0
100
AcDbVertex
100
AcDb2dVertex
 10
30.29091581322209
 20
22.56771763948392
 30
0.0
 42
-0.0483205150447887
  0
VERTEX
  5
1C8
330
1BA
100
AcDbEntity
  8
0
100
AcDbVertex
100
AcDb2dVertex
 10
30.51763568015934
 20
22.82657942540959
 30
0.0
 42
-0.0226309934677906
  0
VERTEX
  5
1C9
330
1BA
100
AcDbEntity
  8
0
100
AcDbVertex
100
AcDb2dVertex
 10
31.05451554556595
 20
23.2877389799599
 30
0.0
 42
-0.1229882588492173
  0
VERTEX
  5
1CA
330
1BA
100
AcDbEntity
  8
0
100
AcDbVertex
100
AcDb2dVertex
 10
32.01804631077556
 20
23.71764691503037
 30
0.0
 42
-0.1679041999812227
  0
VERTEX
  5
1CB
330
1BA
100
AcDbEntity
  8
0
100
AcDbVertex
100
AcDb2dVertex
 10
32.81431318383886
 20
23.59095890602906
 30
0.0
 42
-0.0990599538815537
  0
VERTEX
  5
1CC
330
1BA
100
AcDbEntity
  8
0
100
AcDbVertex
100
AcDb2dVertex
 10
33.33896594209747
 20
23.15973976579593
 30
0.0
 42
-0.1121051822881492
  0
VERTEX
  5
1CD
330
1BA
100
AcDbEntity
  8
0
100
AcDbVertex
100
AcDb2dVertex
 10
33.61062151035105
 20
22.61429522144734
 30
0.0
 42
-0.0151178618587018
  0
VERTEX
  5
1CE
330
1BA
100
AcDbEntity
  8
0
100
AcDbVertex
100
AcDb2dVertex
 10
33.7035833966917
 20
22.17506701446285
 30
0.0
 42
-0.0287215728086757
  0
VERTEX
  5
1CF
330
1BA
100
AcDbEntity
  8
0
100
AcDbVertex
100
AcDb2dVertex
 10
33.73290374354605
 20
21.93375165110131
 30
0.0
 42
-0.0255513500870464
  0
VERTEX
  5
1D0
330
1BA
100
AcDbEntity
  8
0
100
AcDbVertex
100
AcDb2dVertex
 10
33.73442153014264
 20
21.81126284786472
 30
0.0
 42
-0.0199823944303661
  0
VERTEX
  5
1D1
330
1BA
100
AcDbEntity
  8
0
100
AcDbVertex
100
AcDb2dVertex
 10
33.71674825730875
 20
21.58704846365826
 30
0.0
 42
-0.0163398925305369
  0
SEQEND
  5
1D2
330
1BA
100
AcDbEntity
  8
0
  0
ARC
  5
1D3
330
2
100
AcDbEntity
  8
0
100
AcDbCircle
 10
26.8221833338807
 20
13.48831721965164
 30
0.0
 40
0.5977321989355402
100
AcDbArc
 50
185.5830063904139
 51
246.0296138336687
  0
LINE
  5
1D4
330
2
100
AcDbEntity
  8
0
100
AcDbLine
 10
26.36509858200304
 20
13.14658691281288
 30
0.0
 11
26.36509858200304
 21
15.64671741926406
 31
0.0
  0
ARC
  5
1D5
330
2
100
AcDbEntity
  8
0
100
AcDbCircle
 10
37.25044624170187
 20
15.27143439804489
 30
0.0
 40
6.590762296728209
100
AcDbArc
 50
70.43788412605643
 51
116.3328464185058
  0
ARC
  5
1D6
330
2
100
AcDbEntity
  8
0
100
AcDbCircle
 10
37.25044624170187
 20
15.27143439804489
 30
0.0
 40
6.510762296728209
100
AcDbArc
 50
70.18752554965944
 51
116.0024116629932
  0
ELLIPSE
  5
1D7
330
2
100
AcDbEntity
  8
0
100
AcDbEllipse
 10
33.29905548002171
 20
22.84867421819217
 30
0.0
 11
-0.2289185204931527
 21
-0.1098647051501302
 31
0.0
210
0.0
220
0.0
230
1.0
 40
0.6301504609420889
 41
0.0
 42
6.283185307179586
  0
ELLIPSE
  5
1D8
330
2
100
AcDbEntity
  8
0
100
AcDbEllipse
 10
30.93220135849561
 20
22.89994488030175
 30
0.0
 11
-0.1200912703870927
 21
0.2536849935308965
 31
0.0
210
0.0
220
0.0
230
1.0
 40
0.689784645962839
 41
0.0
 42
6.283185307179586
  0
ELLIPSE
  5
1D9
330
2
100
AcDbEntity
  8
0
100
AcDbEllipse
 10
28.80020838375094
 20
19.52959665649246
 30
0.0
 11
-0.2271396147197553
 21
0.1194061484320378
 31
0.0
210
0.0
220
0.0
230
0.9999999999999998
 40
0.6690787468311579
 41
0.0
 42
6.283185307179586
  0
ELLIPSE
  5
1DA
330
2
100
AcDbEntity
  8
0
100
AcDbEllipse
 10
27.46016793175295
 20
16.86756337215623
 30
0.0
 11
-0.1569407471742963
 21
0.1648986878340874
 31
0.0
210
0.0
220
0.0
230
1.0
 40
0.6189101676833099
 41
0.0
 42
6.283185307179586
  0
ELLIPSE
  5
1DB
330
2
100
AcDbEntity
  8
0
100
AcDbEllipse
 10
32.44294128912168
 20
20.69506038579959
 30
0.0
 11
0.0735468075632386
 21
0.2770629970395217
 31
0.0
210
0.0
220
0.0
230
1.0
 40
0.6264909224045797
 41
1.701106927512163
 42
6.796647124917027
  0
ELLIPSE
  5
1DC
330
2
100
AcDbEntity
  8
0
100
AcDbEllipse
 10
32.36041179806523
 20
20.34135709604445
 30
0.0
 11
0.0205533955513602
 21
0.1020531991344171
 31
0.0
210
0.0
220
0.0
230
0.9999999999999998
 40
0.6488298986685401
 41
0.0
 42
6.283185307179586
  0
ARC
  5
1DD
330
2
100
AcDbEntity
  8
0
100
AcDbCircle
 10
22.48329969764188
 20
21.78463944906913
 30
0.0
 40
9.993475260641371
100
AcDbArc
 50
296.42771716243
 51
351.1033270128062
  0
ENDSEC
  0
SECTION
  2
OBJECTS
  0
DICTIONARY
  5
A
330
0
100
AcDbDictionary
281
     1
  3
ACAD_COLOR
350
3F
  3
ACAD_GROUP
350
36
  3
ACAD_LAYOUT
350
17
  3
ACAD_MATERIAL
350
C
  3
ACAD_MLEADERSTYLE
350
42
  3
ACAD_MLINESTYLE
350
37
  3
ACAD_PLOTSETTINGS
350
38
  3
ACAD_PLOTSTYLENAME
350
9
  3
ACAD_SCALELIST
350
40
  3
ACAD_TABLESTYLE
350
41
  3
ACAD_VISUALSTYLE
350
2C
  3
ACDB_RECOMPOSE_DATA
350
1ED
  3
AcDbVariableDictionary
350
1DF
  3
AcDsDecomposeData
350
1F3
  0
DICTIONARY
  5
1F
330
1E
100
AcDbDictionary
280
     1
281
     1
  3
ACAD_LAYERSTATES
360
20
  0
DICTIONARY
  5
7
330
6
100
AcDbDictionary
280
     1
281
     1
  0
DICTIONARY
  5
3
330
2
100
AcDbDictionary
280
     1
281
     1
  3
ACAD_SORTENTS
360
1DE
  0
DICTIONARY
  5
3F
102
{ACAD_REACTORS
330
A
102
}
330
A
100
AcDbDictionary
281
     1
  0
DICTIONARY
  5
36
102
{ACAD_REACTORS
330
A
102
}
330
A
100
AcDbDictionary
281
     1
  0
DICTIONARY
  5
17
102
{ACAD_REACTORS
330
A
102
}
330
A
100
AcDbDictionary
281
     1
  3
Model
350
16
  3
レイアウト1
350
1D
  0
DICTIONARY
  5
C
102
{ACAD_REACTORS
330
A
102
}
330
A
100
AcDbDictionary
281
     1
  3
ByBlock
350
3C
  3
ByLayer
350
39
  3
Global
350
B
  0
DICTIONARY
  5
42
102
{ACAD_REACTORS
330
A
102
}
330
A
100
AcDbDictionary
281
     1
  0
DICTIONARY
  5
37
102
{ACAD_REACTORS
330
A
102
}
330
A
100
AcDbDictionary
281
     1
  3
Standard
350
43
  0
DICTIONARY
  5
38
102
{ACAD_REACTORS
330
A
102
}
330
A
100
AcDbDictionary
281
     1
  0
ACDBDICTIONARYWDFLT
  5
9
102
{ACAD_REACTORS
330
A
102
}
330
A
100
AcDbDictionary
281
     1
  3
Normal
350
8
100
AcDbDictionaryWithDefault
340
8
  0
DICTIONARY
  5
40
102
{ACAD_REACTORS
330
A
102
}
330
A
100
AcDbDictionary
281
     1
  3
A0
350
48
  3
A1
350
49
  3
A2
350
4A
  3
A3
350
4B
  3
A4
350
4C
  3
A5
350
4D
  3
A6
350
4E
  3
A7
350
4F
  3
A8
350
50
  3
A9
350
51
  3
B0
350
52
  3
B1
350
53
  3
B2
350
54
  3
B3
350
55
  3
B4
350
56
  3
B5
350
57
  3
B6
350
58
  0
DICTIONARY
  5
41
102
{ACAD_REACTORS
330
A
102
}
330
A
100
AcDbDictionary
281
     1
  3
Standard
350
44
  0
DICTIONARY
  5
2C
102
{ACAD_REACTORS
330
A
102
}
330
A
100
AcDbDictionary
281
     1
  3
2dWireframe
350
2B
  3
Realistic
350
46
  3
Wireframe
350
47
  0
XRECORD
  5
1ED
102
{ACAD_REACTORS
330
A
102
}
330
A
100
AcDbXrecord
280
     1
 90
        1
330
44
  0
DICTIONARY
  5
1DF
102
{ACAD_REACTORS
330
A
102
}
330
A
100
AcDbDictionary
281
     1
  3
CANNOSCALE
350
1E5
  3
CMLEADERSTYLE
350
1E1
  3
CTABLESTYLE
350
1E0
  3
CVIEWDETAILSTYLE
350
1E2
  3
CVIEWSECTIONSTYLE
350
1E3
  3
LAYEREVAL
350
1E7
  3
LAYERNOTIFY
350
1E8
  3
LIGHTINGUNITS
350
1E6
  3
MSLTSCALE
350
1E4
  3
PSOLHEIGHT
350
1EA
  3
PSOLWIDTH
350
1E9
  3
XCLIPFRAME
350
1EB
  0
DICTIONARY
  5
1F3
102
{ACAD_REACTORS
330
A
102
}
330
A
100
AcDbDictionary
281
     1
  3
AcDsRecords
350
1F5
  3
AcDsSchemas
350
1F4
1001
ACAD
1070
     2
  0
DICTIONARY
  5
20
102
{ACAD_REACTORS
330
1F
102
}
330
1F
100
AcDbDictionary
281
     1
  0
SORTENTSTABLE
  5
1DE
102
{ACAD_REACTORS
330
3
102
}
330
3
100
AcDbSortentsTable
330
2
  0
LAYOUT
  5
16
102
{ACAD_XDICTIONARY
360
18
102
}
102
{ACAD_REACTORS
330
17
102
}
330
17
100
AcDbPlotSettings
  1

  2
none_device
  4
ISO_A4_(210.00_x_297.00_MM)
  6

 40
7.5
 41
20.0
 42
7.5
 43
20.0
 44
210.0
 45
297.0
 46
11.54999923706054
 47
-13.65000009536743
 48
0.0
 49
0.0
140
0.0
141
0.0
142
1.0
143
8.704084754739808
 70
 11952
 72
     1
 73
     0
 74
     0
  7

 75
     0
147
0.1148885871608098
 76
     0
 77
     2
 78
   300
148
0.0
149
0.0
100
AcDbLayout
  1
Model
 70
     1
 71
     0
 10
0.0
 20
0.0
 11
12.0
 21
9.0
 12
0.0
 22
0.0
 32
0.0
 14
0.0
 24
0.0
 34
0.0
 15
0.0
 25
0.0
 35
0.0
146
0.0
 13
0.0
 23
0.0
 33
0.0
 16
1.0
 26
0.0
 36
0.0
 17
0.0
 27
1.0
 37
0.0
 76
     0
330
2
331
2A
1001
ACAD_PSEXT
1000
None
1000
None
1000
Not applicable
1000
The layout will not be plotted unless a new plotter configuration name is selected.
1070
     0
  0
LAYOUT
  5
1D
102
{ACAD_REACTORS
330
17
102
}
330
17
100
AcDbPlotSettings
  1

  2
C:\Documents and Settings\basas\Application Data\Autodesk\AutoCAD 2005\R16.1\enu\plotters\Default Windows System Printer.pc3
  4

  6

 40
0.0
 41
0.0
 42
0.0
 43
0.0
 44
0.0
 45
0.0
 46
0.0
 47
0.0
 48
0.0
 49
0.0
140
0.0
141
0.0
142
1.0
143
1.0
 70
   688
 72
     0
 73
     0
 74
     5
  7

 75
    16
147
1.0
 76
     0
 77
     2
 78
   300
148
0.0
149
0.0
100
AcDbLayout
  1
レイアウト1
 70
     1
 71
     1
 10
0.0
 20
0.0
 11
12.0
 21
9.0
 12
0.0
 22
0.0
 32
0.0
 14
0.0
 24
0.0
 34
0.0
 15
0.0
 25
0.0
 35
0.0
146
0.0
 13
0.0
 23
0.0
 33
0.0
 16
1.0
 26
0.0
 36
0.0
 17
0.0
 27
1.0
 37
0.0
 76
     0
330
1A
  0
MATERIAL
  5
3C
102
{ACAD_XDICTIONARY
360
3D
102
}
102
{ACAD_REACTORS
330
C
102
}
330
C
100
AcDbMaterial
  1
ByBlock
  0
MATERIAL
  5
39
102
{ACAD_XDICTIONARY
360
3A
102
}
102
{ACAD_REACTORS
330
C
102
}
330
C
100
AcDbMaterial
  1
ByLayer
  0
MATERIAL
  5
B
102
{ACAD_XDICTIONARY
360
D
102
}
102
{ACAD_REACTORS
330
C
102
}
330
C
100
AcDbMaterial
  1
Global
 43
0.0007999999797903
 43
0.0
 43
0.0
 43
0.0
 43
0.0
 43
0.0007999999797903
 43
0.0
 43
0.0
 43
0.0
 43
0.0
 43
1.0
 43
0.0
 43
0.0
 43
0.0
 43
0.0
 43
1.0
 49
0.0007999999797903
 49
0.0
 49
0.0
 49
0.0
 49
0.0
 49
0.0007999999797903
 49
0.0
 49
0.0
 49
0.0
 49
0.0
 49
1.0
 49
0.0
 49
0.0
 49
0.0
 49
0.0
 49
1.0
142
0.0007999999797903
142
0.0
142
0.0
142
0.0
142
0.0
142
0.0007999999797903
142
0.0
142
0.0
142
0.0
142
0.0
142
1.0
142
0.0
142
0.0
142
0.0
142
0.0
142
1.0
144
0.0007999999797903
144
0.0
144
0.0
144
0.0
144
0.0
144
0.0007999999797903
144
0.0
144
0.0
144
0.0
144
0.0
144
1.0
144
0.0
144
0.0
144
0.0
144
0.0
144
1.0
1001
ACAD
1070
    -1
1070
     3
1070
     0
1000

1071
        0
1070
     0
  0
MLINESTYLE
  5
43
102
{ACAD_REACTORS
330
37
102
}
330
37
100
AcDbMlineStyle
  2
STANDARD
 70
     0
  3

 62
   256
 51
90.0
 52
90.0
 71
     2
 49
0.5
 62
   256
  6
BYLAYER
 49
-0.5
 62
   256
  6
BYLAYER
  0
ACDBPLACEHOLDER
  5
8
102
{ACAD_REACTORS
330
9
102
}
330
9
  0
SCALE
  5
48
102
{ACAD_REACTORS
330
40
102
}
330
40
100
AcDbScale
 70
     0
300
1:1
140
1.0
141
1.0
290
     1
  0
SCALE
  5
49
102
{ACAD_REACTORS
330
40
102
}
330
40
100
AcDbScale
 70
     0
300
1:2
140
1.0
141
2.0
290
     0
  0
SCALE
  5
4A
102
{ACAD_REACTORS
330
40
102
}
330
40
100
AcDbScale
 70
     0
300
1:4
140
1.0
141
4.0
290
     0
  0
SCALE
  5
4B
102
{ACAD_REACTORS
330
40
102
}
330
40
100
AcDbScale
 70
     0
300
1:5
140
1.0
141
5.0
290
     0
  0
SCALE
  5
4C
102
{ACAD_REACTORS
330
40
102
}
330
40
100
AcDbScale
 70
     0
300
1:8
140
1.0
141
8.0
290
     0
  0
SCALE
  5
4D
102
{ACAD_REACTORS
330
40
102
}
330
40
100
AcDbScale
 70
     0
300
1:10
140
1.0
141
10.0
290
     0
  0
SCALE
  5
4E
102
{ACAD_REACTORS
330
40
102
}
330
40
100
AcDbScale
 70
     0
300
1:16
140
1.0
141
16.0
290
     0
  0
SCALE
  5
4F
102
{ACAD_REACTORS
330
40
102
}
330
40
100
AcDbScale
 70
     0
300
1:20
140
1.0
141
20.0
290
     0
  0
SCALE
  5
50
102
{ACAD_REACTORS
330
40
102
}
330
40
100
AcDbScale
 70
     0
300
1:30
140
1.0
141
30.0
290
     0
  0
SCALE
  5
51
102
{ACAD_REACTORS
330
40
102
}
330
40
100
AcDbScale
 70
     0
300
1:40
140
1.0
141
40.0
290
     0
  0
SCALE
  5
52
102
{ACAD_REACTORS
330
40
102
}
330
40
100
AcDbScale
 70
     0
300
1:50
140
1.0
141
50.0
290
     0
  0
SCALE
  5
53
102
{ACAD_REACTORS
330
40
102
}
330
40
100
AcDbScale
 70
     0
300
1:100
140
1.0
141
100.0
290
     0
  0
SCALE
  5
54
102
{ACAD_REACTORS
330
40
102
}
330
40
100
AcDbScale
 70
     0
300
2:1
140
2.0
141
1.0
290
     0
  0
SCALE
  5
55
102
{ACAD_REACTORS
330
40
102
}
330
40
100
AcDbScale
 70
     0
300
4:1
140
4.0
141
1.0
290
     0
  0
SCALE
  5
56
102
{ACAD_REACTORS
330
40
102
}
330
40
100
AcDbScale
 70
     0
300
8:1
140
8.0
141
1.0
290
     0
  0
SCALE
  5
57
102
{ACAD_REACTORS
330
40
102
}
330
40
100
AcDbScale
 70
     0
300
10:1
140
10.0
141
1.0
290
     0
  0
SCALE
  5
58
102
{ACAD_REACTORS
330
40
102
}
330
40
100
AcDbScale
 70
     0
300
100:1
140
100.0
141
1.0
290
     0
  0
TABLESTYLE
  5
44
102
{ACAD_XDICTIONARY
360
45
102
}
102
{ACAD_REACTORS
330
41
102
}
330
41
100
AcDbTableStyle
  3
Standard
 70
     0
 71
     0
 40
1.5
 41
1.5
280
     0
281
     0
  7
Standard
140
4.5
170
     2
 62
     0
 63
     7
283
     0
274
    -2
284
     1
 64
     0
275
    -2
285
     1
 65
     0
276
    -2
286
     1
 66
     0
277
    -2
287
     1
 67
     0
278
    -2
288
     1
 68
     0
279
    -2
289
     1
 69
     0
  7
Standard
140
6.0
170
     5
 62
     0
 63
     7
283
     0
274
    -2
284
     1
 64
     0
275
    -2
285
     1
 65
     0
276
    -2
286
     1
 66
     0
277
    -2
287
     1
 67
     0
278
    -2
288
     1
 68
     0
279
    -2
289
     1
 69
     0
  7
Standard
140
4.5
170
     5
 62
     0
 63
     7
283
     0
274
    -2
284
     1
 64
     0
275
    -2
285
     1
 65
     0
276
    -2
286
     1
 66
     0
277
    -2
287
     1
 67
     0
278
    -2
288
     1
 68
     0
279
    -2
289
     1
 69
     0
  0
VISUALSTYLE
  5
2B
102
{ACAD_XDICTIONARY
360
1F7
102
}
102
{ACAD_REACTORS
330
2C
102
}
330
2C
100
AcDbVisualStyle
  2
2dWireframe
 70
     4
 71
     0
 72
     2
 73
     1
 90
        0
 40
-0.6
 41
-30.0
 62
     5
 63
     7
421
 16777215
 74
     1
 91
        4
 64
     7
 65
   257
 75
     1
175
     1
 42
1.0
 92
        0
 66
   257
 43
1.0
 76
     1
 77
     6
 78
     2
 67
     7
 79
     5
170
     0
171
     0
290
     0
174
     0
 93
        1
 44
0.0
173
     0
291
     0
 45
0.0
1001
ACAD
1000
AcDbSavedByObjectVersion
1070
     0
  0
VISUALSTYLE
  5
46
102
{ACAD_XDICTIONARY
360
1FC
102
}
102
{ACAD_REACTORS
330
2C
102
}
330
2C
100
AcDbVisualStyle
  2
Realistic
 70
     8
 71
     2
 72
     3
 73
     0
 90
        2
 40
-0.6
 41
30.0
 62
     5
 63
     7
421
 16777215
 74
     0
 91
        0
 64
     7
 65
   257
 75
     1
175
     1
 42
1.0
 92
        8
 66
   257
 43
1.0
 76
     1
 77
     6
 78
     2
 67
     7
 79
     3
170
     0
171
     0
290
     0
174
     0
 93
       13
 44
0.0
173
     0
291
     0
 45
0.0
1001
ACAD
1000
AcDbSavedByObjectVersion
1070
     0
  0
VISUALSTYLE
  5
47
102
{ACAD_XDICTIONARY
360
1FE
102
}
102
{ACAD_REACTORS
330
2C
102
}
330
2C
100
AcDbVisualStyle
  2
Wireframe
 70
     5
 71
     0
 72
     2
 73
     0
 90
        0
 40
-0.6
 41
-30.0
 62
     5
 63
     7
421
 16777215
 74
     1
 91
        4
 64
     7
 65
   257
 75
     1
175
     1
 42
1.0
 92
        0
 66
   257
 43
1.0
 76
     1
 77
     6
 78
     2
 67
     7
 79
     3
170
     0
171
     0
290
     0
174
     0
 93
        1
 44
0.0
173
     0
291
     0
 45
0.0
1001
ACAD
1000
AcDbSavedByObjectVersion
1070
     0
  0
DICTIONARYVAR
  5
1E5
102
{ACAD_REACTORS
330
1DF
102
}
330
1DF
100
DictionaryVariables
280
     0
  1
1:1
  0
DICTIONARYVAR
  5
1E1
102
{ACAD_REACTORS
330
1DF
102
}
330
1DF
100
DictionaryVariables
280
     0
  1
STANDARD
  0
DICTIONARYVAR
  5
1E0
102
{ACAD_REACTORS
330
1DF
102
}
330
1DF
100
DictionaryVariables
280
     0
  1
STANDARD
  0
DICTIONARYVAR
  5
1E2
102
{ACAD_REACTORS
330
1DF
102
}
330
1DF
100
DictionaryVariables
280
     0
  1

  0
DICTIONARYVAR
  5
1E3
102
{ACAD_REACTORS
330
1DF
102
}
330
1DF
100
DictionaryVariables
280
     0
  1

  0
DICTIONARYVAR
  5
1E7
102
{ACAD_REACTORS
330
1DF
102
}
330
1DF
100
DictionaryVariables
280
     0
  1
0
  0
DICTIONARYVAR
  5
1E8
102
{ACAD_REACTORS
330
1DF
102
}
330
1DF
100
DictionaryVariables
280
     0
  1
0
  0
DICTIONARYVAR
  5
1E6
102
{ACAD_REACTORS
330
1DF
102
}
330
1DF
100
DictionaryVariables
280
     0
  1
2
  0
DICTIONARYVAR
  5
1E4
102
{ACAD_REACTORS
330
1DF
102
}
330
1DF
100
DictionaryVariables
280
     0
  1
1
  0
DICTIONARYVAR
  5
1EA
102
{ACAD_REACTORS
330
1DF
102
}
330
1DF
100
DictionaryVariables
280
     0
  1
80.000000
  0
DICTIONARYVAR
  5
1E9
102
{ACAD_REACTORS
330
1DF
102
}
330
1DF
100
DictionaryVariables
280
     0
  1
5.000000
  0
DICTIONARYVAR
  5
1EB
102
{ACAD_REACTORS
330
1DF
102
}
330
1DF
100
DictionaryVariables
280
     0
  1
2
  0
DICTIONARY
  5
1F5
102
{ACAD_REACTORS
330
1F3
102
}
330
1F3
100
AcDbDictionary
281
     1
  0
DICTIONARY
  5
1F4
102
{ACAD_REACTORS
330
1F3
102
}
330
1F3
100
AcDbDictionary
281
     1
  3
1012091104
350
1EE
  3
1012091120
350
1EF
  3
1012091136
350
1F0
  3
1012091152
350
1F1
  3
1012091168
350
1F2
  0
DICTIONARY
  5
18
330
16
100
AcDbDictionary
280
     1
281
     1
  0
DICTIONARY
  5
3D
330
3C
100
AcDbDictionary
280
     1
281
     1
  3
ACAD_XREC_ROUNDTRIP
360
1FA
  3
FBXASSET
360
3E
  0
DICTIONARY
  5
3A
330
39
100
AcDbDictionary
280
     1
281
     1
  3
ACAD_XREC_ROUNDTRIP
360
1F9
  3
FBXASSET
360
3B
  0
DICTIONARY
  5
D
330
B
100
AcDbDictionary
280
     1
281
     1
  3
ACAD_XREC_ROUNDTRIP
360
1F6
  3
BUMPTILE
360
E
  3
DIFFUSETILE
360
F
  3
FBXASSET
360
10
  3
OPACITYTILE
360
11
  3
REFLECTIONTILE
360
12
  0
DICTIONARY
  5
45
330
44
100
AcDbDictionary
280
     1
281
     1
  3
ACAD_ROUNDTRIP_2008_TABLESTYLE_CELLSTYLEMAP
360
1EC
  3
ACAD_XREC_ROUNDTRIP
360
1FB
  0
DICTIONARY
  5
1F7
330
2B
100
AcDbDictionary
280
     1
281
     1
  3
ACAD_XREC_ROUNDTRIP
360
1F8
  0
DICTIONARY
  5
1FC
330
46
100
AcDbDictionary
280
     1
281
     1
  3
ACAD_XREC_ROUNDTRIP
360
1FD
  0
DICTIONARY
  5
1FE
330
47
100
AcDbDictionary
280
     1
281
     1
  3
ACAD_XREC_ROUNDTRIP
360
1FF
  0
XRECORD
  5
1EE
102
{ACAD_REACTORS
330
1F4
102
}
330
1F4
100
AcDbXrecord
280
     1
  1
AcDb_Thumbnail_Schema
102
{ATTRRECORD
341
1EF
  2
AcDbDs::TreatedAsObjectData
280
     1
291
     1
102
ATTRRECORD}
102
{ATTRRECORD
341
1F0
  2
AcDbDs::Legacy
280
     1
291
     1
102
ATTRRECORD}
  2
AcDbDs::ID
280
    10
 91
        8
102
{ATTRRECORD
341
1F1
  2
AcDs:Indexable
280
     1
291
     1
102
ATTRRECORD}
102
{ATTRRECORD
341
1F2
  2
AcDbDs::HandleAttribute
280
     7
282
     1
102
ATTRRECORD}
  2
Thumbnail_Data
280
    15
 91
        0
  0
XRECORD
  5
1EF
102
{ACAD_REACTORS
330
1F4
102
}
330
1F4
100
AcDbXrecord
280
     1
  1
AcDbDs::TreatedAsObjectDataSchema
  2
AcDbDs::TreatedAsObjectData
280
     1
 91
        0
  0
XRECORD
  5
1F0
102
{ACAD_REACTORS
330
1F4
102
}
330
1F4
100
AcDbXrecord
280
     1
  1
AcDbDs::LegacySchema
  2
AcDbDs::Legacy
280
     1
 91
        0
  0
XRECORD
  5
1F1
102
{ACAD_REACTORS
330
1F4
102
}
330
1F4
100
AcDbXrecord
280
     1
  1
AcDbDs::IndexedPropertySchema
  2
AcDs:Indexable
280
     1
 91
        0
  0
XRECORD
  5
1F2
102
{ACAD_REACTORS
330
1F4
102
}
330
1F4
100
AcDbXrecord
280
     1
  1
AcDbDs::HandleAttributeSchema
  2
AcDbDs::HandleAttribute
280
     7
 91
        1
284
     1
  0
XRECORD
  5
1FA
102
{ACAD_REACTORS
330
3D
102
}
330
3D
100
AcDbXrecord
280
     1
102
MATERIAL
148
0.0
149
0.0
149
0.0
 93
        0
 94
       63
282
     0
 72
     1
 77
     1
171
     1
175
     1
179
     1
273
     0
  0
XRECORD
  5
3E
102
{ACAD_REACTORS
330
3D
102
}
330
3D
100
AcDbXrecord
280
     1
 70
     1
 90
429727718
  1
D62C5603-E3A1-4AEA-B7FB-FE5D8D0755AF
310
504B03040A0000080000CC70623B3DEE336E79000000790000001B0000006175746F6465736B2D64657369676E2D7061636B6167652E786D6C3C3F786D6C2076657273696F6E3D22312E302220656E636F64696E673D227574662D3822203F3E3C666F726D6174733E3C666F726D61743E687474703A2F2F736368656D612E
310
6175746F6465736B2E636F6D2F64657369676E2D7061636B6167652F323030393C2F666F726D61743E3C2F666F726D6174733E504B0304140006080800CC70623BD486FD9CA0000000F4000000130000005B436F6E74656E745F54797065735D2E786D6C7D8EC10E82300C865F65E91D8A1E8C310C0EEA1BF002731658846E
310
D98AC1B77784ABF1D8FE5FBFBF75BBCE937A534CCEB38643598122B6FEE978D0B0485F9C41B54DDD7D022595594E1A469170414C76A4D9A4D207E29CF43ECE46F218070CC6BECC4078ACAA135ACF422C856C0E68EA1BF5669944DDD7BCDE7B1F8E415D77AECB980613C2E4AC91FC167A2B244592486606FC29C8FD7F045B9A
310
EF7053A7E60B504B0304140006080800CC70623B853B8169EB0000007C01000008000000636F72652E786D6C8D90416EC3201045AF62CDB6C206821CC7C244919D9CA01740401C94182C03558F5F9C3852BBEB6A467FFE9B197D7EFC9E1EC5975982F5AE035262288C535E5B377690E21535501C055FBC8FBF6C503839990E
310
5619041F179FE64D52DE45E362569DD7661365082642A11EB9E920A89B99642953CC8E702F67A9EE7234257977194EC9EAE275C4EABCCF5EAD5940D4AC6F0E35A568B8F43562CD7046CD199FD07E60174276A7BE677B5EADB0E0D14EEFFB6A31321A0D82627C4084204C3F096B71DD52F6819B16635EADF63F509AF53FA164
310
5DDCD1EDDD17164090FCC8732078B56691CB33A85CD7DCC40F504B0304140006080800CC70623B55019EA25F0000007C00000007000000636E782E786D6C4DCB3B0E80201045D1AD90E915ED2CF8AC45050C11660C8261F98AB1B07AC9C97D42D718D865D3E909258CFD00CCE24AC6E326A164D74DC0B4128928FF32603847
310
2BA13128B1252AC747C6BAB984FC68F0B87FE8960A5C09FE86CFB69FBA01504B0304140006080800CC70623BDBABAAF470010000D40300000C0000006662782F636F72652E786D6CC553D16E823014FD95A6AF4B694182CC941A83FA05FB810A9511A125A5257EFE2E82712ECEB8A7F100CD39F7F69E734AF9FADC366850B6
310
AF8DCE7018308C942E4C59EB2AC3DE1D498AD15A706B8CFB56869196ADCAF00863C12B6B7C374385D14E6907A836A59A41D9F7CA615434B0C8705F7CAA5606D23BA8E84F41278B93AC54100640439DE0BDB320004D43C63716C7C399D30917DCFBBA9CD9BA8469F5B156168B24CED3F7248AC8769F27244EB73B92EED8862C
310
B7F13E0C179B3C8F979C8ECD82BBBABDAA2BAC924E9558448CBD9330242CFA08E3154B5651FCC6D215639C8EE5774DBE2B5F6CF2B5768B68963BB5F5588420E442FC700B1139D4CB01F450C1E918227C2E09DF070D8140C84E1E9AAB8F1340832A9CB13130A5F1376A908D57309505ECF2A0DF179C4E9D30F5B239B87E3823
310
7A79C6F31DE1A8A5AEC08474B03C7837EAE4938639B44E5932B833D2C6B6B279CDC613877FA26EE21F4A2A4C63EC7F29A2F301D1F9F7A0E37D145F504B0304140006080800CC70623B9C113CC27E0000009D0000000B0000006662782F636E782E786D6C4DCCDF0A83201C86E15B91DFB94BFB330DD428C8FB886521330DA7
310
6397BF1A1DECE883878F57749FCDA1B7892F1BBC047A23808C7F84D9FA55424E0BE6803A256208E9EF06C84F9B91703228B1C690F78B66B34CD9A5439DF5CF0BFBF65E35BCA1B8D6A5C6F540381E886698B5741C695F9503EBA150A2F8958E3DC3EA0B504B0304140006080800CC70623B7DF2F77C2A010000120200003100
310
00006662782F41393633353835312D344632462D344230382D423046372D3739314545314133324237412F636F72652E786D6C8D51DB8EC22014FC15C2939B0D2DB4B45643319AE817EC0F6041255A68B86CFCFC856D4D76DF7CE190393373060EDB3DC707F856CE6B6B7A480A0C81328395DA5C7B18C3057510EC3873D686
310
3F34088C18550F330C39BB3A1BA7051AAC09CA84841A2BD5020AEF55806078A44B0FFD7053A328440C89E1EFC52486BBB8AA8214A99D789CF9E05200300FC927E4FB4D5B375D43103D5527440FB843077C5AA3F5861C8F645F5787F59E95B390B318B55CE45AA638FAA2957BD7248B390B7A7CC51F9C124149C82B8C378810
310
84AB2F42B7B8DD56F413775B8C5999E9FF4471926F8AA236A1AE96B8B3CC434E5839373893369E1FAF30EA395917409EB7F26AF8801C171837A4A6AC9C89E9F9C9B1A58BA30FD6A5EF5DDDCF894B9AD9B6A59C957943A9FCAE2FD5BC4DFE03504B0304140006080800CC70623BAD7543B64E01000033030000300000006662
310
782F41393633353835312D344632462D344230382D423046372D3739314545314133324237412F636E782E786D6CD593CD6EC32010845F0571AD6CE3D48AD20813A9873E410FBD12D82434182C7EAAE6EDBB2424CD25871E7B41D6EC30B3FA84F9E67BB2E40B4234DE8DB46F1925E094D7C6ED479AD3AE5951B2113C789FEE
310
6C943839C1488B4C05DF079FE72A69D8C96C13AAD6B8631503449F83828872B949AC57D26200B826A308D316B4064D6E46FCDA41C05550DC9E483A00797BFD207EFB092A45DE9514C1BBD22178396BD39D891265658C238DEA00936C654E5E433CB65A26D9F6EDB5EBC14EBF49A45CB856E66048291F6939A9A81BB5C89177
310
38143CA680F4AA299D66A042CEB3354A2684DC9D8D178FE0D9B8B41CAAD720F880EE7EF93C0C18769E099ECC04D5A102C8049A8A05632F4DDF376CF1DE0F6BB65C2F8627B65A33C6BB62177CEBBDAD973006829F89F22E814B54F4BC2BE347F8AA8F681390B50FA73F804400B5F542E796F19FF974E7F78DB802FE05E20750
310
4B0304140006080800CC70623BE75B7789680500003C100000340000006662782F41393633353835312D344632462D344230382D423046372D3739314545314133324237412F6F626A656374732E786D6CAD575B8F9B3818FD2B887D06C22499CB8AA1CA655245D5B455A356FB305264C061D8018C6C3393D95FBFC7600890
310
A4CD5EF210B0B1BFEBF98E3F7B1FF6596ABC522E1296DF9BAE3D320D9A872C4AF2F8DE2CE5CEBA358D0FBEC719939D65A691938CDE9B6ADAF4BD98B3B2D05311DD91329583D9D5FC0F438434A7A611A644887B5384CF34233629258BA878B12322891DEFF6B66BD70BFB62634E8AE781D082709A4B588AF91C528CDA28B73F
310
1C998EEF39EABBEFA97FBD6A7C7E9553F9D3D79FE442923C3C523610337627CB87ABE99D359D4CC6D6E4FACAB5E6ABF9D2726FC6A3C5F56271377BB88362213924694B38DD99FE47C48627A1E7D49F5A8BB5E1A74C0A599ED3B0F21F1E56366B89112D681E218F0915D0D6F17AD41FBA2A369DCF6335D62ABBD39779D5DDD1
310
11D4D8DE3CBB96B2E04FB8202E41051754A1AA8E8F76B4C6DFE810B580B1547F4B84911149794252234D024EF8BBE963A95AE27B3D310A9D5C215C7960FAEE415ED75694C6AFB17BCACA5D99A60A9AA65F217B0BFC53292ACB92BF283FAD0D3621576592CB5BED907C2FA8E9DF794E35E97BEA31BED21FEB401ABB94C44839
310
DCACBF0E1C5DA8DA5B2F4DFFD32AD86F543D9E565E7056502E157C00AD2671CD534549AB752FCA9CDA00677A313F04E51B22FF19E57B300579E3C97EB29F682D92935CEC18CF901B7B54FD8C51F362B56FC72FE0B3C1EAE335EDCCBF5AEC39ADB17DC238973F804BA5E6F6BFE7AF1FB32E523BE9F3BD571418E3631DCA4D48
310
5250CF639223210A9446CA30052EDF057BD35F8329C1ECD84552BF0DC8D18BE7BCE23BFE6BD960AB4A7DE79923A103BEBD80F911CBAA2C60DB19B01CF164A5583B772EE6D3FFA56666CBCDA74DC97724A48F9A58967497E489C4D979006FD7A05E227A1EBDD0F737C623387A9C844D3709995625106D157315F8B8392CD4E0
310
A0B9A720C4BE9829CEF37EA1E13111214D53925356365ADA634861B52519DD27A00AEB808EAF0628E6F435519D446F45CF2C9CF5214F0A15B2F6D06B79DA3EE3CBF7F56780D2F4E7EF73A0F5E5B02A38D07DC852C6B7C1FBB6664213E0C39E3EBA7FF4E1AD23EA2829407C85E586727488B751B2DB9502BC7B228A3FD68B6E
310
A65A22397E690AA8D158D7E404EC8CDA235CC3B7D1898680131CEC2CDF2638C65196279577750F15884AEE19F94199155B92B13297978469D4F8D358DF0AEF7631E28DC8F0D9F437D5D39A83B2231A1D52D543813A824EF8D44BCFF2FA6A31BD1E8DAD87F1CCB526B3879935BF59CDADD5C37479BB1CDD4CA7B3556B516589
310
EF352754B706114D9C885EC9131DE6EFEB43D99AFE2391C2F958179413D7CFEF6B1B6DB1E7600F00DE6E5C67454A339A4BA2E0FBA85ED26F045D454F463DBFCE484C2F90F2E5E3666003662ED8F755951A7D1BECD5B30B550B2785C8E7320B7292A4838DDA71BBC863ED7613CAF659337A3354231D4FF4A182A54904C2898C
310
98B28C4AD0CE056CCF332A80986E571EE9DBC305BB5FEB7E509220A58D25CF042D712A806AC0AD0C657FDEF80D2D9CEAA2EE4D1C76F60BFE74219A06527D6F82DF6412526107381E55E353090704D085B52408A8913C4ED159D79BDA71BB4BC506F4831350EB6F975CD22D69BF7AC49B91A2C0A9DDA3D5CA36AD20FC478E37
310
E61844E2352865EBCB61A275A65283CAAA9DD27703B4102F5AF51EF5F573B75CBB5AD38BC845F7A49F82A0966A49C2E3EA5EA0ECD326CD965F1DB402C6FA8B51A4658C5C5E2EC9E214602E55810345408596591009A82E7E7FFACA19EEA299B14A0081A705CB3296EBC14CDF658DCD336EA6D1136881AAEB87B81AB9EE53D5
310
F5EB8BC8362082DA24122F98680A4E7930C01A0079749CEA14382A0783E5EBA5A10F8C098456A03D6A4AEB6BB881E2513747552A5DB22C7EDAF83BD5528081A365F7FF06504B0304140006080000CC70623B000000000000000000000000350000006662782F41393633353835312D344632462D344230382D423046372D37
310
39314545314133324237412F76657274696365732E62696E504B0304140006080800CC70623BF270F1330600000004000000360000006662782F41393633353835312D344632462D344230382D423046372D3739314545314133324237412F747269616E676C65732E62696E636660600000504B0304140006080000CC7062
310
3B000000000000000000000000370000006662782F41393633353835312D344632462D344230382D423046372D3739314545314133324237412F617474726962757465732E62696E504B0304140006080800CC70623B08DA0BD19000000041010000360000006662782F41393633353835312D344632462D344230382D4230
310
46372D3739314545314133324237412F6469726563746F72792E786D6C858F410AC3201045AF22B36F53E9A60B35CBEEBAE80D244E44489C6234F4F835464A48035D0DF398FF9F8AF63D0E6CC63039F212F8F9020C7D47C6792B21C5FE7403D62A1188E2E60C98D7234A5830286103A55745067B9D86B8A3CF9C7F90C11DE6
310
07FB144396D7B6A82D282E9A152AD114D5EF2CB866EEE831B8EEA07A7BB5A8D7D61A2BAAEB7FD5F70921FF497D00504B0304140006080800CC70623BEDD1DC58FD000000A00100003B0000006662782F41393633353835312D344632462D344230382D423046372D3739314545314133324237412F7265736F75726365732F
310
636F72652E786D6C8D504B6E833010BD0A9A6D65B00922041947112427E8052C33A156828DFCA97AFC9A40A576D7CDCCE87D344F8F9FBFE667F689CE6B6B3A6039850C8DB2A336530731DC4903D95970676DF82583CCC8193B5861107C72362E3BA4AC096842428D1D7107A5F7182053CF7474E0D507CE32973124857FE48B
310
540F3961CEF244279DE03EB81420DB9EAC1384436FA353E879B1B182C7A8C75DA3C7F453DF353A1075D537A7BA6464B8F535A99AE14A9A2BBD90E350DD183B5CFABE3AF262350B1EF4FC9351399401471025A527C218A1E53BAB5A5AB765F5469B96525EACF23FA6B88CFF34456DC2A1DCE36E360F82A5202F42F062ED2BAD
310
579969AFDD8A6F504B010214000A0000080000CC70623B3DEE336E79000000790000001B00000000000000000000000000000000006175746F6465736B2D64657369676E2D7061636B6167652E786D6C504B01021400140006080800CC70623BD486FD9CA0000000F40000001300000000000000000000000000B20000005B
310
436F6E74656E745F54797065735D2E786D6C504B01021400140006080800CC70623B853B8169EB0000007C010000080000000000000000000000000083010000636F72652E786D6C504B01021400140006080800CC70623B55019EA25F0000007C000000070000000000000000000000000094020000636E782E786D6C504B
310
01021400140006080800CC70623BDBABAAF470010000D40300000C00000000000000000000000000180300006662782F636F72652E786D6C504B01021400140006080800CC70623B9C113CC27E0000009D0000000B00000000000000000000000000B20400006662782F636E782E786D6C504B01021400140006080800CC70
310
623B7DF2F77C2A010000120200003100000000000000000000000000590500006662782F41393633353835312D344632462D344230382D423046372D3739314545314133324237412F636F72652E786D6C504B01021400140006080800CC70623BAD7543B64E010000330300003000000000000000000000000000D2060000
310
6662782F41393633353835312D344632462D344230382D423046372D3739314545314133324237412F636E782E786D6C504B01021400140006080800CC70623BE75B7789680500003C10000034000000000000000000000000006E0800006662782F41393633353835312D344632462D344230382D423046372D3739314545
310
314133324237412F6F626A656374732E786D6C504B01021400140006080000CC70623B0000000000000000000000003500000000000000000000000000280E00006662782F41393633353835312D344632462D344230382D423046372D3739314545314133324237412F76657274696365732E62696E504B01021400140006
310
080800CC70623BF270F133060000000400000036000000000000000000000000007B0E00006662782F41393633353835312D344632462D344230382D423046372D3739314545314133324237412F747269616E676C65732E62696E504B01021400140006080000CC70623B0000000000000000000000003700000000000000
310
000000000000D50E00006662782F41393633353835312D344632462D344230382D423046372D3739314545314133324237412F617474726962757465732E62696E504B01021400140006080800CC70623B08DA0BD1900000004101000036000000000000000000000000002A0F00006662782F41393633353835312D344632
310
462D344230382D423046372D3739314545314133324237412F6469726563746F72792E786D6C504B01021400140006080800CC70623BEDD1DC58FD000000A00100003B000000000000000000000000000E1000006662782F41393633353835312D344632462D344230382D423046372D3739314545314133324237412F7265
310
736F75726365732F636F72652E786D6C504B0506000000000E000E0080040000641100000000
  0
XRECORD
  5
1F9
102
{ACAD_REACTORS
330
3A
102
}
330
3A
100
AcDbXrecord
280
     1
102
MATERIAL
148
0.0
149
0.0
149
0.0
 93
        0
 94
       63
282
     0
 72
     1
 77
     1
171
     1
175
     1
179
     1
273
     0
  0
XRECORD
  5
3B
102
{ACAD_REACTORS
330
3A
102
}
330
3A
100
AcDbXrecord
280
     1
 70
     1
 90
429727718
  1
30362254-06B7-45E0-A893-8CFA70E3D6BC
310
504B03040A0000080000CC70623B3DEE336E79000000790000001B0000006175746F6465736B2D64657369676E2D7061636B6167652E786D6C3C3F786D6C2076657273696F6E3D22312E302220656E636F64696E673D227574662D3822203F3E3C666F726D6174733E3C666F726D61743E687474703A2F2F736368656D612E
310
6175746F6465736B2E636F6D2F64657369676E2D7061636B6167652F323030393C2F666F726D61743E3C2F666F726D6174733E504B0304140006080800CC70623BD486FD9CA0000000F4000000130000005B436F6E74656E745F54797065735D2E786D6C7D8EC10E82300C865F65E91D8A1E8C310C0EEA1BF002731658846E
310
D98AC1B77784ABF1D8FE5FBFBF75BBCE937A534CCEB38643598122B6FEE978D0B0485F9C41B54DDD7D022595594E1A469170414C76A4D9A4D207E29CF43ECE46F218070CC6BECC4078ACAA135ACF422C856C0E68EA1BF5669944DDD7BCDE7B1F8E415D77AECB980613C2E4AC91FC167A2B244592486606FC29C8FD7F045B9A
310
EF7053A7E60B504B0304140006080800CC70623B1EC5D7A3EB0000007C01000008000000636F72652E786D6C8D90416EC3201045AF82665B6103C6756C6122AB4D4ED00B204C5C94182C03558F5F9C3852BBEB6A467FFE9B197D71FC9E6FE8CBACC17AD7032D0820E3B41FAD9B7A48F1820F808E52ACDEC75F36404ECDA687
310
4D0629A6D5A76597B477D1B89855E747B38B2A041301E95B6E7A08FAD3CCAA50296647B8168BD2573599823EBB0CA76447F43862C7BCCF5EAC59410E4DDD9C7973C2755553CCCFA4C603E3040F1565ED3B1FDE4E432BCA0D9622DAF9795FAF464533826484B498524CD807E51D79ED187F21878E10516EF63F505AC67F42C9
310
BA58B1FDDD071640D2FCC87D2045B96591CB3DA85CB7DCE40F504B0304140006080800CC70623B55019EA25F0000007C00000007000000636E782E786D6C4DCB3B0E80201045D1AD90E915ED2CF8AC45050C11660C8261F98AB1B07AC9C97D42D718D865D3E909258CFD00CCE24AC6E326A164D74DC0B4128928FF32603847
310
2BA13128B1252AC747C6BAB984FC68F0B87FE8960A5C09FE86CFB69FBA01504B0304140006080800CC70623B8C9102E971010000D40300000C0000006662782F636F72652E786D6CC5535B6E833010BC8AE5DF0A6C08340F1947A84D4ED00B38C6A128602363A31CBFCB234A53A551FA553EC09AD9F5CE8C31DB9E9B1AF5CA
310
7695D1198E428A91D2D214952E33ECDD315861B4E5CC1AE3BE9561A445A3323CC098B3D21ADFCE9034DA29ED00D5A6503328BA4E398C640D8B0C77F253352214DE4145770A5B214FA2546114020D759C75CE8200340D19DE981F0F6746269C33EFAB6266AB02A655C74A59CCF365BADC27CB5D902ED22848F6340DF238A141
310
BE88E2F57B92BFEDF23523433367AE6A2EEAA455C2A902F398D2751045018D3FA264435F3771F242571B4A1919CA6F9A7C5B3CD9E42BED16F12C776AEB308F40C848FC700B1139D4891EF410CEC810227CC6846F8386402064270EF5C5C709A05E49676C024C61FC95EA45ED154CA5211D1FF4FB8291A913A68E9B83EBBB33
310
E2A7673CDE118E5AE8124C0807CB8377834E366998436B950D7A7746DAD846D4CFD978E0F04FD455FC5D49D2D4C6FE9722321F10997F0F32DC47FE05504B0304140006080800CC70623BFFEA85907E0000009D0000000B0000006662782F636E782E786D6C4DCCD10A83201886E15B91FFDC95D95A811AB6F23E625948A6C3
310
E9D8E5AF46073BFAE0E1E365ED67B3E8ADC3CB78C7815C7240DA3DFC64DCC221C519D7805AC182F7F1EF06C88D9BE6703008B6049F9E274D7A1E938DBB5AE3D6131B2589BA0D3D965551E0B2EA732C9B9A624AAEB41E3A557677029960D9AFB4EF11165F504B0304140006080800CC70623B4FEEA4082C0100001202000031
310
0000006662782F39464131463745442D413632322D343644302D413938332D3331353338454246344243312F636F72652E786D6C8D515B6EC32010BC0AE2AB55850DD871ED0813254D72825EC00192A2C460F1A872FC42ED48ED5F7E00CDCECCCEB26C731F6FE05B39AFADE921293004CA082BB5B9F43086336A21D870E6AC
310
0D7F68109861543DCC30E4ECE26C9C164858139409093556AA051CBC570102714B8F1E7AF1A5C6A11862480C7F2DA6415C878B2A4891CA89C7990F2E050073937C42DE1DB7E4F87ED8A36D4329AA9B3D46DBAEAD504556557BD81DEBDD0761E52CE42C462D17B996298E3E6BE59E35C962CE821E1FF18553435012728A7187
310
0841987E927A8D9B35ADDF70BBC6989599FE4F1427F9A4286A132ABAC49D651EF234CD5CE04CDA78BA3DC2A8FB645D00B9DF8B57E215725C60BCA2A463E54C4CE327C7A65E1C7DB02E7DEFCBF594B864C5CA6CDBD49C957943E9FA5D5FBAF336F90F504B0304140006080800CC70623BAD7543B64E01000033030000300000
310
006662782F39464131463745442D413632322D343644302D413938332D3331353338454246344243312F636E782E786D6CD593CD6EC32010845F0571AD6CE3D48AD20813A9873E410FBD12D82434182C7EAAE6EDBB2424CD25871E7B41D6EC30B3FA84F9E67BB2E40B4234DE8DB46F1925E094D7C6ED479AD3AE5951B2113C
310
789FEE6C943839C1488B4C05DF079FE72A69D8C96C13AAD6B8631503449F83828872B949AC57D26200B826A308D316B4064D6E46FCDA41C05550DC9E483A00797BFD207EFB092A45DE9514C1BBD22178396BD39D891265658C238DEA00936C654E5E433CB65A26D9F6EDB5EBC14EBF49A45CB856E66048291F6939A9A81BB5
310
C8917738143CA680F4AA299D66A042CEB3354A2684DC9D8D178FE0D9B8B41CAAD720F880EE7EF93C0C18769E099ECC04D5A102C8049A8A05632F4DDF376CF1DE0F6BB65C2F8627B65A33C6BB62177CEBBDAD973006829F89F22E814B54F4BC2BE347F8AA8F681390B50FA73F804400B5F542E796F19FF974E7F78DB802FE05
310
E207504B0304140006080800CC70623B16AB87BA640500003C100000340000006662782F39464131463745442D413632322D343644302D413938332D3331353338454246344243312F6F626A656374732E786D6CAD575B6FA33818FD2B887DE6924B3BED8A326A92B68A663B534DD4D13E548A0C38942D60649B369D5FBFC7
310
600890A493BDE42160637FD7F31D7FF63E6FB3D478A55C242CBF3247B66B1A340F5994E4F19559CA8D75611A9F7D8F33263BCB4C232719BD32D5B4E97B316765A1A722BA21652A07B3B7B33F0D11D29C9A46981221AE4C113ED38CD8A4942CA2E2C58E882476BCD9DA23BB5ED8171B73523C0F841684D35CC252CCE79062D4
310
468DFA43D7747CCF51DF7D4FFDEB5593E3AB9CCA9FBEFE241792E4E19EB28198C968BAB8199F5D5A67D3E9C49A9E8F47D6EC76B6B0469F26EEFC7C3EBFBCBEB98462213924694B38DD98FE1D62C393D073EA4FADC5DAF04326852CCF6958F90F0F2B9BB5C48816348F90C7840A68EB78EDF68723159BCEE7891A6B95DDE9D3
310
BCEAEEE8086A6C6F9E5D4B59F0175C10A7A0820BAA5055C7473B5AE3CFDD452D602CD5DF12616444529E90D448938013FE6EFA58AA96F85E4F8C42275708571E98FE6827AF6B2B4AE3D7D83D64E5A64C53054DD3AF90BD06FEA9149565C94FCA0F6B834DC85599E4F2423B24DF0B6AFA979E534DFA9E7A4CC6FA631D486393
310
921829879BF5D781A373557BCB85E97FB90DB62B558F8795179C15944B051F40AB495CF35451D26A4727654E6D8033BD98EF82F21D91FF8AF2DD9982BCF1643BDD4EB516C9492E368C67C88DED563FC36D5EACF66DFF057C3658BDBFA69DF9578B3DA735B64F18C7F20770A9D45CFCF7FCF563D6456A277DBEF78A02637CA2
310
43B90A490AEAB94F72244481D24819A6C0E59B606BFA4B3025981DBB48EAB701D97BF19C577CC77F2D1B6C55A9EF3C732474C0B727303F625995056C3B02963D9EAC146BE78EC5FCEC7FA999EBC5EACBAAE41B12D27B4D2C0BBA49F244E2ECDC81B76B502F113D8F5EE8FB1BE3111CDD4FC2AA9B844CAB1288B68AB90A7CDC
310
1C166AB0D3DC5310625FCC14E779BFD0709F8890A629C9292B1B2DED31A4B0DA928CEE135085754027E3018A397D4D5427D15BD1330B677DC8934285AC3DF45A9EB68FF8F2B8FC0A509AFEECFD0FF2DE25CC6047F7214B195F07EFEB9A094D800F7BFAE8FED187B78EA8A3A400F115961BCAD1215E47C966530AF0EE8128FE
310
58CEBB996A8964FFA529A046635D9353B0336A8F700DDF46271A024E70B0B37C9DE01847591E54DED53D54202AB947E4076556AC49C6CA5C9E1226B7F1A7B1BE15DEED62C41B91E1B3E9AFAAA735036547343A925075041DF0A9979E893B391F8FCFA6967B3EFB644DCF6E5CEBFAE272625DCC6FAF3FB93793C5F90CE1EF57
310
407342756B10D1C489E8953CD1617E5CEECAD6F4EF8914CE5D5D504E5C3F1F9736DA62CFC11E00BCDDB8CC8A9466349744C1F75EBDA4DF09BA8A9E8C7A7E9991989E20E5DBDD6A6003664ED8F7A04A8DBE0DF6EAD9B9AA858342E47399053949D2C146EDB85DE4B176BB0965FBAC19BD19AA918E27FA50C1D22402E144464C
310
59462568E704B6E71915404CB72B8FF4EDE184DDAF753F284990D2C6926782963815403548A70C657FDEF80D2D9CEAA2AE4C1C76F60BFE74219A06527D6582DF6412526107381E55E353090704D085B52408D0933C4ED159D79BDA71BB4BC506F4831350EB6F979CD22D69BF7AC49B91A2C0A9DDA3D5CA36AD20FC478E37E6
310
1844E2352865EBCB6EA275A652E3836BE04EFB400BF1A2556F515F1FBB35B2AB35BD889C744FFA1004B5544B121E57F70215746DD2F5E2C1412B602CBF19455AC6C8E5E9922C4E01E65215385004546899059180EAFCF7A707CE7017CD8CDB0410789AB32C63B91E5CEBBBACB17AC6CD347A022D5075FD106377347AAABA7E
310
7D11590744509B44E205134DC1290F06580320F78E537D3D73540E06CB970B431F185308AD40BBD794D6D77003C5A36E8EAA54BA64597CD8F83BD552A080A365F7FF06504B0304140006080000CC70623B000000000000000000000000350000006662782F39464131463745442D413632322D343644302D413938332D3331
310
353338454246344243312F76657274696365732E62696E504B0304140006080800CC70623BF270F1330600000004000000360000006662782F39464131463745442D413632322D343644302D413938332D3331353338454246344243312F747269616E676C65732E62696E636660600000504B0304140006080000CC70623B
310
000000000000000000000000370000006662782F39464131463745442D413632322D343644302D413938332D3331353338454246344243312F617474726962757465732E62696E504B0304140006080800CC70623B08DA0BD19000000041010000360000006662782F39464131463745442D413632322D343644302D413938
310
332D3331353338454246344243312F6469726563746F72792E786D6C858F410AC3201045AF22B36F53E9A60B35CBEEBAE80D244E44489C6234F4F835464A48035D0DF398FF9F8AF63D0E6CC63039F212F8F9020C7D47C6792B21C5FE7403D62A1188E2E60C98D7234A5830286103A55745067B9D86B8A3CF9C7F90C11DE607
310
FB144396D7B6A82D282E9A152AD114D5EF2CB866EEE831B8EEA07A7BB5A8D7D61A2BAAEB7FD5F70921FF497D00504B0304140006080800CC70623B0D6EF93BFE000000A00100003B0000006662782F39464131463745442D413632322D343644302D413938332D3331353338454246344243312F7265736F75726365732F63
310
6F72652E786D6C8D50596E833010BD0A9ADFCA60B334011947A8694ED00B586642AC041B79A97AFC9A40A5F6AF3F33A3B7689E1E3F7DCD8FEC139DD7D6F4C0720A191A65476DA61E62B892236427C19DB5E1970C322367EC618541F0C9D9B8EC90B226A009093576C41D94DE63804C3DD2D18357379C652E63480A7FCF17A9
310
EE72C29CE5894E3AC17D702940B63D59270887DE46A7D0F36263058F518FBB468FE9A7BE6A7420864373B8D4873369AA8691FA421B3294352543C5CAF65C0F6FEF43CB8BD52C78D0F34F46E550061C419494B6843142CB0F5677F4B52BEB177AEC28E5C52AFF638ACBF84F53D42654E51E77B379102C05791282176B5F693D
310
CB4C7BED567C03504B010214000A0000080000CC70623B3DEE336E79000000790000001B00000000000000000000000000000000006175746F6465736B2D64657369676E2D7061636B6167652E786D6C504B01021400140006080800CC70623BD486FD9CA0000000F40000001300000000000000000000000000B20000005B
310
436F6E74656E745F54797065735D2E786D6C504B01021400140006080800CC70623B1EC5D7A3EB0000007C010000080000000000000000000000000083010000636F72652E786D6C504B01021400140006080800CC70623B55019EA25F0000007C000000070000000000000000000000000094020000636E782E786D6C504B
310
01021400140006080800CC70623B8C9102E971010000D40300000C00000000000000000000000000180300006662782F636F72652E786D6C504B01021400140006080800CC70623BFFEA85907E0000009D0000000B00000000000000000000000000B30400006662782F636E782E786D6C504B01021400140006080800CC70
310
623B4FEEA4082C0100001202000031000000000000000000000000005A0500006662782F39464131463745442D413632322D343644302D413938332D3331353338454246344243312F636F72652E786D6C504B01021400140006080800CC70623BAD7543B64E010000330300003000000000000000000000000000D5060000
310
6662782F39464131463745442D413632322D343644302D413938332D3331353338454246344243312F636E782E786D6C504B01021400140006080800CC70623B16AB87BA640500003C1000003400000000000000000000000000710800006662782F39464131463745442D413632322D343644302D413938332D3331353338
310
454246344243312F6F626A656374732E786D6C504B01021400140006080000CC70623B0000000000000000000000003500000000000000000000000000270E00006662782F39464131463745442D413632322D343644302D413938332D3331353338454246344243312F76657274696365732E62696E504B01021400140006
310
080800CC70623BF270F133060000000400000036000000000000000000000000007A0E00006662782F39464131463745442D413632322D343644302D413938332D3331353338454246344243312F747269616E676C65732E62696E504B01021400140006080000CC70623B0000000000000000000000003700000000000000
310
000000000000D40E00006662782F39464131463745442D413632322D343644302D413938332D3331353338454246344243312F617474726962757465732E62696E504B01021400140006080800CC70623B08DA0BD190000000410100003600000000000000000000000000290F00006662782F39464131463745442D413632
310
322D343644302D413938332D3331353338454246344243312F6469726563746F72792E786D6C504B01021400140006080800CC70623B0D6EF93BFE000000A00100003B000000000000000000000000000D1000006662782F39464131463745442D413632322D343644302D413938332D3331353338454246344243312F7265
310
736F75726365732F636F72652E786D6C504B0506000000000E000E0080040000641100000000
  0
XRECORD
  5
1F6
102
{ACAD_REACTORS
330
D
102
}
330
D
100
AcDbXrecord
280
     1
102
MATERIAL
148
0.0
149
0.0
149
0.0
 93
        0
 94
       63
282
     0
 72
     1
 77
     1
171
     1
175
     1
179
     1
273
     0
  0
XRECORD
  5
E
102
{ACAD_REACTORS
330
D
102
}
330
D
100
AcDbXrecord
280
     1
270
     1
271
     1
  0
XRECORD
  5
F
102
{ACAD_REACTORS
330
D
102
}
330
D
100
AcDbXrecord
280
     1
270
     1
271
     1
  0
XRECORD
  5
10
102
{ACAD_REACTORS
330
D
102
}
330
D
100
AcDbXrecord
280
     1
 70
     0
 90
1673772943
  1
ECE7A1D2-D628-4531-984C-D00F80459256
310
504B03040A0000080000CC70623B3DEE336E79000000790000001B0000006175746F6465736B2D64657369676E2D7061636B6167652E786D6C3C3F786D6C2076657273696F6E3D22312E302220656E636F64696E673D227574662D3822203F3E3C666F726D6174733E3C666F726D61743E687474703A2F2F736368656D612E
310
6175746F6465736B2E636F6D2F64657369676E2D7061636B6167652F323030393C2F666F726D61743E3C2F666F726D6174733E504B0304140006080800CC70623BD486FD9CA0000000F4000000130000005B436F6E74656E745F54797065735D2E786D6C7D8EC10E82300C865F65E91D8A1E8C310C0EEA1BF002731658846E
310
D98AC1B77784ABF1D8FE5FBFBF75BBCE937A534CCEB38643598122B6FEE978D0B0485F9C41B54DDD7D022595594E1A469170414C76A4D9A4D207E29CF43ECE46F218070CC6BECC4078ACAA135ACF422C856C0E68EA1BF5669944DDD7BCDE7B1F8E415D77AECB980613C2E4AC91FC167A2B244592486606FC29C8FD7F045B9A
310
EF7053A7E60B504B0304140006080800CC70623BD9DDAED0EC0000007C01000008000000636F72652E786D6C8D90416EC3201045AF82665B61836D9CD8C2444DD39CA01740405C94182C03558F5F9C3852BBEB6A467FFE9B197D7EF89E6EE8CB2CC17A37002D0820E394D7D68D03A478C17B4007C117EFE32F1B20272733C0
310
2A83E0E3E2D3BC49CABB685CCCAAF3DA6CA20CC14440EA969B0182FA34932C648AD911AEC52CD5558EA6A0CF2EC329598D1E47ACCEFBECC59A050463A7EA5833865FEBDD0E37353BE3EE8DBDE3F6786A48D375FBF6CC78B9C282473B3DEFABC5C86834888A900E538A49F5419B9EB47DD5BC907D4F082F57FB1F28CDFA9F50
310
B22ED6D5F6EE030B20687EE43E10BC5CB3C8E51E54AE6B6EE207504B0304140006080800CC70623B55019EA25F0000007C00000007000000636E782E786D6C4DCB3B0E80201045D1AD90E915ED2CF8AC45050C11660C8261F98AB1B07AC9C97D42D718D865D3E909258CFD00CCE24AC6E326A164D74DC0B4128928FF326038
310
472BA13128B1252AC747C6BAB984FC68F0B87FE8960A5C09FE86CFB69FBA01504B0304140006080800CC70623BA24EB22D72010000D40300000C0000006662782F636F72652E786D6CC5535B6E833010BC8AE5DF0A6C5E49888CA3A6694ED00B38E05014B091B1518EDFE511A5A9D228FD2A1F60CDEC7A67C6986DCE4D8D7A
310
69BA4AAB0C073EC548AA5C17952A33ECECD15B61B4E1CC686DBF9561A44423333CC098B3D268D7CE50AE9595CA02AA74216750749DB418E5352C32DCE59FB211BE70162ABA93DF8AFC244AE9073ED050C759670D0840D390E18DF9F1706664C23973AE2A66B62A605A75ACA4C13C4976E1364A12EF355A2EBD384AF65EFA96
310
BC7B8BED2EA6719AAE16FB8491A199335B351775B991C2CA02F390D2D40B028F861F41BCA68B7518BFD0D59A524686F29B26D7164F36B94AD9289CE54E6D1DE6010819891F6E21228B3AD1831EC219194284CF98F06DD01008846CC5A1BEF83801D4CBDC6A1303536877A57A513B0953A94FC707FDBE6064EA84A9E3E6E0FA
310
EE8CF0E9198F7784A316AA0413C2C2F2E0ECA0934D1AE6D05A69BCDE9E91D2A611F573361E38FC1375157F5752AE6B6DFE4B11990F88CCBF0719EE23FF02504B0304140006080800CC70623B408A7D3B7C0000009D0000000B0000006662782F636E782E786D6C4DCCD10A83201886E15B91FFDC552A92A0064DBC8F581632
310
D3703A76F9ABD1C18E3E78F878E5F0D9027ABBFCF2292AE86E2D20171F69F6715550CB827B40839639A5F2770314A7CD293819B45C73AAFB45B35BA61ACAA1C1C7E7855C58C15BC331339661262CC762340413D68D77DA5B42298546CBE6573AF60CEB2F504B0304140006080800CC70623B449FB9BD290100001202000031
310
0000006662782F36394639363044362D344446342D343946362D394244322D3234314243333846323333332F636F72652E786D6C8D515B6EC32010BC0AE22B55850D98B871848994463E412FE002495162B07854397EA176A4F62F3F2C9A9D991D587EB84F37F0AD7D30CEF6905418026DA553C65E7A98E219ED203808EE9D
310
8B7F6810D871D23D2C3014FCE25D9A57483A1BB58D19B54EE9151C43D0110279CB971E06F9A5A7B11A53CC8C70ADE6515EC78BAE4895DB992778883E0700CB907242D17643D7E2538BD869608875438BBAE38922CAC8F1BDD90DB4691A5E2F42C153326A951B95E398B3D1FE599322163C9AE9115F7A3D46ADA0A018778810
310
84E907617BDCEE297BC5BB3DC6BC2EF47FA234AB2745C9D8D8D035EE220B50105E2F0DC1954B9FB747187D9F9D8FA0CCDB042D5FA0C015C65B42DF78BD10F3F3B363CB56C7109DCFDFBBB97E662ED92EB62D13BC2E1BCAE5777DB9966D8A1F504B0304140006080800CC70623BAD7543B64E01000033030000300000006662
310
782F36394639363044362D344446342D343946362D394244322D3234314243333846323333332F636E782E786D6CD593CD6EC32010845F0571AD6CE3D48AD20813A9873E410FBD12D82434182C7EAAE6EDBB2424CD25871E7B41D6EC30B3FA84F9E67BB2E40B4234DE8DB46F1925E094D7C6ED479AD3AE5951B2113C789FEE
310
6C943839C1488B4C05DF079FE72A69D8C96C13AAD6B8631503449F83828872B949AC57D26200B826A308D316B4064D6E46FCDA41C05550DC9E483A00797BFD207EFB092A45DE9514C1BBD22178396BD39D891265658C238DEA00936C654E5E433CB65A26D9F6EDB5EBC14EBF49A45CB856E66048291F6939A9A81BB5C89177
310
38143CA680F4AA299D66A042CEB3354A2684DC9D8D178FE0D9B8B41CAAD720F880EE7EF93C0C18769E099ECC04D5A102C8049A8A05632F4DDF376CF1DE0F6BB65C2F8627B65A33C6BB62177CEBBDAD973006829F89F22E814B54F4BC2BE347F8AA8F681390B50FA73F804400B5F542E796F19FF974E7F78DB802FE05E20750
310
4B0304140006080800CC70623B8D05915C650500003B100000340000006662782F36394639363044362D344446342D343946362D394244322D3234314243333846323333332F6F626A656374732E786D6CAD575B6FA33814FE2B887D06429276DA1565D4266D158D3A339A6846FB502932E050B66023DB74D2FDF5FB190C01
310
9276B2973C046C8ECFF53B17071F77456EBD502133CEAE6CDF9DD81665314F32965ED995DA3A17B6F5310C04E7AA47665B8C14F4CAD6DB7618A48257A5D94AE89654B91AEDDEDDFC61C998326A5B714EA4BCB265FC440BE2924AF184CA6737218AB8E976E7FA6E4338649B0A523E8D98964450A6A029F619B8588D52FE7039
310
B1BD30F0F4F730D0FF866AF6369557DB33949F31A9088B0F848DD8CCFCF9F2767A76E99CCDE733677E3EF59D9BBB9BA5E37F984D16E78BC5E5F5ED25044B25C0C96822E8D60EEFE11B91C581D77CEA34368A1F5329E68CD1B8B61F16D63A1B8E092D294B10C78C4A48EB593D192E7DED9BDEE7995E1B91FDEDD3ACEA9FE831
310
6A756F9F7D4D79F4274C90A7A04248AA51D5F8C718DAE06FB2F75AC4796EBE65D22A88A22223B995679120E2D50E41AA49C260C046A35368846B0BECD0DFF3EBEB8AD4F835768F69B9ADF25C43D30E6B646F807FAA64AD59F61715C7A54127C4AACA98BA3006A9D792DAE165E0D59B61A01FB3A9F9D838D2DAE62445C86166
310
F37564E842E7DE6A69879FEEA2DD5AE7E371E1A5E025154AC307D06A03D73EB5978C58FFA4C8E9033066E0F3BD53BEC1F39F91BE7B55103791EDE6BBB991A2046172CB4581D8B893FA674DDA17A77B3B7C413D1B511FD2743BFF8A38F03A658705E3ADF8015C3A3417FF3D7E439FF591DA0B5F18BC20C1B8981957AE6392A3
310
F43C640C01D1A0B4728E2DD4F26DB4B3C3152A252A3B4E913CEC1C72F012782FF88EFF8637AA552DBEF76408E8A8DE9E50F9E1CB3A2DA0DB1B6039A893B56063DC5B3E3FFB5F72E67AB9FEB4AEC496C4F4C1149625DD662C53E89D7BF0F6151A046260D1337DFDC94502430F83B0EE07A130A224BCAD7DAE1D9FB6CD422FF6
310
920702629C4BB9AE79C12F243C6432A6794E18E5552BA56B431AAB5D91317302B2B071E86C3A42B1A02F999E24061403B5D0EB639195DA655DD3EBEAB4FB862DDF579F014AD0E73C22F99E28DA57FB98E75C6CA2D74D53086D600F4786E0FE3144B771A8A7B900F03594DB8A633CBC49B2EDB69228BB479CF863B5E807AAAB
310
23872F6DFEB4129B949CA33823F58830E86D65621E10047D9DB34D862E8EAC3C2ABC2F7B2C40D67CDFE01F5545B92105AF983AC54D93D69E56FB8E797F88913F898A9FEC705D3F9D1B54EC8426FB500D40A03BD0119B06E1B95DDC7EB8F6975367793EBD70E66733DFB9BC982F9CE564727731999F5D4ECFCE3B8D6A4DC2A0
310
6D50FD148437D110834A64C6CDDF57FBACB5C307A2A477DFE4939736CFEF2B175371E0E10CF0DD1D5C15654E0BCA14D1E87DD02FF93782A162C0A3D95F1524A52770F972BF1EE9809D13CE7DD599467F8ECE9ADD85CE85A34CD45355448C64F9E8A031DC2D596ACC6E5DD93D9B82DE2EF5CAF81363A8E47996A0DE24564A79
310
4115AACE09C55E14540231FDA13C319787134EBF34E3A022514E5B4D9E0826E25C02D5805B15ABE1BEF51B26383D445DD9E875EE33FE4C22DA16427D65A3BCA92CA6D28DD01DF5DC53330704308475351050232CCD31583787BA75774AFB06E5070DD0C8EF484E19968C5D83BA5B90B244D31E54D55A372320FE4786B7EA58
310
44E135AA5467CB7EA333A61683CC6A8C3257034C10CF46F40EF9F5BE59BE5BD30C3C72D235E95D10345C1D45445A5F0BB47E46A5EBE5570F9380B5FA629579952296A773720405982B9DE04011506178964401AA8BDF1FBF0A8EAB6861DD6580C0E38217056766716DAEB2D6FA0917D3E4116581EADB879C4E7CFFB11EFACD
310
3D641311495D92C8676CB409A72D18610D803CE8A626049E8EC1887CB5B44CC39883690DDA8399B4B9855B481E7D71D4A9D22F96E5BB73BF5793020C02137BF837504B0304140006080000CC70623B000000000000000000000000350000006662782F36394639363044362D344446342D343946362D394244322D32343142
310
43333846323333332F76657274696365732E62696E504B0304140006080800CC70623BF270F1330600000004000000360000006662782F36394639363044362D344446342D343946362D394244322D3234314243333846323333332F747269616E676C65732E62696E636660600000504B0304140006080000CC70623B0000
310
00000000000000000000370000006662782F36394639363044362D344446342D343946362D394244322D3234314243333846323333332F617474726962757465732E62696E504B0304140006080800CC70623B08DA0BD19000000041010000360000006662782F36394639363044362D344446342D343946362D394244322D
310
3234314243333846323333332F6469726563746F72792E786D6C858F410AC3201045AF22B36F53E9A60B35CBEEBAE80D244E44489C6234F4F835464A48035D0DF398FF9F8AF63D0E6CC63039F212F8F9020C7D47C6792B21C5FE7403D62A1188E2E60C98D7234A5830286103A55745067B9D86B8A3CF9C7F90C11DE607FB14
310
4396D7B6A82D282E9A152AD114D5EF2CB866EEE831B8EEA07A7BB5A8D7D61A2BAAEB7FD5F70921FF497D00504B0304140006080800CC70623BCA768048FE000000A00100003B0000006662782F36394639363044362D344446342D343946362D394244322D3234314243333846323333332F7265736F75726365732F636F72
310
652E786D6C8D50596E833010BD0A9ADFCA60D600328E9AA639412F609909B1126CE4A5EAF16B0295DABFFECC8CDEA2797AECF8353F924FB44E193D409E5248504B332A3D0D10FC95B4901C39B3C6F85F3248B49871801506CE266BC2B243D2688FDA47549B11775038871E12F988C7004EDE7016A9083E2ADC3D5D84BC8B09
310
D33C8D74D471E6BC8D0192EDC93A815B742658898E651BCB59086ADC356A8C3FD555A1055ED7E7E254D615792D0F075295F585746FF53B694EE78A565DD736979A65AB9933AFE69F8CD2A2F038022F28ED489E135A7CE4554F9BBEA85E68DB53CAB255FEC71496F19FA6A0B42F8B3DEE6673C0F318E4497096AD7DC5F52C33
310
EEB55BFE0D504B010214000A0000080000CC70623B3DEE336E79000000790000001B00000000000000000000000000000000006175746F6465736B2D64657369676E2D7061636B6167652E786D6C504B01021400140006080800CC70623BD486FD9CA0000000F40000001300000000000000000000000000B20000005B436F
310
6E74656E745F54797065735D2E786D6C504B01021400140006080800CC70623BD9DDAED0EC0000007C010000080000000000000000000000000083010000636F72652E786D6C504B01021400140006080800CC70623B55019EA25F0000007C000000070000000000000000000000000095020000636E782E786D6C504B0102
310
1400140006080800CC70623BA24EB22D72010000D40300000C00000000000000000000000000190300006662782F636F72652E786D6C504B01021400140006080800CC70623B408A7D3B7C0000009D0000000B00000000000000000000000000B50400006662782F636E782E786D6C504B01021400140006080800CC70623B
310
449FB9BD290100001202000031000000000000000000000000005A0500006662782F36394639363044362D344446342D343946362D394244322D3234314243333846323333332F636F72652E786D6C504B01021400140006080800CC70623BAD7543B64E010000330300003000000000000000000000000000D20600006662
310
782F36394639363044362D344446342D343946362D394244322D3234314243333846323333332F636E782E786D6C504B01021400140006080800CC70623B8D05915C650500003B10000034000000000000000000000000006E0800006662782F36394639363044362D344446342D343946362D394244322D32343142433338
310
46323333332F6F626A656374732E786D6C504B01021400140006080000CC70623B0000000000000000000000003500000000000000000000000000250E00006662782F36394639363044362D344446342D343946362D394244322D3234314243333846323333332F76657274696365732E62696E504B010214001400060808
310
00CC70623BF270F13306000000040000003600000000000000000000000000780E00006662782F36394639363044362D344446342D343946362D394244322D3234314243333846323333332F747269616E676C65732E62696E504B01021400140006080000CC70623B00000000000000000000000037000000000000000000
310
00000000D20E00006662782F36394639363044362D344446342D343946362D394244322D3234314243333846323333332F617474726962757465732E62696E504B01021400140006080800CC70623B08DA0BD190000000410100003600000000000000000000000000270F00006662782F36394639363044362D344446342D
310
343946362D394244322D3234314243333846323333332F6469726563746F72792E786D6C504B01021400140006080800CC70623BCA768048FE000000A00100003B000000000000000000000000000B1000006662782F36394639363044362D344446342D343946362D394244322D3234314243333846323333332F7265736F
310
75726365732F636F72652E786D6C504B0506000000000E000E0080040000621100000000
  0
XRECORD
  5
11
102
{ACAD_REACTORS
330
D
102
}
330
D
100
AcDbXrecord
280
     1
270
     1
271
     1
  0
XRECORD
  5
12
102
{ACAD_REACTORS
330
D
102
}
330
D
100
AcDbXrecord
280
     1
270
     1
271
     1
  0
CELLSTYLEMAP
  5
1EC
102
{ACAD_REACTORS
330
45
102
}
330
45
100
AcDbCellStyleMap
 90
        3
300
CELLSTYLE
  1
TABLEFORMAT_BEGIN
 90
        5
170
     1
 91
        0
 92
    32768
 62
   257
 93
        1
300
CONTENTFORMAT
  1
CONTENTFORMAT_BEGIN
 90
        0
 91
        0
 92
      512
 93
        0
300

 40
0.0
140
1.0
 94
        5
 62
     0
340
22
144
6.0
309
CONTENTFORMAT_END
171
     1
301
MARGIN
  1
CELLMARGIN_BEGIN
 40
1.5
 40
1.5
 40
1.5
 40
1.5
 40
4.5
 40
4.5
309
CELLMARGIN_END
 94
        6
 95
        1
302
GRIDFORMAT
  1
GRIDFORMAT_BEGIN
 90
        0
 91
        1
 62
     0
 92
       -2
340
25
 93
        0
 40
1.125
309
GRIDFORMAT_END
 95
        2
302
GRIDFORMAT
  1
GRIDFORMAT_BEGIN
 90
        0
 91
        1
 62
     0
 92
       -2
340
25
 93
        0
 40
1.125
309
GRIDFORMAT_END
 95
        4
302
GRIDFORMAT
  1
GRIDFORMAT_BEGIN
 90
        0
 91
        1
 62
     0
 92
       -2
340
25
 93
        0
 40
1.125
309
GRIDFORMAT_END
 95
        8
302
GRIDFORMAT
  1
GRIDFORMAT_BEGIN
 90
        0
 91
        1
 62
     0
 92
       -2
340
25
 93
        0
 40
1.125
309
GRIDFORMAT_END
 95
       16
302
GRIDFORMAT
  1
GRIDFORMAT_BEGIN
 90
        0
 91
        1
 62
     0
 92
       -2
340
25
 93
        0
 40
1.125
309
GRIDFORMAT_END
 95
       32
302
GRIDFORMAT
  1
GRIDFORMAT_BEGIN
 90
        0
 91
        1
 62
     0
 92
       -2
340
25
 93
        0
 40
1.125
309
GRIDFORMAT_END
309
TABLEFORMAT_END
  1
CELLSTYLE_BEGIN
 90
        1
 91
        1
300
_TITLE
309
CELLSTYLE_END
300
CELLSTYLE
  1
TABLEFORMAT_BEGIN
 90
        5
170
     1
 91
        0
 92
        0
 62
   257
 93
        1
300
CONTENTFORMAT
  1
CONTENTFORMAT_BEGIN
 90
        0
 91
        0
 92
      512
 93
        0
300

 40
0.0
140
1.0
 94
        5
 62
     0
340
22
144
4.5
309
CONTENTFORMAT_END
171
     1
301
MARGIN
  1
CELLMARGIN_BEGIN
 40
1.5
 40
1.5
 40
1.5
 40
1.5
 40
4.5
 40
4.5
309
CELLMARGIN_END
 94
        6
 95
        1
302
GRIDFORMAT
  1
GRIDFORMAT_BEGIN
 90
        0
 91
        1
 62
     0
 92
       -2
340
25
 93
        0
 40
1.125
309
GRIDFORMAT_END
 95
        2
302
GRIDFORMAT
  1
GRIDFORMAT_BEGIN
 90
        0
 91
        1
 62
     0
 92
       -2
340
25
 93
        0
 40
1.125
309
GRIDFORMAT_END
 95
        4
302
GRIDFORMAT
  1
GRIDFORMAT_BEGIN
 90
        0
 91
        1
 62
     0
 92
       -2
340
25
 93
        0
 40
1.125
309
GRIDFORMAT_END
 95
        8
302
GRIDFORMAT
  1
GRIDFORMAT_BEGIN
 90
        0
 91
        1
 62
     0
 92
       -2
340
25
 93
        0
 40
1.125
309
GRIDFORMAT_END
 95
       16
302
GRIDFORMAT
  1
GRIDFORMAT_BEGIN
 90
        0
 91
        1
 62
     0
 92
       -2
340
25
 93
        0
 40
1.125
309
GRIDFORMAT_END
 95
       32
302
GRIDFORMAT
  1
GRIDFORMAT_BEGIN
 90
        0
 91
        1
 62
     0
 92
       -2
340
25
 93
        0
 40
1.125
309
GRIDFORMAT_END
309
TABLEFORMAT_END
  1
CELLSTYLE_BEGIN
 90
        2
 91
        1
300
_HEADER
309
CELLSTYLE_END
300
CELLSTYLE
  1
TABLEFORMAT_BEGIN
 90
        5
170
     1
 91
        0
 92
        0
 62
   257
 93
        1
300
CONTENTFORMAT
  1
CONTENTFORMAT_BEGIN
 90
        0
 91
        0
 92
      512
 93
        0
300

 40
0.0
140
1.0
 94
        2
 62
     0
340
22
144
4.5
309
CONTENTFORMAT_END
171
     1
301
MARGIN
  1
CELLMARGIN_BEGIN
 40
1.5
 40
1.5
 40
1.5
 40
1.5
 40
4.5
 40
4.5
309
CELLMARGIN_END
 94
        6
 95
        1
302
GRIDFORMAT
  1
GRIDFORMAT_BEGIN
 90
        0
 91
        1
 62
     0
 92
       -2
340
25
 93
        0
 40
1.125
309
GRIDFORMAT_END
 95
        2
302
GRIDFORMAT
  1
GRIDFORMAT_BEGIN
 90
        0
 91
        1
 62
     0
 92
       -2
340
25
 93
        0
 40
1.125
309
GRIDFORMAT_END
 95
        4
302
GRIDFORMAT
  1
GRIDFORMAT_BEGIN
 90
        0
 91
        1
 62
     0
 92
       -2
340
25
 93
        0
 40
1.125
309
GRIDFORMAT_END
 95
        8
302
GRIDFORMAT
  1
GRIDFORMAT_BEGIN
 90
        0
 91
        1
 62
     0
 92
       -2
340
25
 93
        0
 40
1.125
309
GRIDFORMAT_END
 95
       16
302
GRIDFORMAT
  1
GRIDFORMAT_BEGIN
 90
        0
 91
        1
 62
     0
 92
       -2
340
25
 93
        0
 40
1.125
309
GRIDFORMAT_END
 95
       32
302
GRIDFORMAT
  1
GRIDFORMAT_BEGIN
 90
        0
 91
        1
 62
     0
 92
       -2
340
25
 93
        0
 40
1.125
309
GRIDFORMAT_END
309
TABLEFORMAT_END
  1
CELLSTYLE_BEGIN
 90
        3
 91
        2
300
_DATA
309
CELLSTYLE_END
  0
XRECORD
  5
1FB
102
{ACAD_REACTORS
330
45
102
}
330
45
100
AcDbXrecord
280
     1
102
ACAD_ROUNDTRIP_PRE2007_TABLESTYLE
 90
      512
 91
        0
  1

 92
      512
 93
        0
  2

 94
      512
 95
        0
  3

  0
XRECORD
  5
1F8
102
{ACAD_REACTORS
330
1F7
102
}
330
1F7
100
AcDbXrecord
280
     1
102
RTVSPost2010Prop28
280
     1
102
RTVSPost2010PropOp28
 70
     1
102
RTVSPost2010Prop29
280
     1
102
RTVSPost2010PropOp29
 70
     1
102
RTVSPost2010Prop30
280
     0
102
RTVSPost2010PropOp30
 70
     1
102
RTVSPost2010Prop31
280
     0
102
RTVSPost2010PropOp31
 70
     1
102
RTVSPost2010Prop32
280
     0
102
RTVSPost2010PropOp32
 70
     1
102
RTVSPost2010Prop33
280
     0
102
RTVSPost2010PropOp33
 70
     1
102
RTVSPost2010Prop34
280
     0
102
RTVSPost2010PropOp34
 70
     1
102
RTVSPost2010Prop35
280
     0
102
RTVSPost2010PropOp35
 70
     1
102
RTVSPost2010Prop36
280
     0
102
RTVSPost2010PropOp36
 70
     1
102
RTVSPost2010Prop37
 90
       50
102
RTVSPost2010PropOp37
 70
     1
102
RTVSPost2010Prop38
140
0.0
102
RTVSPost2010PropOp38
 70
     1
102
RTVSPost2010Prop39
140
1.0
102
RTVSPost2010PropOp39
 70
     1
102
RTVSPost2010Prop40
 90
        0
102
RTVSPost2010PropOp40
 70
     1
102
RTVSPost2010Prop41ColorIndex
 90
       18
102
RTVSPost2010Prop41ColorRGB
 90
        0
102
RTVSPost2010PropOp41
 70
     1
102
RTVSPost2010Prop42
 90
       50
102
RTVSPost2010PropOp42
 70
     1
102
RTVSPost2010Prop43
 90
        3
102
RTVSPost2010PropOp43
 70
     1
102
RTVSPost2010Prop44ColorIndex
 90
        5
102
RTVSPost2010Prop44ColorRGB
 90
      255
102
RTVSPost2010PropOp44
 70
     1
102
RTVSPost2010Prop45
280
     0
102
RTVSPost2010PropOp45
 70
     1
102
RTVSPost2010Prop46
 90
       50
102
RTVSPost2010PropOp46
 70
     1
102
RTVSPost2010Prop47
 90
       50
102
RTVSPost2010PropOp47
 70
     1
102
RTVSPost2010Prop48
 90
       50
102
RTVSPost2010PropOp48
 70
     1
102
RTVSPost2010Prop49
280
     0
102
RTVSPost2010PropOp49
 70
     1
102
RTVSPost2010Prop50
 90
       50
102
RTVSPost2010PropOp50
 70
     1
102
RTVSPost2010Prop51ColorIndex
 90
      256
102
RTVSPost2010Prop51ColorRGB
 90
-16777216
102
RTVSPost2010PropOp51
 70
     0
102
RTVSPost2010Prop52
140
1.0
102
RTVSPost2010PropOp52
 70
     0
102
RTVSPost2010Prop53
 90
        2
102
RTVSPost2010PropOp53
 70
     1
102
RTVSPost2010Prop54
  1
strokes_ogs.tif
102
RTVSPost2010PropOp54
 70
     1
102
RTVSPost2010Prop55
280
     0
102
RTVSPost2010PropOp55
 70
     1
102
RTVSPost2010Prop56
140
1.0
102
RTVSPost2010PropOp56
 70
     1
102
RTVSPost2010Prop57
140
1.0
102
RTVSPost2010PropOp57
 70
     1
102
RTVSPropertyOp0
 70
     1
102
RTVSPropertyOp1
 70
     1
102
RTVSPropertyOp2
 70
     1
102
RTVSPropertyOp3
 70
     1
102
RTVSPropertyOp4
 70
     1
102
RTVSPropertyOp5
 70
     1
102
RTVSPropertyOp6
 70
     1
102
RTVSPropertyOp7
 70
     1
102
RTVSPropertyOp8
 70
     1
102
RTVSPropertyOp9
 70
     1
102
RTVSPropertyOp10
 70
     1
102
RTVSPropertyOp11
 70
     1
102
RTVSPropertyOp12
 70
     1
102
RTVSPropertyOp13
 70
     1
102
RTVSPropertyOp14
 70
     1
102
RTVSPropertyOp15
 70
     1
102
RTVSPropertyOp16
 70
     1
102
RTVSPropertyOp17
 70
     1
102
RTVSPropertyOp18
 70
     1
102
RTVSPropertyOp19
 70
     1
102
RTVSPropertyOp20
 70
     1
102
RTVSPropertyOp21
 70
     1
102
RTVSPropertyOp22
 70
     1
102
RTVSPropertyOp23
 70
     1
102
RTVSPropertyOp24
 70
     1
102
RTVSPropertyOp25
 70
     1
102
RTVSPropertyOp26
 70
     1
102
RTVSPropertyOp27
 70
     1
102
RTVSPropertyOp28
 70
     1
102
RTVSPropertyOp29
 70
     1
102
RTVSPropertyOp30
 70
     1
102
RTVSPropertyOp31
 70
     1
102
RTVSPropertyOp32
 70
     1
102
RTVSPropertyOp33
 70
     1
102
RTVSPropertyOp34
 70
     1
102
RTVSPropertyOp35
 70
     1
102
RTVSPropertyOp36
 70
     1
102
RTVSPropertyOp37
 70
     1
102
RTVSPropertyOp38
 70
     1
102
RTVSPropertyOp39
 70
     1
102
RTVSPropertyOp40
 70
     1
102
RTVSPropertyOp41
 70
     1
102
RTVSPropertyOp42
 70
     1
102
RTVSPropertyOp43
 70
     1
102
RTVSPropertyOp44
 70
     1
102
RTVSPropertyOp45
 70
     1
102
RTVSPropertyOp46
 70
     1
102
RTVSPropertyOp47
 70
     1
102
RTVSPropertyOp48
 70
     1
102
RTVSPropertyOp49
 70
     1
102
RTVSPropertyOp50
 70
     1
102
RTVSPropertyOp51
 70
     0
102
RTVSPropertyOp52
 70
     0
102
RTVSPropertyOp53
 70
     1
102
RTVSPropertyOp54
 70
     1
102
RTVSPropertyOp55
 70
     1
102
RTVSPropertyOp56
 70
     1
102
RTVSPropertyOp57
 70
     1
102
RTVSPropertyOp58
 70
     1
102
RTVSPropertyOp59
 70
     1
102
RTVSPropertyOp60
 70
     1
102
RTVSPropertyOp61
 70
     1
102
RTVSPropertyOp62
 70
     1
  0
XRECORD
  5
1FD
102
{ACAD_REACTORS
330
1FC
102
}
330
1FC
100
AcDbXrecord
280
     1
102
RTVSPost2010Prop28
280
     0
102
RTVSPost2010PropOp28
 70
     1
102
RTVSPost2010Prop29
280
     1
102
RTVSPost2010PropOp29
 70
     1
102
RTVSPost2010Prop30
280
     1
102
RTVSPost2010PropOp30
 70
     1
102
RTVSPost2010Prop31
280
     0
102
RTVSPost2010PropOp31
 70
     1
102
RTVSPost2010Prop32
280
     0
102
RTVSPost2010PropOp32
 70
     1
102
RTVSPost2010Prop33
280
     0
102
RTVSPost2010PropOp33
 70
     1
102
RTVSPost2010Prop34
280
     0
102
RTVSPost2010PropOp34
 70
     1
102
RTVSPost2010Prop35
280
     0
102
RTVSPost2010PropOp35
 70
     1
102
RTVSPost2010Prop36
280
     0
102
RTVSPost2010PropOp36
 70
     1
102
RTVSPost2010Prop37
 90
       50
102
RTVSPost2010PropOp37
 70
     1
102
RTVSPost2010Prop38
140
0.0
102
RTVSPost2010PropOp38
 70
     1
102
RTVSPost2010Prop39
140
1.0
102
RTVSPost2010PropOp39
 70
     1
102
RTVSPost2010Prop40
 90
        0
102
RTVSPost2010PropOp40
 70
     1
102
RTVSPost2010Prop41ColorIndex
 90
       18
102
RTVSPost2010Prop41ColorRGB
 90
        0
102
RTVSPost2010PropOp41
 70
     1
102
RTVSPost2010Prop42
 90
       50
102
RTVSPost2010PropOp42
 70
     1
102
RTVSPost2010Prop43
 90
        3
102
RTVSPost2010PropOp43
 70
     1
102
RTVSPost2010Prop44ColorIndex
 90
        5
102
RTVSPost2010Prop44ColorRGB
 90
      255
102
RTVSPost2010PropOp44
 70
     1
102
RTVSPost2010Prop45
280
     0
102
RTVSPost2010PropOp45
 70
     1
102
RTVSPost2010Prop46
 90
       50
102
RTVSPost2010PropOp46
 70
     1
102
RTVSPost2010Prop47
 90
       50
102
RTVSPost2010PropOp47
 70
     1
102
RTVSPost2010Prop48
 90
       50
102
RTVSPost2010PropOp48
 70
     1
102
RTVSPost2010Prop49
280
     0
102
RTVSPost2010PropOp49
 70
     1
102
RTVSPost2010Prop50
 90
       50
102
RTVSPost2010PropOp50
 70
     1
102
RTVSPost2010Prop51ColorIndex
 90
      256
102
RTVSPost2010Prop51ColorRGB
 90
-16777216
102
RTVSPost2010PropOp51
 70
     0
102
RTVSPost2010Prop52
140
1.0
102
RTVSPost2010PropOp52
 70
     0
102
RTVSPost2010Prop53
 90
        2
102
RTVSPost2010PropOp53
 70
     1
102
RTVSPost2010Prop54
  1
strokes_ogs.tif
102
RTVSPost2010PropOp54
 70
     1
102
RTVSPost2010Prop55
280
     0
102
RTVSPost2010PropOp55
 70
     1
102
RTVSPost2010Prop56
140
1.0
102
RTVSPost2010PropOp56
 70
     1
102
RTVSPost2010Prop57
140
1.0
102
RTVSPost2010PropOp57
 70
     1
102
RTVSPropertyOp0
 70
     1
102
RTVSPropertyOp1
 70
     1
102
RTVSPropertyOp2
 70
     1
102
RTVSPropertyOp3
 70
     1
102
RTVSPropertyOp4
 70
     1
102
RTVSPropertyOp5
 70
     1
102
RTVSPropertyOp6
 70
     1
102
RTVSPropertyOp7
 70
     1
102
RTVSPropertyOp8
 70
     1
102
RTVSPropertyOp9
 70
     1
102
RTVSPropertyOp10
 70
     1
102
RTVSPropertyOp11
 70
     1
102
RTVSPropertyOp12
 70
     1
102
RTVSPropertyOp13
 70
     1
102
RTVSPropertyOp14
 70
     1
102
RTVSPropertyOp15
 70
     1
102
RTVSPropertyOp16
 70
     1
102
RTVSPropertyOp17
 70
     1
102
RTVSPropertyOp18
 70
     1
102
RTVSPropertyOp19
 70
     1
102
RTVSPropertyOp20
 70
     1
102
RTVSPropertyOp21
 70
     1
102
RTVSPropertyOp22
 70
     1
102
RTVSPropertyOp23
 70
     1
102
RTVSPropertyOp24
 70
     1
102
RTVSPropertyOp25
 70
     1
102
RTVSPropertyOp26
 70
     1
102
RTVSPropertyOp27
 70
     1
102
RTVSPropertyOp28
 70
     1
102
RTVSPropertyOp29
 70
     1
102
RTVSPropertyOp30
 70
     1
102
RTVSPropertyOp31
 70
     1
102
RTVSPropertyOp32
 70
     1
102
RTVSPropertyOp33
 70
     1
102
RTVSPropertyOp34
 70
     1
102
RTVSPropertyOp35
 70
     1
102
RTVSPropertyOp36
 70
     1
102
RTVSPropertyOp37
 70
     1
102
RTVSPropertyOp38
 70
     1
102
RTVSPropertyOp39
 70
     1
102
RTVSPropertyOp40
 70
     1
102
RTVSPropertyOp41
 70
     1
102
RTVSPropertyOp42
 70
     1
102
RTVSPropertyOp43
 70
     1
102
RTVSPropertyOp44
 70
     1
102
RTVSPropertyOp45
 70
     1
102
RTVSPropertyOp46
 70
     1
102
RTVSPropertyOp47
 70
     1
102
RTVSPropertyOp48
 70
     1
102
RTVSPropertyOp49
 70
     1
102
RTVSPropertyOp50
 70
     1
102
RTVSPropertyOp51
 70
     0
102
RTVSPropertyOp52
 70
     0
102
RTVSPropertyOp53
 70
     1
102
RTVSPropertyOp54
 70
     1
102
RTVSPropertyOp55
 70
     1
102
RTVSPropertyOp56
 70
     1
102
RTVSPropertyOp57
 70
     1
102
RTVSPropertyOp58
 70
     1
102
RTVSPropertyOp59
 70
     1
102
RTVSPropertyOp60
 70
     1
102
RTVSPropertyOp61
 70
     1
102
RTVSPropertyOp62
 70
     1
  0
XRECORD
  5
1FF
102
{ACAD_REACTORS
330
1FE
102
}
330
1FE
100
AcDbXrecord
280
     1
102
RTVSPost2010Prop28
280
     0
102
RTVSPost2010PropOp28
 70
     1
102
RTVSPost2010Prop29
280
     1
102
RTVSPost2010PropOp29
 70
     1
102
RTVSPost2010Prop30
280
     1
102
RTVSPost2010PropOp30
 70
     1
102
RTVSPost2010Prop31
280
     0
102
RTVSPost2010PropOp31
 70
     1
102
RTVSPost2010Prop32
280
     0
102
RTVSPost2010PropOp32
 70
     1
102
RTVSPost2010Prop33
280
     0
102
RTVSPost2010PropOp33
 70
     1
102
RTVSPost2010Prop34
280
     0
102
RTVSPost2010PropOp34
 70
     1
102
RTVSPost2010Prop35
280
     0
102
RTVSPost2010PropOp35
 70
     1
102
RTVSPost2010Prop36
280
     0
102
RTVSPost2010PropOp36
 70
     1
102
RTVSPost2010Prop37
 90
       50
102
RTVSPost2010PropOp37
 70
     1
102
RTVSPost2010Prop38
140
0.0
102
RTVSPost2010PropOp38
 70
     1
102
RTVSPost2010Prop39
140
1.0
102
RTVSPost2010PropOp39
 70
     1
102
RTVSPost2010Prop40
 90
        0
102
RTVSPost2010PropOp40
 70
     1
102
RTVSPost2010Prop41ColorIndex
 90
       18
102
RTVSPost2010Prop41ColorRGB
 90
        0
102
RTVSPost2010PropOp41
 70
     1
102
RTVSPost2010Prop42
 90
       50
102
RTVSPost2010PropOp42
 70
     1
102
RTVSPost2010Prop43
 90
        3
102
RTVSPost2010PropOp43
 70
     1
102
RTVSPost2010Prop44ColorIndex
 90
        5
102
RTVSPost2010Prop44ColorRGB
 90
      255
102
RTVSPost2010PropOp44
 70
     1
102
RTVSPost2010Prop45
280
     0
102
RTVSPost2010PropOp45
 70
     1
102
RTVSPost2010Prop46
 90
       50
102
RTVSPost2010PropOp46
 70
     1
102
RTVSPost2010Prop47
 90
       50
102
RTVSPost2010PropOp47
 70
     1
102
RTVSPost2010Prop48
 90
       50
102
RTVSPost2010PropOp48
 70
     1
102
RTVSPost2010Prop49
280
     0
102
RTVSPost2010PropOp49
 70
     1
102
RTVSPost2010Prop50
 90
       50
102
RTVSPost2010PropOp50
 70
     1
102
RTVSPost2010Prop51ColorIndex
 90
      256
102
RTVSPost2010Prop51ColorRGB
 90
-16777216
102
RTVSPost2010PropOp51
 70
     0
102
RTVSPost2010Prop52
140
1.0
102
RTVSPost2010PropOp52
 70
     0
102
RTVSPost2010Prop53
 90
        2
102
RTVSPost2010PropOp53
 70
     1
102
RTVSPost2010Prop54
  1
strokes_ogs.tif
102
RTVSPost2010PropOp54
 70
     1
102
RTVSPost2010Prop55
280
     0
102
RTVSPost2010PropOp55
 70
     1
102
RTVSPost2010Prop56
140
1.0
102
RTVSPost2010PropOp56
 70
     1
102
RTVSPost2010Prop57
140
1.0
102
RTVSPost2010PropOp57
 70
     1
102
RTVSPropertyOp0
 70
     1
102
RTVSPropertyOp1
 70
     1
102
RTVSPropertyOp2
 70
     1
102
RTVSPropertyOp3
 70
     1
102
RTVSPropertyOp4
 70
     1
102
RTVSPropertyOp5
 70
     1
102
RTVSPropertyOp6
 70
     1
102
RTVSPropertyOp7
 70
     1
102
RTVSPropertyOp8
 70
     1
102
RTVSPropertyOp9
 70
     1
102
RTVSPropertyOp10
 70
     1
102
RTVSPropertyOp11
 70
     1
102
RTVSPropertyOp12
 70
     1
102
RTVSPropertyOp13
 70
     1
102
RTVSPropertyOp14
 70
     1
102
RTVSPropertyOp15
 70
     1
102
RTVSPropertyOp16
 70
     1
102
RTVSPropertyOp17
 70
     1
102
RTVSPropertyOp18
 70
     1
102
RTVSPropertyOp19
 70
     1
102
RTVSPropertyOp20
 70
     1
102
RTVSPropertyOp21
 70
     1
102
RTVSPropertyOp22
 70
     1
102
RTVSPropertyOp23
 70
     1
102
RTVSPropertyOp24
 70
     1
102
RTVSPropertyOp25
 70
     1
102
RTVSPropertyOp26
 70
     1
102
RTVSPropertyOp27
 70
     1
102
RTVSPropertyOp28
 70
     1
102
RTVSPropertyOp29
 70
     1
102
RTVSPropertyOp30
 70
     1
102
RTVSPropertyOp31
 70
     1
102
RTVSPropertyOp32
 70
     1
102
RTVSPropertyOp33
 70
     1
102
RTVSPropertyOp34
 70
     1
102
RTVSPropertyOp35
 70
     1
102
RTVSPropertyOp36
 70
     1
102
RTVSPropertyOp37
 70
     1
102
RTVSPropertyOp38
 70
     1
102
RTVSPropertyOp39
 70
     1
102
RTVSPropertyOp40
 70
     1
102
RTVSPropertyOp41
 70
     1
102
RTVSPropertyOp42
 70
     1
102
RTVSPropertyOp43
 70
     1
102
RTVSPropertyOp44
 70
     1
102
RTVSPropertyOp45
 70
     1
102
RTVSPropertyOp46
 70
     1
102
RTVSPropertyOp47
 70
     1
102
RTVSPropertyOp48
 70
     1
102
RTVSPropertyOp49
 70
     1
102
RTVSPropertyOp50
 70
     1
102
RTVSPropertyOp51
 70
     0
102
RTVSPropertyOp52
 70
     0
102
RTVSPropertyOp53
 70
     1
102
RTVSPropertyOp54
 70
     1
102
RTVSPropertyOp55
 70
     1
102
RTVSPropertyOp56
 70
     1
102
RTVSPropertyOp57
 70
     1
102
RTVSPropertyOp58
 70
     1
102
RTVSPropertyOp59
 70
     1
102
RTVSPropertyOp60
 70
     1
102
RTVSPropertyOp61
 70
     1
102
RTVSPropertyOp62
 70
     1
  0
ENDSEC
  0
EOF
