  0
SECTION
  2
HEADER
  9
$ACADVER
  1
AC1018
  9
$ACADMAINTVER
 70
   104
  9
$DWGCODEPAGE
  3
ANSI_932
  9
$INSBASE
 10
0.0
 20
0.0
 30
0.0
  9
$EXTMIN
 10
1.23687842073491
 20
3.503128747342998
 30
-0.0000000349181948
  9
$EXTMAX
 10
51.25671441580255
 20
28.8135684945313
 30
0.0000000814935746
  9
$LIMMIN
 10
-0.9101757527441804
 20
-1.056804046351771
  9
$LIMMAX
 10
52.81287598122435
 20
31.02460421558272
  9
$ORTHOMODE
 70
     0
  9
$REGENMODE
 70
     1
  9
$FILLMODE
 70
     1
  9
$QTEXTMODE
 70
     0
  9
$MIRRTEXT
 70
     0
  9
$LTSCALE
 40
1.0
  9
$ATTMODE
 70
     1
  9
$TEXTSIZE
 40
2.5
  9
$TRACEWID
 40
1.0
  9
$TEXTSTYLE
  7
Standard
  9
$CLAYER
  8
0
  9
$CELTYPE
  6
ByLayer
  9
$CECOLOR
 62
   256
  9
$CELTSCALE
 40
1.0
  9
$DISPSILH
 70
     0
  9
$DIMSCALE
 40
1.0
  9
$DIMASZ
 40
2.5
  9
$DIMEXO
 40
0.625
  9
$DIMDLI
 40
3.75
  9
$DIMRND
 40
0.0
  9
$DIMDLE
 40
0.0
  9
$DIMEXE
 40
1.25
  9
$DIMTP
 40
0.0
  9
$DIMTM
 40
0.0
  9
$DIMTXT
 40
2.5
  9
$DIMCEN
 40
2.5
  9
$DIMTSZ
 40
0.0
  9
$DIMTOL
 70
     0
  9
$DIMLIM
 70
     0
  9
$DIMTIH
 70
     0
  9
$DIMTOH
 70
     0
  9
$DIMSE1
 70
     0
  9
$DIMSE2
 70
     0
  9
$DIMTAD
 70
     1
  9
$DIMZIN
 70
     8
  9
$DIMBLK
  1

  9
$DIMASO
 70
     1
  9
$DIMSHO
 70
     1
  9
$DIMPOST
  1

  9
$DIMAPOST
  1

  9
$DIMALT
 70
     0
  9
$DIMALTD
 70
     3
  9
$DIMALTF
 40
0.03937007874016
  9
$DIMLFAC
 40
1.0
  9
$DIMTOFL
 70
     1
  9
$DIMTVP
 40
0.0
  9
$DIMTIX
 70
     0
  9
$DIMSOXD
 70
     0
  9
$DIMSAH
 70
     0
  9
$DIMBLK1
  1

  9
$DIMBLK2
  1

  9
$DIMSTYLE
  2
ISO-25
  9
$DIMCLRD
 70
     0
  9
$DIMCLRE
 70
     0
  9
$DIMCLRT
 70
     0
  9
$DIMTFAC
 40
1.0
  9
$DIMGAP
 40
0.625
  9
$DIMJUST
 70
     0
  9
$DIMSD1
 70
     0
  9
$DIMSD2
 70
     0
  9
$DIMTOLJ
 70
     0
  9
$DIMTZIN
 70
     8
  9
$DIMALTZ
 70
     0
  9
$DIMALTTZ
 70
     0
  9
$DIMUPT
 70
     0
  9
$DIMDEC
 70
     2
  9
$DIMTDEC
 70
     2
  9
$DIMALTU
 70
     2
  9
$DIMALTTD
 70
     3
  9
$DIMTXSTY
  7
Standard
  9
$DIMAUNIT
 70
     0
  9
$DIMADEC
 70
     0
  9
$DIMALTRND
 40
0.0
  9
$DIMAZIN
 70
     0
  9
$DIMDSEP
 70
    44
  9
$DIMATFIT
 70
     3
  9
$DIMFRAC
 70
     0
  9
$DIMLDRBLK
  1

  9
$DIMLUNIT
 70
     2
  9
$DIMLWD
 70
    -2
  9
$DIMLWE
 70
    -2
  9
$DIMTMOVE
 70
     0
  9
$LUNITS
 70
     2
  9
$LUPREC
 70
     4
  9
$SKETCHINC
 40
1.0
  9
$FILLETRAD
 40
0.0
  9
$AUNITS
 70
     0
  9
$AUPREC
 70
     0
  9
$MENU
  1
.
  9
$ELEVATION
 40
0.0
  9
$PELEVATION
 40
0.0
  9
$THICKNESS
 40
0.0
  9
$LIMCHECK
 70
     0
  9
$CHAMFERA
 40
0.0
  9
$CHAMFERB
 40
0.0
  9
$CHAMFERC
 40
0.0
  9
$CHAMFERD
 40
0.0
  9
$SKPOLY
 70
     0
  9
$TDCREATE
 40
2458206.720474537
  9
$TDUCREATE
 40
2458206.387141204
  9
$TDUPDATE
 40
2458206.721076389
  9
$TDUUPDATE
 40
2458206.387743055
  9
$TDINDWG
 40
0.0005208333
  9
$TDUSRTIMER
 40
0.0005208333
  9
$USRTIMER
 70
     1
  9
$ANGBASE
 50
0.0
  9
$ANGDIR
 70
     0
  9
$PDMODE
 70
     0
  9
$PDSIZE
 40
0.0
  9
$PLINEWID
 40
0.0
  9
$SPLFRAME
 70
     0
  9
$SPLINETYPE
 70
     6
  9
$SPLINESEGS
 70
     8
  9
$HANDSEED
  5
24E
  9
$SURFTAB1
 70
     6
  9
$SURFTAB2
 70
     6
  9
$SURFTYPE
 70
     6
  9
$SURFU
 70
     6
  9
$SURFV
 70
     6
  9
$UCSBASE
  2

  9
$UCSNAME
  2

  9
$UCSORG
 10
0.0
 20
0.0
 30
0.0
  9
$UCSXDIR
 10
1.0
 20
0.0
 30
0.0
  9
$UCSYDIR
 10
0.0
 20
1.0
 30
0.0
  9
$UCSORTHOREF
  2

  9
$UCSORTHOVIEW
 70
     0
  9
$UCSORGTOP
 10
0.0
 20
0.0
 30
0.0
  9
$UCSORGBOTTOM
 10
0.0
 20
0.0
 30
0.0
  9
$UCSORGLEFT
 10
0.0
 20
0.0
 30
0.0
  9
$UCSORGRIGHT
 10
0.0
 20
0.0
 30
0.0
  9
$UCSORGFRONT
 10
0.0
 20
0.0
 30
0.0
  9
$UCSORGBACK
 10
0.0
 20
0.0
 30
0.0
  9
$PUCSBASE
  2

  9
$PUCSNAME
  2

  9
$PUCSORG
 10
0.0
 20
0.0
 30
0.0
  9
$PUCSXDIR
 10
1.0
 20
0.0
 30
0.0
  9
$PUCSYDIR
 10
0.0
 20
1.0
 30
0.0
  9
$PUCSORTHOREF
  2

  9
$PUCSORTHOVIEW
 70
     0
  9
$PUCSORGTOP
 10
0.0
 20
0.0
 30
0.0
  9
$PUCSORGBOTTOM
 10
0.0
 20
0.0
 30
0.0
  9
$PUCSORGLEFT
 10
0.0
 20
0.0
 30
0.0
  9
$PUCSORGRIGHT
 10
0.0
 20
0.0
 30
0.0
  9
$PUCSORGFRONT
 10
0.0
 20
0.0
 30
0.0
  9
$PUCSORGBACK
 10
0.0
 20
0.0
 30
0.0
  9
$USERI1
 70
     0
  9
$USERI2
 70
     0
  9
$USERI3
 70
     0
  9
$USERI4
 70
     0
  9
$USERI5
 70
     0
  9
$USERR1
 40
0.0
  9
$USERR2
 40
0.0
  9
$USERR3
 40
0.0
  9
$USERR4
 40
0.0
  9
$USERR5
 40
0.0
  9
$WORLDVIEW
 70
     1
  9
$SHADEDGE
 70
     3
  9
$SHADEDIF
 70
    70
  9
$TILEMODE
 70
     1
  9
$MAXACTVP
 70
    64
  9
$PINSBASE
 10
0.0
 20
0.0
 30
0.0
  9
$PLIMCHECK
 70
     0
  9
$PEXTMIN
 10
0.0
 20
0.0
 30
0.0
  9
$PEXTMAX
 10
0.0
 20
0.0
 30
0.0
  9
$PLIMMIN
 10
0.0
 20
0.0
  9
$PLIMMAX
 10
12.0
 20
9.0
  9
$UNITMODE
 70
     0
  9
$VISRETAIN
 70
     1
  9
$PLINEGEN
 70
     0
  9
$PSLTSCALE
 70
     1
  9
$TREEDEPTH
 70
  3020
  9
$CMLSTYLE
  2
Standard
  9
$CMLJUST
 70
     0
  9
$CMLSCALE
 40
20.0
  9
$PROXYGRAPHICS
 70
     1
  9
$MEASUREMENT
 70
     1
  9
$CELWEIGHT
370
    -1
  9
$ENDCAPS
280
     0
  9
$JOINSTYLE
280
     0
  9
$LWDISPLAY
290
     0
  9
$INSUNITS
 70
     4
  9
$HYPERLINKBASE
  1

  9
$STYLESHEET
  1

  9
$XEDIT
290
     1
  9
$CEPSNTYPE
380
     0
  9
$PSTYLEMODE
290
     1
  9
$FINGERPRINTGUID
  2
{9E7CD1ED-C55F-4147-B52D-923AC326E999}
  9
$VERSIONGUID
  2
{0764249B-9080-7744-A116-BFE2760783B3}
  9
$EXTNAMES
290
     1
  9
$PSVPSCALE
 40
0.0
  9
$OLESTARTUP
290
     0
  9
$SORTENTS
280
   127
  9
$INDEXCTL
280
     0
  9
$HIDETEXT
280
     1
  9
$XCLIPFRAME
290
     0
  9
$HALOGAP
280
     0
  9
$OBSCOLOR
 70
   257
  9
$OBSLTYPE
280
     0
  9
$INTERSECTIONDISPLAY
280
     0
  9
$INTERSECTIONCOLOR
 70
   257
  9
$DIMASSOC
280
     2
  9
$PROJECTNAME
  1

  0
ENDSEC
  0
SECTION
  2
CLASSES
  0
CLASS
  1
ACDBDICTIONARYWDFLT
  2
AcDbDictionaryWithDefault
  3
ObjectDBX Classes
 90
        0
 91
        1
280
     0
281
     0
  0
CLASS
  1
DICTIONARYVAR
  2
AcDbDictionaryVar
  3
ObjectDBX Classes
 90
        0
 91
       12
280
     0
281
     0
  0
CLASS
  1
TABLESTYLE
  2
AcDbTableStyle
  3
ObjectDBX Classes
 90
     4095
 91
        1
280
     0
281
     0
  0
CLASS
  1
MATERIAL
  2
AcDbMaterial
  3
ObjectDBX Classes
 90
     1153
 91
        3
280
     0
281
     0
  0
CLASS
  1
VISUALSTYLE
  2
AcDbVisualStyle
  3
ObjectDBX Classes
 90
     4095
 91
        3
280
     0
281
     0
  0
CLASS
  1
SCALE
  2
AcDbScale
  3
ObjectDBX Classes
 90
     1153
 91
       17
280
     0
281
     0
  0
CLASS
  1
MLEADERSTYLE
  2
AcDbMLeaderStyle
  3
ACDB_MLEADERSTYLE_CLASS
 90
     4095
 91
        0
280
     0
281
     0
  0
CLASS
  1
CELLSTYLEMAP
  2
AcDbCellStyleMap
  3
ObjectDBX Classes
 90
     1152
 91
        1
280
     0
281
     0
  0
CLASS
  1
EXACXREFPANELOBJECT
  2
ExAcXREFPanelObject
  3
EXAC_ESW
 90
     1025
 91
        0
280
     1
281
     0
  0
CLASS
  1
NPOCOLLECTION
  2
AcDbImpNonPersistentObjectsCollection
  3
ObjectDBX Classes
 90
     1153
 91
        0
280
     0
281
     0
  0
CLASS
  1
LAYER_INDEX
  2
AcDbLayerIndex
  3
ObjectDBX Classes
 90
        0
 91
        0
280
     0
281
     0
  0
CLASS
  1
SPATIAL_INDEX
  2
AcDbSpatialIndex
  3
ObjectDBX Classes
 90
        0
 91
        0
280
     0
281
     0
  0
CLASS
  1
IDBUFFER
  2
AcDbIdBuffer
  3
ObjectDBX Classes
 90
        0
 91
        0
280
     0
281
     0
  0
CLASS
  1
ACDBSECTIONVIEWSTYLE
  2
AcDbSectionViewStyle
  3
ObjectDBX Classes
 90
     1025
 91
        0
280
     0
281
     0
  0
CLASS
  1
ACDBDETAILVIEWSTYLE
  2
AcDbDetailViewStyle
  3
ObjectDBX Classes
 90
     1025
 91
        0
280
     0
281
     0
  0
CLASS
  1
SORTENTSTABLE
  2
AcDbSortentsTable
  3
ObjectDBX Classes
 90
        0
 91
        0
280
     0
281
     0
  0
ENDSEC
  0
SECTION
  2
TABLES
  0
TABLE
  2
VPORT
  5
28
330
0
100
AcDbSymbolTable
 70
     1
  0
VPORT
  5
29
330
28
100
AcDbSymbolTableRecord
100
AcDbViewportTableRecord
  2
*Active
 70
     0
 10
0.0
 20
0.0
 11
1.0
 21
1.0
 12
25.95135011424009
 22
14.98390008461547
 13
0.0
 23
0.0
 14
10.0
 24
10.0
 15
10.0
 25
10.0
 16
0.0
 26
0.0
 36
1.0
 17
0.0
 27
0.0
 37
0.0
 40
32.36241329780545
 41
1.940058479532163
 42
50.0
 43
0.0
 44
0.0
 50
0.0
 51
0.0
 71
     0
 72
  1000
 73
     1
 74
     3
 75
     0
 76
     1
 77
     0
 78
     0
281
     0
 65
     1
110
0.0
120
0.0
130
0.0
111
1.0
121
0.0
131
0.0
112
0.0
122
1.0
132
0.0
 79
     0
146
0.0
1001
ACAD_NAV_VCDISPLAY
1070
     3
  0
ENDTAB
  0
TABLE
  2
LTYPE
  5
23
330
0
100
AcDbSymbolTable
 70
     1
  0
LTYPE
  5
24
330
23
100
AcDbSymbolTableRecord
100
AcDbLinetypeTableRecord
  2
ByBlock
 70
     0
  3

 72
    65
 73
     0
 40
0.0
  0
LTYPE
  5
25
330
23
100
AcDbSymbolTableRecord
100
AcDbLinetypeTableRecord
  2
ByLayer
 70
     0
  3

 72
    65
 73
     0
 40
0.0
  0
LTYPE
  5
13
330
23
100
AcDbSymbolTableRecord
100
AcDbLinetypeTableRecord
  2
Continuous
 70
     0
  3
Solid line
 72
    65
 73
     0
 40
0.0
  0
ENDTAB
  0
TABLE
  2
LAYER
  5
1D
102
{ACAD_XDICTIONARY
360
1E
102
}
330
0
100
AcDbSymbolTable
 70
     1
  0
LAYER
  5
5
102
{ACAD_XDICTIONARY
360
6
102
}
330
1D
100
AcDbSymbolTableRecord
100
AcDbLayerTableRecord
  2
0
 70
     0
 62
     7
  6
Continuous
370
    -3
390
7
  0
ENDTAB
  0
TABLE
  2
STYLE
  5
20
330
0
100
AcDbSymbolTable
 70
     1
  0
STYLE
  5
21
330
20
100
AcDbSymbolTableRecord
100
AcDbTextStyleTableRecord
  2
Standard
 70
     0
 40
0.0
 41
1.0
 50
0.0
 71
     0
 42
2.5
  3
arial.ttf
  4

1001
ACAD
1000
Arial
1071
       34
  0
ENDTAB
  0
TABLE
  2
VIEW
  5
26
330
0
100
AcDbSymbolTable
 70
     0
  0
ENDTAB
  0
TABLE
  2
UCS
  5
27
330
0
100
AcDbSymbolTable
 70
     0
  0
ENDTAB
  0
TABLE
  2
APPID
  5
2D
330
0
100
AcDbSymbolTable
 70
     6
  0
APPID
  5
12
330
2D
100
AcDbSymbolTableRecord
100
AcDbRegAppTableRecord
  2
ACAD
 70
     0
  0
APPID
  5
18
330
2D
100
AcDbSymbolTableRecord
100
AcDbRegAppTableRecord
  2
ACAD_PSEXT
 70
     0
  0
APPID
  5
31
330
2D
100
AcDbSymbolTableRecord
100
AcDbRegAppTableRecord
  2
AcadAnnotative
 70
     0
  0
APPID
  5
32
330
2D
100
AcDbSymbolTableRecord
100
AcDbRegAppTableRecord
  2
ACAD_DSTYLE_DIMJAG
 70
     0
  0
APPID
  5
33
330
2D
100
AcDbSymbolTableRecord
100
AcDbRegAppTableRecord
  2
ACAD_DSTYLE_DIMTALN
 70
     0
  0
APPID
  5
2C
330
2D
100
AcDbSymbolTableRecord
100
AcDbRegAppTableRecord
  2
ACAD_NAV_VCDISPLAY
 70
     0
  0
ENDTAB
  0
TABLE
  2
DIMSTYLE
  5
2E
330
0
100
AcDbSymbolTable
 70
     2
100
AcDbDimStyleTable
 71
     2
340
2F
340
30
  0
DIMSTYLE
105
30
330
2E
100
AcDbSymbolTableRecord
100
AcDbDimStyleTableRecord
  2
Annotative
 70
     0
 40
0.0
 41
2.5
 42
0.625
 43
3.75
 44
1.25
 73
     0
 74
     0
 77
     1
 78
     8
140
2.5
141
2.5
143
0.03937007874016
147
0.625
171
     3
172
     1
271
     2
272
     2
274
     3
278
    44
283
     0
284
     8
340
21
1001
AcadAnnotative
1000
AnnotativeData
1002
{
1070
     1
1070
     1
1002
}
1001
ACAD_DSTYLE_DIMJAG
1070
   388
1040
1.5
1001
ACAD_DSTYLE_DIMTALN
1070
   392
1070
     0
  0
DIMSTYLE
105
2F
330
2E
100
AcDbSymbolTableRecord
100
AcDbDimStyleTableRecord
  2
ISO-25
 70
     0
 41
2.5
 42
0.625
 43
3.75
 44
1.25
 73
     0
 74
     0
 77
     1
 78
     8
140
2.5
141
2.5
143
0.03937007874016
147
0.625
171
     3
172
     1
271
     2
272
     2
274
     3
278
    44
283
     0
284
     8
340
21
  0
ENDTAB
  0
TABLE
  2
BLOCK_RECORD
  5
1
330
0
100
AcDbSymbolTable
 70
     0
  0
BLOCK_RECORD
  5
2
102
{ACAD_XDICTIONARY
360
3
102
}
330
1
100
AcDbSymbolTableRecord
100
AcDbBlockTableRecord
  2
*Model_Space
340
15
  0
BLOCK_RECORD
  5
19
330
1
100
AcDbSymbolTableRecord
100
AcDbBlockTableRecord
  2
*Paper_Space
340
1C
  0
ENDTAB
  0
ENDSEC
  0
SECTION
  2
BLOCKS
  0
BLOCK
  5
4
330
2
100
AcDbEntity
  8
0
100
AcDbBlockBegin
  2
*Model_Space
 70
     0
 10
0.0
 20
0.0
 30
0.0
  3
*Model_Space
  1

  0
ENDBLK
  5
14
330
2
100
AcDbEntity
  8
0
100
AcDbBlockEnd
  0
BLOCK
  5
1A
330
19
100
AcDbEntity
 67
     1
  8
0
100
AcDbBlockBegin
  2
*Paper_Space
 70
     0
 10
0.0
 20
0.0
 30
0.0
  3
*Paper_Space
  1

  0
ENDBLK
  5
1B
330
19
100
AcDbEntity
 67
     1
  8
0
100
AcDbBlockEnd
  0
ENDSEC
  0
SECTION
  2
ENTITIES
  0
LINE
  5
58
330
2
100
AcDbEntity
  8
0
  6
Continuous
 62
     7
370
    15
100
AcDbLine
 10
51.19938148104143
 20
20.56776786687533
 30
0.0
 11
50.02822744462401
 21
21.58201701415249
 31
0.0
  0
LINE
  5
59
330
2
100
AcDbEntity
  8
0
  6
Continuous
 62
     7
370
    15
100
AcDbLine
 10
29.34076839986005
 20
21.58201701415249
 30
0.0
 11
28.16961436344263
 21
20.56776786687533
 31
0.0
  0
LINE
  5
5A
330
2
100
AcDbEntity
  8
0
  6
Continuous
 62
     7
370
    15
100
AcDbLine
 10
34.82758196203122
 20
19.45488748933894
 30
0.0
 11
34.82590736932616
 21
19.45484950900095
 31
0.0
  0
LINE
  5
5B
330
2
100
AcDbEntity
  8
0
  6
Continuous
 62
     7
370
    15
100
AcDbLine
 10
36.05371424070268
 20
27.41427108093262
 30
0.0
 11
36.05371424070268
 21
20.85468764279676
 31
0.0
  0
SPLINE
  5
5C
330
2
100
AcDbEntity
  8
0
  6
Continuous
 62
     7
370
    15
100
AcDbSpline
210
0.0
220
0.0
230
1.0
 70
     8
 71
     3
 72
    12
 73
     8
 74
     0
 42
0.000000001
 43
0.0000000001
 40
0.0
 40
0.0
 40
0.0
 40
0.0
 40
0.1814292812455421
 40
0.4157921650615057
 40
0.6513173281689834
 40
0.8893818971947961
 40
1.0
 40
1.0
 40
1.0
 40
1.0
 10
38.58862983963854
 20
28.67119464167127
 30
0.0
 10
38.55316668196633
 20
28.69475054386533
 30
0.0
 10
38.48700931731651
 20
28.74415971706594
 30
0.0
 10
38.3561546130411
 20
28.78883321198225
 30
0.0
 10
38.20394867161076
 20
28.80727684564476
 30
0.0
 10
38.07195219264713
 20
28.79537312164848
 30
0.0
 10
37.99318315479331
 20
28.7748441130999
 30
0.0
 10
37.96819401070593
 20
28.76833137196991
 30
0.0
  0
LINE
  5
5D
330
2
100
AcDbEntity
  8
0
  6
Continuous
 62
     7
370
    15
100
AcDbLine
 10
38.64983399472226
 20
28.61882315610955
 30
0.0
 11
38.60591571835653
 21
28.6568574991303
 31
0.0
  0
SPLINE
  5
5E
330
2
100
AcDbEntity
  8
0
  6
Continuous
 62
     7
370
    15
100
AcDbSpline
210
0.0
220
0.0
230
1.0
 70
     8
 71
     3
 72
    16
 73
    12
 74
     0
 42
0.000000001
 43
0.0000000001
 40
0.0
 40
0.0
 40
0.0
 40
0.0
 40
0.0698495378242813
 40
0.1990379081207496
 40
0.3285182403160729
 40
0.4581529125746114
 40
0.587925197279928
 40
0.7178828956211269
 40
0.8480723407691128
 40
0.9707891010511616
 40
1.0
 40
1.0
 40
1.0
 40
1.0
 10
36.85251994869532
 20
28.44626401195512
 30
0.0
 10
36.82301419001692
 20
28.43677629977651
 30
0.0
 10
36.73893683363372
 20
28.40974083979018
 30
0.0
 10
36.60341044062125
 20
28.34048700163248
 30
0.0
 10
36.45424099932302
 20
28.232242261912
 30
0.0
 10
36.32156060542456
 20
28.09952435236255
 30
0.0
 10
36.21065881137884
 20
27.94809398290658
 30
0.0
 10
36.12590921747596
 20
27.78357165767943
 30
0.0
 10
36.07227523823713
 20
27.61572695822088
 30
0.0
 10
36.05481925962386
 20
27.4917984480976
 30
0.0
 10
36.05389243907348
 20
27.42677335603719
 30
0.0
 10
36.05371424070222
 20
27.41427108092194
 30
0.0
  0
SPLINE
  5
5F
330
2
100
AcDbEntity
  8
0
  6
Continuous
 62
     7
370
    15
100
AcDbSpline
210
0.0
220
0.0
230
1.0
 70
     8
 71
     3
 72
    10
 73
     6
 74
     0
 42
0.000000001
 43
0.0000000001
 40
0.0
 40
0.0
 40
0.0
 40
0.0
 40
0.2785574303014062
 40
0.6383864624489379
 40
1.0
 40
1.0
 40
1.0
 40
1.0
 10
43.60788429832609
 20
26.60375846843578
 30
0.0
 10
43.57806678302267
 20
26.62624555426771
 30
0.0
 10
43.50973222776429
 20
26.67778053274413
 30
0.0
 10
43.37928389349463
 20
26.72417759548432
 30
0.0
 10
43.27717801453537
 20
26.73182778736532
 30
0.0
 10
43.22599879439212
 20
26.73566234477198
 30
0.0
  0
LINE
  5
60
330
2
100
AcDbEntity
  8
0
  6
Continuous
 62
     7
370
    15
100
AcDbLine
 10
43.67262032660869
 20
26.55271296592855
 30
0.0
 11
43.62870205024319
 21
26.5907473089494
 31
0.0
  0
SPLINE
  5
61
330
2
100
AcDbEntity
  8
0
  6
Continuous
 62
     7
370
    15
100
AcDbSpline
210
0.0
220
0.0
230
1.0
 70
     8
 71
     3
 72
    12
 73
     8
 74
     0
 42
0.000000001
 43
0.0000000001
 40
0.0
 40
0.0
 40
0.0
 40
0.0
 40
0.1814292812455341
 40
0.415792165061499
 40
0.6513173281689814
 40
0.8893818971947844
 40
1.0
 40
1.0
 40
1.0
 40
1.0
 10
42.64322108198848
 20
28.08331603991019
 30
0.0
 10
42.61342283341787
 20
28.10588484319226
 30
0.0
 10
42.5451324328651
 20
28.15760709836002
 30
0.0
 10
42.41427772858969
 20
28.20228059327622
 30
0.0
 10
42.26207178715958
 20
28.22072422693884
 30
0.0
 10
42.13007530819573
 20
28.20882050294244
 30
0.0
 10
42.05130627034191
 20
28.18829149439387
 30
0.0
 10
42.02631712625453
 20
28.18177875326398
 30
0.0
  0
LINE
  5
62
330
2
100
AcDbEntity
  8
0
  6
Continuous
 62
     7
370
    15
100
AcDbLine
 10
42.70795711026948
 20
28.03227053740329
 30
0.0
 11
42.66403883390376
 21
28.07030488042403
 31
0.0
  0
LINE
  5
63
330
2
100
AcDbEntity
  8
0
  6
Continuous
 62
     7
370
    15
100
AcDbLine
 10
34.53346704619071
 20
25.2173816621521
 30
0.0
 11
34.53346704619071
 21
19.48973094030168
 31
0.0
  0
LINE
  5
64
330
2
100
AcDbEntity
  8
0
  6
Continuous
 62
     7
370
    15
100
AcDbLine
 10
42.02631712624406
 20
28.18177875325557
 30
0.0
 11
41.51938473231076
 21
28.03543997620045
 31
0.0
  0
SPLINE
  5
65
330
2
100
AcDbEntity
  8
0
  6
Continuous
 62
     7
370
    15
100
AcDbSpline
210
0.0
220
0.0
230
1.0
 70
     8
 71
     3
 72
    11
 73
     7
 74
     0
 42
0.000000001
 43
0.0000000001
 40
0.0
 40
0.0
 40
0.0
 40
0.0
 40
0.1104046517395704
 40
0.5209289446612721
 40
0.9078897400403908
 40
1.0
 40
1.0
 40
1.0
 40
1.0
 10
34.63338932965235
 20
25.62974068594599
 30
0.0
 10
34.62558873334547
 20
25.61513001227104
 30
0.0
 10
34.58878270807486
 20
25.54619158713876
 30
0.0
 10
34.55338683678633
 20
25.41840752478845
 30
0.0
 10
34.53450957451196
 20
25.2949288056011
 30
0.0
 10
34.53363516716331
 20
25.22988712643462
 30
0.0
 10
34.53346704619821
 20
25.21738166214186
 30
0.0
  0
LINE
  5
66
330
2
100
AcDbEntity
  8
0
  6
Continuous
 62
     7
370
    15
100
AcDbLine
 10
35.82887062837926
 20
26.47034839322691
 30
0.0
 11
35.82887062837926
 21
20.75219067290436
 31
0.0
  0
SPLINE
  5
67
330
2
100
AcDbEntity
  8
0
  6
Continuous
 62
     7
370
    15
100
AcDbSpline
210
0.0
220
0.0
230
1.0
 70
     8
 71
     3
 72
    13
 73
     9
 74
     0
 42
0.000000001
 43
0.0000000001
 40
0.0
 40
0.0
 40
0.0
 40
0.0
 40
0.2867385838583293
 40
0.6571356937018638
 40
1.0
 40
1.0
 40
1.0
 40
1.04954568538971
 40
1.04954568538971
 40
1.04954568538971
 40
1.04954568538971
 10
39.80402001646325
 20
28.14303163691716
 30
0.0
 10
39.77437601899192
 20
28.16849998110479
 30
0.0
 10
39.70231969766656
 20
28.21567482863623
 30
0.0
 10
39.57569521130859
 20
28.26107732017135
 30
0.0
 10
39.47767616042393
 20
28.26858233734902
 30
0.0
 10
39.43055846538937
 20
28.27218999430375
 30
0.0
 10
39.42374971203822
 20
28.27271131960117
 30
0.0
 10
39.41694095868729
 20
28.2732326448986
 30
0.0
 10
39.41013220533614
 20
28.27375397019614
 30
0.0
  0
LINE
  5
68
330
2
100
AcDbEntity
  8
0
  6
Continuous
 62
     7
370
    15
100
AcDbLine
 10
39.86522417152333
 20
28.09066015135545
 30
0.0
 11
39.82130589515782
 21
28.12869449437631
 31
0.0
  0
SPLINE
  5
69
330
2
100
AcDbEntity
  8
0
  6
Continuous
 62
     7
370
    15
100
AcDbSpline
210
0.0
220
0.0
230
1.0
 70
     8
 71
     3
 72
    12
 73
     8
 74
     0
 42
0.000000001
 43
0.0000000001
 40
0.0
 40
0.0
 40
0.0
 40
0.0
 40
0.1535692531581339
 40
0.4205115435837768
 40
0.6879298583172734
 40
0.9399987505909608
 40
1.0
 40
1.0
 40
1.0
 40
1.0
 10
36.05371424070222
 20
27.08878410203011
 30
0.0
 10
36.03179070239344
 20
27.06031520219608
 30
0.0
 10
35.97175849708242
 20
26.98236013783833
 30
0.0
 10
35.90175624148105
 20
26.83918888251322
 30
0.0
 10
35.84725140257251
 20
26.67192433154923
 30
0.0
 10
35.8299839357378
 20
26.5478702388225
 30
0.0
 10
35.82905016336918
 20
26.48284977791809
 30
0.0
 10
35.82887062838222
 20
26.47034839322817
 30
0.0
  0
LINE
  5
6A
330
2
100
AcDbEntity
  8
0
  6
Continuous
 62
     7
370
    15
100
AcDbLine
 10
42.95386302572774
 20
27.29428113627523
 30
0.0
 11
42.90599619696968
 21
27.32335572234536
 31
0.0
  0
LINE
  5
6B
330
2
100
AcDbEntity
  8
0
  6
Continuous
 62
     7
370
    15
100
AcDbLine
 10
43.01506718078781
 20
27.24190965071353
 30
0.0
 11
42.97114890442208
 21
27.27994399373438
 31
0.0
  0
LINE
  5
6C
330
2
100
AcDbEntity
  8
0
  6
Continuous
 62
     7
370
    15
100
AcDbLine
 10
43.57994218277963
 20
20.38259493350051
 30
0.0
 11
43.57994218277963
 21
20.68686967769076
 31
0.0
  0
LINE
  5
6D
330
2
100
AcDbEntity
  8
0
  6
Continuous
 62
     7
370
    15
100
AcDbLine
 10
35.7890536617042
 20
20.68686967769076
 30
0.0
 11
35.7890536617042
 21
20.38259493350051
 31
0.0
  0
LINE
  5
6E
330
2
100
AcDbEntity
  8
0
  6
Continuous
 62
     7
370
    15
100
AcDbLine
 10
45.24747959522528
 20
18.64800440555814
 30
0.0
 11
45.24747959522528
 21
18.75095246363969
 31
0.0
  0
LINE
  5
6F
330
2
100
AcDbEntity
  8
0
  6
Continuous
 62
     7
370
    15
100
AcDbLine
 10
34.12151624925855
 20
18.75095246363969
 30
0.0
 11
34.12151624925855
 21
18.64800440555814
 31
0.0
  0
LINE
  5
70
330
2
100
AcDbEntity
  8
0
  6
Continuous
 62
     7
370
    15
100
AcDbLine
 10
33.13440736502571
 20
15.3092884868231
 30
0.0
 11
33.146687193645
 21
15.18788912246214
 31
0.0
  0
LINE
  5
71
330
2
100
AcDbEntity
  8
0
  6
Continuous
 62
     7
370
    15
100
AcDbLine
 10
46.22230865083884
 20
15.18788912246214
 30
0.0
 11
46.23458847945812
 21
15.3092884868231
 31
0.0
  0
SPLINE
  5
72
330
2
100
AcDbEntity
  8
0
  6
Continuous
 62
     7
370
    15
100
AcDbSpline
210
0.0
220
0.0
230
1.0
 70
     8
 71
     3
 72
     9
 73
     5
 74
     0
 42
0.000000001
 43
0.0000000001
 40
0.0
 40
0.0
 40
0.0
 40
0.0
 40
0.2348382332724162
 40
0.9921728383733604
 40
0.9921728383733604
 40
0.9921728383733604
 40
0.9921728383733604
 10
35.68347836979342
 20
20.28048271639773
 30
0.0
 10
35.67440572630221
 20
20.22080975381391
 30
0.0
 10
35.63607452989209
 20
19.96869623790178
 30
0.0
 10
35.59868861830614
 20
19.71624889765701
 30
0.0
 10
35.57015724391386
 20
19.52355154354211
 30
0.0
  0
SPLINE
  5
73
330
2
100
AcDbEntity
  8
0
  6
Continuous
 62
     7
370
    15
100
AcDbSpline
210
0.0
220
0.0
230
1.0
 70
     8
 71
     3
 72
     9
 73
     5
 74
     0
 42
0.000000001
 43
0.0000000001
 40
0.0
 40
0.0
 40
0.0
 40
0.0
 40
0.2507808920842258
 40
1.0
 40
1.0
 40
1.0
 40
1.0
 10
43.78894362143592
 20
19.59076780861949
 30
0.0
 10
43.78041122999912
 20
19.64846268314977
 30
0.0
 10
43.74638793832878
 20
19.87852357036843
 30
0.0
 10
43.71158032867834
 20
20.10830837351932
 30
0.0
 10
43.68550180242755
 20
20.28046753874855
 30
0.0
  0
LINE
  5
74
330
2
100
AcDbEntity
  8
0
  6
Continuous
 62
     7
370
    15
100
AcDbLine
 10
43.79025451094321
 20
19.52148498654128
 30
0.0
 11
43.7883453481711
 21
19.58971909390891
 31
0.0
  0
LINE
  5
75
330
2
100
AcDbEntity
  8
0
  6
Continuous
 62
     7
370
    15
100
AcDbLine
 10
34.72928639496536
 20
18.64636756624497
 30
0.0
 11
34.58390296702237
 21
18.68833614685309
 31
0.0
  0
LINE
  5
76
330
2
100
AcDbEntity
  8
0
  6
Continuous
 62
     7
370
    15
100
AcDbLine
 10
44.78504825330719
 20
18.68832326497841
 30
0.0
 11
44.63970944951848
 21
18.64636756624497
 31
0.0
  0
LINE
  5
77
330
2
100
AcDbEntity
  8
0
  6
Continuous
 62
     7
370
    15
100
AcDbLine
 10
34.77996581015168
 20
19.168188321466
 30
0.0
 11
34.49579889685015
 21
19.25022024341661
 31
0.0
  0
LINE
  5
78
330
2
100
AcDbEntity
  8
0
  6
Continuous
 62
     7
370
    15
100
AcDbLine
 10
44.87319694763391
 20
19.25022024341661
 30
0.0
 11
44.58903003430873
 21
19.168188321466
 31
0.0
  0
LWPOLYLINE
  5
79
330
2
100
AcDbEntity
  8
0
  6
Continuous
 62
     7
370
    15
100
AcDbPolyline
 90
        9
 70
   128
 43
0.0
 10
28.87266240769191
 20
20.65584479679433
 10
28.87174092690157
 20
20.65238517272974
 10
28.87587571639619
 20
20.57749074067556
 10
28.92140894735212
 20
20.49947714191626
 10
29.00140859814405
 20
20.43022123966034
 10
29.10369544711034
 20
20.38026661720505
 10
29.21269724872786
 20
20.35721841299915
 10
29.31181946683637
 20
20.36458550717589
 10
29.3859716422619
 20
20.4012463264346
  0
LINE
  5
7A
330
2
100
AcDbEntity
  8
0
  6
Continuous
 62
     7
370
    15
100
AcDbLine
 10
31.68206233446063
 20
18.63264114291655
 30
0.0
 11
30.96340410255357
 21
19.10262452093457
 31
0.0
  0
ARC
  5
7B
330
2
100
AcDbEntity
  8
0
  6
Continuous
 62
     7
370
    15
100
AcDbCircle
 10
30.45419095036868
 20
18.31957848260754
 30
0.0
 40
0.9340552084925736
100
AcDbArc
 50
56.96413735999765
 51
75.62988647089698
  0
LINE
  5
7C
330
2
100
AcDbEntity
  8
0
  6
Continuous
 62
     7
370
    15
100
AcDbLine
 10
30.68600909072052
 20
19.22440967257012
 30
0.0
 11
30.65233222330358
 21
19.23302577462982
 31
0.0
  0
ARC
  5
7D
330
2
100
AcDbEntity
  8
0
  6
Continuous
 62
     7
370
    15
100
AcDbCircle
 10
31.57960478468749
 20
22.85235053445672
 30
0.0
 40
3.736220833969867
100
AcDbArc
 50
236.9641373599976
 51
255.629886470897
  0
LINE
  5
7E
330
2
100
AcDbEntity
  8
0
  6
Continuous
 62
     7
370
    15
100
AcDbLine
 10
29.54275217590112
 20
19.72016638114871
 30
0.0
 11
28.50162376216326
 21
20.40103668516508
 31
0.0
  0
LINE
  5
7F
330
2
100
AcDbEntity
  8
0
  6
Continuous
 62
     7
370
    15
100
AcDbLine
 10
32.8958057733546
 20
18.16770196220136
 30
0.0
 11
31.73374806412744
 21
18.60619872765141
 31
0.0
  0
ARC
  5
80
330
2
100
AcDbEntity
  8
0
  6
Continuous
 62
     7
370
    15
100
AcDbCircle
 10
31.82873190954865
 20
18.85559415069178
 30
0.0
 40
0.2668707700866348
100
AcDbArc
 50
236.6610925818021
 51
249.1503439897936
  0
ARC
  5
81
330
2
100
AcDbEntity
  8
0
  6
Continuous
 62
     7
370
    15
100
AcDbCircle
 10
31.85717811324844
 20
15.52041059145631
 30
0.0
 40
2.843747354796587
100
AcDbArc
 50
36.76938027300281
 51
68.57813619360055
  0
LWPOLYLINE
  5
82
330
2
100
AcDbEntity
  8
0
  6
Continuous
 62
     7
370
    15
100
AcDbPolyline
 90
       17
 70
   128
 43
0.0
 10
39.27459400949579
 20
11.95865814526701
 10
39.1625486978644
 20
11.95481374456358
 10
39.06756126925074
 20
11.94386581766514
 10
39.00409269858892
 20
11.92748108714488
 10
38.98180550039138
 20
11.90815397972039
 10
39.00409269858892
 20
11.88882687231921
 10
39.06756126925074
 20
11.87244214179895
 10
39.1625486978644
 20
11.86149421487709
 10
39.27459400949579
 20
11.85764981419709
 10
39.38663932112718
 20
11.86149421487709
 10
39.48162674974083
 20
11.87244214179895
 10
39.54509532040265
 20
11.88882687231921
 10
39.5673825186002
 20
11.90815397972039
 10
39.54509532040265
 20
11.92748108714488
 10
39.48162674974083
 20
11.94386581766514
 10
39.38663932112718
 20
11.95481374456358
 10
39.27459400949579
 20
11.95865814526701
  0
LINE
  5
83
330
2
100
AcDbEntity
  8
0
  6
Continuous
 62
     7
370
    15
100
AcDbLine
 10
38.51334388582427
 20
11.95140607338408
 30
0.0
 11
38.51334388582427
 21
11.69199615124785
 31
0.0
  0
LWPOLYLINE
  5
84
330
2
100
AcDbEntity
  8
0
  6
Continuous
 62
     7
370
    15
100
AcDbPolyline
 90
        8
 70
   128
 43
0.0
 10
38.71676698902502
 20
12.11609717539454
 10
38.69164147133415
 20
12.10602293268641
 10
38.63764987192098
 20
12.08127832909827
 10
38.59315609798045
 20
12.05597759254567
 10
38.55835067866065
 20
12.03022906470869
 10
38.5333826561016
 20
12.00414300472698
 10
38.51835894720398
 20
11.97783111708543
 10
38.51334388582427
 20
11.95140607338408
  0
LWPOLYLINE
  5
85
330
2
100
AcDbEntity
  8
0
  6
Continuous
 62
     7
370
    15
100
AcDbPolyline
 90
        8
 70
   128
 43
0.0
 10
40.85565195865956
 20
11.95140607338408
 10
40.85063689728008
 20
11.97783111708543
 10
40.83561318838223
 20
12.00414300472698
 10
40.81064516582318
 20
12.03022906470869
 10
40.77583974650337
 20
12.05597759254567
 10
40.73134597253965
 20
12.08127832909827
 10
40.67735437314968
 20
12.10602293268641
 10
40.65222885545881
 20
12.11609717539454
  0
LINE
  5
86
330
2
100
AcDbEntity
  8
0
  6
Continuous
 62
     7
370
    15
100
AcDbLine
 10
40.85565195865956
 20
11.95140607338408
 30
0.0
 11
40.85565195865956
 21
11.69199615124785
 31
0.0
  0
ARC
  5
87
330
2
100
AcDbEntity
  8
0
  6
Continuous
 62
     7
370
    15
100
AcDbCircle
 10
40.2870896654349
 20
11.52087068853314
 30
0.0
 40
0.5688502917636007
100
AcDbArc
 50
268.2859860207049
 51
358.1767252638905
  0
LINE
  5
88
330
2
100
AcDbEntity
  8
0
  6
Continuous
 62
     7
370
    15
100
AcDbLine
 10
40.27007494045074
 20
10.95227491508296
 30
0.0
 11
39.09892090403309
 21
10.95227491508296
 31
0.0
  0
ARC
  5
89
330
2
100
AcDbEntity
  8
0
  6
Continuous
 62
     7
370
    15
100
AcDbCircle
 10
39.08190617902574
 20
11.52087068853314
 30
0.0
 40
0.5688502917636146
100
AcDbArc
 50
181.823274736103
 51
271.714013979295
  0
LINE
  5
8A
330
2
100
AcDbEntity
  8
0
  6
Continuous
 62
     7
370
    15
100
AcDbLine
 10
38.51334388582427
 20
11.5367094373712
 30
0.0
 11
38.51334388582427
 21
11.50277170576919
 31
0.0
  0
LINE
  5
8B
330
2
100
AcDbEntity
  8
0
  6
Continuous
 62
     7
370
    15
100
AcDbLine
 10
40.85565195865956
 20
11.5367094373712
 30
0.0
 11
40.85565195865956
 21
11.50277170576919
 31
0.0
  0
LINE
  5
8C
330
2
100
AcDbEntity
  8
0
  6
Continuous
 62
     7
370
    15
100
AcDbLine
 10
38.51334388582427
 20
11.69199615124785
 30
0.0
 11
38.51334388582427
 21
11.5367094373712
 31
0.0
  0
LINE
  5
8D
330
2
100
AcDbEntity
  8
0
  6
Continuous
 62
     7
370
    15
100
AcDbLine
 10
40.85565195865956
 20
11.69199615124785
 30
0.0
 11
40.85565195865956
 21
11.5367094373712
 31
0.0
  0
LINE
  5
8E
330
2
100
AcDbEntity
  8
0
  6
Continuous
 62
     7
370
    15
100
AcDbLine
 10
49.82624366858295
 20
19.72016638114871
 30
0.0
 11
50.86737208232057
 21
20.40103668516508
 31
0.0
  0
ARC
  5
8F
330
2
100
AcDbEntity
  8
0
  6
Continuous
 62
     7
370
    15
100
AcDbCircle
 10
47.78939105979657
 20
22.85235053445672
 30
0.0
 40
3.736220833969853
100
AcDbArc
 50
284.3701135291031
 51
303.0358626400023
  0
LINE
  5
90
330
2
100
AcDbEntity
  8
0
  6
Continuous
 62
     7
370
    15
100
AcDbLine
 10
48.71666362118026
 20
19.23302577462982
 30
0.0
 11
48.68298675376355
 21
19.22440967257012
 31
0.0
  0
ARC
  5
91
330
2
100
AcDbEntity
  8
0
  6
Continuous
 62
     7
370
    15
100
AcDbCircle
 10
48.91480489411515
 20
18.31957848260754
 30
0.0
 40
0.9340552084916671
100
AcDbArc
 50
104.370113529103
 51
123.0358626401073
  0
LINE
  5
92
330
2
100
AcDbEntity
  8
0
  6
Continuous
 62
     7
370
    15
100
AcDbLine
 10
48.40559174190684
 20
19.10262452093457
 30
0.0
 11
47.68693351002321
 21
18.63264114291655
 31
0.0
  0
LINE
  5
93
330
2
100
AcDbEntity
  8
0
  6
Continuous
 62
     7
370
    15
100
AcDbLine
 10
47.63524778035639
 20
18.60619872765141
 30
0.0
 11
46.47319007112924
 21
18.16770196220136
 31
0.0
  0
ARC
  5
94
330
2
100
AcDbEntity
  8
0
  6
Continuous
 62
     7
370
    15
100
AcDbCircle
 10
47.54026393493518
 20
18.85559415069178
 30
0.0
 40
0.2668707700843317
100
AcDbArc
 50
290.849656010095
 51
303.3389074183062
  0
ARC
  5
95
330
2
100
AcDbEntity
  8
0
  6
Continuous
 62
     7
370
    15
100
AcDbCircle
 10
47.53249410683816
 20
15.49329474125829
 30
0.0
 40
2.876556799973149
100
AcDbArc
 50
111.6079876272003
 51
143.0444959061928
  0
POLYLINE
  5
96
330
2
100
AcDbEntity
  8
0
  6
Continuous
 62
     7
370
    15
100
AcDb2dPolyline
 66
     1
 10
0.0
 20
0.0
 30
0.0
 70
   130
  0
VERTEX
  5
97
330
96
100
AcDbEntity
  8
0
  6
Continuous
 62
     7
370
    15
100
AcDbVertex
100
AcDb2dVertex
 10
29.3859716422619
 20
20.4012463264346
 30
0.0
 42
0.075071374527922
  0
VERTEX
  5
98
330
96
100
AcDbEntity
  8
0
  6
Continuous
 62
     7
370
    15
100
AcDbVertex
100
AcDb2dVertex
 10
29.41346549557784
 20
20.43321000159017
 30
0.0
 42
0.105186043889383
 70
     1
  0
VERTEX
  5
99
330
96
100
AcDbEntity
  8
0
  6
Continuous
 62
     7
370
    15
100
AcDbVertex
100
AcDb2dVertex
 10
29.42386477846753
 20
20.46161959340429
 30
0.0
 42
0.0491521541477638
  0
VERTEX
  5
9A
330
96
100
AcDbEntity
  8
0
  6
Continuous
 62
     7
370
    15
100
AcDbVertex
100
AcDb2dVertex
 10
29.42578476267886
 20
20.5061671353767
 30
0.0
 42
0.0710092569925158
 70
     1
  0
VERTEX
  5
9B
330
96
100
AcDbEntity
  8
0
  6
Continuous
 62
     7
370
    15
100
AcDbVertex
100
AcDb2dVertex
 10
29.41972998897313
 20
20.53651402545859
 30
0.0
 42
0.04743629529788
  0
VERTEX
  5
9C
330
96
100
AcDbEntity
  8
0
  6
Continuous
 62
     7
370
    15
100
AcDbVertex
100
AcDb2dVertex
 10
29.40022893406922
 20
20.5786436683502
 30
0.0
 42
0.0496856510164225
 70
     1
  0
VERTEX
  5
9D
330
96
100
AcDbEntity
  8
0
  6
Continuous
 62
     7
370
    15
100
AcDbVertex
100
AcDb2dVertex
 10
29.3741967580172
 20
20.61452762421777
 30
0.0
 42
0.03260174139668
  0
VERTEX
  5
9E
330
96
100
AcDbEntity
  8
0
  6
Continuous
 62
     7
370
    15
100
AcDbVertex
100
AcDb2dVertex
 10
29.33467548321869
 20
20.65352455441257
 30
0.0
 42
0.0358246697656824
 70
     1
  0
VERTEX
  5
9F
330
96
100
AcDbEntity
  8
0
  6
Continuous
 62
     7
370
    15
100
AcDbVertex
100
AcDb2dVertex
 10
29.29419710724847
 20
20.6837835264738
 30
0.0
 42
0.0290070761675503
  0
VERTEX
  5
A0
330
96
100
AcDbEntity
  8
0
  6
Continuous
 62
     7
370
    15
100
AcDbVertex
100
AcDb2dVertex
 10
29.24384640744893
 20
20.71210016760574
 30
0.0
 42
0.0297836438693674
 70
     1
  0
VERTEX
  5
A1
330
96
100
AcDbEntity
  8
0
  6
Continuous
 62
     7
370
    15
100
AcDbVertex
100
AcDb2dVertex
 10
29.19191025825876
 20
20.73373814892921
 30
0.0
 42
0.0317178157955908
  0
VERTEX
  5
A2
330
96
100
AcDbEntity
  8
0
  6
Continuous
 62
     7
370
    15
100
AcDbVertex
100
AcDb2dVertex
 10
29.14743255405597
 20
20.74613361142406
 30
0.0
 42
0.0223824385526792
 70
     1
  0
VERTEX
  5
A3
330
96
100
AcDbEntity
  8
0
  6
Continuous
 62
     7
370
    15
100
AcDbVertex
100
AcDb2dVertex
 10
29.08290845664124
 20
20.756786353135
 30
0.0
 42
0.0483001780707695
  0
VERTEX
  5
A4
330
96
100
AcDbEntity
  8
0
  6
Continuous
 62
     7
370
    15
100
AcDbVertex
100
AcDb2dVertex
 10
29.04969653737021
 20
20.75752837782943
 30
0.0
 42
0.0241199305555704
 70
     1
  0
VERTEX
  5
A5
330
96
100
AcDbEntity
  8
0
  6
Continuous
 62
     7
370
    15
100
AcDbVertex
100
AcDb2dVertex
 10
28.98378623853296
 20
20.74941925895826
 30
0.0
 42
0.133084075532954
  0
VERTEX
  5
A6
330
96
100
AcDbEntity
  8
0
  6
Continuous
 62
     7
370
    15
100
AcDbVertex
100
AcDb2dVertex
 10
28.9277223525994
 20
20.72334931169303
 30
0.0
 42
0.0936280817571718
 70
     1
  0
VERTEX
  5
A7
330
96
100
AcDbEntity
  8
0
  6
Continuous
 62
     7
370
    15
100
AcDbVertex
100
AcDb2dVertex
 10
28.87266240769191
 20
20.65584479679433
 30
0.0
  0
SEQEND
  5
A8
330
96
100
AcDbEntity
  8
0
  6
Continuous
 62
     7
370
    15
  0
LWPOLYLINE
  5
A9
330
2
100
AcDbEntity
  8
0
  6
Continuous
 62
     7
370
    15
100
AcDbPolyline
 90
       17
 70
   128
 43
0.0
 10
49.43047261044217
 20
20.03989227508021
 10
49.5046247858445
 20
20.00323145582149
 10
49.60374700395277
 20
19.99586436162133
 10
49.71274880559372
 20
20.01891256585054
 10
49.81503565455978
 20
20.06886718830594
 10
49.89503530532875
 20
20.13812309056186
 10
49.94056853628444
 20
20.21613668932116
 10
49.94470332577884
 20
20.29103112137546
 10
49.90681018957321
 20
20.35140438832161
 10
49.83265801414745
 20
20.38806520760386
 10
49.73353579603918
 20
20.3954323017806
 10
49.62453399442165
 20
20.3723840975747
 10
49.52224714545536
 20
20.32242947511941
 10
49.44224749466343
 20
20.25317357286338
 10
49.3967142637075
 20
20.17515997410419
 10
49.39257947423652
 20
20.1002655420499
 10
49.43047261044217
 20
20.03989227508021
  0
LWPOLYLINE
  5
AA
330
2
100
AcDbEntity
  8
0
  6
Continuous
 62
     7
370
    15
100
AcDbPolyline
 90
       17
 70
   128
 43
0.0
 10
49.59217379264396
 20
20.76869401251816
 10
49.66632596806949
 20
20.73203319325933
 10
49.76544818617776
 20
20.72466609905916
 10
49.87444998779529
 20
20.74771430328838
 10
49.97673683676158
 20
20.79766892574378
 10
50.05673648755373
 20
20.86692482799969
 10
50.10226971850966
 20
20.94493842675911
 10
50.10640450798064
 20
21.01983285881329
 10
50.068511371775
 20
21.08020612575956
 10
49.99435919637289
 20
21.11686694504169
 10
49.89523697826462
 20
21.12423403921844
 10
49.78623517662345
 20
21.10118583501253
 10
49.68394832765716
 20
21.05123121255724
 10
49.60394867688865
 20
20.98197531030132
 10
49.55841544593273
 20
20.9039617115186
 10
49.55428065643832
 20
20.82906727948773
 10
49.59217379264396
 20
20.76869401251816
  0
LWPOLYLINE
  5
AB
330
2
100
AcDbEntity
  8
0
  6
Continuous
 62
     7
370
    15
100
AcDbPolyline
 90
       17
 70
   128
 43
0.0
 10
48.44896360272469
 20
20.02106494075269
 10
48.52311577815044
 20
19.98440412147056
 10
48.62223799623507
 20
19.97703702729381
 10
48.73123979787624
 20
20.00008523149972
 10
48.83352664684252
 20
20.05003985395501
 10
48.91352629763446
 20
20.11929575621093
 10
48.95905952859038
 20
20.19730935499365
 10
48.96319431806159
 20
20.27220378702441
 10
48.92530118185573
 20
20.3325770539941
 10
48.8511490064534
 20
20.36923787325282
 10
48.75202678834511
 20
20.37660496745298
 10
48.6430249867044
 20
20.35355676322376
 10
48.54073813773812
 20
20.30360214076836
 10
48.46073848696915
 20
20.23434623851244
 10
48.41520525601345
 20
20.15633263975315
 10
48.41107046651905
 20
20.08143820772239
 10
48.44896360272469
 20
20.02106494075269
  0
ARC
  5
AC
330
2
100
AcDbEntity
  8
0
  6
Continuous
 62
     7
370
    15
100
AcDbCircle
 10
51.47081371455897
 20
21.76165233778215
 30
0.0
 40
1.428428739311123
100
AcDbArc
 50
190.9690890527989
 51
224.3814861081985
  0
LINE
  5
AD
330
2
100
AcDbEntity
  8
0
  6
Continuous
 62
     7
370
    15
100
AcDbLine
 10
50.0630173944744
 20
21.51905670284009
 30
0.0
 11
50.06848239456667
 21
21.48985180014154
 31
0.0
  0
LINE
  5
AE
330
2
100
AcDbEntity
  8
0
  6
Continuous
 62
     7
370
    15
100
AcDbLine
 10
51.23417143089205
 20
20.50480755556305
 30
0.0
 11
51.23963643098409
 21
20.47560265286438
 31
0.0
  0
LWPOLYLINE
  5
AF
330
2
100
AcDbEntity
  8
0
  6
Continuous
 62
     7
370
    15
100
AcDbPolyline
 90
        9
 70
   128
 43
0.0
 10
51.03549453630353
 20
20.25543836906672
 10
51.09091142099714
 20
20.21507334411285
 10
51.1407920261895
 20
20.19446457084712
 10
51.18321946825199
 20
20.19440403291128
 10
51.21656328431254
 20
20.21489405670889
 10
51.23954209026351
 20
20.25514722214075
 10
51.25127282347648
 20
20.31361662262475
 10
51.25130467844474
 20
20.38805531189087
 10
51.23963643098409
 20
20.47560265286438
  0
LINE
  5
B0
330
2
100
AcDbEntity
  8
0
  6
Continuous
 62
     7
370
    15
100
AcDbLine
 10
50.44991751809471
 20
20.76256294271695
 30
0.0
 11
51.03549453630353
 21
20.25543836906672
 31
0.0
  0
LWPOLYLINE
  5
B1
330
2
100
AcDbEntity
  8
0
  6
Continuous
 62
     7
370
    15
100
AcDbPolyline
 90
        9
 70
   128
 43
0.0
 10
49.86102081174704
 20
21.57705260155444
 10
49.89318769438387
 20
21.59424954182759
 10
49.92630438210108
 20
21.60457095345646
 10
49.95880087948285
 20
21.60752751912605
 10
49.98913659298295
 20
21.60297907395034
 10
50.0158733676028
 20
21.59114125062286
 10
50.03774366665471
 20
21.57257525646105
 10
50.05371066332464
 20
21.54816126785363
 10
50.0630173944744
 20
21.51905670284009
  0
LINE
  5
B2
330
2
100
AcDbEntity
  8
0
  6
Continuous
 62
     7
370
    15
100
AcDbLine
 10
48.65674260548394
 20
20.78948667057625
 30
0.0
 11
49.86102081174704
 21
21.57705260155444
 31
0.0
  0
ARC
  5
B3
330
2
100
AcDbEntity
  8
0
  6
Continuous
 62
     7
370
    15
100
AcDbCircle
 10
51.12829694552511
 20
20.48739662940261
 30
0.0
 40
0.1072965376963647
100
AcDbArc
 50
9.338634848297333
 51
48.50877017650446
  0
ARC
  5
B4
330
2
100
AcDbEntity
  8
0
  6
Continuous
 62
     7
370
    15
100
AcDbCircle
 10
50.15185764265789
 20
18.42508389859574
 30
0.0
 40
2.797457674839167
100
AcDbArc
 50
122.3069534489003
 51
144.9765156397057
  0
ARC
  5
B5
330
2
100
AcDbEntity
  8
0
  6
Continuous
 62
     7
370
    15
100
AcDbCircle
 10
46.8002454544885
 20
16.12209472027586
 30
0.0
 40
2.962970197865801
100
AcDbArc
 50
111.6424862234975
 51
145.9342958115957
  0
LINE
  5
B6
330
2
100
AcDbEntity
  8
0
  6
Continuous
 62
     7
370
    15
100
AcDbLine
 10
45.70746085001338
 20
18.87618516935595
 30
0.0
 11
46.86951855926395
 21
19.314681934806
 31
0.0
  0
ARC
  5
B7
330
2
100
AcDbEntity
  8
0
  6
Continuous
 62
     7
370
    15
100
AcDbCircle
 10
46.79828067518065
 20
19.50172850209799
 30
0.0
 40
0.2001530775681099
100
AcDbArc
 50
290.8496560102064
 51
303.338907418104
  0
LINE
  5
B8
330
2
100
AcDbEntity
  8
0
  6
Continuous
 62
     7
370
    15
100
AcDbLine
 10
46.90828285650241
 20
19.33451374626065
 30
0.0
 11
47.64599459155419
 21
19.8169576088186
 31
0.0
  0
ARC
  5
B9
330
2
100
AcDbEntity
  8
0
  6
Continuous
 62
     7
370
    15
100
AcDbCircle
 10
47.2722158322606
 20
20.40805830181966
 30
0.0
 40
0.6993644187092201
100
AcDbArc
 50
302.3069534489002
 51
324.9765156397057
  0
LINE
  5
BA
330
2
100
AcDbEntity
  8
0
  6
Continuous
 62
     7
370
    15
100
AcDbLine
 10
47.84493715885218
 20
20.00668457042445
 30
0.0
 11
47.86097233636223
 21
20.03057882412952
 31
0.0
  0
LWPOLYLINE
  5
BB
330
2
100
AcDbEntity
  8
0
  6
Continuous
 62
     7
370
    15
100
AcDbPolyline
 90
       17
 70
   128
 43
0.0
 10
30.3484271467878
 20
20.39487947664714
 10
30.38632028299367
 20
20.45525274359329
 10
30.38218549352246
 20
20.53014717564758
 10
30.33665226256676
 20
20.60816077440688
 10
30.2566526117746
 20
20.6774166766628
 10
30.15436576280831
 20
20.7273712991182
 10
30.04536396116737
 20
20.750419503324
 10
29.94624174308251
 20
20.74305240914725
 10
29.87208956765676
 20
20.70639158986512
 10
29.83419643145112
 20
20.64601832291885
 10
29.83833122094552
 20
20.57112389086455
 10
29.88386445190144
 20
20.49311029210526
 10
29.96386410267019
 20
20.42385438984934
 10
30.06615095163625
 20
20.37389976739405
 10
30.17515275327742
 20
20.35085156318814
 10
30.2742749713857
 20
20.35821865736489
 10
30.3484271467878
 20
20.39487947664714
  0
LWPOLYLINE
  5
BC
330
2
100
AcDbEntity
  8
0
  6
Continuous
 62
     7
370
    15
100
AcDbPolyline
 90
       17
 70
   128
 43
0.0
 10
30.51012832901324
 20
19.66607773920918
 10
30.54802146521888
 20
19.72645100615546
 10
30.54388667572425
 20
19.80134543820964
 10
30.49835344476833
 20
19.87935903696905
 10
30.41835379399981
 20
19.94861493922497
 10
30.31606694503353
 20
19.99856956168025
 10
30.20706514339258
 20
20.02161776590958
 10
30.10794292528431
 20
20.01425067170942
 10
30.03379074988198
 20
19.97758985245059
 10
29.99589761367634
 20
19.91721658548101
 10
30.00003240314732
 20
19.84232215342672
 10
30.04556563410324
 20
19.76430855466742
 10
30.1255652848954
 20
19.6950526524115
 10
30.22785213386169
 20
19.64509802995621
 10
30.33685393547921
 20
19.62204982575031
 10
30.43597615358749
 20
19.62941691992705
 10
30.51012832901324
 20
19.66607773920918
  0
ARC
  5
BD
330
2
100
AcDbEntity
  8
0
  6
Continuous
 62
     7
370
    15
100
AcDbCircle
 10
27.89818212992486
 20
21.76165233778215
 30
0.0
 40
1.428428739311488
100
AcDbArc
 50
315.6185138918015
 51
349.0309109472011
  0
LWPOLYLINE
  5
BE
330
2
100
AcDbEntity
  8
0
  6
Continuous
 62
     7
370
    15
100
AcDbPolyline
 90
        9
 70
   128
 43
0.0
 10
28.12935941349974
 20
20.47560265286438
 10
28.1176911660391
 20
20.38805531189087
 10
28.11772302100735
 20
20.31361662262475
 10
28.12945375422032
 20
20.25514722214075
 10
28.15243256017129
 20
20.21489405670889
 10
28.18577637623207
 20
20.19440403291128
 10
28.22820381827091
 20
20.19446457084712
 10
28.27808442348669
 20
20.21507334411285
 10
28.33350130818053
 20
20.25543836906672
  0
LINE
  5
BF
330
2
100
AcDbEntity
  8
0
  6
Continuous
 62
     7
370
    15
100
AcDbLine
 10
28.13482441356837
 20
20.50480755556305
 30
0.0
 11
28.12935941349974
 21
20.47560265286438
 31
0.0
  0
LINE
  5
C0
330
2
100
AcDbEntity
  8
0
  6
Continuous
 62
     7
370
    15
100
AcDbLine
 10
29.30597844998601
 20
21.51905670284009
 30
0.0
 11
29.30051344991739
 21
21.48985180014154
 31
0.0
  0
LINE
  5
C1
330
2
100
AcDbEntity
  8
0
  6
Continuous
 62
     7
370
    15
100
AcDbLine
 10
28.33350130818053
 20
20.25543836906672
 30
0.0
 11
28.91907832638935
 21
20.76256294271695
 31
0.0
  0
LWPOLYLINE
  5
C2
330
2
100
AcDbEntity
  8
0
  6
Continuous
 62
     7
370
    15
100
AcDbPolyline
 90
        9
 70
   128
 43
0.0
 10
29.5079750327368
 20
21.57705260155444
 10
29.47580815009997
 20
21.59424954182759
 10
29.44269146238298
 20
21.60457095345646
 10
29.41019496500121
 20
21.60752751912605
 10
29.37985925147768
 20
21.60297907395034
 10
29.35312247688126
 20
21.59114125062286
 10
29.33125217782913
 20
21.57257525646105
 10
29.31528518115943
 20
21.54816126785363
 10
29.30597844998601
 20
21.51905670284009
  0
LINE
  5
C3
330
2
100
AcDbEntity
  8
0
  6
Continuous
 62
     7
370
    15
100
AcDbLine
 10
30.7122532389999
 20
20.78948667057625
 30
0.0
 11
29.5079750327368
 21
21.57705260155444
 31
0.0
  0
ARC
  5
C4
330
2
100
AcDbEntity
  8
0
  6
Continuous
 62
     7
370
    15
100
AcDbCircle
 10
28.24069889895873
 20
20.48739662940261
 30
0.0
 40
0.1072965376965659
100
AcDbArc
 50
131.4912298234955
 51
170.6613651515892
  0
ARC
  5
C5
330
2
100
AcDbEntity
  8
0
  6
Continuous
 62
     7
370
    15
100
AcDbCircle
 10
29.21713820182595
 20
18.42508389859574
 30
0.0
 40
2.797457674839869
100
AcDbArc
 50
35.02348436040127
 51
57.69304655109973
  0
ARC
  5
C6
330
2
100
AcDbEntity
  8
0
  6
Continuous
 62
     7
370
    15
100
AcDbCircle
 10
32.57071516930341
 20
19.50172850209799
 30
0.0
 40
0.2001530775652752
100
AcDbArc
 50
236.6610925818021
 51
249.1503439897936
  0
LINE
  5
C7
330
2
100
AcDbEntity
  8
0
  6
Continuous
 62
     7
370
    15
100
AcDbLine
 10
32.49947728521988
 20
19.314681934806
 30
0.0
 11
33.66153499447046
 21
18.87618516935595
 31
0.0
  0
ARC
  5
C8
330
2
100
AcDbEntity
  8
0
  6
Continuous
 62
     7
370
    15
100
AcDbCircle
 10
32.56875038999533
 20
16.12209472027586
 30
0.0
 40
2.962970197865915
100
AcDbArc
 50
34.0657041884043
 51
68.35751377650244
  0
LINE
  5
C9
330
2
100
AcDbEntity
  8
0
  6
Continuous
 62
     7
370
    15
100
AcDbLine
 10
31.72300125290622
 20
19.8169576088186
 30
0.0
 11
32.46071298798142
 21
19.33451374626065
 31
0.0
  0
ARC
  5
CA
330
2
100
AcDbEntity
  8
0
  6
Continuous
 62
     7
370
    15
100
AcDbCircle
 10
32.09678001219982
 20
20.40805830181966
 30
0.0
 40
0.6993644187098981
100
AcDbArc
 50
215.0234843604009
 51
237.6930465510997
  0
LINE
  5
CB
330
2
100
AcDbEntity
  8
0
  6
Continuous
 62
     7
370
    15
100
AcDbLine
 10
31.5080235081216
 20
20.03057882412952
 30
0.0
 11
31.52405868563164
 21
20.00668457042445
 31
0.0
  0
LINE
  5
CC
330
2
100
AcDbEntity
  8
0
  6
Continuous
 62
     7
370
    15
100
AcDbLine
 10
30.52752885886253
 20
19.70868839681975
 30
0.0
 11
30.54951891572273
 21
19.73334755478959
 31
0.0
  0
LWPOLYLINE
  5
CD
330
2
100
AcDbEntity
  8
0
  6
Continuous
 62
     7
370
    15
100
AcDbPolyline
 90
       17
 70
   128
 43
0.0
 10
40.09440183498805
 20
11.83340781473657
 10
39.98235652335689
 20
11.82956341405656
 10
39.88736909474301
 20
11.81861548713459
 10
39.82390052408118
 20
11.80223075661433
 10
39.80161332588364
 20
11.78290364921326
 10
39.82390052408118
 20
11.76357654178878
 10
39.88736909474301
 20
11.74719181129194
 10
39.98235652335689
 20
11.73624388436997
 10
40.09440183498805
 20
11.73239948366654
 10
40.20644714661943
 20
11.73624388436997
 10
40.30143457523331
 20
11.74719181129194
 10
40.36490314589491
 20
11.76357654178878
 10
40.38719034409246
 20
11.78290364921326
 10
40.36490314589491
 20
11.80223075661433
 10
40.30143457523331
 20
11.81861548713459
 10
40.20644714661943
 20
11.82956341405656
 10
40.09440183498805
 20
11.83340781473657
  0
LWPOLYLINE
  5
CE
330
2
100
AcDbEntity
  8
0
  6
Continuous
 62
     7
370
    15
100
AcDbPolyline
 90
       17
 70
   128
 43
0.0
 10
40.09440183498805
 20
12.0758278092951
 10
39.98235652335689
 20
12.07198340861509
 10
39.88736909474301
 20
12.06103548169312
 10
39.82390052408118
 20
12.04465075117286
 10
39.80161332588364
 20
12.0253236437718
 10
39.82390052408118
 20
12.00599653634731
 10
39.88736909474301
 20
11.98961180585047
 10
39.98235652335689
 20
11.97866387892861
 10
40.09440183498805
 20
11.97481947822518
 10
40.20644714661943
 20
11.97866387892861
 10
40.30143457523331
 20
11.98961180585047
 10
40.36490314589491
 20
12.00599653634731
 10
40.38719034409246
 20
12.0253236437718
 10
40.36490314589491
 20
12.04465075117286
 10
40.30143457523331
 20
12.06103548169312
 10
40.20644714661943
 20
12.07198340861509
 10
40.09440183498805
 20
12.0758278092951
  0
LWPOLYLINE
  5
CF
330
2
100
AcDbEntity
  8
0
  6
Continuous
 62
     7
370
    15
100
AcDbPolyline
 90
        9
 70
   128
 43
0.0
 10
49.86102081174704
 20
21.57705260155444
 10
49.89318769438387
 20
21.59424954182759
 10
49.92630438210108
 20
21.60457095345646
 10
49.95880087948285
 20
21.60752751912605
 10
49.98913659298295
 20
21.60297907395034
 10
50.0158733676028
 20
21.59114125062286
 10
50.03774366665471
 20
21.57257525646105
 10
50.05371066332464
 20
21.54816126785363
 10
50.0630173944744
 20
21.51905670284009
  0
LINE
  5
D0
330
2
100
AcDbEntity
  8
0
  6
Continuous
 62
     7
370
    15
100
AcDbLine
 10
38.84787308142245
 20
28.14480657428737
 30
0.0
 11
38.84787308142245
 21
21.49905312289286
 31
0.0
  0
LINE
  5
D1
330
2
100
AcDbEntity
  8
0
  6
Continuous
 62
     7
370
    15
100
AcDbLine
 10
39.50349403651444
 20
21.52968284223766
 30
0.0
 11
39.50349403651444
 21
27.92836838285189
 31
0.0
  0
ARC
  5
D2
330
2
100
AcDbEntity
  8
0
  6
Continuous
 62
     7
370
    15
100
AcDbCircle
 10
38.91419377953048
 20
27.95438471632758
 30
0.0
 40
0.5898742599123475
100
AcDbArc
 50
357.4721565206041
 51
107.1778750530078
  0
LINE
  5
D3
330
2
100
AcDbEntity
  8
0
  6
Continuous
 62
     7
370
    15
100
AcDbLine
 10
38.58862983963854
 20
28.67119464167127
 30
0.0
 11
38.60591571835653
 21
28.6568574991303
 31
0.0
  0
ARC
  5
D4
330
2
100
AcDbEntity
  8
0
  6
Continuous
 62
     7
370
    15
100
AcDbCircle
 10
38.23881197962464
 20
28.16872492638402
 30
0.0
 40
0.6095305679684434
100
AcDbArc
 50
357.7511011825993
 51
47.59820542880212
  0
LINE
  5
D5
330
2
100
AcDbEntity
  8
0
  6
Continuous
 62
     7
370
    15
100
AcDbLine
 10
43.87065941330911
 20
26.07869638410637
 30
0.0
 11
43.87065941330911
 21
19.86880411554216
 31
0.0
  0
LINE
  5
D6
330
2
100
AcDbEntity
  8
0
  6
Continuous
 62
     7
370
    15
100
AcDbLine
 10
44.77984265523787
 20
19.47930137913033
 30
0.0
 11
44.77984265523787
 21
25.9354553199471
 31
0.0
  0
ARC
  5
D7
330
2
100
AcDbEntity
  8
0
  6
Continuous
 62
     7
370
    15
100
AcDbCircle
 10
44.18536971998946
 20
25.95865692724908
 30
0.0
 40
0.5949255292314378
100
AcDbArc
 50
357.7649448217018
 51
111.3846782332898
  0
LINE
  5
D8
330
2
100
AcDbEntity
  8
0
  6
Continuous
 62
     7
370
    15
100
AcDbLine
 10
43.9684433373975
 20
26.51262383048061
 30
0.0
 11
43.76195251731906
 21
26.45301506520321
 31
0.0
  0
LINE
  5
D9
330
2
100
AcDbEntity
  8
0
  6
Continuous
 62
     7
370
    15
100
AcDbLine
 10
43.60788429832609
 20
26.60375846843578
 30
0.0
 11
43.62870205024319
 21
26.5907473089494
 31
0.0
  0
ARC
  5
DA
330
2
100
AcDbEntity
  8
0
  6
Continuous
 62
     7
370
    15
100
AcDbCircle
 10
43.2615983115113
 20
26.10261473622643
 30
0.0
 40
0.6095305679687629
100
AcDbArc
 50
357.7511011825993
 51
47.5982054287001
  0
LINE
  5
DB
330
2
100
AcDbEntity
  8
0
  6
Continuous
 62
     7
370
    15
100
AcDbLine
 10
42.90599619696968
 20
27.55825395558111
 30
0.0
 11
42.90599619696968
 21
21.01525375295716
 31
0.0
  0
LINE
  5
DC
330
2
100
AcDbEntity
  8
0
  6
Continuous
 62
     7
370
    15
100
AcDbLine
 10
42.64322108198848
 20
28.08331603991019
 30
0.0
 11
42.66403883390376
 21
28.07030488042403
 31
0.0
  0
ARC
  5
DD
330
2
100
AcDbEntity
  8
0
  6
Continuous
 62
     7
370
    15
100
AcDbCircle
 10
42.2969350951721
 20
27.58217230770106
 30
0.0
 40
0.60953056796823
100
AcDbArc
 50
357.7511011825993
 51
47.59820542880212
  0
LINE
  5
DE
330
2
100
AcDbEntity
  8
0
  6
Continuous
 62
     7
370
    15
100
AcDbLine
 10
41.63170844590945
 20
21.35648198134322
 30
0.0
 11
41.63170844590945
 21
27.6637150362684
 31
0.0
  0
LINE
  5
DF
330
2
100
AcDbEntity
  8
0
  6
Continuous
 62
     7
370
    15
100
AcDbLine
 10
40.06326325824693
 20
27.61664356953327
 30
0.0
 11
40.06326325824693
 21
21.52383121868957
 31
0.0
  0
ARC
  5
E0
330
2
100
AcDbEntity
  8
0
  6
Continuous
 62
     7
370
    15
100
AcDbCircle
 10
41.03723551063763
 20
27.6869166435938
 30
0.0
 40
0.5949255292314342
100
AcDbArc
 50
357.7649448217018
 51
111.3846782332898
  0
LINE
  5
E1
330
2
100
AcDbEntity
  8
0
  6
Continuous
 62
     7
370
    15
100
AcDbLine
 10
40.82030912806908
 20
28.24088354682522
 30
0.0
 11
39.95455636225711
 21
27.99096225060657
 31
0.0
  0
LINE
  5
E2
330
2
100
AcDbEntity
  8
0
  6
Continuous
 62
     7
370
    15
100
AcDbLine
 10
34.63338932965303
 20
25.64347432344812
 30
0.0
 11
34.63338932965303
 21
19.46529920846808
 31
0.0
  0
ARC
  5
E3
330
2
100
AcDbEntity
  8
0
  6
Continuous
 62
     7
370
    15
100
AcDbCircle
 10
35.7862950159838
 20
25.58646441123608
 30
0.0
 40
1.154314364307622
100
AcDbArc
 50
107.2086421098974
 51
177.1690928843084
  0
LINE
  5
E4
330
2
100
AcDbEntity
  8
0
  6
Continuous
 62
     7
370
    15
100
AcDbLine
 10
35.90034696492876
 20
26.82061280715425
 30
0.0
 11
35.44478864746998
 21
26.68910444857193
 31
0.0
  0
LINE
  5
E5
330
2
100
AcDbEntity
  8
0
  6
Continuous
 62
     7
370
    15
100
AcDbLine
 10
39.80402001646325
 20
28.14303163691716
 30
0.0
 11
39.82130589515782
 21
28.12869449437631
 31
0.0
  0
ARC
  5
E6
330
2
100
AcDbEntity
  8
0
  6
Continuous
 62
     7
370
    15
100
AcDbCircle
 10
39.45420215644936
 20
27.64056192162991
 30
0.0
 40
0.60953056796871
100
AcDbArc
 50
357.7511011825993
 51
47.5982054287001
  0
LINE
  5
E7
330
2
100
AcDbEntity
  8
0
  6
Continuous
 62
     7
370
    15
100
AcDbLine
 10
43.21310626748799
 20
26.76789306889134
 30
0.0
 11
43.21310626748799
 21
20.90128314982667
 31
0.0
  0
LINE
  5
E8
330
2
100
AcDbEntity
  8
0
  6
Continuous
 62
     7
370
    15
100
AcDbLine
 10
42.95386302572774
 20
27.29428113627523
 30
0.0
 11
42.97114890442208
 21
27.27994399373438
 31
0.0
  0
ARC
  5
E9
330
2
100
AcDbEntity
  8
0
  6
Continuous
 62
     7
370
    15
100
AcDbCircle
 10
42.60404516569042
 20
26.79181142098798
 30
0.0
 40
0.6095305679686649
100
AcDbArc
 50
357.7511011825993
 51
47.5982054287001
  0
ARC
  5
EA
330
2
100
AcDbEntity
  8
0
  6
Continuous
 62
     7
370
    15
100
AcDbCircle
 10
35.64519125121023
 20
18.42494069386203
 30
0.0
 40
1.525456756341122
100
AcDbArc
 50
154.1022431079026
 51
171.9092966937026
  0
ARC
  5
EB
330
2
100
AcDbEntity
  8
0
  6
Continuous
 62
     7
370
    15
100
AcDbCircle
 10
34.4445557451927
 20
18.96246771568826
 30
0.0
 40
0.2145465539516351
100
AcDbArc
 50
91.71834299109475
 51
143.125574966199
  0
LWPOLYLINE
  5
EC
330
2
100
AcDbEntity
  8
0
  6
Continuous
 62
     7
370
    15
100
AcDbPolyline
 90
        6
 70
   128
 43
0.0
 10
35.86235200950478
 20
20.46769019565591
 10
35.82745958444889
 20
20.44685356263745
 10
35.80311130219752
 20
20.42255693952211
 10
35.79061819000867
 20
20.39610857200694
 10
35.79065293646249
 20
20.36893256595033
 10
35.79649720595876
 20
20.35330496763561
  0
LWPOLYLINE
  5
ED
330
2
100
AcDbEntity
  8
0
  6
Continuous
 62
     7
370
    15
100
AcDbPolyline
 90
       18
 70
   128
 43
0.0
 10
35.86235200950478
 20
20.46769019565591
 10
36.23723094710545
 20
20.62974411195637
 10
36.63946590020669
 20
20.77447416023006
 10
37.06586490668178
 20
20.90073182562083
 10
37.51304424896489
 20
21.00751518203253
 10
37.97745530575458
 20
21.09397684307044
 10
38.45541271234333
 20
21.15943068650256
 10
38.94312360606637
 20
21.20335729900217
 10
39.43671772479684
 20
21.22540809804741
 10
39.93227811968722
 20
21.22540809804741
 10
40.4258722384177
 20
21.20335729900217
 10
40.9135831321405
 20
21.15943068650256
 10
41.39154053872926
 20
21.09397684307044
 10
41.85595159551894
 20
21.00751518203253
 10
42.30313093780205
 20
20.90073182562083
 10
42.72952994427714
 20
20.77447416023006
 10
43.13176489737839
 20
20.62974411195637
 10
43.50664383497906
 20
20.46769019565591
  0
LWPOLYLINE
  5
EE
330
2
100
AcDbEntity
  8
0
  6
Continuous
 62
     7
370
    15
100
AcDbPolyline
 90
        6
 70
   128
 43
0.0
 10
43.57249863852508
 20
20.35330496763561
 10
43.57834290802157
 20
20.36893256595033
 10
43.57837765447539
 20
20.39610857200694
 10
43.56588454228654
 20
20.42255693952211
 10
43.54153626003494
 20
20.44685356263745
 10
43.50664383497906
 20
20.46769019565591
  0
ARC
  5
EF
330
2
100
AcDbEntity
  8
0
  6
Continuous
 62
     7
370
    15
100
AcDbCircle
 10
44.91954834492571
 20
18.95303941071529
 30
0.0
 40
0.2241646472865201
100
AcDbArc
 50
38.05200051430661
 51
87.10408152839411
  0
LWPOLYLINE
  5
F0
330
2
100
AcDbEntity
  8
0
  6
Continuous
 62
     7
370
    15
100
AcDbPolyline
 90
        3
 70
   128
 43
0.0
 10
45.0960671701141
 20
19.09120921007047
 10
45.18931331788849
 20
18.84785491025718
 10
45.23407772650716
 20
18.63963437914685
  0
LWPOLYLINE
  5
F1
330
2
100
AcDbEntity
  8
0
  6
Continuous
 62
     7
370
    15
100
AcDbPolyline
 90
       18
 70
   128
 43
0.0
 10
35.86235200950478
 20
20.77196493984605
 10
36.23723094710545
 20
20.93401885614662
 10
36.63946590020669
 20
21.07874890442008
 10
37.06586490668178
 20
21.20500656981085
 10
37.51304424896489
 20
21.31178992622267
 10
37.97745530575458
 20
21.39825158726058
 10
38.45541271234333
 20
21.4637054306927
 10
38.94312360606637
 20
21.50763204319219
 10
39.43671772479684
 20
21.52968284223766
 10
39.93227811968722
 20
21.52968284223766
 10
40.4258722384177
 20
21.50763204319219
 10
40.9135831321405
 20
21.4637054306927
 10
41.39154053872926
 20
21.39825158726058
 10
41.85595159551894
 20
21.31178992622267
 10
42.30313093780205
 20
21.20500656981085
 10
42.72952994427714
 20
21.07874890442008
 10
43.13176489737839
 20
20.93401885614662
 10
43.50664383497906
 20
20.77196493984605
  0
ARC
  5
F2
330
2
100
AcDbEntity
  8
0
  6
Continuous
 62
     7
370
    15
100
AcDbCircle
 10
43.47750766836497
 20
20.67275191228077
 30
0.0
 40
0.1034028096432867
100
AcDbArc
 50
7.847202258501011
 51
73.63392158780627
  0
ARC
  5
F3
330
2
100
AcDbEntity
  8
0
  6
Continuous
 62
     7
370
    15
100
AcDbCircle
 10
35.89148817611885
 20
20.67275191228077
 30
0.0
 40
0.1034028096432537
100
AcDbArc
 50
106.3660784120991
 51
172.152797741499
  0
LINE
  5
F4
330
2
100
AcDbEntity
  8
0
  6
Continuous
 62
     7
370
    15
100
AcDbLine
 10
44.43634168875678
 20
19.37890889450887
 30
0.0
 11
44.43634168875678
 21
19.30876578369282
 31
0.0
  0
LINE
  5
F5
330
2
100
AcDbEntity
  8
0
  6
Continuous
 62
     7
370
    15
100
AcDbLine
 10
44.43634168875678
 20
19.37890889450887
 30
0.0
 11
43.72901986708962
 21
19.99146756072605
 31
0.0
  0
LINE
  5
F6
330
2
100
AcDbEntity
  8
0
  6
Continuous
 62
     7
370
    15
100
AcDbLine
 10
34.93265415572705
 20
19.37890889450887
 30
0.0
 11
34.93265415572705
 21
19.30876578369282
 31
0.0
  0
LINE
  5
F7
330
2
100
AcDbEntity
  8
0
  6
Continuous
 62
     7
370
    15
100
AcDbLine
 10
35.63990983490067
 20
19.99141027965231
 30
0.0
 11
34.93265415572705
 21
19.37890889450887
 31
0.0
  0
ARC
  5
F8
330
2
100
AcDbEntity
  8
0
  6
Continuous
 62
     7
370
    15
100
AcDbCircle
 10
44.86679436624126
 20
19.1689197410783
 30
0.0
 40
0.3223311360793635
100
AcDbArc
 50
44.65955158619126
 51
111.0352280555038
  0
ARC
  5
F9
330
2
100
AcDbEntity
  8
0
  6
Continuous
 62
     7
370
    15
100
AcDbCircle
 10
34.5022014782428
 20
19.1689197410783
 30
0.0
 40
0.3223311360793544
100
AcDbArc
 50
68.96477194449613
 51
135.3404484138087
  0
LINE
  5
FA
330
2
100
AcDbEntity
  8
0
  6
Continuous
 62
     7
370
    15
100
AcDbLine
 10
34.93265415572705
 20
19.37890889450887
 30
0.0
 11
34.61789962528655
 21
19.46977070095352
 31
0.0
  0
LINE
  5
FB
330
2
100
AcDbEntity
  8
0
  6
Continuous
 62
     7
370
    15
100
AcDbLine
 10
44.75109621919727
 20
19.46977070095352
 30
0.0
 11
44.43634168875678
 21
19.37890889450887
 31
0.0
  0
ARC
  5
FC
330
2
100
AcDbEntity
  8
0
  6
Continuous
 62
     7
370
    15
100
AcDbCircle
 10
43.76345647039807
 20
18.74237839408761
 30
0.0
 40
1.484047893321228
100
AcDbArc
 50
0.3310275456968313
 51
26.10923335450156
  0
ARC
  5
FD
330
2
100
AcDbEntity
  8
0
  6
Continuous
 62
     7
370
    15
100
AcDbCircle
 10
35.60061893239572
 20
18.7435342972858
 30
0.0
 40
1.479121285241452
100
AcDbArc
 50
153.8470930918936
 51
179.7126460079025
  0
LWPOLYLINE
  5
FE
330
2
100
AcDbEntity
  8
0
  6
Continuous
 62
     7
370
    15
100
AcDbPolyline
 90
       11
 70
   128
 43
0.0
 10
42.98120051478917
 20
17.17137903180878
 10
42.90855452370192
 20
17.00048689082814
 10
42.79155808438804
 20
16.82271294529312
 10
42.63548856075362
 20
16.65260652755012
 10
42.44230861765823
 20
16.49230682446364
 10
42.21444760493523
 20
16.34382969784826
 10
41.95477100704329
 20
16.20904233366877
 10
41.66654440787261
 20
16.08963976129166
 10
41.35339242413692
 20
15.98712353731014
 10
41.01925312370667
 20
15.90278286272371
 10
40.8437400941541
 20
15.86742114242588
  0
ARC
  5
FF
330
2
100
AcDbEntity
  8
0
  6
Continuous
 62
     7
370
    15
100
AcDbCircle
 10
39.69033653622228
 20
22.1739787943668
 30
0.0
 40
6.411162857446655
100
AcDbArc
 50
266.7067841863226
 51
280.3642563926028
  0
LWPOLYLINE
  5
100
330
2
100
AcDbEntity
  8
0
  6
Continuous
 62
     7
370
    15
100
AcDbPolyline
 90
       14
 70
   128
 43
0.0
 10
39.3220420511143
 20
15.77340316736706
 10
39.18702628510164
 20
15.78217424299362
 10
38.82061455952999
 20
15.82040027144239
 10
38.46506666848336
 20
15.87889849109933
 10
38.12485383297394
 20
15.95693325291654
 10
37.8042544268244
 20
16.05352322446424
 10
37.50730017357023
 20
16.16745373082574
 10
37.2377254452349
 20
16.29729202977182
 10
36.99892030045703
 20
16.44140532935717
 10
36.79388785249398
 20
16.59798132122489
 10
36.62520650329771
 20
16.76505097145184
 10
36.49499751875692
 20
16.94051328221121
 10
36.40489835238509
 20
17.1221617131481
 10
36.38779532969465
 20
17.17137903180878
  0
LWPOLYLINE
  5
101
330
2
100
AcDbEntity
  8
0
  6
Continuous
 62
     7
370
    15
100
AcDbPolyline
 90
       71
 70
   128
 43
0.0
 10
41.18730709367264
 20
12.78202248959724
 10
40.74384100462452
 20
12.72448929437814
 10
40.29184570794632
 20
12.68706370778591
 10
39.83496040402997
 20
12.67004705861916
 10
39.37686366467938
 20
12.67357635491839
 10
38.92124381546683
 20
12.697623180856
 10
38.47176923955363
 20
12.7419939255567
 10
38.0320588419122
 20
12.80633134185632
 10
37.60565291213652
 20
12.89011742272612
 10
37.19598462002955
 20
12.99267757189375
 10
36.80635237381466
 20
13.11318603532709
 10
36.43989326323345
 20
13.25067254975852
 10
36.09955780157225
 20
13.40403015463414
 10
35.78808616985543
 20
13.57202410464242
 10
35.50798615450663
 20
13.75330181131335
 10
35.26151295618229
 20
13.94640373313405
 10
35.05065103210836
 20
14.14977512695611
 10
34.87709811853938
 20
14.36177856592166
 10
34.74225156149441
 20
14.58070712298092
 10
34.64719706613596
 20
14.80479811412647
 10
34.59269995541581
 20
15.03224729046223
 10
34.57919900795605
 20
15.2612233649628
 10
34.60680292551979
 20
15.48988275688225
 10
34.67528945754907
 20
15.71638443528775
 10
34.78410719076055
 20
15.93890474181705
 10
34.93237998877794
 20
16.15565207381246
 10
35.11891404618109
 20
16.36488130918997
 10
35.34220750044733
 20
16.56490785719609
 10
35.60046252395432
 20
16.7541212216604
 10
35.8915997991146
 20
16.93099796784804
 10
36.21327525976585
 20
17.09411398816792
 10
36.56289896427097
 20
17.24215596835506
 10
36.93765594810293
 20
17.37393196144694
 10
37.3345288883927
 20
17.48838098459328
 10
37.75032239757547
 20
17.58458156157144
 10
38.18168875081119
 20
17.66175914190637
 10
38.6251548398593
 20
17.71929233712547
 10
39.07715013653751
 20
17.7567179237177
 10
39.53403544045386
 20
17.77373457288445
 10
39.99213217980468
 20
17.77020527658521
 10
40.44775202901724
 20
17.7461584506475
 10
40.89722660493021
 20
17.7017877059468
 10
41.33693700257163
 20
17.6374502896474
 10
41.76334293234731
 20
17.55366420877749
 10
42.17301122445428
 20
17.45110405960986
 10
42.5626434706694
 20
17.33059559617652
 10
42.92910258125039
 20
17.19310908174509
 10
43.26943804291182
 20
17.03975147686947
 10
43.5809096746284
 20
16.87175752686119
 10
43.86100968997744
 20
16.69047982019037
 10
44.10748288830155
 20
16.49737789836956
 10
44.31834481237546
 20
16.2940065045475
 10
44.49189772594445
 20
16.08200306558183
 10
44.62674428298941
 20
15.86307450852268
 10
44.7217987783481
 20
15.63898351737703
 10
44.77629588906802
 20
15.41153434104149
 10
44.78979683650436
 20
15.18255826654081
 10
44.76219291896427
 20
14.95389887462124
 10
44.69370638693476
 20
14.72739719621586
 10
44.58488865372328
 20
14.50487688968656
 10
44.43661585570589
 20
14.28812955769115
 10
44.25008179830274
 20
14.07890032231376
 10
44.0267883440365
 20
13.87887377430752
 10
43.76853332052951
 20
13.68966040984332
 10
43.47739604536923
 20
13.51278366365557
 10
43.15572058471798
 20
13.3496676433358
 10
42.80609688021286
 20
13.20162566314855
 10
42.4313398963809
 20
13.06984967008009
 10
42.03446695609136
 20
12.95540064691033
 10
41.61867344690835
 20
12.85920006993217
 10
41.18730709367264
 20
12.78202248959724
  0
LWPOLYLINE
  5
102
330
2
100
AcDbEntity
  8
0
  6
Continuous
 62
     7
370
    15
100
AcDbPolyline
 90
       80
 70
   128
 43
0.0
 10
42.95758146211551
 20
12.518644326002
 10
43.39764939296379
 20
12.65762838601154
 10
43.81424158467234
 20
12.81365483033755
 10
44.20472420728538
 20
12.98573720954391
 10
44.56662850395514
 20
13.17278756343467
 10
44.89766639919184
 20
13.37362329945233
 10
45.195744964818
 20
13.58697466939588
 10
45.45897965218273
 20
13.81149279721296
 10
45.68570620684954
 20
14.04575820701552
 10
45.87449119050188
 20
14.28828979744583
 10
46.02414104373247
 20
14.53755420573282
 10
46.13370963197485
 20
14.79197550198921
 10
46.2025042273367
 20
15.04994515289832
 10
46.23008988822493
 20
15.30983219124323
 10
46.21629220919134
 20
15.56999352751904
 10
46.16119842366765
 20
15.82878433797623
 10
46.0651568522353
 20
16.08456846378897
 10
45.92877470069129
 20
16.33572875534332
 10
45.75291422086547
 20
16.58067729645904
 10
45.5386872593433
 20
16.81786544352155
 10
45.28744822796443
 20
17.04579361677531
 10
45.00078554076663
 20
17.26302078086212
 10
44.68051157155104
 20
17.46817355572057
 10
44.32865119547478
 20
17.65995489949819
 10
43.94742898714139
 20
17.83715230873849
 10
43.53925515605055
 20
17.99864548437995
 10
43.10671030861749
 20
18.14341341459124
 10
42.65252913263885
 20
18.27054082989127
 10
42.17958310771064
 20
18.3792239898446
 10
41.69086235091026
 20
18.46877576448832
 10
41.18945671219353
 20
18.53862997870408
 10
40.67853623945097
 20
18.58834499163981
 10
40.16133113643149
 20
18.61760648897529
 10
39.64111134029918
 20
18.62622947011277
 10
39.12116584809382
 20
18.61415941780819
 10
38.60478192265828
 20
18.58147264277238
 10
38.0952243094066
 20
18.52837580134201
 10
37.59571459562721
 20
18.45520458887063
 10
37.10941084256547
 20
18.3624216172924
 10
36.63938761912323
 20
18.25061349042335
 10
36.18861656344166
 20
18.12048709524356
 10
35.75994759529454
 20
17.97286513275094
 10
35.35609089790796
 20
17.80868091649017
 10
34.97959978334302
 20
17.6289724719519
 10
34.63285454966103
 20
17.43487597377611
 10
34.31804743185103
 20
17.22761856250281
 10
34.03716874187831
 20
17.00851058626131
 10
33.79199428526613
 20
16.77893731619178
 10
33.58407413385135
 20
16.54035018841341
 10
33.41472282577774
 20
16.29425762758876
 10
33.28501105456599
 20
16.04221551012165
 10
33.19575889977296
 20
15.78581732742441
 10
33.14753064224533
 20
15.5266841113696
 10
33.14063119659773
 20
15.26645418554426
 10
33.17510418330539
 20
15.00677280737602
 10
33.2507316530855
 20
14.74928176610774
 10
33.36703546468766
 20
14.49560900302231
 10
33.52328030797344
 20
14.24735831901375
 10
33.71847835276253
 20
14.00609923482886
 10
33.95139549415399
 20
13.7733570680665
 10
34.22055915498845
 20
13.55060328963759
 10
34.52426759591253
 20
13.33924622068002
 10
34.86060067442145
 20
13.14062212860187
 10
35.22743198447779
 20
12.95598677889165
 10
35.6224423004478
 20
12.78650749565429
 10
36.04313423992562
 20
12.63325578149079
 10
36.48684805299808
 20
12.49720054307374
 10
36.95077843809599
 20
12.37920196545065
 10
37.43199227795094
 20
12.28000607360218
 10
37.92744718374138
 20
12.20024001592401
 10
38.43401073001064
 20
12.14040809905032
 10
38.94848025892725
 20
12.10088859969153
 10
39.46760312848528
 20
12.08193137281046
 10
39.98809727677303
 20
12.08365627210912
 10
40.50667197217785
 20
12.10605239222298
 10
41.02004861853811
 20
12.14897813765412
 10
41.52498148337531
 20
12.21216211804903
 10
42.01827821857387
 20
12.29520486391505
 10
42.49682004332385
 20
12.39758135226168
 10
42.95758146211551
 20
12.518644326002
  0
LWPOLYLINE
  5
103
330
2
100
AcDbEntity
  8
0
  6
Continuous
 62
     7
370
    15
100
AcDbPolyline
 90
       43
 70
   128
 43
0.0
 10
46.23458847945812
 20
15.3092884868231
 10
46.24238433216715
 20
15.43146059864409
 10
46.22856073727507
 20
15.69211059032193
 10
46.17336347026707
 20
15.95138748196109
 10
46.07714150602532
 20
16.2076520415809
 10
45.94050319081657
 20
16.45928408208556
 10
45.76431239605949
 20
16.70469270474018
 10
45.54968305667125
 20
16.94232635718197
 10
45.29797212844869
 20
17.17068264298291
 10
45.01077100892143
 20
17.38831782015427
 10
44.68989547603678
 20
17.59385592905073
 10
44.33737420822786
 20
17.78599749156183
 10
43.95543595842468
 20
17.96352772687498
 10
43.54649546326959
 20
18.12532423166954
 10
43.11313817620953
 20
18.27036407634932
 10
42.65810392151206
 20
18.39773027234321
 10
42.18426957231213
 20
18.50661756950444
 10
41.69463086186261
 20
18.59633754732874
 10
41.1922834437737
 20
18.66632296719604
 10
40.68040332015243
 20
18.71613135877282
 10
40.16222676195866
 20
18.74544781736006
 10
39.64102984821557
 20
18.75408699485501
 10
39.12010775363751
 20
18.7419942716084
 10
38.60275391543746
 20
18.70924610172665
 10
38.0922392111222
 20
18.65604952964372
 10
37.5917912790278
 20
18.58274088126222
 10
37.10457411213179
 20
18.48978363741946
 10
36.63366805422584
 20
18.37776550377611
 10
36.18205032503056
 20
18.24739469500286
 10
35.75257619722061
 20
18.09949545736504
 10
35.34796094451213
 20
17.93500285743789
 10
34.97076267484295
 20
17.754956870402
 10
34.6233661570609
 20
17.56049580497449
 10
34.30796774383884
 20
17.35284910659663
 10
34.02656148551273
 20
17.13332958455476
 10
33.78092652300575
 20
16.90332511198858
 10
33.5726158396667
 20
16.66428985115954
 10
33.40294644269011
 20
16.41773506000925
 10
33.27299103665564
 20
16.16521953727556
 10
33.18357124146837
 20
15.90833976741896
 10
33.13525239786964
 20
15.64871982700777
 10
33.1283399931217
 20
15.38800111695332
 10
33.13440736502571
 20
15.3092884868231
  0
SPLINE
  5
104
330
2
100
AcDbEntity
  8
0
  6
Continuous
 62
     7
370
    15
100
AcDbSpline
210
0.0
220
0.0
230
1.0
 70
     8
 71
     3
 72
     8
 73
     4
 74
     0
 42
0.000000001
 43
0.0000000001
 40
0.0
 40
0.0
 40
0.0
 40
0.0
 40
1.0
 40
1.0
 40
1.0
 40
1.0
 10
35.69832036790376
 20
20.30193025812469
 30
0.0
 10
35.69695306940571
 20
20.30119581706208
 30
0.0
 10
35.6955964036722
 20
20.30038312468946
 30
0.0
 10
35.69424999517628
 20
20.29949486764076
 30
0.0
  0
LWPOLYLINE
  5
105
330
2
100
AcDbEntity
  8
0
  6
Continuous
 62
     7
370
    15
100
AcDbPolyline
 90
       19
 70
   128
 43
0.0
 10
35.69832036791263
 20
20.30193025811377
 10
36.0529957585477
 20
20.47581863734945
 10
36.4378844199573
 20
20.63282502638151
 10
36.84978416612125
 20
20.77164316782774
 10
37.28526808499351
 20
20.89111812635474
 10
37.74071304956851
 20
20.99025589755263
 10
38.21232986148812
 20
21.06823167773382
 10
38.69619477630727
 20
21.12439672616972
 10
39.18828214817086
 20
21.15828376242507
 10
39.68449792224192
 20
21.1696108541438
 10
40.18071369631321
 20
21.15828376242507
 10
40.67280106817657
 20
21.12439672616972
 10
41.15666598299594
 20
21.06823167773382
 10
41.62828279491555
 20
20.99025589755263
 10
42.08372775949055
 20
20.89111812635474
 10
42.51921167836281
 20
20.77164316782774
 10
42.93111142452653
 20
20.63282502638151
 10
43.31600008593613
 20
20.47581863734945
 10
43.67067547657143
 20
20.30193025811377
  0
SPLINE
  5
106
330
2
100
AcDbEntity
  8
0
  6
Continuous
 62
     7
370
    15
100
AcDbSpline
210
0.0
220
0.0
230
1.0
 70
     8
 71
     3
 72
     8
 73
     4
 74
     0
 42
0.000000001
 43
0.0000000001
 40
0.0
 40
0.0
 40
0.0
 40
0.0
 40
1.0
 40
1.0
 40
1.0
 40
1.0
 10
43.67474584930483
 20
20.29949486764076
 30
0.0
 10
43.67339882974966
 20
20.30038352781946
 30
0.0
 10
43.67203580958107
 20
20.30119955856026
 30
0.0
 10
43.67067547657711
 20
20.30193025812469
 30
0.0
  0
SPLINE
  5
107
330
2
100
AcDbEntity
  8
0
  6
Continuous
 62
     7
370
    15
100
AcDbSpline
210
0.0
220
0.0
230
1.0
 70
     8
 71
     3
 72
    14
 73
    10
 74
     0
 42
0.000000001
 43
0.0000000001
 40
0.0
 40
0.0
 40
0.0
 40
0.0
 40
0.0006000000141114
 40
0.0006000000141114
 40
0.0006000000141114
 40
0.0030000017795524
 40
0.0030000017795524
 40
0.0030000017795524
 40
0.0065523447819319
 40
0.0065523447819319
 40
0.0065523447819319
 40
0.0065523447819319
 10
43.78029093971941
 20
19.59951742947487
 30
0.0
 10
43.77711741270582
 20
19.62090005261427
 30
0.0
 10
43.7739395175015
 20
19.64228114783441
 30
0.0
 10
43.77075724517999
 20
19.66366070882884
 30
0.0
 10
43.75802815136239
 20
19.74917898325589
 30
0.0
 10
43.74522901949854
 20
19.83467275161661
 30
0.0
 10
43.73235926295729
 20
19.92014160194378
 30
0.0
 10
43.71331020687171
 20
20.04664756328475
 30
0.0
 10
43.6941064037378
 20
20.17309911581265
 30
0.0
 10
43.67474584930483
 20
20.29949486764076
 30
0.0
  0
LINE
  5
108
330
2
100
AcDbEntity
  8
0
  6
Continuous
 62
     7
370
    15
100
AcDbLine
 10
43.78214906024481
 20
19.53305911725283
 30
0.0
 11
43.78029093971508
 21
19.59951742947351
 31
0.0
  0
ARC
  5
109
330
2
100
AcDbEntity
  8
0
  6
Continuous
 62
     7
370
    15
100
AcDbCircle
 10
41.48187228127881
 20
15.4754397884177
 30
0.0
 40
4.664284283550569
100
AcDbArc
 50
58.94361143670083
 51
60.45096691849327
  0
SPLINE
  5
10A
330
2
100
AcDbEntity
  8
0
  6
Continuous
 62
     7
370
    15
100
AcDbSpline
210
0.0
220
0.0
230
1.0
 70
     8
 71
     3
 72
    12
 73
     8
 74
     0
 42
0.000000001
 43
0.0000000001
 40
0.0
 40
0.0
 40
0.0
 40
0.0
 40
0.2500000000000004
 40
0.2500000000000004
 40
0.5000000000000008
 40
0.5000000000000008
 40
1.0
 40
1.0
 40
1.0
 40
1.0
 10
43.96493576732336
 20
19.32517520955002
 30
0.0
 10
43.96457107380524
 20
19.33856618495906
 30
0.0
 10
43.96229389164978
 20
19.35288503022252
 30
0.0
 10
43.95423315348921
 20
19.38190833694216
 30
0.0
 10
43.94845566563231
 20
19.39645934247915
 30
0.0
 10
43.92729692180728
 20
19.43676868958846
 30
0.0
 10
43.90788005791728
 20
19.45922442556798
 30
0.0
 10
43.88808988231585
 20
19.47114557514737
 30
0.0
  0
LWPOLYLINE
  5
10B
330
2
100
AcDbEntity
  8
0
  6
Continuous
 62
     7
370
    15
100
AcDbPolyline
 90
        3
 70
   128
 43
0.0
 10
44.00255704039773
 20
17.94265129560642
 10
43.99801716228421
 20
18.10965479689844
 10
43.96493576731745
 20
19.32517520954184
  0
LWPOLYLINE
  5
10C
330
2
100
AcDbEntity
  8
0
  6
Continuous
 62
     7
370
    15
100
AcDbPolyline
 90
        3
 70
   128
 43
0.0
 10
35.40406007716661
 20
19.32517520954184
 10
35.37097868219962
 20
18.10965479689844
 10
35.36631148725155
 20
17.93796783182949
  0
SPLINE
  5
10D
330
2
100
AcDbEntity
  8
0
  6
Continuous
 62
     7
370
    15
100
AcDbSpline
210
0.0
220
0.0
230
1.0
 70
     8
 71
     3
 72
    12
 73
     8
 74
     0
 42
0.000000001
 43
0.0000000001
 40
0.0
 40
0.0
 40
0.0
 40
0.0
 40
0.2499999999999954
 40
0.2499999999999954
 40
0.4999999999999908
 40
0.4999999999999908
 40
1.0
 40
1.0
 40
1.0
 40
1.0
 10
35.48090596216525
 20
19.47114557514737
 30
0.0
 10
35.47100863498918
 20
19.46518365140923
 30
0.0
 10
35.46130986688559
 20
19.45677451510926
 30
0.0
 10
35.44307271687717
 20
19.4358251484864
 30
0.0
 10
35.43469763370331
 20
19.42341787262535
 30
0.0
 10
35.41349930616502
 20
19.38307116989347
 30
0.0
 10
35.40478963309579
 20
19.35196336217166
 30
0.0
 10
35.40406007715774
 20
19.32517520955002
 30
0.0
  0
ARC
  5
10E
330
2
100
AcDbEntity
  8
0
  6
Continuous
 62
     7
370
    15
100
AcDbCircle
 10
37.88151627792286
 20
15.48493053845732
 30
0.0
 40
4.653261244203618
100
AcDbArc
 50
119.7831070303824
 51
121.0575283144911
  0
ELLIPSE
  5
10F
330
2
100
AcDbEntity
  8
0
  6
Continuous
 62
     7
370
    15
100
AcDbEllipse
 10
44.6060075406267
 20
19.11214051695606
 30
0.0
 11
-0.0171387672703671
 21
0.0559998549327219
 31
0.0
210
0.0
220
0.0
230
1.0
 40
0.4241965134
 41
6.27641327682523
 42
7.084936568821442
  0
LINE
  5
110
330
2
100
AcDbEntity
  8
0
  6
Continuous
 62
     7
370
    15
100
AcDbLine
 10
44.5257099776436
 20
18.59314793203089
 30
0.0
 11
44.57701868499952
 21
19.14586139184439
 31
0.0
  0
LINE
  5
111
330
2
100
AcDbEntity
  8
0
  6
Continuous
 62
     7
370
    15
100
AcDbLine
 10
44.5257099776436
 20
18.59314793203089
 30
0.0
 11
44.53277637413248
 21
18.02939028286448
 31
0.0
  0
LINE
  5
112
330
2
100
AcDbEntity
  8
0
  6
Continuous
 62
     7
370
    15
100
AcDbLine
 10
43.74116608237545
 20
19.91080551891332
 30
0.0
 11
44.59625742864114
 21
19.1702746905014
 31
0.0
  0
LINE
  5
113
330
2
100
AcDbEntity
  8
0
  6
Continuous
 62
     7
370
    15
100
AcDbLine
 10
34.84328586684024
 20
18.59314793203089
 30
0.0
 11
34.83621947035135
 21
18.02939028286471
 31
0.0
  0
LINE
  5
114
330
2
100
AcDbEntity
  8
0
  6
Continuous
 62
     7
370
    15
100
AcDbLine
 10
34.79197715948453
 20
19.14586139184439
 30
0.0
 11
34.84328586684024
 21
18.59314793203089
 31
0.0
  0
ELLIPSE
  5
115
330
2
100
AcDbEntity
  8
0
  6
Continuous
 62
     7
370
    15
100
AcDbEllipse
 10
34.76298830385736
 20
19.11214051695606
 30
0.0
 11
0.0171387672703405
 21
0.0559998549327218
 31
0.0
210
0.0
220
0.0
230
0.9999999999999998
 40
0.4241965134
 41
5.481434045538433
 42
6.289957337534479
  0
LINE
  5
116
330
2
100
AcDbEntity
  8
0
  6
Continuous
 62
     7
370
    15
100
AcDbLine
 10
34.77273841584292
 20
19.1702746905014
 30
0.0
 11
35.62790305728481
 21
19.91086899440802
 31
0.0
  0
SPLINE
  5
117
330
2
100
AcDbEntity
  8
0
  6
Continuous
 62
     7
370
    15
100
AcDbSpline
210
0.0
220
0.0
230
1.0
 70
     8
 71
     3
 72
    10
 73
     6
 74
     0
 42
0.000000001
 43
0.0000000001
 40
0.0
 40
0.0
 40
0.0
 40
0.0
 40
0.1192843903783986
 40
0.558564775002333
 40
1.0
 40
1.0
 40
1.0
 40
1.0
 10
35.68384971679916
 20
20.28044399628061
 30
0.0
 10
35.68387308513934
 20
20.28142398968953
 30
0.0
 10
35.68398251045119
 20
20.28601293713041
 30
0.0
 10
35.68709621599373
 20
20.29306258685062
 30
0.0
 10
35.69186151570761
 20
20.29734727960204
 30
0.0
 10
35.69424999517628
 20
20.29949486764076
 30
0.0
  0
SPLINE
  5
118
330
2
100
AcDbEntity
  8
0
  6
Continuous
 62
     7
370
    15
100
AcDbSpline
210
0.0
220
0.0
230
1.0
 70
     8
 71
     3
 72
    11
 73
     7
 74
     0
 42
0.000000001
 43
0.0000000001
 40
0.0
 40
0.0
 40
0.0
 40
0.0
 40
0.4166255624397042
 40
0.8869877975159706
 40
0.9606464220182104
 40
1.0
 40
1.0
 40
1.0
 40
1.0
 10
43.78882922393586
 20
19.58976259728388
 30
0.0
 10
43.78859498951578
 20
19.59132027774103
 30
0.0
 10
43.78809630894784
 20
19.59463654943056
 30
0.0
 10
43.78412042950095
 20
19.59763143016084
 30
0.0
 10
43.78112300446196
 20
19.5991432435211
 30
0.0
 10
43.78050584837296
 20
19.59942078339031
 30
0.0
 10
43.78029093971917
 20
19.59951742947487
 30
0.0
  0
SPLINE
  5
119
330
2
100
AcDbEntity
  8
0
  6
Continuous
 62
     7
370
    15
100
AcDbSpline
210
0.0
220
0.0
230
1.0
 70
     8
 71
     3
 72
    10
 73
     6
 74
     0
 42
0.000000001
 43
0.0000000001
 40
0.0
 40
0.0
 40
0.0
 40
0.0
 40
0.441195233210695
 40
0.8802367975535437
 40
1.0
 40
1.0
 40
1.0
 40
1.0
 10
43.67474584930483
 20
20.29949486764076
 30
0.0
 10
43.67713442004151
 20
20.29734731607277
 30
0.0
 10
43.68189990184601
 20
20.29306269608492
 30
0.0
 10
43.68501426981583
 20
20.28600879954206
 30
0.0
 10
43.68512339794665
 20
20.28141522181852
 30
0.0
 10
43.68514678631981
 20
20.28043072488594
 30
0.0
  0
LINE
  5
11A
330
2
100
AcDbEntity
  8
0
  6
Continuous
 62
     7
370
    15
100
AcDbLine
 10
34.78237628601823
 20
18.08922985167123
 30
0.0
 11
34.78041651824219
 21
18.47649434515688
 31
0.0
  0
LINE
  5
11B
330
2
100
AcDbEntity
  8
0
  6
Continuous
 62
     7
370
    15
100
AcDbLine
 10
34.59508457365337
 20
18.27247670912299
 30
0.0
 11
34.60125757589867
 21
18.62992784922289
 31
0.0
  0
LINE
  5
11C
330
2
100
AcDbEntity
  8
0
  6
Continuous
 62
     7
370
    15
100
AcDbLine
 10
34.78041651824219
 20
18.47649434515688
 30
0.0
 11
34.7663886892642
 21
18.58225860284085
 31
0.0
  0
LINE
  5
11D
330
2
100
AcDbEntity
  8
0
  6
Continuous
 62
     7
370
    15
100
AcDbLine
 10
44.58661955846582
 20
18.08922985167123
 30
0.0
 11
44.58857932624164
 21
18.47649434515688
 31
0.0
  0
LINE
  5
11E
330
2
100
AcDbEntity
  8
0
  6
Continuous
 62
     7
370
    15
100
AcDbLine
 10
44.58857932624164
 20
18.47649434515688
 30
0.0
 11
44.60260715521963
 21
18.58225860284085
 31
0.0
  0
LINE
  5
11F
330
2
100
AcDbEntity
  8
0
  6
Continuous
 62
     7
370
    15
100
AcDbLine
 10
44.76773826858516
 20
18.62992784922289
 30
0.0
 11
44.77371808209364
 21
18.28366341045785
 31
0.0
  0
SPLINE
  5
120
330
2
100
AcDbEntity
  8
0
  6
Continuous
 62
     7
370
    15
100
AcDbSpline
210
0.0
220
0.0
230
1.0
 70
     8
 71
     3
 72
     8
 73
     4
 74
     0
 42
0.000000001
 43
0.0000000001
 40
0.0
 40
0.0
 40
0.0
 40
0.0
 40
1.0
 40
1.0
 40
1.0
 40
1.0
 10
34.47976580654904
 20
19.247720707795
 30
0.0
 10
34.47918837784027
 20
19.24694274688886
 30
0.0
 10
34.478602929506
 20
19.24607135440783
 30
0.0
 10
34.47801748723737
 20
19.24511696315608
 30
0.0
  0
SPLINE
  5
121
330
2
100
AcDbEntity
  8
0
  6
Continuous
 62
     7
370
    15
100
AcDbSpline
210
0.0
220
0.0
230
1.0
 70
     8
 71
     3
 72
     8
 73
     4
 74
     0
 42
0.000000001
 43
0.0000000001
 40
0.0
 40
0.0
 40
0.0
 40
0.0
 40
1.0
 40
1.0
 40
1.0
 40
1.0
 10
34.51095328634392
 20
18.6039041257859
 30
0.0
 10
34.4999145975994
 20
18.81872802451425
 30
0.0
 10
34.48951300243994
 20
19.03333550676939
 30
0.0
 10
34.47976580654904
 20
19.247720707795
 30
0.0
  0
ARC
  5
122
330
2
100
AcDbEntity
  8
0
  6
Continuous
 62
     7
370
    15
100
AcDbCircle
 10
36.25411933567489
 20
17.42095306094597
 30
0.0
 40
2.106656378570712
100
AcDbArc
 50
143.4852171867004
 51
145.8383162471943
  0
SPLINE
  5
123
330
2
100
AcDbEntity
  8
0
  6
Continuous
 62
     7
370
    15
100
AcDbSpline
210
0.0
220
0.0
230
1.0
 70
     8
 71
     3
 72
    12
 73
     8
 74
     0
 42
0.000000001
 43
0.0000000001
 40
0.0
 40
0.0
 40
0.0
 40
0.0
 40
0.2499999999999984
 40
0.2499999999999984
 40
0.4999999999999969
 40
0.4999999999999969
 40
1.0
 40
1.0
 40
1.0
 40
1.0
 10
34.60125757588844
 20
18.62992784922926
 30
0.0
 10
34.6014870554186
 20
18.64320172588964
 30
0.0
 10
34.60057394597652
 20
18.65475769758439
 30
0.0
 10
34.59665133272824
 20
18.6734031175614
 30
0.0
 10
34.59364261432483
 20
18.68034504527406
 30
0.0
 10
34.5823580683043
 20
18.69255767919469
 30
0.0
 10
34.57174546560532
 20
18.68900713424614
 30
0.0
 10
34.56099251665
 20
18.67447716204833
 30
0.0
  0
ARC
  5
124
330
2
100
AcDbEntity
  8
0
  6
Continuous
 62
     7
370
    15
100
AcDbCircle
 10
35.78747839176231
 20
18.41366016069287
 30
0.0
 40
1.551131288716076
100
AcDbArc
 50
147.5860389817929
 51
174.305948632403
  0
SPLINE
  5
125
330
2
100
AcDbEntity
  8
0
  6
Continuous
 62
     7
370
    15
100
AcDbSpline
210
0.0
220
0.0
230
1.0
 70
     8
 71
     3
 72
    12
 73
     8
 74
     0
 42
0.000000001
 43
0.0000000001
 40
0.0
 40
0.0
 40
0.0
 40
0.0
 40
0.2499999999999957
 40
0.2499999999999957
 40
0.4999999999999913
 40
0.4999999999999913
 40
1.0
 40
1.0
 40
1.0
 40
1.0
 10
44.8080033278311
 20
18.67447716204833
 30
0.0
 10
44.80262563659358
 20
18.68174379229936
 30
0.0
 10
44.79734693392038
 20
18.68630552617674
 30
0.0
 10
44.78744089283099
 20
18.68972887798804
 30
0.0
 10
44.78290405064263
 20
18.68850365750245
 30
0.0
 10
44.77159762635801
 20
18.67630689559291
 30
0.0
 10
44.76727920325266
 20
18.65648175012143
 30
0.0
 10
44.76773826859243
 20
18.62992784922926
 30
0.0
  0
ARC
  5
126
330
2
100
AcDbEntity
  8
0
  6
Continuous
 62
     7
370
    15
100
AcDbCircle
 10
43.11924424428457
 20
17.42409097236964
 30
0.0
 40
2.101278864315312
100
AcDbArc
 50
33.95184508790648
 51
36.51688195500052
  0
LINE
  5
127
330
2
100
AcDbEntity
  8
0
  6
Continuous
 62
     7
370
    15
100
AcDbLine
 10
44.86108972959937
 20
18.66351822105832
 30
0.0
 11
44.86227031742191
 21
18.59764666937724
 31
0.0
  0
SPLINE
  5
128
330
2
100
AcDbEntity
  8
0
  6
Continuous
 62
     7
370
    15
100
AcDbSpline
210
0.0
220
0.0
230
1.0
 70
     8
 71
     3
 72
    14
 73
    10
 74
     0
 42
0.000000001
 43
0.0000000001
 40
0.0000000000000001
 40
0.0000000000000001
 40
0.0000000000000001
 40
0.0000000000000001
 40
0.0006000000147734
 40
0.0006000000147734
 40
0.0006000000147734
 40
0.0030000018293978
 40
0.0030000018293978
 40
0.0030000018293978
 40
0.0065523447927329
 40
0.0065523447927329
 40
0.0065523447927329
 40
0.0065523447927329
 10
44.88923003793206
 20
19.247720707795
 30
0.0
 10
44.88842005648234
 20
19.22990552916906
 30
0.0
 10
44.88760555427643
 20
19.21208880284905
 30
0.0
 10
44.886786541947
 20
19.19427053505273
 30
0.0
 10
44.88351049143193
 20
19.12299743780159
 30
0.0
 10
44.88016227938942
 20
19.05169964310789
 30
0.0
 10
44.8767425692124
 20
18.9803775405536
 30
0.0
 10
44.87168091557168
 20
18.87481076402025
 30
0.0
 10
44.86646262083513
 20
18.76919058697296
 30
0.0
 10
44.86108972959255
 20
18.66351822106515
 30
0.0
  0
SPLINE
  5
129
330
2
100
AcDbEntity
  8
0
  6
Continuous
 62
     7
370
    15
100
AcDbSpline
210
0.0
220
0.0
230
1.0
 70
     8
 71
     3
 72
     8
 73
     4
 74
     0
 42
0.000000001
 43
0.0000000001
 40
0.0
 40
0.0
 40
0.0
 40
0.0
 40
1.0
 40
1.0
 40
1.0
 40
1.0
 10
44.89097835724351
 20
19.24511696315608
 30
0.0
 10
44.89038991725715
 20
19.24607624130442
 30
0.0
 10
44.88980720469726
 20
19.24694309980145
 30
0.0
 10
44.88923003793206
 20
19.247720707795
 30
0.0
  0
ARC
  5
12A
330
2
100
AcDbEntity
  8
0
  6
Continuous
 62
     7
370
    15
100
AcDbCircle
 10
43.58151745272175
 20
18.41366016069287
 30
0.0
 40
1.551131288716082
100
AcDbArc
 50
5.694051367596965
 51
32.41396101820709
  0
ELLIPSE
  5
12B
330
2
100
AcDbEntity
  8
0
  6
Continuous
 62
     7
370
    15
100
AcDbEllipse
 10
34.70795011299242
 20
18.5306292434177
 30
0.0
 11
0.0176658622538638
 21
0.1165434939803198
 31
0.0
210
0.0
220
0.0
230
1.0
 40
0.4926395442
 41
5.244502075587023
 42
6.218569152574456
  0
ELLIPSE
  5
12C
330
2
100
AcDbEntity
  8
0
  6
Continuous
 62
     7
370
    15
100
AcDbEllipse
 10
44.66104573149164
 20
18.5306292434177
 30
0.0
 11
-0.0176658622538505
 21
0.116543493980333
 31
0.0
210
0.0
220
0.0
230
1.0
 40
0.4926395442
 41
0.0646161546056219
 42
1.038683231592731
  0
SPLINE
  5
12D
330
2
100
AcDbEntity
  8
0
  6
Continuous
 62
     7
370
    15
100
AcDbSpline
210
0.0
220
0.0
230
1.0
 70
     8
 71
     3
 72
     8
 73
     4
 74
     0
 42
0.000000001
 43
0.0000000001
 40
0.0
 40
0.0
 40
0.0
 40
0.0
 40
1.0
 40
1.0
 40
1.0
 40
1.0
 10
34.47976580654904
 20
19.247720707795
 30
0.0
 10
34.48184008647491
 20
19.25051535355146
 30
0.0
 10
34.48569310857579
 20
19.25169028084667
 30
0.0
 10
34.49579889685015
 20
19.25022024341661
 30
0.0
  0
SPLINE
  5
12E
330
2
100
AcDbEntity
  8
0
  6
Continuous
 62
     7
370
    15
100
AcDbSpline
210
0.0
220
0.0
230
1.0
 70
     8
 71
     3
 72
     8
 73
     4
 74
     0
 42
0.000000001
 43
0.0000000001
 40
0.0
 40
0.0
 40
0.0
 40
0.0
 40
1.0
 40
1.0
 40
1.0
 40
1.0
 10
44.88923003793206
 20
19.247720707795
 30
0.0
 10
44.8871557580062
 20
19.25051535355146
 30
0.0
 10
44.88330273590508
 20
19.25169028084667
 30
0.0
 10
44.87319694763391
 20
19.25022024341661
 30
0.0
  0
LINE
  5
12F
330
2
100
AcDbEntity
  8
0
100
AcDbLine
 10
36.85251994869532
 20
28.44626401195512
 30
0.0
 11
37.99318315479331
 21
28.7748441130999
 31
0.0
  0
SPLINE
  5
130
330
2
100
AcDbEntity
  8
0
100
AcDbSpline
210
0.0
220
0.0
230
1.0
 70
     8
 71
     3
 72
    10
 73
     6
 74
     0
 42
0.000000001
 43
0.0000000001
 40
0.0
 40
0.0
 40
0.0
 40
0.0
 40
0.3852248288516202
 40
0.9303658622867883
 40
1.0
 40
1.0
 40
1.0
 40
1.0
 10
19.11712900253906
 20
13.53900144487784
 30
0.0
 10
19.09634080386422
 20
13.52237554105932
 30
0.0
 10
19.04613471916445
 20
13.48222191599689
 30
0.0
 10
19.00063753212544
 20
13.42485038808854
 30
0.0
 10
18.98865094611756
 20
13.38416009140565
 30
0.0
 10
18.98729325371277
 20
13.37955119720209
 30
0.0
  0
SPLINE
  5
131
330
2
100
AcDbEntity
  8
0
100
AcDbSpline
210
0.0
220
0.0
230
1.0
 70
     8
 71
     3
 72
    10
 73
     6
 74
     0
 42
0.000000001
 43
0.0000000001
 40
0.0
 40
0.0
 40
0.0
 40
0.0
 40
0.178406816138169
 40
0.5961940725780118
 40
1.0
 40
1.0
 40
1.0
 40
1.0
 10
19.42389999245779
 20
13.5545784547196
 30
0.0
 10
19.41380469617843
 20
13.56243516297468
 30
0.0
 10
19.38006856471747
 20
13.58869045407232
 30
0.0
 10
19.30529239911175
 20
13.60173227935388
 30
0.0
 10
19.24579605182134
 20
13.59066520527995
 30
0.0
 10
19.21655411290567
 20
13.58522583431386
 30
0.0
  0
SPLINE
  5
132
330
2
100
AcDbEntity
  8
0
100
AcDbSpline
210
0.0
220
0.0
230
1.0
 70
     8
 71
     3
 72
    12
 73
     8
 74
     0
 42
0.000000001
 43
0.0000000001
 40
0.0
 40
0.0
 40
0.0
 40
0.0
 40
0.0291081485275992
 40
0.324446051290663
 40
0.5915218762100177
 40
0.8482103367107132
 40
1.0
 40
1.0
 40
1.0
 40
1.0
 10
19.0086605804031
 20
13.42179947019985
 30
0.0
 10
19.00638239335967
 20
13.4189210877596
 30
0.0
 10
18.98098920183975
 20
13.38683798168745
 30
0.0
 10
18.96013036681233
 20
13.31324280070521
 30
0.0
 10
18.95513839446084
 20
13.21594399048285
 30
0.0
 10
18.97672488823218
 20
13.13631464817399
 30
0.0
 10
19.00884183460175
 20
13.10115444225403
 30
0.0
 10
19.02077642838139
 20
13.08808897924177
 30
0.0
  0
LINE
  5
133
330
2
100
AcDbEntity
  8
0
100
AcDbLine
 10
19.49619445103371
 20
13.5107145961997
 30
0.0
 11
19.42389999245779
 21
13.5545784547196
 31
0.0
  0
LINE
  5
134
330
2
100
AcDbEntity
  8
0
100
AcDbLine
 10
19.02077642838139
 20
13.08808897924177
 30
0.0
 11
19.07450842957632
 21
13.02379442093001
 31
0.0
  0
SPLINE
  5
135
330
2
100
AcDbEntity
  8
0
100
AcDbSpline
210
0.0
220
0.0
230
1.0
 70
     8
 71
     3
 72
     9
 73
     5
 74
     0
 42
0.000000001
 43
0.0000000001
 40
0.0
 40
0.0
 40
0.0
 40
0.0
 40
0.0304439907759075
 40
1.0
 40
1.0
 40
1.0
 40
1.0
 10
9.113910516296527
 20
10.66247400200313
 30
0.0
 10
9.112924137944901
 20
10.66212656084963
 30
0.0
 10
9.080524366213467
 20
10.65071409012307
 30
0.0
 10
9.05450148467662
 20
10.62625711731993
 30
0.0
 10
9.029270843504946
 20
10.60254471237112
 30
0.0
  0
SPLINE
  5
136
330
2
100
AcDbEntity
  8
0
100
AcDbSpline
210
0.0
220
0.0
230
1.0
 70
     8
 71
     3
 72
     9
 73
     5
 74
     0
 42
0.000000001
 43
0.0000000001
 40
0.0
 40
0.0
 40
0.0
 40
0.0
 40
0.558387413646741
 40
1.0
 40
1.0
 40
1.0
 40
1.0
 10
9.029270843504946
 20
10.60254471237112
 30
0.0
 10
9.010406150603103
 20
10.58330807841753
 30
0.0
 10
8.976621913278904
 20
10.54885774253353
 30
0.0
 10
8.958901402074843
 20
10.50446268240853
 30
0.0
 10
8.951075801290699
 20
10.48485726508534
 30
0.0
  0
SPLINE
  5
137
330
2
100
AcDbEntity
  8
0
100
AcDbSpline
210
0.0
220
0.0
230
1.0
 70
     8
 71
     3
 72
    10
 73
     6
 74
     0
 42
0.000000001
 43
0.0000000001
 40
0.0
 40
0.0
 40
0.0
 40
0.0
 40
0.3341848966245098
 40
0.6760545672849795
 40
1.0
 40
1.0
 40
1.0
 40
1.0
 10
9.376569281453612
 20
10.66450078095886
 30
0.0
 10
9.349872428109847
 20
10.67658480809473
 30
0.0
 10
9.295864811914725
 20
10.70103074152507
 30
0.0
 10
9.204221876468182
 20
10.69949315953931
 30
0.0
 10
9.147619752892751
 20
10.67614164840779
 30
0.0
 10
9.120080576744385
 20
10.66478021286889
 30
0.0
  0
SPLINE
  5
138
330
2
100
AcDbEntity
  8
0
100
AcDbSpline
210
0.0
220
0.0
230
1.0
 70
     8
 71
     3
 72
    11
 73
     7
 74
     0
 42
0.000000001
 43
0.0000000001
 40
0.0
 40
0.0
 40
0.0
 40
0.0
 40
0.1174437488512791
 40
0.4532904660140817
 40
0.7450588621110571
 40
1.0
 40
1.0
 40
1.0
 40
1.0
 10
8.954355951514571
 20
10.49392149248228
 30
0.0
 10
8.947683510574734
 20
10.48253862195543
 30
0.0
 10
8.921930297714425
 20
10.43860485165078
 30
0.0
 10
8.91249141371054
 20
10.35614616989551
 30
0.0
 10
8.924982467071913
 20
10.2621495842709
 30
0.0
 10
8.957813548536705
 20
10.21523682782936
 30
0.0
 10
8.97312331130206
 20
10.19336051003142
 30
0.0
  0
LINE
  5
139
330
2
100
AcDbEntity
  8
0
100
AcDbLine
 10
9.421914527129956
 20
10.63583666079717
 30
0.0
 11
9.386987533708179
 21
10.65879773724577
 31
0.0
  0
LINE
  5
13A
330
2
100
AcDbEntity
  8
0
100
AcDbLine
 10
8.977496587413497
 20
10.18595815033768
 30
0.0
 11
9.005212934722294
 21
10.15467026768442
 31
0.0
  0
LINE
  5
13B
330
2
100
AcDbEntity
  8
0
100
AcDbLine
 10
19.07450842957632
 20
13.02379442093001
 30
0.0
 11
19.11549886048578
 21
12.98829566645054
 31
0.0
  0
LINE
  5
13C
330
2
100
AcDbEntity
  8
0
100
AcDbLine
 10
19.53718488191953
 20
13.47521584172023
 30
0.0
 11
19.49619445103371
 21
13.5107145961997
 31
0.0
  0
LINE
  5
13D
330
2
100
AcDbEntity
  8
0
100
AcDbLine
 10
23.06227205032019
 20
14.19546545562434
 30
0.0
 11
23.0115594899512
 21
14.18082600042408
 31
0.0
  0
LINE
  5
13E
330
2
100
AcDbEntity
  8
0
100
AcDbLine
 10
26.30304973384955
 20
14.72111953796593
 30
0.0
 11
26.27876654565716
 21
14.74214939582521
 31
0.0
  0
LINE
  5
13F
330
2
100
AcDbEntity
  8
0
100
AcDbLine
 10
26.30304973381408
 20
14.7211195379964
 30
0.0
 11
24.31256364975207
 21
16.44493105267486
 31
0.0
  0
LINE
  5
140
330
2
100
AcDbEntity
  8
0
100
AcDbLine
 10
24.16486574467808
 20
16.57284119055475
 30
0.0
 11
24.08409231827523
 21
16.64279302977036
 31
0.0
  0
LINE
  5
141
330
2
100
AcDbEntity
  8
0
100
AcDbLine
 10
24.0185968598505
 20
16.69951376059873
 30
0.0
 11
23.02381831543153
 21
17.56101725120561
 31
0.0
  0
LINE
  5
142
330
2
100
AcDbEntity
  8
0
100
AcDbLine
 10
22.91853018049278
 20
17.55837293791023
 30
0.0
 11
4.864894204946267
 21
12.3467371427555
 31
0.0
  0
LINE
  5
143
330
2
100
AcDbEntity
  8
0
100
AcDbLine
 10
22.97642724618481
 20
12.57873456421112
 30
0.0
 11
26.19710084384815
 21
9.789549411317238
 31
0.0
  0
LINE
  5
144
330
2
100
AcDbEntity
  8
0
100
AcDbLine
 10
27.20681781164649
 20
10.09732432820533
 30
0.0
 11
27.20681781164649
 21
10.14803688857478
 31
0.0
  0
LINE
  5
145
330
2
100
AcDbEntity
  8
0
100
AcDbLine
 10
5.494040587782819
 20
4.799590270380349
 30
0.0
 11
25.34276774836917
 21
10.52942425500964
 31
0.0
  0
LINE
  5
146
330
2
100
AcDbEntity
  8
0
100
AcDbLine
 10
1.251272823476483
 20
6.306613487538015
 30
0.0
 11
1.251272823476483
 21
6.25590092716834
 31
0.0
  0
LINE
  5
147
330
2
100
AcDbEntity
  8
0
100
AcDbLine
 10
19.11782336489659
 20
13.53943677885081
 30
0.0
 11
19.21301568231547
 21
13.58425500756971
 31
0.0
  0
LINE
  5
148
330
2
100
AcDbEntity
  8
0
100
AcDbLine
 10
9.113131206839625
 20
10.66252737484933
 30
0.0
 11
9.11908289924986
 21
10.6655161471283
 31
0.0
  0
LINE
  5
149
330
2
100
AcDbEntity
  8
0
100
AcDbLine
 10
9.379074110283909
 20
10.66371112835372
 30
0.0
 11
9.386987533708179
 21
10.65879773724577
 31
0.0
  0
LINE
  5
14A
330
2
100
AcDbEntity
  8
0
100
AcDbLine
 10
8.977496587413497
 20
10.18595815033768
 30
0.0
 11
8.973204356218957
 21
10.19098740994559
 31
0.0
  0
LWPOLYLINE
  5
14B
330
2
100
AcDbEntity
  8
0
100
AcDbPolyline
 90
        6
 70
   128
 43
0.0
 10
9.384736852828154
 20
10.19311928137017
 10
9.457757680278973
 20
10.28511863088397
 10
9.500229610159749
 20
10.38988927173454
 10
9.506414050322291
 20
10.49327953709712
 10
9.47547824742196
 20
10.58132749415154
 10
9.421914527129956
 20
10.63583666079717
  0
ARC
  5
14C
330
2
100
AcDbEntity
  8
0
100
AcDbCircle
 10
9.176583849141479
 20
10.3554297645685
 30
0.0
 40
0.2639552346493054
100
AcDbArc
 50
229.5154980494936
 51
322.0541318141956
  0
LWPOLYLINE
  5
14D
330
2
100
AcDbEntity
  8
0
100
AcDbPolyline
 90
       11
 70
   128
 43
0.0
 10
19.11549886048578
 20
12.98829566645054
 10
19.1211860667986
 20
12.98356973028194
 10
19.20330068124895
 20
12.94592398728537
 10
19.30203257804351
 20
12.94688109517142
 10
19.40404863624553
 20
12.98631229904481
 10
19.49556837557611
 20
13.05889177142649
 10
19.56423349516581
 20
13.15481766347807
 10
19.60077035749646
 20
13.26113459988005
 10
19.60024440805
 20
13.36348359476028
 10
19.56272516885019
 20
13.44804189395745
 10
19.53718488191953
 20
13.47521584172023
  0
LWPOLYLINE
  5
14E
330
2
100
AcDbEntity
  8
0
100
AcDbPolyline
 90
       14
 70
   128
 43
0.0
 10
18.99598893746633
 20
13.00645605691034
 10
19.0560786627716
 20
12.92357735682844
 10
19.1454553092185
 20
12.87409447751861
 10
19.25443264096884
 20
12.86336950553004
 10
19.37120399956484
 20
12.89256522719597
 10
19.48311334839218
 20
12.95851745872005
 10
19.57803362298273
 20
13.05407928863724
 10
19.64568009335244
 20
13.16889505280915
 10
19.67871969406087
 20
13.29052234119899
 10
19.67357506203007
 20
13.40578174599363
 10
19.63080237367831
 20
13.50218307465752
 10
19.55503542509723
 20
13.56927886708467
 10
19.45448688678425
 20
13.59979902174723
 10
19.3500179091211
 20
13.5927873578205
  0
LWPOLYLINE
  5
14F
330
2
100
AcDbEntity
  8
0
100
AcDbPolyline
 90
        3
 70
   128
 43
0.0
 10
18.97221541754607
 20
13.15424655440256
 10
18.97169853618106
 20
13.11374961473279
 10
18.99598893746633
 20
13.00645605691034
  0
LWPOLYLINE
  5
150
330
2
100
AcDbEntity
  8
0
100
AcDbPolyline
 90
       14
 70
   128
 43
0.0
 10
8.989513387610259
 20
10.05145088681365
 10
9.069283899722449
 20
9.989082141324161
 10
9.172460673962177
 20
9.963998696030785
 10
9.287861239007725
 20
9.978918096538563
 10
9.402982204494037
 20
10.03222439431442
 10
9.505347384324977
 20
10.1181400598748
 10
9.583864988112964
 20
10.22735580783364
 10
9.630026120941693
 20
10.34803589981379
 10
9.638826706224335
 20
10.46710255217795
 10
9.609314594108582
 20
10.57165320410922
 10
9.544689310399462
 20
10.65035859488216
 10
9.45195142376906
 20
10.69468926500576
 10
9.341151405120399
 20
10.69984167827715
 10
9.306559648967777
 20
10.69364220553257
  0
ARC
  5
151
330
2
100
AcDbEntity
  8
0
100
AcDbCircle
 10
9.231854973197187
 20
10.23134611019941
 30
0.0
 40
0.3018140743969208
100
AcDbArc
 50
173.769377047994
 51
216.5872708829976
  0
LWPOLYLINE
  5
152
330
2
100
AcDbEntity
  8
0
100
AcDbPolyline
 90
        4
 70
   128
 43
0.0
 10
23.09475397551159
 20
14.18436969792901
 10
23.08332996936133
 20
14.19231429292949
 10
23.07234497890022
 20
14.19605573185413
 10
23.06222111359875
 20
14.19545062551151
  0
LINE
  5
153
330
2
100
AcDbEntity
  8
0
100
AcDbLine
 10
23.09475397551159
 20
14.18436969792901
 30
0.0
 11
23.21186939890458
 21
14.08294476612082
 31
0.0
  0
LWPOLYLINE
  5
154
330
2
100
AcDbEntity
  8
0
100
AcDbPolyline
 90
        3
 70
   128
 43
0.0
 10
23.21186939890458
 20
14.08294476612082
 10
23.29435744652528
 20
14.0320498992753
 10
23.35337516987511
 20
14.0276220211706
  0
LINE
  5
155
330
2
100
AcDbEntity
  8
0
100
AcDbLine
 10
26.31542768225609
 20
14.69149369585398
 30
0.0
 11
26.31542768225609
 21
10.93569430067259
 31
0.0
  0
ARC
  5
156
330
2
100
AcDbEntity
  8
0
100
AcDbCircle
 10
23.20750482960011
 20
13.55929857948376
 30
0.0
 40
0.2220291023608804
100
AcDbArc
 50
179.5143398835077
 51
222.5891566897967
  0
LINE
  5
157
330
2
100
AcDbEntity
  8
0
100
AcDbLine
 10
22.98548370344588
 20
14.11901758791737
 30
0.0
 11
22.98548370344588
 21
13.5611805573435
 31
0.0
  0
LINE
  5
158
330
2
100
AcDbEntity
  8
0
100
AcDbLine
 10
23.04404141514215
 20
13.40904334851461
 30
0.0
 11
23.39538768529747
 21
13.10476855304296
 31
0.0
  0
LINE
  5
159
330
2
100
AcDbEntity
  8
0
100
AcDbLine
 10
4.851856366234187
 20
8.613823916728961
 30
0.0
 11
4.851856366234187
 21
12.31583288926958
 31
0.0
  0
LINE
  5
15A
330
2
100
AcDbEntity
  8
0
100
AcDbLine
 10
19.76132039981394
 20
14.5913265450963
 30
0.0
 11
18.94992094520694
 21
14.35709569831056
 31
0.0
  0
LINE
  5
15B
330
2
100
AcDbEntity
  8
0
100
AcDbLine
 10
19.76132039981394
 20
14.89560115163749
 30
0.0
 11
19.76132039981394
 21
14.5913265450963
 31
0.0
  0
LINE
  5
15C
330
2
100
AcDbEntity
  8
0
100
AcDbLine
 10
19.76132039981394
 20
14.89560115163749
 30
0.0
 11
18.94992094520694
 21
14.66137030487516
 31
0.0
  0
LINE
  5
15D
330
2
100
AcDbEntity
  8
0
100
AcDbLine
 10
18.94992094520694
 20
14.66137030487516
 30
0.0
 11
18.94992094520694
 21
14.35709569831056
 31
0.0
  0
LINE
  5
15E
330
2
100
AcDbEntity
  8
0
100
AcDbLine
 10
9.720253093782048
 20
11.6927200890484
 30
0.0
 11
8.908853639198696
 21
11.45848924228608
 31
0.0
  0
LINE
  5
15F
330
2
100
AcDbEntity
  8
0
100
AcDbLine
 10
9.720253093782048
 20
11.99699469558936
 30
0.0
 11
9.720253093782048
 21
11.6927200890484
 31
0.0
  0
LINE
  5
160
330
2
100
AcDbEntity
  8
0
100
AcDbLine
 10
9.720253093782048
 20
11.99699469558936
 30
0.0
 11
8.908853639198696
 21
11.76276384882726
 31
0.0
  0
LINE
  5
161
330
2
100
AcDbEntity
  8
0
100
AcDbLine
 10
8.908853639198696
 20
11.76276384882726
 30
0.0
 11
8.908853639198696
 21
11.45848924228608
 31
0.0
  0
LWPOLYLINE
  5
162
330
2
100
AcDbEntity
  8
0
100
AcDbPolyline
 90
        7
 70
   128
 43
0.0
 10
23.0115594899512
 20
14.18082600042408
 10
23.0115085532293
 20
14.18081117031124
 10
23.00263487371694
 20
14.17588266119742
 10
22.99535255789487
 20
14.16681966793681
 10
22.98994115786718
 20
14.15397102878523
 10
22.98660889247867
 20
14.13783010472753
 10
22.98548370344588
 20
14.11901758791737
  0
ARC
  5
163
330
2
100
AcDbEntity
  8
0
100
AcDbCircle
 10
22.90033419702149
 20
12.62707993125332
 30
0.0
 40
0.6879421310198986
100
AcDbArc
 50
13.13109163540611
 51
43.97729533529433
  0
ARC
  5
164
330
2
100
AcDbEntity
  8
0
100
AcDbCircle
 10
21.87783286441117
 20
13.54372098213616
 30
0.0
 40
0.1442905795689058
100
AcDbArc
 50
287.2089174332945
 51
357.1688175608979
  0
LINE
  5
165
330
2
100
AcDbEntity
  8
0
100
AcDbLine
 10
21.92052220266714
 20
13.40588995603616
 30
0.0
 11
4.982561799619816
 21
8.516321956937872
 31
0.0
  0
LINE
  5
166
330
2
100
AcDbEntity
  8
0
100
AcDbLine
 10
22.02194732340604
 20
14.85511791196381
 30
0.0
 11
22.02194732340604
 21
13.53659398717582
 31
0.0
  0
LWPOLYLINE
  5
167
330
2
100
AcDbEntity
  8
0
100
AcDbPolyline
 90
        8
 70
   128
 43
0.0
 10
23.35337516987511
 20
14.0276220211706
 10
23.38243165073482
 20
14.05170427555094
 10
23.42748665792033
 20
14.13411407534863
 10
23.45096521672258
 20
14.25227691408122
 10
23.45096521672258
 20
14.39661981266818
 10
23.42748665792033
 20
14.55544833031285
 10
23.38243165073482
 20
14.71589644735172
 10
23.33713805180673
 20
14.82309984390622
  0
LWPOLYLINE
  5
168
330
2
100
AcDbEntity
  8
0
100
AcDbPolyline
 90
        3
 70
   128
 43
0.0
 10
23.24574596751472
 20
14.9870940852436
 10
23.24364488615584
 20
14.99057562866574
 10
23.17658050916566
 20
15.06535633378303
  0
ARC
  5
169
330
2
100
AcDbEntity
  8
0
100
AcDbCircle
 10
23.2075024558817
 20
15.33423387361949
 30
0.0
 40
0.2220267333197578
100
AcDbArc
 50
179.5141952210039
 51
222.5893967578016
  0
ARC
  5
16A
330
2
100
AcDbEntity
  8
0
100
AcDbCircle
 10
22.79065938103849
 20
15.32860263577481
 30
0.0
 40
0.1442878218853638
100
AcDbArc
 50
287.208135458997
 51
357.1692786495968
  0
LINE
  5
16B
330
2
100
AcDbEntity
  8
0
100
AcDbLine
 10
22.83334602233754
 20
15.19077366132569
 30
0.0
 11
22.12337168849263
 21
14.9858217249407
 31
0.0
  0
LINE
  5
16C
330
2
100
AcDbEntity
  8
0
100
AcDbLine
 10
22.98548370344588
 20
17.56746451426625
 30
0.0
 11
22.98548370344588
 21
15.3361163919667
 31
0.0
  0
LINE
  5
16D
330
2
100
AcDbEntity
  8
0
100
AcDbLine
 10
22.93477114307643
 20
15.32147693678985
 30
0.0
 11
22.93477114307643
 21
17.50211249871654
 31
0.0
  0
LINE
  5
16E
330
2
100
AcDbEntity
  8
0
100
AcDbLine
 10
23.11783957019884
 20
15.12006848396868
 30
0.0
 11
23.04404141514215
 21
15.1839795609992
 31
0.0
  0
ARC
  5
16F
330
2
100
AcDbEntity
  8
0
100
AcDbCircle
 10
22.1660597210057
 20
14.84799253340679
 30
0.0
 40
0.1442884408450174
100
AcDbArc
 50
107.2086376752041
 51
177.1694182047073
  0
ARC
  5
170
330
2
100
AcDbEntity
  8
0
100
AcDbCircle
 10
26.27736343542029
 20
14.69298883581859
 30
0.0
 40
0.0380935995959771
100
AcDbArc
 50
357.7506137227974
 51
47.6006247342016
  0
LWPOLYLINE
  5
171
330
2
100
AcDbEntity
  8
0
100
AcDbPolyline
 90
        7
 70
   128
 43
0.0
 10
4.851856366234187
 20
12.31583288926958
 10
4.852418960739214
 20
12.32523971443106
 10
4.854085038880839
 20
12.33331003476201
 10
4.856790793447089
 20
12.33973411819806
 10
4.860431951346072
 20
12.34426599266612
 10
4.864868791114076
 20
12.34672968046652
 10
4.864894204946267
 20
12.3467371427555
  0
LWPOLYLINE
  5
172
330
2
100
AcDbEntity
  8
0
100
AcDbPolyline
 90
        4
 70
   128
 43
0.0
 10
22.93477114307643
 20
17.55282505908599
 10
22.92905914001313
 20
17.55679773441215
 10
22.92356669931132
 20
17.55866840665362
 10
22.91850476666059
 20
17.55836547562125
  0
LINE
  5
173
330
2
100
AcDbEntity
  8
0
100
AcDbLine
 10
22.93477114307643
 20
17.50211249871654
 30
0.0
 11
22.93477114307643
 21
17.55282505908599
 31
0.0
  0
LINE
  5
174
330
2
100
AcDbEntity
  8
0
100
AcDbLine
 10
22.93477114307643
 20
17.55282505908599
 30
0.0
 11
22.98548370344588
 21
17.56746451426284
 31
0.0
  0
ARC
  5
175
330
2
100
AcDbEntity
  8
0
100
AcDbCircle
 10
5.019432159634561
 20
10.3871538100966
 30
0.0
 40
0.2397317941354181
100
AcDbArc
 50
180.5536595746979
 51
216.0803568637045
  0
LINE
  5
176
330
2
100
AcDbEntity
  8
0
100
AcDbLine
 10
4.779711558142025
 20
12.26119822943951
 30
0.0
 11
4.779711558142025
 21
10.38483727407742
 31
0.0
  0
LINE
  5
177
330
2
100
AcDbEntity
  8
0
100
AcDbLine
 10
4.830423362835972
 20
12.32655002687011
 30
0.0
 11
4.854109224523199
 21
12.33338754618717
 31
0.0
  0
ARC
  5
178
330
2
100
AcDbEntity
  8
0
100
AcDbCircle
 10
4.851767081384878
 20
12.25763607276667
 30
0.0
 40
0.0721435193821131
100
AcDbArc
 50
107.2085625796019
 51
177.16981418829
  0
ARC
  5
179
330
2
100
AcDbEntity
  8
0
100
AcDbCircle
 10
23.98483744006899
 20
12.65534291979384
 30
0.0
 40
0.1893181815091218
100
AcDbArc
 50
57.13638854679524
 51
107.6021872118142
  0
LINE
  5
17A
330
2
100
AcDbEntity
  8
0
100
AcDbLine
 10
24.08756926592833
 20
12.81436350276613
 30
0.0
 11
27.19112744022232
 21
10.12660328170432
 31
0.0
  0
LWPOLYLINE
  5
17B
330
2
100
AcDbEntity
  8
0
100
AcDbPolyline
 90
        9
 70
   128
 43
0.0
 10
27.1482600311565
 20
10.04661190542288
 10
27.16692217904892
 20
10.05329845984511
 10
27.18261628636083
 20
10.06167672700371
 10
27.19474042228694
 20
10.07142508417723
 10
27.20282766115588
 20
10.08216868889872
 10
27.20656705388683
 20
10.09349447516138
 10
27.20581581949273
 20
10.10496764516347
 10
27.20060256181751
 20
10.11614720766738
 10
27.19112744022232
 20
10.12660328170432
  0
LINE
  5
17C
330
2
100
AcDbEntity
  8
0
100
AcDbLine
 10
26.2354362114861
 20
9.783102366399134
 30
0.0
 11
27.1482600311565
 21
10.04661190542288
 31
0.0
  0
LINE
  5
17D
330
2
100
AcDbEntity
  8
0
100
AcDbLine
 10
23.92758643349316
 20
12.83579705829311
 30
0.0
 11
23.01476261382277
 21
12.57228751929278
 31
0.0
  0
LWPOLYLINE
  5
17E
330
2
100
AcDbEntity
  8
0
100
AcDbPolyline
 90
        9
 70
   128
 43
0.0
 10
24.96439629057841
 20
11.41087474144228
 10
24.89568375290583
 20
11.3807451218679
 10
24.85526175899031
 20
11.33976141624021
 10
24.84928478551046
 20
11.29416319996016
 10
24.878661458838
 20
11.25089200066145
 10
24.93892103785538
 20
11.21653592832126
 10
25.02088795195596
 20
11.19632492560163
 10
25.11208480931737
 20
11.19333630960136
 10
25.19862711007636
 20
11.20802490141272
  0
LINE
  5
17F
330
2
100
AcDbEntity
  8
0
100
AcDbLine
 10
25.19862711007636
 20
11.20802490141272
 30
0.0
 11
25.40147659590184
 21
11.26658250402784
 31
0.0
  0
LWPOLYLINE
  5
180
330
2
100
AcDbEntity
  8
0
100
AcDbPolyline
 90
        9
 70
   128
 43
0.0
 10
25.40147659590184
 20
11.26658250402784
 10
25.47018913357488
 20
11.29671212360222
 10
25.51061112749039
 20
11.33769582920649
 10
25.51658810097024
 20
11.38329404550973
 10
25.48721142764271
 20
11.42656524480867
 10
25.42695184862532
 20
11.46092131714886
 10
25.34498493452475
 20
11.4811323198453
 10
25.25378807716379
 20
11.48412093586876
 10
25.16724577640435
 20
11.46943234405739
  0
LINE
  5
181
330
2
100
AcDbEntity
  8
0
100
AcDbLine
 10
25.16724577640435
 20
11.46943234405739
 30
0.0
 11
24.96439629057841
 21
11.41087474144228
 31
0.0
  0
ARC
  5
182
330
2
100
AcDbEntity
  8
0
100
AcDbCircle
 10
23.98483744006899
 20
12.70605548016328
 30
0.0
 40
0.1893181815090791
100
AcDbArc
 50
57.13638854679524
 51
107.6021872118142
  0
LINE
  5
183
330
2
100
AcDbEntity
  8
0
100
AcDbLine
 10
22.98548400513482
 20
13.57808483122016
 30
0.0
 11
22.96405005345332
 21
13.57189738233955
 31
0.0
  0
LINE
  5
184
330
2
100
AcDbEntity
  8
0
100
AcDbLine
 10
23.01476261382277
 20
13.44798769536123
 30
0.0
 11
23.01476261382277
 21
12.62300007966223
 31
0.0
  0
ARC
  5
185
330
2
100
AcDbEntity
  8
0
100
AcDbCircle
 10
23.00120460233484
 20
12.60691040151096
 30
0.0
 40
0.037182840785357
100
AcDbArc
 50
177.7647556205969
 51
291.3848674345059
  0
LINE
  5
186
330
2
100
AcDbEntity
  8
0
100
AcDbLine
 10
22.96405005345332
 20
12.60836062446196
 30
0.0
 11
22.96405005345332
 21
13.57189738233955
 31
0.0
  0
LINE
  5
187
330
2
100
AcDbEntity
  8
0
100
AcDbLine
 10
23.92758643349316
 20
12.88650961866256
 30
0.0
 11
23.01476261382277
 21
12.62300007966223
 31
0.0
  0
LINE
  5
188
330
2
100
AcDbEntity
  8
0
100
AcDbLine
 10
27.19112744022232
 20
10.17731584207377
 30
0.0
 11
24.08756926592833
 21
12.86507606313557
 31
0.0
  0
ARC
  5
189
330
2
100
AcDbEntity
  8
0
100
AcDbCircle
 10
26.22202953694523
 20
9.820581956858404
 30
0.0
 40
0.0398052587247484
100
AcDbArc
 50
231.2248071590027
 51
289.6824349112955
  0
LWPOLYLINE
  5
18A
330
2
100
AcDbEntity
  8
0
100
AcDbPolyline
 90
       10
 70
   128
 43
0.0
 10
23.52151192867495
 20
12.76928600630799
 10
23.49890409338923
 20
12.83942903633579
 10
23.45141034044809
 20
12.93552532937997
 10
23.39538768529747
 20
13.00334343230406
 10
23.33936503012319
 20
13.03255941448992
 10
23.29187127720524
 20
13.01872471455704
 10
23.2601370420748
 20
12.96394577522483
 10
23.24899346060874
 20
12.87656250367172
 10
23.2601370420748
 20
12.76987760500469
 10
23.27925576610369
 20
12.69597178825643
  0
LINE
  5
18B
330
2
100
AcDbEntity
  8
0
100
AcDbLine
 10
22.98548370344588
 20
15.38682895233614
 30
0.0
 11
22.98548370344611
 21
15.01830963240525
 31
0.0
  0
LINE
  5
18C
330
2
100
AcDbEntity
  8
0
100
AcDbLine
 10
22.98548370344588
 20
14.92036532985423
 30
0.0
 11
22.98548370344588
 21
13.66260567808217
 31
0.0
  0
LINE
  5
18D
330
2
100
AcDbEntity
  8
0
100
AcDbLine
 10
2.222655179288722
 20
7.584372425360697
 30
0.0
 11
2.273366983982668
 21
7.599011662398424
 31
0.0
  0
ARC
  5
18E
330
2
100
AcDbEntity
  8
0
100
AcDbCircle
 10
2.304387566138302
 20
7.659500384918374
 30
0.0
 40
0.1110152843940879
100
AcDbArc
 50
179.5143988046951
 51
222.5890500660061
  0
LINE
  5
18F
330
2
100
AcDbEntity
  8
0
100
AcDbLine
 10
22.96405005345332
 20
13.57189738233955
 30
0.0
 11
22.90100753131515
 21
13.55369857377616
 31
0.0
  0
LINE
  5
190
330
2
100
AcDbEntity
  8
0
100
AcDbLine
 10
22.8206246374798
 20
13.53049403107889
 30
0.0
 11
2.273366983982668
 21
7.599011662398424
 31
0.0
  0
LINE
  5
191
330
2
100
AcDbEntity
  8
0
100
AcDbLine
 10
22.73192165727369
 20
14.90793216724069
 30
0.0
 11
22.73192165727369
 21
15.1614949690877
 31
0.0
  0
LINE
  5
192
330
2
100
AcDbEntity
  8
0
100
AcDbLine
 10
2.193376268911833
 20
9.384664540157018
 30
0.0
 11
2.193376268911833
 21
7.660441265903045
 31
0.0
  0
ARC
  5
193
330
2
100
AcDbEntity
  8
0
100
AcDbCircle
 10
2.337490415864067
 20
9.377537820909537
 30
0.0
 40
0.1442902542835608
100
AcDbArc
 50
107.2094559851074
 51
177.1689207830039
  0
LINE
  5
194
330
2
100
AcDbEntity
  8
0
100
AcDbLine
 10
2.294799878299727
 20
9.515368134994787
 30
0.0
 11
4.851857314494282
 21
10.25352703456292
 31
0.0
  0
LINE
  5
195
330
2
100
AcDbEntity
  8
0
100
AcDbLine
 10
22.37693449033987
 20
15.0590190008952
 30
0.0
 11
22.37693449033987
 21
14.80545619904819
 31
0.0
  0
LINE
  5
196
330
2
100
AcDbEntity
  8
0
100
AcDbLine
 10
22.37693449033987
 20
14.80545619904819
 30
0.0
 11
22.73192165727369
 21
14.90793216724069
 31
0.0
  0
LINE
  5
197
330
2
100
AcDbEntity
  8
0
100
AcDbLine
 10
22.73192165727369
 20
14.19795783337258
 30
0.0
 11
22.73192165727369
 21
14.40080769703604
 31
0.0
  0
LINE
  5
198
330
2
100
AcDbEntity
  8
0
100
AcDbLine
 10
22.73192165727369
 20
14.40080769703604
 30
0.0
 11
22.37693449033987
 21
14.29833172884355
 31
0.0
  0
LINE
  5
199
330
2
100
AcDbEntity
  8
0
100
AcDbLine
 10
22.37693449033987
 20
14.29833172884355
 30
0.0
 11
22.37693449033987
 21
14.09548186518009
 31
0.0
  0
LINE
  5
19A
330
2
100
AcDbEntity
  8
0
100
AcDbLine
 10
22.37693449033987
 20
14.09548186518009
 30
0.0
 11
22.73192165727369
 21
14.19795783337258
 31
0.0
  0
LINE
  5
19B
330
2
100
AcDbEntity
  8
0
100
AcDbLine
 10
2.273366983982668
 20
7.599011662398424
 30
0.0
 11
5.494040581646004
 21
4.809826509527965
 31
0.0
  0
ARC
  5
19C
330
2
100
AcDbEntity
  8
0
100
AcDbCircle
 10
27.16791075532865
 20
10.14603054200233
 30
0.0
 40
0.0389587532809878
100
AcDbArc
 50
2.951995516902249
 51
53.42105096629328
  0
LINE
  5
19D
330
2
100
AcDbEntity
  8
0
100
AcDbLine
 10
1.309830603966474
 20
6.357325910343661
 30
0.0
 11
2.222655179288722
 21
6.620835667483106
 31
0.0
  0
LINE
  5
19E
330
2
100
AcDbEntity
  8
0
100
AcDbLine
 10
2.222655179288722
 20
6.620835667483106
 30
0.0
 11
2.222655179288722
 21
7.584372425360697
 31
0.0
  0
LINE
  5
19F
330
2
100
AcDbEntity
  8
0
100
AcDbLine
 10
2.273366983982668
 20
6.635474904520833
 30
0.0
 11
2.273366983982668
 21
7.599011662398424
 31
0.0
  0
ARC
  5
1A0
330
2
100
AcDbEntity
  8
0
100
AcDbCircle
 10
2.201309910506552
 20
6.63903826415617
 30
0.0
 40
0.0721451271418438
100
AcDbArc
 50
287.2094559851074
 51
357.1689207828931
  0
LINE
  5
1A1
330
2
100
AcDbEntity
  8
0
100
AcDbLine
 10
1.309830603966474
 20
6.306613349950794
 30
0.0
 11
2.222655179288722
 21
6.570123107113658
 31
0.0
  0
LINE
  5
1A2
330
2
100
AcDbEntity
  8
0
100
AcDbLine
 10
2.273366983982668
 20
6.635474904520833
 30
0.0
 11
5.494040581646004
 21
3.846289751650601
 31
0.0
  0
ARC
  5
1A3
330
2
100
AcDbEntity
  8
0
100
AcDbCircle
 10
5.421983508169887
 20
3.849853111285938
 30
0.0
 40
0.0721451271418066
100
AcDbArc
 50
287.2094559851074
 51
357.1689207828931
  0
ARC
  5
1A4
330
2
100
AcDbEntity
  8
0
100
AcDbCircle
 10
4.47325349259745
 20
3.697874075781555
 30
0.0
 40
0.1893102184799151
100
AcDbArc
 50
237.1352689344047
 51
287.602857352898
  0
LINE
  5
1A5
330
2
100
AcDbEntity
  8
0
100
AcDbLine
 10
4.370522880545195
 20
3.538862188909206
 30
0.0
 11
1.266964706251656
 21
6.226622409947822
 31
0.0
  0
LWPOLYLINE
  5
1A6
330
2
100
AcDbEntity
  8
0
100
AcDbPolyline
 90
        9
 70
   128
 43
0.0
 10
1.309830603966474
 20
6.306613349950794
 10
1.291169211726355
 20
6.299927013691103
 10
1.275473593087099
 20
6.291548310207417
 10
1.263350212812838
 20
6.281800171196437
 10
1.255262218291591
 20
6.271056348335832
 10
1.251525092586689
 20
6.259731216514182
 10
1.252275571305744
 20
6.248257828349323
 10
1.257487317629966
 20
6.237077829567169
 10
1.266964706251656
 20
6.226622409947822
  0
LINE
  5
1A7
330
2
100
AcDbEntity
  8
0
100
AcDbLine
 10
5.443328776952057
 20
3.780937954243427
 30
0.0
 11
4.53050420162981
 21
3.517428197080562
 31
0.0
  0
LINE
  5
1A8
330
2
100
AcDbEntity
  8
0
100
AcDbLine
 10
3.493695100196873
 20
4.942350732070508
 30
0.0
 11
3.290844858719083
 21
4.883792911316277
 31
0.0
  0
LWPOLYLINE
  5
1A9
330
2
100
AcDbEntity
  8
0
100
AcDbPolyline
 90
        9
 70
   128
 43
0.0
 10
3.259464280698921
 20
5.145200572123712
 10
3.346005070130559
 20
5.159888727633187
 10
3.437202683167015
 20
5.156900329772042
 10
3.51916884159209
 20
5.13668910891306
 10
3.579429931937283
 20
5.102333472851341
 10
3.608805093937007
 20
5.059061837274384
 10
3.602828876132662
 20
5.013463839133464
 10
3.562406126541645
 20
4.972479915366648
 10
3.493695100196873
 20
4.942350732070508
  0
LINE
  5
1AA
330
2
100
AcDbEntity
  8
0
100
AcDbLine
 10
3.05661403922113
 20
5.086642751345834
 30
0.0
 11
3.259464280698921
 21
5.145200572123712
 31
0.0
  0
LWPOLYLINE
  5
1AB
330
2
100
AcDbEntity
  8
0
100
AcDbPolyline
 90
        9
 70
   128
 43
0.0
 10
3.290844858719083
 20
4.883792911316277
 10
3.204304069310637
 20
4.869104755806574
 10
3.113106456274181
 20
4.872093153667719
 10
3.031140297849105
 20
4.892304374526702
 10
2.970879207480265
 20
4.926660010565001
 10
2.941504045503734
 20
4.969931646142185
 10
2.947480263308534
 20
5.015529644306297
 10
2.987903012899096
 20
5.056513568049922
 10
3.05661403922113
 20
5.086642751345834
  0
LINE
  5
1AC
330
2
100
AcDbEntity
  8
0
100
AcDbLine
 10
5.494040581646004
 20
3.846289751650601
 30
0.0
 11
5.494040581646004
 21
4.809826509527965
 31
0.0
  0
LWPOLYLINE
  5
1AD
330
2
100
AcDbEntity
  8
0
100
AcDbPolyline
 90
        7
 70
   128
 43
0.0
 10
1.251272823476483
 20
6.306613487538015
 10
1.251525092586689
 20
6.310443776883857
 10
1.255262218291591
 20
6.321768908705053
 10
1.263350212812838
 20
6.332512731565884
 10
1.275473593087099
 20
6.342260870600512
 10
1.291169211726355
 20
6.350639574060551
 10
1.309830603966474
 20
6.357325910343661
  0
LWPOLYLINE
  5
1AE
330
2
100
AcDbEntity
  8
0
100
AcDbPolyline
 90
       10
 70
   128
 43
0.0
 10
19.42389999245779
 20
13.5545784547196
 10
19.48402009358597
 20
13.49841116363996
 10
19.51188785797194
 20
13.41038472740752
 10
19.50317039689344
 20
13.30821741613636
 10
19.45904353982678
 20
13.20570646985902
 10
19.38546653595904
 20
13.11669659522294
 10
19.29237650499772
 20
13.05320949904535
 10
19.19234635940029
 20
13.02381942464717
 10
19.09888453659323
 20
13.03249544406503
 10
19.03392841974164
 20
13.07235158892308
  0
LWPOLYLINE
  5
1AF
330
2
100
AcDbEntity
  8
0
100
AcDbPolyline
 90
       16
 70
   128
 43
0.0
 10
9.11908289924986
 20
10.6655161471283
 10
9.120278376310579
 20
10.66609815559582
 10
9.217908499704662
 20
10.69398418668243
 10
9.307993968818209
 20
10.68235287504694
 10
9.376817780061628
 20
10.63297474256023
 10
9.413904773428839
 20
10.55336790822025
 10
9.413607037658948
 20
10.45565145810155
 10
9.375971424606177
 20
10.35470190116189
 10
9.306724435658452
 20
10.26588707253449
 10
9.216412264172504
 20
10.20272957875954
 10
9.118782140802068
 20
10.17484392551091
 10
9.028696671688066
 20
10.18647485930842
 10
8.9598713490941
 20
10.23585255551688
 10
8.922784355726889
 20
10.31545938985664
 10
8.923082091473133
 20
10.41317583997556
 10
8.946495910355679
 20
10.48610168697382
  0
ARC
  5
1B0
330
2
100
AcDbEntity
  8
0
100
AcDbCircle
 10
4.95788665103737
 20
8.61960290915772
 30
0.0
 40
0.1061876548804725
100
AcDbArc
 50
183.1197180373379
 51
283.4368231249396
  0
ARC
  5
1B1
330
2
100
AcDbEntity
  8
0
100
AcDbCircle
 10
22.99076640133035
 20
17.4816847562513
 30
0.0
 40
0.0859422700508047
100
AcDbArc
 50
67.38216101075322
 51
93.52407748584916
  0
ELLIPSE
  5
1B2
330
2
100
AcDbEntity
  8
0
100
AcDbEllipse
 10
23.13678049291593
 20
12.72725576149696
 30
0.0
 11
0.2488021763027463
 21
0.0
 31
0.0
210
0.0
220
0.0
230
1.0
 40
0.6171303644892954
 41
2.338171018760502
 42
7.380107028926092
  0
ELLIPSE
  5
1B3
330
2
100
AcDbEntity
  8
0
100
AcDbEllipse
 10
23.29724909478409
 20
12.53695878037911
 30
0.0
 11
-0.0288643188870278
 21
0.0805740658479118
 31
0.0
210
0.0
220
0.0
230
0.9999999999999998
 40
0.5293258385647972
 41
0.0
 42
6.283185307179584
  0
LINE
  5
1B4
330
2
100
AcDbEntity
  8
0
  6
Continuous
 62
     7
370
    15
100
AcDbLine
 10
23.13779025771692
 20
12.36160199528581
 30
0.0
 11
23.32813407239064
 21
12.19675941631499
 31
0.0
  0
LINE
  5
1B5
330
2
100
AcDbEntity
  8
0
  6
Continuous
 62
     7
370
    15
100
AcDbLine
 10
23.20944262791727
 20
12.32083143020941
 30
0.0
 11
23.2580317429406
 21
12.33485789951942
 31
0.0
  0
ARC
  5
1B6
330
2
100
AcDbEntity
  8
0
  6
Continuous
 62
     7
370
    15
100
AcDbCircle
 10
23.24304525870639
 20
12.45344168488464
 30
0.0
 40
0.1368013758621824
100
AcDbArc
 50
174.8069247137969
 51
194.1647841650017
  0
ARC
  5
1B7
330
2
100
AcDbEntity
  8
0
  6
Continuous
 62
     7
370
    15
100
AcDbCircle
 10
23.24304525870639
 20
12.45344168488464
 30
0.0
 40
0.1368013758621824
100
AcDbArc
 50
221.9476948517862
 51
255.7808851648964
  0
LINE
  5
1B8
330
2
100
AcDbEntity
  8
0
  6
Continuous
 62
     7
370
    15
100
AcDbLine
 10
23.38511570845412
 20
12.16869407969443
 30
0.0
 11
23.43370482347745
 21
12.18272054902786
 31
0.0
  0
LWPOLYLINE
  5
1B9
330
2
100
AcDbEntity
  8
0
  6
Continuous
 62
     7
370
    15
100
AcDbPolyline
 90
        3
 70
   128
 43
0.0
 10
23.32813407239064
 20
12.19675941631499
 10
23.35043024866491
 20
12.1814058936452
 10
23.38511570845412
 20
12.16869407969443
  0
POLYLINE
  5
1BA
330
2
100
AcDbEntity
  8
0
100
AcDb2dPolyline
 66
     1
 10
0.0
 20
0.0
 30
0.0
 70
     2
  0
VERTEX
  5
1BB
330
1BA
100
AcDbEntity
  8
0
100
AcDbVertex
100
AcDb2dVertex
 10
22.98548370344588
 20
14.7495762475603
 30
0.0
 42
0.0058390364489437
  0
VERTEX
  5
1BC
330
1BA
100
AcDbEntity
  8
0
100
AcDbVertex
100
AcDb2dVertex
 10
23.19222930205706
 20
14.93387555000618
 30
0.0
 42
0.0214366767901178
 70
     1
  0
VERTEX
  5
1BD
330
1BA
100
AcDbEntity
  8
0
100
AcDbVertex
100
AcDb2dVertex
 10
23.24574596751472
 20
14.9870940852436
 30
0.0
 42
0.1526085335870358
  0
VERTEX
  5
1BE
330
1BA
100
AcDbEntity
  8
0
100
AcDbVertex
100
AcDb2dVertex
 10
24.31816048252358
 20
17.25066999131513
 30
0.0
 42
-0.1008587676420542
 70
     1
  0
VERTEX
  5
1BF
330
1BA
100
AcDbEntity
  8
0
100
AcDbVertex
100
AcDb2dVertex
 10
25.56797763276927
 20
20.77710111876536
 30
0.0
 42
-0.01919476608375
  0
VERTEX
  5
1C0
330
1BA
100
AcDbEntity
  8
0
100
AcDbVertex
100
AcDb2dVertex
 10
26.28128008527165
 20
21.86577468404619
 30
0.0
 42
-0.0442992914063253
 70
     1
  0
VERTEX
  5
1C1
330
1BA
100
AcDbEntity
  8
0
100
AcDbVertex
100
AcDb2dVertex
 10
26.64816216176496
 20
22.29525881248424
 30
0.0
 42
-0.1505701543002183
  0
VERTEX
  5
1C2
330
1BA
100
AcDbEntity
  8
0
100
AcDbVertex
100
AcDb2dVertex
 10
27.21896998000421
 20
22.58982833987989
 30
0.0
 42
-0.0786376230687711
 70
     1
  0
VERTEX
  5
1C3
330
1BA
100
AcDbEntity
  8
0
100
AcDbVertex
100
AcDb2dVertex
 10
28.42878438572461
 20
22.61470984576476
 30
0.0
 42
-0.1431923972440899
  0
VERTEX
  5
1C4
330
1BA
100
AcDbEntity
  8
0
100
AcDbVertex
100
AcDb2dVertex
 10
29.39484393348948
 20
22.18232054672705
 30
0.0
 42
-0.1226874489830121
 70
     1
  0
VERTEX
  5
1C5
330
1BA
100
AcDbEntity
  8
0
100
AcDbVertex
100
AcDb2dVertex
 10
30.11011413586857
 20
21.18326963606535
 30
0.0
  0
SEQEND
  5
1C6
330
1BA
100
AcDbEntity
  8
0
  0
POLYLINE
  5
1C7
330
2
100
AcDbEntity
  8
0
100
AcDb2dPolyline
 66
     1
 10
0.0
 20
0.0
 30
0.0
  0
VERTEX
  5
1C8
330
1C7
100
AcDbEntity
  8
0
100
AcDbVertex
100
AcDb2dVertex
 10
22.98548370344588
 20
14.5122459772308
 30
0.0
 42
0.0090756341578838
  0
VERTEX
  5
1C9
330
1C7
100
AcDbEntity
  8
0
100
AcDbVertex
100
AcDb2dVertex
 10
23.31356632323696
 20
14.80091943961179
 30
0.0
 42
0.0214366767901133
  0
VERTEX
  5
1CA
330
1C7
100
AcDbEntity
  8
0
100
AcDbVertex
100
AcDb2dVertex
 10
23.37802217725607
 20
14.86501622346486
 30
0.0
 42
0.152608533587035
  0
VERTEX
  5
1CB
330
1C7
100
AcDbEntity
  8
0
100
AcDbVertex
100
AcDb2dVertex
 10
24.49641029256509
 20
17.22562991902782
 30
0.0
 42
-0.100858767642055
  0
VERTEX
  5
1CC
330
1C7
100
AcDbEntity
  8
0
100
AcDbVertex
100
AcDb2dVertex
 10
25.72221325882265
 20
20.68430364220524
 30
0.0
 42
-0.0191947660837495
  0
VERTEX
  5
1CD
330
1C7
100
AcDbEntity
  8
0
100
AcDbVertex
100
AcDb2dVertex
 10
26.42794440174043
 20
21.76142154190507
 30
0.0
 42
-0.0442992914063293
  0
VERTEX
  5
1CE
330
1C7
100
AcDbEntity
  8
0
100
AcDbVertex
100
AcDb2dVertex
 10
26.77415037058836
 20
22.1667015441659
 30
0.0
 42
-0.1505701543002064
  0
VERTEX
  5
1CF
330
1C7
100
AcDbEntity
  8
0
100
AcDbVertex
100
AcDb2dVertex
 10
27.25075526148362
 20
22.41265696555183
 30
0.0
 42
-0.0786376230687679
  0
VERTEX
  5
1D0
330
1C7
100
AcDbEntity
  8
0
100
AcDbVertex
100
AcDb2dVertex
 10
28.40431044907291
 20
22.43638142283453
 30
0.0
 42
-0.1431923972440916
  0
VERTEX
  5
1D1
330
1C7
100
AcDbEntity
  8
0
100
AcDbVertex
100
AcDb2dVertex
 10
29.2781579389316
 20
22.04526443167174
 30
0.0
 42
-0.0927916017300064
  0
VERTEX
  5
1D2
330
1C7
100
AcDbEntity
  8
0
100
AcDbVertex
100
AcDb2dVertex
 10
29.82488166923895
 20
21.3698040862929
 30
0.0
 42
-0.1226874489830138
  0
SEQEND
  5
1D3
330
1C7
100
AcDbEntity
  8
0
  0
POLYLINE
  5
1D4
330
2
100
AcDbEntity
  8
0
100
AcDb2dPolyline
 66
     1
 10
0.0
 20
0.0
 30
0.0
 70
     2
  0
VERTEX
  5
1D5
330
1D4
100
AcDbEntity
  8
0
100
AcDbVertex
100
AcDb2dVertex
 10
23.15239406959745
 20
12.42634282491156
 30
0.0
 42
-0.1720596708029103
  0
VERTEX
  5
1D6
330
1D4
100
AcDbEntity
  8
0
100
AcDbVertex
100
AcDb2dVertex
 10
22.86364805723747
 20
12.4674320846276
 30
0.0
 42
-0.2899910785731739
 70
     1
  0
VERTEX
  5
1D7
330
1D4
100
AcDbEntity
  8
0
100
AcDbVertex
100
AcDb2dVertex
 10
22.77245664534257
 20
12.62517501216598
 30
0.0
 42
-0.1238179328475234
  0
VERTEX
  5
1D8
330
1D4
100
AcDbEntity
  8
0
100
AcDbVertex
100
AcDb2dVertex
 10
22.83493436347703
 20
12.83707713172339
 30
0.0
 42
0.1295442674349022
 70
     1
  0
VERTEX
  5
1D9
330
1D4
100
AcDbEntity
  8
0
100
AcDbVertex
100
AcDb2dVertex
 10
22.89244572636562
 20
13.0405629709976
 30
0.0
 42
0.0003470033116146
  0
VERTEX
  5
1DA
330
1D4
100
AcDbEntity
  8
0
100
AcDbVertex
100
AcDb2dVertex
 10
22.89700729080573
 20
13.30731203955201
 30
0.0
 42
0.0001790697528412
 70
     1
  0
VERTEX
  5
1DB
330
1D4
100
AcDbEntity
  8
0
100
AcDbVertex
100
AcDb2dVertex
 10
22.90530287034608
 20
13.82423024991203
 30
0.0
 42
0.0017697939597891
  0
VERTEX
  5
1DC
330
1D4
100
AcDbEntity
  8
0
100
AcDbVertex
100
AcDb2dVertex
 10
22.91332049866992
 20
14.48413670244565
 30
0.0
 42
-0.0040163123638862
 70
     1
  0
VERTEX
  5
1DD
330
1D4
100
AcDbEntity
  8
0
100
AcDbVertex
100
AcDb2dVertex
 10
22.91816001432653
 20
14.77491042379643
 30
0.0
 42
-0.251992011374556
  0
VERTEX
  5
1DE
330
1D4
100
AcDbEntity
  8
0
100
AcDbVertex
100
AcDb2dVertex
 10
23.01283142020611
 20
14.94088048379126
 30
0.0
 42
0.1011741384883213
 70
     1
  0
VERTEX
  5
1DF
330
1D4
100
AcDbEntity
  8
0
100
AcDbVertex
100
AcDb2dVertex
 10
23.34038829475821
 20
15.25244021001026
 30
0.0
 42
0.0338829944212855
  0
VERTEX
  5
1E0
330
1D4
100
AcDbEntity
  8
0
100
AcDbVertex
100
AcDb2dVertex
 10
23.86909215140531
 20
16.13241332035147
 30
0.0
 42
0.0484605521380047
 70
     1
  0
VERTEX
  5
1E1
330
1D4
100
AcDbEntity
  8
0
100
AcDbVertex
100
AcDb2dVertex
 10
24.13326873198457
 20
16.80073188386768
 30
0.0
 42
0.0424571349975442
  0
VERTEX
  5
1E2
330
1D4
100
AcDbEntity
  8
0
100
AcDbVertex
100
AcDb2dVertex
 10
24.32308761379636
 20
17.76317535422868
 30
0.0
 42
-0.0368665673551751
 70
     1
  0
VERTEX
  5
1E3
330
1D4
100
AcDbEntity
  8
0
100
AcDbVertex
100
AcDb2dVertex
 10
24.52921302633195
 20
18.87344649853321
 30
0.0
 42
-0.0070073754447878
  0
VERTEX
  5
1E4
330
1D4
100
AcDbEntity
  8
0
100
AcDbVertex
100
AcDb2dVertex
 10
24.71097066048879
 20
19.52693582187794
 30
0.0
 42
-0.0159640318963769
 70
     1
  0
VERTEX
  5
1E5
330
1D4
100
AcDbEntity
  8
0
100
AcDbVertex
100
AcDb2dVertex
 10
24.80386080295557
 20
19.80987514199023
 30
0.0
 42
-0.0468525850060314
  0
VERTEX
  5
1E6
330
1D4
100
AcDbEntity
  8
0
100
AcDbVertex
100
AcDb2dVertex
 10
25.01337644391879
 20
20.25172299675455
 30
0.0
 42
-0.0145719470946157
 70
     1
  0
VERTEX
  5
1E7
330
1D4
100
AcDbEntity
  8
0
100
AcDbVertex
100
AcDb2dVertex
 10
25.85427348181611
 20
21.57655578085314
 30
0.0
 42
-0.018915296625719
  0
VERTEX
  5
1E8
330
1D4
100
AcDbEntity
  8
0
100
AcDbVertex
100
AcDb2dVertex
 10
26.15295177050666
 20
21.98403478827697
 30
0.0
 42
-0.0175083401075683
 70
     1
  0
VERTEX
  5
1E9
330
1D4
100
AcDbEntity
  8
0
100
AcDbVertex
100
AcDb2dVertex
 10
26.50679505619564
 20
22.39958694450706
 30
0.0
 42
-0.1543945095956064
  0
VERTEX
  5
1EA
330
1D4
100
AcDbEntity
  8
0
100
AcDbVertex
100
AcDb2dVertex
 10
27.09671418503285
 20
22.74053048942869
 30
0.0
 42
-0.08732751941215
 70
     1
  0
VERTEX
  5
1EB
330
1D4
100
AcDbEntity
  8
0
100
AcDbVertex
100
AcDb2dVertex
 10
28.28115469934483
 20
22.79204485423406
 30
0.0
 42
-0.0848986319605484
  0
VERTEX
  5
1EC
330
1D4
100
AcDbEntity
  8
0
100
AcDbVertex
100
AcDb2dVertex
 10
29.17689373547501
 20
22.51482390569106
 30
0.0
 42
-0.0860219009241848
 70
     1
  0
VERTEX
  5
1ED
330
1D4
100
AcDbEntity
  8
0
100
AcDbVertex
100
AcDb2dVertex
 10
29.91866793498321
 20
21.96121189664791
 30
0.0
 42
-0.077670393222595
  0
VERTEX
  5
1EE
330
1D4
100
AcDbEntity
  8
0
100
AcDbVertex
100
AcDb2dVertex
 10
30.1798470893225
 20
21.58188950240822
 30
0.0
 42
-0.0589490663873817
 70
     1
  0
VERTEX
  5
1EF
330
1D4
100
AcDbEntity
  8
0
100
AcDbVertex
100
AcDb2dVertex
 10
30.37609410038977
 20
21.00932581038603
 30
0.0
  0
SEQEND
  5
1F0
330
1D4
100
AcDbEntity
  8
0
  0
POLYLINE
  5
1F1
330
2
100
AcDbEntity
  8
0
100
AcDb2dPolyline
 66
     1
 10
0.0
 20
0.0
 30
0.0
  0
VERTEX
  5
1F2
330
1F1
100
AcDbEntity
  8
0
100
AcDbVertex
100
AcDb2dVertex
 10
23.21307883465374
 20
12.3737882767499
 30
0.0
 42
-0.1298166996315897
  0
VERTEX
  5
1F3
330
1F1
100
AcDbEntity
  8
0
100
AcDbVertex
100
AcDb2dVertex
 10
22.83020980270703
 20
12.39175487380566
 30
0.0
 42
-0.3066950891225741
  0
VERTEX
  5
1F4
330
1F1
100
AcDbEntity
  8
0
100
AcDbVertex
100
AcDb2dVertex
 10
22.69256661240638
 20
12.62936817773004
 30
0.0
 42
-0.1191183605176273
  0
VERTEX
  5
1F5
330
1F1
100
AcDbEntity
  8
0
100
AcDbVertex
100
AcDb2dVertex
 10
22.7671564012594
 20
12.8797270200522
 30
0.0
 42
0.1279009424904339
  0
VERTEX
  5
1F6
330
1F1
100
AcDbEntity
  8
0
100
AcDbVertex
100
AcDb2dVertex
 10
22.81245845140802
 20
13.04198980134833
 30
0.0
 42
0.000357853979317
  0
VERTEX
  5
1F7
330
1F1
100
AcDbEntity
  8
0
100
AcDbVertex
100
AcDb2dVertex
 10
22.81693154282107
 20
13.30323355891016
 30
0.0
 42
0.0001790697528741
  0
VERTEX
  5
1F8
330
1F1
100
AcDbEntity
  8
0
100
AcDbVertex
100
AcDb2dVertex
 10
22.82531271546895
 20
13.82548528884467
 30
0.0
 42
0.0017697939597891
  0
VERTEX
  5
1F9
330
1F1
100
AcDbEntity
  8
0
100
AcDbVertex
100
AcDb2dVertex
 10
22.83332346356496
 20
14.48482545087972
 30
0.0
 42
-0.0040163123638862
  0
VERTEX
  5
1FA
330
1F1
100
AcDbEntity
  8
0
100
AcDbVertex
100
AcDb2dVertex
 10
22.83818436657544
 20
14.77688419348703
 30
0.0
 42
-0.2519920113745543
  0
VERTEX
  5
1FB
330
1F1
100
AcDbEntity
  8
0
100
AcDbVertex
100
AcDb2dVertex
 10
22.97042391268314
 20
15.00871560231906
 30
0.0
 42
0.1011741384883219
  0
VERTEX
  5
1FC
330
1F1
100
AcDbEntity
  8
0
100
AcDbVertex
100
AcDb2dVertex
 10
23.27475971974445
 20
15.2981883262737
 30
0.0
 42
0.0338829944212857
  0
VERTEX
  5
1FD
330
1F1
100
AcDbEntity
  8
0
100
AcDbVertex
100
AcDb2dVertex
 10
23.7978859392249
 20
16.16887803407451
 30
0.0
 42
0.0484605521380046
  0
VERTEX
  5
1FE
330
1F1
100
AcDbEntity
  8
0
100
AcDbVertex
100
AcDb2dVertex
 10
24.05637524208419
 20
16.8228088223093
 30
0.0
 42
0.042457134997544
  0
VERTEX
  5
1FF
330
1F1
100
AcDbEntity
  8
0
100
AcDbVertex
100
AcDb2dVertex
 10
24.24356992825528
 20
17.77194676723786
 30
0.0
 42
-0.0368665673551751
  0
VERTEX
  5
200
330
1F1
100
AcDbEntity
  8
0
100
AcDbVertex
100
AcDb2dVertex
 10
24.4518458284399
 20
18.89380126923527
 30
0.0
 42
-0.0070073754447877
  0
VERTEX
  5
201
330
1F1
100
AcDbEntity
  8
0
100
AcDbVertex
100
AcDb2dVertex
 10
24.63420430153997
 20
19.54945084205826
 30
0.0
 42
-0.0159640318963768
  0
VERTEX
  5
202
330
1F1
100
AcDbEntity
  8
0
100
AcDbVertex
100
AcDb2dVertex
 10
24.72868749896497
 20
19.83724253805099
 30
0.0
 42
-0.0468525850060314
  0
VERTEX
  5
203
330
1F1
100
AcDbEntity
  8
0
100
AcDbVertex
100
AcDb2dVertex
 10
24.94461278501626
 20
20.29260770311703
 30
0.0
 42
-0.0145719470946158
  0
VERTEX
  5
204
330
1F1
100
AcDbEntity
  8
0
100
AcDbVertex
100
AcDb2dVertex
 10
25.7880081459964
 20
21.62137659374957
 30
0.0
 42
-0.0189152966257189
  0
VERTEX
  5
205
330
1F1
100
AcDbEntity
  8
0
100
AcDbVertex
100
AcDb2dVertex
 10
26.09026352886849
 20
22.03373573756699
 30
0.0
 42
-0.0175083401075684
  0
VERTEX
  5
206
330
1F1
100
AcDbEntity
  8
0
100
AcDbVertex
100
AcDb2dVertex
 10
26.44773797813377
 20
22.45355231794963
 30
0.0
 42
-0.1543945095956066
  0
VERTEX
  5
207
330
1F1
100
AcDbEntity
  8
0
100
AcDbVertex
100
AcDb2dVertex
 10
27.07943712444762
 20
22.81864260870305
 30
0.0
 42
-0.08732751941215
  0
VERTEX
  5
208
330
1F1
100
AcDbEntity
  8
0
100
AcDbVertex
100
AcDb2dVertex
 10
28.29158475503869
 20
22.87136202726879
 30
0.0
 42
-0.0848986319605482
  0
VERTEX
  5
209
330
1F1
100
AcDbEntity
  8
0
100
AcDbVertex
100
AcDb2dVertex
 10
29.21309111360301
 20
22.58616638824287
 30
0.0
 42
-0.0860219009241848
  0
VERTEX
  5
20A
330
1F1
100
AcDbEntity
  8
0
100
AcDbVertex
100
AcDb2dVertex
 10
29.9767636256538
 20
22.01621090323431
 30
0.0
 42
-0.077670393222595
  0
VERTEX
  5
20B
330
1F1
100
AcDbEntity
  8
0
100
AcDbVertex
100
AcDb2dVertex
 10
30.25195353491063
 20
21.61654005081152
 30
0.0
 42
-0.0664902612493204
  0
VERTEX
  5
20C
330
1F1
100
AcDbEntity
  8
0
100
AcDbVertex
100
AcDb2dVertex
 10
30.46994635340843
 20
20.94794893198809
 30
0.0
 42
-0.0589490663873819
  0
SEQEND
  5
20D
330
1F1
100
AcDbEntity
  8
0
  0
ELLIPSE
  5
20E
330
2
100
AcDbEntity
  8
0
100
AcDbEllipse
 10
28.99547212592802
 20
20.28659263744657
 30
0.0
 11
0.0878708123580054
 21
0.2065320550555043
 31
0.0
210
0.0
220
0.0
230
1.0
 40
0.6712413703634488
 41
2.352820198665336
 42
7.100790044620265
  0
ELLIPSE
  5
20F
330
2
100
AcDbEntity
  8
0
100
AcDbEllipse
 10
29.50674955116733
 20
22.14172846527458
 30
0.0
 11
-0.2171594980006831
 21
-0.173912613080347
 31
0.0
210
0.0
220
0.0
230
1.0
 40
0.7356898586556864
 41
2.666381976218052
 42
7.00560158109678
  0
ELLIPSE
  5
210
330
2
100
AcDbEntity
  8
0
100
AcDbEllipse
 10
29.50674955116733
 20
22.14172846527458
 30
0.0
 11
-0.2171594980006831
 21
-0.173912613080347
 31
0.0
210
0.0
220
0.0
230
1.0
 40
0.7356898586556864
 41
7.774292969413259
 42
8.547122479703091
  0
ELLIPSE
  5
211
330
2
100
AcDbEntity
  8
0
100
AcDbEllipse
 10
26.57703391655991
 20
22.27972071490171
 30
0.0
 11
-0.1586814201198194
 21
0.2042916536295252
 31
0.0
210
0.0
220
0.0
230
1.0
 40
0.7304303203114987
 41
5.791767423477494
 42
10.06461968877127
  0
ELLIPSE
  5
212
330
2
100
AcDbEntity
  8
0
100
AcDbEllipse
 10
26.57703391655991
 20
22.27972071490171
 30
0.0
 11
-0.1586814201198194
 21
0.2042916536295252
 31
0.0
210
0.0
220
0.0
230
1.0
 40
0.7304303203114987
 41
10.9019966656526
 42
11.62661930491355
  0
ELLIPSE
  5
213
330
2
100
AcDbEntity
  8
0
100
AcDbEllipse
 10
24.75614346193197
 20
19.18014699640139
 30
0.0
 11
0.2479190981193823
 21
-0.0925113612777295
 31
0.0
210
0.0
220
0.0
230
0.9999999999999996
 40
0.7177242792188429
 41
2.606324269753272
 42
6.848745401999694
  0
ELLIPSE
  5
214
330
2
100
AcDbEntity
  8
0
100
AcDbEllipse
 10
24.75614346193197
 20
19.18014699640139
 30
0.0
 11
0.2479190981193823
 21
-0.0925113612777295
 31
0.0
210
0.0
220
0.0
230
0.9999999999999996
 40
0.7177242792188429
 41
7.686278591559041
 42
8.465913474286624
  0
ELLIPSE
  5
215
330
2
100
AcDbEntity
  8
0
100
AcDbEllipse
 10
23.62004859515878
 20
15.44581928130606
 30
0.0
 11
0.1723439287136444
 21
-0.192424180730768
 31
0.0
210
0.0
220
0.0
230
0.9999999999999998
 40
0.7058933915698731
 41
2.718566686488588
 42
7.276815129577357
  0
ELLIPSE
  5
216
330
2
100
AcDbEntity
  8
0
100
AcDbEllipse
 10
23.62004859515878
 20
15.44581928130606
 30
0.0
 11
0.1723439287136444
 21
-0.192424180730768
 31
0.0
210
0.0
220
0.0
230
0.9999999999999998
 40
0.7058933915698731
 41
8.060701348695166
 42
8.575985258860635
  0
ELLIPSE
  5
217
330
2
100
AcDbEntity
  8
0
100
AcDbEllipse
 10
28.92338482057289
 20
20.0036207476071
 30
0.0
 11
0.0100742301253831
 21
0.0881858337722861
 31
0.0
210
0.0
220
0.0
230
1.0
 40
0.5639676530798945
 41
0.0
 42
6.283185307179586
  0
ARC
  5
218
330
2
100
AcDbEntity
  8
0
100
AcDbCircle
 10
23.09499967966076
 20
18.44985880631793
 30
0.0
 40
5.993741439660251
100
AcDbArc
 50
272.2837153392045
 51
14.17001468523262
  0
POLYLINE
  5
219
330
2
100
AcDbEntity
  8
0
100
AcDb2dPolyline
 66
     1
 10
0.0
 20
0.0
 30
0.0
 70
     2
  0
VERTEX
  5
21A
330
219
100
AcDbEntity
  8
0
100
AcDbVertex
100
AcDb2dVertex
 10
30.7122532389908
 20
20.78948667057932
 30
0.0
 42
-0.0651972217183833
  0
VERTEX
  5
21B
330
219
100
AcDbEntity
  8
0
100
AcDbVertex
100
AcDb2dVertex
 10
31.03509124704988
 20
22.7954025848436
 30
0.0
 42
-0.0769302858885146
 70
     1
  0
VERTEX
  5
21C
330
219
100
AcDbEntity
  8
0
100
AcDbVertex
100
AcDb2dVertex
 10
31.77492885583752
 20
24.35337965718418
 30
0.0
 42
-0.0421572760494638
  0
VERTEX
  5
21D
330
219
100
AcDbEntity
  8
0
100
AcDbVertex
100
AcDb2dVertex
 10
33.09432993203063
 20
25.98108229028969
 30
0.0
 42
-0.0877798921140086
 70
     1
  0
VERTEX
  5
21E
330
219
100
AcDbEntity
  8
0
100
AcDbVertex
100
AcDb2dVertex
 10
33.91209603557764
 20
26.57764723505761
 30
0.0
 42
-0.0959306875048855
  0
VERTEX
  5
21F
330
219
100
AcDbEntity
  8
0
100
AcDbVertex
100
AcDb2dVertex
 10
34.48980796000706
 20
26.73372634737837
 30
0.0
 42
-0.0597126088432014
 70
     1
  0
VERTEX
  5
220
330
219
100
AcDbEntity
  8
0
100
AcDbVertex
100
AcDb2dVertex
 10
35.44478864746998
 20
26.68910444857193
 30
0.0
  0
SEQEND
  5
221
330
219
100
AcDbEntity
  8
0
  0
POLYLINE
  5
222
330
2
100
AcDbEntity
  8
0
100
AcDb2dPolyline
 66
     1
 10
0.0
 20
0.0
 30
0.0
  0
VERTEX
  5
223
330
222
100
AcDbEntity
  8
0
100
AcDbVertex
100
AcDb2dVertex
 10
30.8896397010742
 20
20.66751743775194
 30
0.0
 42
-0.0690316575833152
  0
VERTEX
  5
224
330
222
100
AcDbEntity
  8
0
100
AcDbVertex
100
AcDb2dVertex
 10
31.20758622295466
 20
22.74396832303728
 30
0.0
 42
-0.0769302858885144
  0
VERTEX
  5
225
330
222
100
AcDbEntity
  8
0
100
AcDbVertex
100
AcDb2dVertex
 10
31.92380352947907
 20
24.25220489971901
 30
0.0
 42
-0.0421572760494639
  0
VERTEX
  5
226
330
222
100
AcDbEntity
  8
0
100
AcDbVertex
100
AcDb2dVertex
 10
33.2241251128296
 20
25.85636977671811
 30
0.0
 42
-0.0877798921140092
  0
VERTEX
  5
227
330
222
100
AcDbEntity
  8
0
100
AcDbVertex
100
AcDb2dVertex
 10
33.99122256750889
 20
26.41597165884241
 30
0.0
 42
-0.0959306875048859
  0
VERTEX
  5
228
330
222
100
AcDbEntity
  8
0
100
AcDbVertex
100
AcDb2dVertex
 10
34.50286306395992
 20
26.55420040423701
 30
0.0
 42
-0.0419819600654144
  0
VERTEX
  5
229
330
222
100
AcDbEntity
  8
0
100
AcDbVertex
100
AcDb2dVertex
 10
35.14600570250855
 20
26.5469180783623
 30
0.0
 42
-0.0597126088432013
  0
SEQEND
  5
22A
330
222
100
AcDbEntity
  8
0
  0
ARC
  5
22B
330
2
100
AcDbEntity
  8
0
100
AcDbCircle
 10
32.20263116836691
 20
18.33364442084871
 30
0.0
 40
2.601793982968508
100
AcDbArc
 50
26.38125216287858
 51
118.6458326183395
  0
ARC
  5
22C
330
2
100
AcDbEntity
  8
0
100
AcDbCircle
 10
32.20263116836691
 20
18.33364442084871
 30
0.0
 40
2.521793982968508
100
AcDbArc
 50
27.19726869253236
 51
117.9075667316458
  0
ENDSEC
  0
SECTION
  2
OBJECTS
  0
DICTIONARY
  5
9
330
0
100
AcDbDictionary
281
     1
  3
ACAD_COLOR
350
3E
  3
ACAD_GROUP
350
35
  3
ACAD_LAYOUT
350
16
  3
ACAD_MATERIAL
350
B
  3
ACAD_MLEADERSTYLE
350
41
  3
ACAD_MLINESTYLE
350
36
  3
ACAD_PLOTSETTINGS
350
37
  3
ACAD_PLOTSTYLENAME
350
8
  3
ACAD_SCALELIST
350
3F
  3
ACAD_TABLESTYLE
350
40
  3
ACAD_VISUALSTYLE
350
2B
  3
ACDB_RECOMPOSE_DATA
350
23B
  3
AcDbVariableDictionary
350
22D
  3
AcDsDecomposeData
350
241
  0
DICTIONARY
  5
1E
330
1D
100
AcDbDictionary
280
     1
281
     1
  3
ACAD_LAYERSTATES
360
1F
  0
DICTIONARY
  5
6
330
5
100
AcDbDictionary
280
     1
281
     1
  0
DICTIONARY
  5
3
330
2
100
AcDbDictionary
280
     1
281
     1
  0
DICTIONARY
  5
3E
102
{ACAD_REACTORS
330
9
102
}
330
9
100
AcDbDictionary
281
     1
  0
DICTIONARY
  5
35
102
{ACAD_REACTORS
330
9
102
}
330
9
100
AcDbDictionary
281
     1
  0
DICTIONARY
  5
16
102
{ACAD_REACTORS
330
9
102
}
330
9
100
AcDbDictionary
281
     1
  3
Model
350
15
  3
レイアウト1
350
1C
  0
DICTIONARY
  5
B
102
{ACAD_REACTORS
330
9
102
}
330
9
100
AcDbDictionary
281
     1
  3
ByBlock
350
3B
  3
ByLayer
350
38
  3
Global
350
A
  0
DICTIONARY
  5
41
102
{ACAD_REACTORS
330
9
102
}
330
9
100
AcDbDictionary
281
     1
  0
DICTIONARY
  5
36
102
{ACAD_REACTORS
330
9
102
}
330
9
100
AcDbDictionary
281
     1
  3
Standard
350
42
  0
DICTIONARY
  5
37
102
{ACAD_REACTORS
330
9
102
}
330
9
100
AcDbDictionary
281
     1
  0
ACDBDICTIONARYWDFLT
  5
8
102
{ACAD_REACTORS
330
9
102
}
330
9
100
AcDbDictionary
281
     1
  3
Normal
350
7
100
AcDbDictionaryWithDefault
340
7
  0
DICTIONARY
  5
3F
102
{ACAD_REACTORS
330
9
102
}
330
9
100
AcDbDictionary
281
     1
  3
A0
350
47
  3
A1
350
48
  3
A2
350
49
  3
A3
350
4A
  3
A4
350
4B
  3
A5
350
4C
  3
A6
350
4D
  3
A7
350
4E
  3
A8
350
4F
  3
A9
350
50
  3
B0
350
51
  3
B1
350
52
  3
B2
350
53
  3
B3
350
54
  3
B4
350
55
  3
B5
350
56
  3
B6
350
57
  0
DICTIONARY
  5
40
102
{ACAD_REACTORS
330
9
102
}
330
9
100
AcDbDictionary
281
     1
  3
Standard
350
43
  0
DICTIONARY
  5
2B
102
{ACAD_REACTORS
330
9
102
}
330
9
100
AcDbDictionary
281
     1
  3
2dWireframe
350
2A
  3
Realistic
350
45
  3
Wireframe
350
46
  0
XRECORD
  5
23B
102
{ACAD_REACTORS
330
9
102
}
330
9
100
AcDbXrecord
280
     1
 90
        1
330
43
  0
DICTIONARY
  5
22D
102
{ACAD_REACTORS
330
9
102
}
330
9
100
AcDbDictionary
281
     1
  3
CANNOSCALE
350
233
  3
CMLEADERSTYLE
350
22F
  3
CTABLESTYLE
350
22E
  3
CVIEWDETAILSTYLE
350
230
  3
CVIEWSECTIONSTYLE
350
231
  3
LAYEREVAL
350
235
  3
LAYERNOTIFY
350
236
  3
LIGHTINGUNITS
350
234
  3
MSLTSCALE
350
232
  3
PSOLHEIGHT
350
238
  3
PSOLWIDTH
350
237
  3
XCLIPFRAME
350
239
  0
DICTIONARY
  5
241
102
{ACAD_REACTORS
330
9
102
}
330
9
100
AcDbDictionary
281
     1
  3
AcDsRecords
350
243
  3
AcDsSchemas
350
242
1001
ACAD
1070
     2
  0
DICTIONARY
  5
1F
102
{ACAD_REACTORS
330
1E
102
}
330
1E
100
AcDbDictionary
281
     1
  0
LAYOUT
  5
15
102
{ACAD_XDICTIONARY
360
17
102
}
102
{ACAD_REACTORS
330
16
102
}
330
16
100
AcDbPlotSettings
  1

  2
none_device
  4
ISO_A4_(210.00_x_297.00_MM)
  6

 40
7.5
 41
20.0
 42
7.5
 43
20.0
 44
210.0
 45
297.0
 46
11.54999923706054
 47
-13.65000009536743
 48
0.0
 49
0.0
140
0.0
141
0.0
142
1.0
143
8.704084754739808
 70
 11952
 72
     1
 73
     0
 74
     0
  7

 75
     0
147
0.1148885871608098
 76
     0
 77
     2
 78
   300
148
0.0
149
0.0
100
AcDbLayout
  1
Model
 70
     1
 71
     0
 10
0.0
 20
0.0
 11
12.0
 21
9.0
 12
0.0
 22
0.0
 32
0.0
 14
0.0
 24
0.0
 34
0.0
 15
0.0
 25
0.0
 35
0.0
146
0.0
 13
0.0
 23
0.0
 33
0.0
 16
1.0
 26
0.0
 36
0.0
 17
0.0
 27
1.0
 37
0.0
 76
     0
330
2
331
29
1001
ACAD_PSEXT
1000
None
1000
None
1000
Not applicable
1000
The layout will not be plotted unless a new plotter configuration name is selected.
1070
     0
  0
LAYOUT
  5
1C
102
{ACAD_REACTORS
330
16
102
}
330
16
100
AcDbPlotSettings
  1

  2
C:\Documents and Settings\basas\Application Data\Autodesk\AutoCAD 2005\R16.1\enu\plotters\Default Windows System Printer.pc3
  4

  6

 40
0.0
 41
0.0
 42
0.0
 43
0.0
 44
0.0
 45
0.0
 46
0.0
 47
0.0
 48
0.0
 49
0.0
140
0.0
141
0.0
142
1.0
143
1.0
 70
   688
 72
     0
 73
     0
 74
     5
  7

 75
    16
147
1.0
 76
     0
 77
     2
 78
   300
148
0.0
149
0.0
100
AcDbLayout
  1
レイアウト1
 70
     1
 71
     1
 10
0.0
 20
0.0
 11
12.0
 21
9.0
 12
0.0
 22
0.0
 32
0.0
 14
0.0
 24
0.0
 34
0.0
 15
0.0
 25
0.0
 35
0.0
146
0.0
 13
0.0
 23
0.0
 33
0.0
 16
1.0
 26
0.0
 36
0.0
 17
0.0
 27
1.0
 37
0.0
 76
     0
330
19
  0
MATERIAL
  5
3B
102
{ACAD_XDICTIONARY
360
3C
102
}
102
{ACAD_REACTORS
330
B
102
}
330
B
100
AcDbMaterial
  1
ByBlock
  0
MATERIAL
  5
38
102
{ACAD_XDICTIONARY
360
39
102
}
102
{ACAD_REACTORS
330
B
102
}
330
B
100
AcDbMaterial
  1
ByLayer
  0
MATERIAL
  5
A
102
{ACAD_XDICTIONARY
360
C
102
}
102
{ACAD_REACTORS
330
B
102
}
330
B
100
AcDbMaterial
  1
Global
 43
0.0007999999797903
 43
0.0
 43
0.0
 43
0.0
 43
0.0
 43
0.0007999999797903
 43
0.0
 43
0.0
 43
0.0
 43
0.0
 43
1.0
 43
0.0
 43
0.0
 43
0.0
 43
0.0
 43
1.0
 49
0.0007999999797903
 49
0.0
 49
0.0
 49
0.0
 49
0.0
 49
0.0007999999797903
 49
0.0
 49
0.0
 49
0.0
 49
0.0
 49
1.0
 49
0.0
 49
0.0
 49
0.0
 49
0.0
 49
1.0
142
0.0007999999797903
142
0.0
142
0.0
142
0.0
142
0.0
142
0.0007999999797903
142
0.0
142
0.0
142
0.0
142
0.0
142
1.0
142
0.0
142
0.0
142
0.0
142
0.0
142
1.0
144
0.0007999999797903
144
0.0
144
0.0
144
0.0
144
0.0
144
0.0007999999797903
144
0.0
144
0.0
144
0.0
144
0.0
144
1.0
144
0.0
144
0.0
144
0.0
144
0.0
144
1.0
1001
ACAD
1070
    -1
1070
     3
1070
     0
1000

1071
        0
1070
     0
  0
MLINESTYLE
  5
42
102
{ACAD_REACTORS
330
36
102
}
330
36
100
AcDbMlineStyle
  2
STANDARD
 70
     0
  3

 62
   256
 51
90.0
 52
90.0
 71
     2
 49
0.5
 62
   256
  6
BYLAYER
 49
-0.5
 62
   256
  6
BYLAYER
  0
ACDBPLACEHOLDER
  5
7
102
{ACAD_REACTORS
330
8
102
}
330
8
  0
SCALE
  5
47
102
{ACAD_REACTORS
330
3F
102
}
330
3F
100
AcDbScale
 70
     0
300
1:1
140
1.0
141
1.0
290
     1
  0
SCALE
  5
48
102
{ACAD_REACTORS
330
3F
102
}
330
3F
100
AcDbScale
 70
     0
300
1:2
140
1.0
141
2.0
290
     0
  0
SCALE
  5
49
102
{ACAD_REACTORS
330
3F
102
}
330
3F
100
AcDbScale
 70
     0
300
1:4
140
1.0
141
4.0
290
     0
  0
SCALE
  5
4A
102
{ACAD_REACTORS
330
3F
102
}
330
3F
100
AcDbScale
 70
     0
300
1:5
140
1.0
141
5.0
290
     0
  0
SCALE
  5
4B
102
{ACAD_REACTORS
330
3F
102
}
330
3F
100
AcDbScale
 70
     0
300
1:8
140
1.0
141
8.0
290
     0
  0
SCALE
  5
4C
102
{ACAD_REACTORS
330
3F
102
}
330
3F
100
AcDbScale
 70
     0
300
1:10
140
1.0
141
10.0
290
     0
  0
SCALE
  5
4D
102
{ACAD_REACTORS
330
3F
102
}
330
3F
100
AcDbScale
 70
     0
300
1:16
140
1.0
141
16.0
290
     0
  0
SCALE
  5
4E
102
{ACAD_REACTORS
330
3F
102
}
330
3F
100
AcDbScale
 70
     0
300
1:20
140
1.0
141
20.0
290
     0
  0
SCALE
  5
4F
102
{ACAD_REACTORS
330
3F
102
}
330
3F
100
AcDbScale
 70
     0
300
1:30
140
1.0
141
30.0
290
     0
  0
SCALE
  5
50
102
{ACAD_REACTORS
330
3F
102
}
330
3F
100
AcDbScale
 70
     0
300
1:40
140
1.0
141
40.0
290
     0
  0
SCALE
  5
51
102
{ACAD_REACTORS
330
3F
102
}
330
3F
100
AcDbScale
 70
     0
300
1:50
140
1.0
141
50.0
290
     0
  0
SCALE
  5
52
102
{ACAD_REACTORS
330
3F
102
}
330
3F
100
AcDbScale
 70
     0
300
1:100
140
1.0
141
100.0
290
     0
  0
SCALE
  5
53
102
{ACAD_REACTORS
330
3F
102
}
330
3F
100
AcDbScale
 70
     0
300
2:1
140
2.0
141
1.0
290
     0
  0
SCALE
  5
54
102
{ACAD_REACTORS
330
3F
102
}
330
3F
100
AcDbScale
 70
     0
300
4:1
140
4.0
141
1.0
290
     0
  0
SCALE
  5
55
102
{ACAD_REACTORS
330
3F
102
}
330
3F
100
AcDbScale
 70
     0
300
8:1
140
8.0
141
1.0
290
     0
  0
SCALE
  5
56
102
{ACAD_REACTORS
330
3F
102
}
330
3F
100
AcDbScale
 70
     0
300
10:1
140
10.0
141
1.0
290
     0
  0
SCALE
  5
57
102
{ACAD_REACTORS
330
3F
102
}
330
3F
100
AcDbScale
 70
     0
300
100:1
140
100.0
141
1.0
290
     0
  0
TABLESTYLE
  5
43
102
{ACAD_XDICTIONARY
360
44
102
}
102
{ACAD_REACTORS
330
40
102
}
330
40
100
AcDbTableStyle
  3
Standard
 70
     0
 71
     0
 40
1.5
 41
1.5
280
     0
281
     0
  7
Standard
140
4.5
170
     2
 62
     0
 63
     7
283
     0
274
    -2
284
     1
 64
     0
275
    -2
285
     1
 65
     0
276
    -2
286
     1
 66
     0
277
    -2
287
     1
 67
     0
278
    -2
288
     1
 68
     0
279
    -2
289
     1
 69
     0
  7
Standard
140
6.0
170
     5
 62
     0
 63
     7
283
     0
274
    -2
284
     1
 64
     0
275
    -2
285
     1
 65
     0
276
    -2
286
     1
 66
     0
277
    -2
287
     1
 67
     0
278
    -2
288
     1
 68
     0
279
    -2
289
     1
 69
     0
  7
Standard
140
4.5
170
     5
 62
     0
 63
     7
283
     0
274
    -2
284
     1
 64
     0
275
    -2
285
     1
 65
     0
276
    -2
286
     1
 66
     0
277
    -2
287
     1
 67
     0
278
    -2
288
     1
 68
     0
279
    -2
289
     1
 69
     0
  0
VISUALSTYLE
  5
2A
102
{ACAD_XDICTIONARY
360
245
102
}
102
{ACAD_REACTORS
330
2B
102
}
330
2B
100
AcDbVisualStyle
  2
2dWireframe
 70
     4
 71
     0
 72
     2
 73
     1
 90
        0
 40
-0.6
 41
-30.0
 62
     5
 63
     7
421
 16777215
 74
     1
 91
        4
 64
     7
 65
   257
 75
     1
175
     1
 42
1.0
 92
        0
 66
   257
 43
1.0
 76
     1
 77
     6
 78
     2
 67
     7
 79
     5
170
     0
171
     0
290
     0
174
     0
 93
        1
 44
0.0
173
     0
291
     0
 45
0.0
1001
ACAD
1000
AcDbSavedByObjectVersion
1070
     0
  0
VISUALSTYLE
  5
45
102
{ACAD_XDICTIONARY
360
24A
102
}
102
{ACAD_REACTORS
330
2B
102
}
330
2B
100
AcDbVisualStyle
  2
Realistic
 70
     8
 71
     2
 72
     3
 73
     0
 90
        2
 40
-0.6
 41
30.0
 62
     5
 63
     7
421
 16777215
 74
     0
 91
        0
 64
     7
 65
   257
 75
     1
175
     1
 42
1.0
 92
        8
 66
   257
 43
1.0
 76
     1
 77
     6
 78
     2
 67
     7
 79
     3
170
     0
171
     0
290
     0
174
     0
 93
       13
 44
0.0
173
     0
291
     0
 45
0.0
1001
ACAD
1000
AcDbSavedByObjectVersion
1070
     0
  0
VISUALSTYLE
  5
46
102
{ACAD_XDICTIONARY
360
24C
102
}
102
{ACAD_REACTORS
330
2B
102
}
330
2B
100
AcDbVisualStyle
  2
Wireframe
 70
     5
 71
     0
 72
     2
 73
     0
 90
        0
 40
-0.6
 41
-30.0
 62
     5
 63
     7
421
 16777215
 74
     1
 91
        4
 64
     7
 65
   257
 75
     1
175
     1
 42
1.0
 92
        0
 66
   257
 43
1.0
 76
     1
 77
     6
 78
     2
 67
     7
 79
     3
170
     0
171
     0
290
     0
174
     0
 93
        1
 44
0.0
173
     0
291
     0
 45
0.0
1001
ACAD
1000
AcDbSavedByObjectVersion
1070
     0
  0
DICTIONARYVAR
  5
233
102
{ACAD_REACTORS
330
22D
102
}
330
22D
100
DictionaryVariables
280
     0
  1
1:1
  0
DICTIONARYVAR
  5
22F
102
{ACAD_REACTORS
330
22D
102
}
330
22D
100
DictionaryVariables
280
     0
  1
STANDARD
  0
DICTIONARYVAR
  5
22E
102
{ACAD_REACTORS
330
22D
102
}
330
22D
100
DictionaryVariables
280
     0
  1
STANDARD
  0
DICTIONARYVAR
  5
230
102
{ACAD_REACTORS
330
22D
102
}
330
22D
100
DictionaryVariables
280
     0
  1

  0
DICTIONARYVAR
  5
231
102
{ACAD_REACTORS
330
22D
102
}
330
22D
100
DictionaryVariables
280
     0
  1

  0
DICTIONARYVAR
  5
235
102
{ACAD_REACTORS
330
22D
102
}
330
22D
100
DictionaryVariables
280
     0
  1
0
  0
DICTIONARYVAR
  5
236
102
{ACAD_REACTORS
330
22D
102
}
330
22D
100
DictionaryVariables
280
     0
  1
0
  0
DICTIONARYVAR
  5
234
102
{ACAD_REACTORS
330
22D
102
}
330
22D
100
DictionaryVariables
280
     0
  1
2
  0
DICTIONARYVAR
  5
232
102
{ACAD_REACTORS
330
22D
102
}
330
22D
100
DictionaryVariables
280
     0
  1
1
  0
DICTIONARYVAR
  5
238
102
{ACAD_REACTORS
330
22D
102
}
330
22D
100
DictionaryVariables
280
     0
  1
80.000000
  0
DICTIONARYVAR
  5
237
102
{ACAD_REACTORS
330
22D
102
}
330
22D
100
DictionaryVariables
280
     0
  1
5.000000
  0
DICTIONARYVAR
  5
239
102
{ACAD_REACTORS
330
22D
102
}
330
22D
100
DictionaryVariables
280
     0
  1
2
  0
DICTIONARY
  5
243
102
{ACAD_REACTORS
330
241
102
}
330
241
100
AcDbDictionary
281
     1
  0
DICTIONARY
  5
242
102
{ACAD_REACTORS
330
241
102
}
330
241
100
AcDbDictionary
281
     1
  3
1012073920
350
23C
  3
1012073936
350
23D
  3
1012073952
350
23E
  3
1012073968
350
23F
  3
1012073984
350
240
  0
DICTIONARY
  5
17
330
15
100
AcDbDictionary
280
     1
281
     1
  0
DICTIONARY
  5
3C
330
3B
100
AcDbDictionary
280
     1
281
     1
  3
ACAD_XREC_ROUNDTRIP
360
248
  3
FBXASSET
360
3D
  0
DICTIONARY
  5
39
330
38
100
AcDbDictionary
280
     1
281
     1
  3
ACAD_XREC_ROUNDTRIP
360
247
  3
FBXASSET
360
3A
  0
DICTIONARY
  5
C
330
A
100
AcDbDictionary
280
     1
281
     1
  3
ACAD_XREC_ROUNDTRIP
360
244
  3
BUMPTILE
360
D
  3
DIFFUSETILE
360
E
  3
FBXASSET
360
F
  3
OPACITYTILE
360
10
  3
REFLECTIONTILE
360
11
  0
DICTIONARY
  5
44
330
43
100
AcDbDictionary
280
     1
281
     1
  3
ACAD_ROUNDTRIP_2008_TABLESTYLE_CELLSTYLEMAP
360
23A
  3
ACAD_XREC_ROUNDTRIP
360
249
  0
DICTIONARY
  5
245
330
2A
100
AcDbDictionary
280
     1
281
     1
  3
ACAD_XREC_ROUNDTRIP
360
246
  0
DICTIONARY
  5
24A
330
45
100
AcDbDictionary
280
     1
281
     1
  3
ACAD_XREC_ROUNDTRIP
360
24B
  0
DICTIONARY
  5
24C
330
46
100
AcDbDictionary
280
     1
281
     1
  3
ACAD_XREC_ROUNDTRIP
360
24D
  0
XRECORD
  5
23C
102
{ACAD_REACTORS
330
242
102
}
330
242
100
AcDbXrecord
280
     1
  1
AcDb_Thumbnail_Schema
102
{ATTRRECORD
341
23D
  2
AcDbDs::TreatedAsObjectData
280
     1
291
     1
102
ATTRRECORD}
102
{ATTRRECORD
341
23E
  2
AcDbDs::Legacy
280
     1
291
     1
102
ATTRRECORD}
  2
AcDbDs::ID
280
    10
 91
        8
102
{ATTRRECORD
341
23F
  2
AcDs:Indexable
280
     1
291
     1
102
ATTRRECORD}
102
{ATTRRECORD
341
240
  2
AcDbDs::HandleAttribute
280
     7
282
     1
102
ATTRRECORD}
  2
Thumbnail_Data
280
    15
 91
        0
  0
XRECORD
  5
23D
102
{ACAD_REACTORS
330
242
102
}
330
242
100
AcDbXrecord
280
     1
  1
AcDbDs::TreatedAsObjectDataSchema
  2
AcDbDs::TreatedAsObjectData
280
     1
 91
        0
  0
XRECORD
  5
23E
102
{ACAD_REACTORS
330
242
102
}
330
242
100
AcDbXrecord
280
     1
  1
AcDbDs::LegacySchema
  2
AcDbDs::Legacy
280
     1
 91
        0
  0
XRECORD
  5
23F
102
{ACAD_REACTORS
330
242
102
}
330
242
100
AcDbXrecord
280
     1
  1
AcDbDs::IndexedPropertySchema
  2
AcDs:Indexable
280
     1
 91
        0
  0
XRECORD
  5
240
102
{ACAD_REACTORS
330
242
102
}
330
242
100
AcDbXrecord
280
     1
  1
AcDbDs::HandleAttributeSchema
  2
AcDbDs::HandleAttribute
280
     7
 91
        1
284
     1
  0
XRECORD
  5
248
102
{ACAD_REACTORS
330
3C
102
}
330
3C
100
AcDbXrecord
280
     1
102
MATERIAL
148
0.0
149
0.0
149
0.0
 93
        0
 94
       63
282
     0
 72
     1
 77
     1
171
     1
175
     1
179
     1
273
     0
  0
XRECORD
  5
3D
102
{ACAD_REACTORS
330
3C
102
}
330
3C
100
AcDbXrecord
280
     1
 70
     1
 90
429727718
  1
D62C5603-E3A1-4AEA-B7FB-FE5D8D0755AF
310
504B03040A0000080000CC70623B3DEE336E79000000790000001B0000006175746F6465736B2D64657369676E2D7061636B6167652E786D6C3C3F786D6C2076657273696F6E3D22312E302220656E636F64696E673D227574662D3822203F3E3C666F726D6174733E3C666F726D61743E687474703A2F2F736368656D612E
310
6175746F6465736B2E636F6D2F64657369676E2D7061636B6167652F323030393C2F666F726D61743E3C2F666F726D6174733E504B0304140006080800CC70623BD486FD9CA0000000F4000000130000005B436F6E74656E745F54797065735D2E786D6C7D8EC10E82300C865F65E91D8A1E8C310C0EEA1BF002731658846E
310
D98AC1B77784ABF1D8FE5FBFBF75BBCE937A534CCEB38643598122B6FEE978D0B0485F9C41B54DDD7D022595594E1A469170414C76A4D9A4D207E29CF43ECE46F218070CC6BECC4078ACAA135ACF422C856C0E68EA1BF5669944DDD7BCDE7B1F8E415D77AECB980613C2E4AC91FC167A2B244592486606FC29C8FD7F045B9A
310
EF7053A7E60B504B0304140006080800CC70623B853B8169EB0000007C01000008000000636F72652E786D6C8D90416EC3201045AF62CDB6C206821CC7C244919D9CA01740401C94182C03558F5F9C3852BBEB6A467FFE9B197D7EFC9E1EC5975982F5AE035262288C535E5B377690E21535501C055FBC8FBF6C503839990E
310
5619041F179FE64D52DE45E362569DD7661365082642A11EB9E920A89B99642953CC8E702F67A9EE7234257977194EC9EAE275C4EABCCF5EAD5940D4AC6F0E35A568B8F43562CD7046CD199FD07E60174276A7BE677B5EADB0E0D14EEFFB6A31321A0D82627C4084204C3F096B71DD52F6819B16635EADF63F509AF53FA164
310
5DDCD1EDDD17164090FCC8732078B56691CB33A85CD7DCC40F504B0304140006080800CC70623B55019EA25F0000007C00000007000000636E782E786D6C4DCB3B0E80201045D1AD90E915ED2CF8AC45050C11660C8261F98AB1B07AC9C97D42D718D865D3E909258CFD00CCE24AC6E326A164D74DC0B4128928FF32603847
310
2BA13128B1252AC747C6BAB984FC68F0B87FE8960A5C09FE86CFB69FBA01504B0304140006080800CC70623BDBABAAF470010000D40300000C0000006662782F636F72652E786D6CC553D16E823014FD95A6AF4B694182CC941A83FA05FB810A9511A125A5257EFE2E82712ECEB8A7F100CD39F7F69E734AF9FADC366850B6
310
AF8DCE7018308C942E4C59EB2AC3DE1D498AD15A706B8CFB56869196ADCAF00863C12B6B7C374385D14E6907A836A59A41D9F7CA615434B0C8705F7CAA5606D23BA8E84F41278B93AC54100640439DE0BDB320004D43C63716C7C399D30917DCFBBA9CD9BA8469F5B156168B24CED3F7248AC8769F27244EB73B92EED8862C
310
B7F13E0C179B3C8F979C8ECD82BBBABDAA2BAC924E9558448CBD9330242CFA08E3154B5651FCC6D215639C8EE5774DBE2B5F6CF2B5768B68963BB5F5588420E442FC700B1139D4CB01F450C1E918227C2E09DF070D8140C84E1E9AAB8F1340832A9CB13130A5F1376A908D57309505ECF2A0DF179C4E9D30F5B239B87E3823
310
7A79C6F31DE1A8A5AEC08474B03C7837EAE4938639B44E5932B833D2C6B6B279CDC613877FA26EE21F4A2A4C63EC7F29A2F301D1F9F7A0E37D145F504B0304140006080800CC70623B9C113CC27E0000009D0000000B0000006662782F636E782E786D6C4DCCDF0A83201C86E15B91DFB94BFB330DD428C8FB886521330DA7
310
6397BF1A1DECE883878F57749FCDA1B7892F1BBC047A23808C7F84D9FA55424E0BE6803A256208E9EF06C84F9B91703228B1C690F78B66B34CD9A5439DF5CF0BFBF65E35BCA1B8D6A5C6F540381E886698B5741C695F9503EBA150A2F8958E3DC3EA0B504B0304140006080800CC70623B7DF2F77C2A010000120200003100
310
00006662782F41393633353835312D344632462D344230382D423046372D3739314545314133324237412F636F72652E786D6C8D51DB8EC22014FC15C2939B0D2DB4B45643319AE817EC0F6041255A68B86CFCFC856D4D76DF7CE190393373060EDB3DC707F856CE6B6B7A480A0C81328395DA5C7B18C3057510EC3873D686
310
3F34088C18550F330C39BB3A1BA7051AAC09CA84841A2BD5020AEF55806078A44B0FFD7053A328440C89E1EFC52486BBB8AA8214A99D789CF9E05200300FC927E4FB4D5B375D43103D5527440FB843077C5AA3F5861C8F645F5787F59E95B390B318B55CE45AA638FAA2957BD7248B390B7A7CC51F9C124149C82B8C378810
310
84AB2F42B7B8DD56F413775B8C5999E9FF4471926F8AA236A1AE96B8B3CC434E5839373893369E1FAF30EA395917409EB7F26AF8801C171837A4A6AC9C89E9F9C9B1A58BA30FD6A5EF5DDDCF894B9AD9B6A59C957943A9FCAE2FD5BC4DFE03504B0304140006080800CC70623BAD7543B64E01000033030000300000006662
310
782F41393633353835312D344632462D344230382D423046372D3739314545314133324237412F636E782E786D6CD593CD6EC32010845F0571AD6CE3D48AD20813A9873E410FBD12D82434182C7EAAE6EDBB2424CD25871E7B41D6EC30B3FA84F9E67BB2E40B4234DE8DB46F1925E094D7C6ED479AD3AE5951B2113C789FEE
310
6C943839C1488B4C05DF079FE72A69D8C96C13AAD6B8631503449F83828872B949AC57D26200B826A308D316B4064D6E46FCDA41C05550DC9E483A00797BFD207EFB092A45DE9514C1BBD22178396BD39D891265658C238DEA00936C654E5E433CB65A26D9F6EDB5EBC14EBF49A45CB856E66048291F6939A9A81BB5C89177
310
38143CA680F4AA299D66A042CEB3354A2684DC9D8D178FE0D9B8B41CAAD720F880EE7EF93C0C18769E099ECC04D5A102C8049A8A05632F4DDF376CF1DE0F6BB65C2F8627B65A33C6BB62177CEBBDAD973006829F89F22E814B54F4BC2BE347F8AA8F681390B50FA73F804400B5F542E796F19FF974E7F78DB802FE05E20750
310
4B0304140006080800CC70623BE75B7789680500003C100000340000006662782F41393633353835312D344632462D344230382D423046372D3739314545314133324237412F6F626A656374732E786D6CAD575B8F9B3818FD2B887D06C22499CB8AA1CA655245D5B455A356FB305264C061D8018C6C3393D95FBFC7600890
310
A4CD5EF210B0B1BFEBF98E3F7B1FF6596ABC522E1296DF9BAE3D320D9A872C4AF2F8DE2CE5CEBA358D0FBEC719939D65A691938CDE9B6ADAF4BD98B3B2D05311DD91329583D9D5FC0F438434A7A611A644887B5384CF34233629258BA878B12322891DEFF6B66BD70BFB62634E8AE781D082709A4B588AF91C528CDA28B73F
310
1C998EEF39EABBEFA97FBD6A7C7E9553F9D3D79FE442923C3C523610337627CB87ABE99D359D4CC6D6E4FACAB5E6ABF9D2726FC6A3C5F56271377BB88362213924694B38DD99FE47C48627A1E7D49F5A8BB5E1A74C0A599ED3B0F21F1E56366B89112D681E218F0915D0D6F17AD41FBA2A369DCF6335D62ABBD39779D5DDD1
310
11D4D8DE3CBB96B2E04FB8202E41051754A1AA8E8F76B4C6DFE810B580B1547F4B84911149794252234D024EF8BBE963A95AE27B3D310A9D5C215C7960FAEE415ED75694C6AFB17BCACA5D99A60A9AA65F217B0BFC53292ACB92BF283FAD0D3621576592CB5BED907C2FA8E9DF794E35E97BEA31BED21FEB401ABB94C44839
310
DCACBF0E1C5DA8DA5B2F4DFFD32AD86F543D9E565E7056502E157C00AD2671CD534549AB752FCA9CDA00677A313F04E51B22FF19E57B300579E3C97EB29F682D92935CEC18CF901B7B54FD8C51F362B56FC72FE0B3C1EAE335EDCCBF5AEC39ADB17DC238973F804BA5E6F6BFE7AF1FB32E523BE9F3BD571418E3631DCA4D48
310
5250CF639223210A9446CA30052EDF057BD35F8329C1ECD84552BF0DC8D18BE7BCE23BFE6BD960AB4A7DE79923A103BEBD80F911CBAA2C60DB19B01CF164A5583B772EE6D3FFA56666CBCDA74DC97724A48F9A58967497E489C4D979006FD7A05E227A1EBDD0F737C623387A9C844D3709995625106D157315F8B8392CD4E0
310
A0B9A720C4BE9829CEF37EA1E13111214D53925356365ADA634861B52519DD27A00AEB808EAF0628E6F435519D446F45CF2C9CF5214F0A15B2F6D06B79DA3EE3CBF7F56780D2F4E7EF73A0F5E5B02A38D07DC852C6B7C1FBB6664213E0C39E3EBA7FF4E1AD23EA2829407C85E586727488B751B2DB9502BC7B228A3FD68B6E
310
A65A22397E690AA8D158D7E404EC8CDA235CC3B7D1898680131CEC2CDF2638C65196279577750F15884AEE19F94199155B92B13297978469D4F8D358DF0AEF7631E28DC8F0D9F437D5D39A83B2231A1D52D543813A824EF8D44BCFF2FA6A31BD1E8DAD87F1CCB526B3879935BF59CDADD5C37479BB1CDD4CA7B3556B516589
310
EF352754B706114D9C885EC9131DE6EFEB43D99AFE2391C2F958179413D7CFEF6B1B6DB1E7600F00DE6E5C67454A339A4BA2E0FBA85ED26F045D454F463DBFCE484C2F90F2E5E3666003662ED8F755951A7D1BECD5B30B550B2785C8E7320B7292A4838DDA71BBC863ED7613CAF659337A3354231D4FF4A182A54904C2898C
310
98B28C4AD0CE056CCF332A80986E571EE9DBC305BB5FEB7E509220A58D25CF042D712A806AC0AD0C657FDEF80D2D9CEAA2EE4D1C76F60BFE74219A06527D6F82DF6412526107381E55E353090704D085B52408A8913C4ED159D79BDA71BB4BC506F4831350EB6F975CD22D69BF7AC49B91A2C0A9DDA3D5CA36AD20FC478E37
310
E61844E2352865EBCB61A275A65283CAAA9DD27703B4102F5AF51EF5F573B75CBB5AD38BC845F7A49F82A0966A49C2E3EA5EA0ECD326CD965F1DB402C6FA8B51A4658C5C5E2EC9E214602E55810345408596591009A82E7E7FFACA19EEA299B14A0081A705CB3296EBC14CDF658DCD336EA6D1136881AAEB87B81AB9EE53D5
310
F5EB8BC8362082DA24122F98680A4E7930C01A0079749CEA14382A0783E5EBA5A10F8C098456A03D6A4AEB6BB881E2513747552A5DB22C7EDAF83BD5528081A365F7FF06504B0304140006080000CC70623B000000000000000000000000350000006662782F41393633353835312D344632462D344230382D423046372D37
310
39314545314133324237412F76657274696365732E62696E504B0304140006080800CC70623BF270F1330600000004000000360000006662782F41393633353835312D344632462D344230382D423046372D3739314545314133324237412F747269616E676C65732E62696E636660600000504B0304140006080000CC7062
310
3B000000000000000000000000370000006662782F41393633353835312D344632462D344230382D423046372D3739314545314133324237412F617474726962757465732E62696E504B0304140006080800CC70623B08DA0BD19000000041010000360000006662782F41393633353835312D344632462D344230382D4230
310
46372D3739314545314133324237412F6469726563746F72792E786D6C858F410AC3201045AF22B36F53E9A60B35CBEEBAE80D244E44489C6234F4F835464A48035D0DF398FF9F8AF63D0E6CC63039F212F8F9020C7D47C6792B21C5FE7403D62A1188E2E60C98D7234A5830286103A55745067B9D86B8A3CF9C7F90C11DE6
310
07FB144396D7B6A82D282E9A152AD114D5EF2CB866EEE831B8EEA07A7BB5A8D7D61A2BAAEB7FD5F70921FF497D00504B0304140006080800CC70623BEDD1DC58FD000000A00100003B0000006662782F41393633353835312D344632462D344230382D423046372D3739314545314133324237412F7265736F75726365732F
310
636F72652E786D6C8D504B6E833010BD0A9A6D65B00922041947112427E8052C33A156828DFCA97AFC9A40A576D7CDCCE87D344F8F9FBFE667F689CE6B6B3A6039850C8DB2A336530731DC4903D95970676DF82583CCC8193B5861107C72362E3BA4AC096842428D1D7107A5F7182053CF7474E0D507CE32973124857FE48B
310
540F3961CEF244279DE03EB81420DB9EAC1384436FA353E879B1B182C7A8C75DA3C7F453DF353A1075D537A7BA6464B8F535A99AE14A9A2BBD90E350DD183B5CFABE3AF262350B1EF4FC9351399401471025A527C218A1E53BAB5A5AB765F5469B96525EACF23FA6B88CFF34456DC2A1DCE36E360F82A5202F42F062ED2BAD
310
579969AFDD8A6F504B010214000A0000080000CC70623B3DEE336E79000000790000001B00000000000000000000000000000000006175746F6465736B2D64657369676E2D7061636B6167652E786D6C504B01021400140006080800CC70623BD486FD9CA0000000F40000001300000000000000000000000000B20000005B
310
436F6E74656E745F54797065735D2E786D6C504B01021400140006080800CC70623B853B8169EB0000007C010000080000000000000000000000000083010000636F72652E786D6C504B01021400140006080800CC70623B55019EA25F0000007C000000070000000000000000000000000094020000636E782E786D6C504B
310
01021400140006080800CC70623BDBABAAF470010000D40300000C00000000000000000000000000180300006662782F636F72652E786D6C504B01021400140006080800CC70623B9C113CC27E0000009D0000000B00000000000000000000000000B20400006662782F636E782E786D6C504B01021400140006080800CC70
310
623B7DF2F77C2A010000120200003100000000000000000000000000590500006662782F41393633353835312D344632462D344230382D423046372D3739314545314133324237412F636F72652E786D6C504B01021400140006080800CC70623BAD7543B64E010000330300003000000000000000000000000000D2060000
310
6662782F41393633353835312D344632462D344230382D423046372D3739314545314133324237412F636E782E786D6C504B01021400140006080800CC70623BE75B7789680500003C10000034000000000000000000000000006E0800006662782F41393633353835312D344632462D344230382D423046372D3739314545
310
314133324237412F6F626A656374732E786D6C504B01021400140006080000CC70623B0000000000000000000000003500000000000000000000000000280E00006662782F41393633353835312D344632462D344230382D423046372D3739314545314133324237412F76657274696365732E62696E504B01021400140006
310
080800CC70623BF270F133060000000400000036000000000000000000000000007B0E00006662782F41393633353835312D344632462D344230382D423046372D3739314545314133324237412F747269616E676C65732E62696E504B01021400140006080000CC70623B0000000000000000000000003700000000000000
310
000000000000D50E00006662782F41393633353835312D344632462D344230382D423046372D3739314545314133324237412F617474726962757465732E62696E504B01021400140006080800CC70623B08DA0BD1900000004101000036000000000000000000000000002A0F00006662782F41393633353835312D344632
310
462D344230382D423046372D3739314545314133324237412F6469726563746F72792E786D6C504B01021400140006080800CC70623BEDD1DC58FD000000A00100003B000000000000000000000000000E1000006662782F41393633353835312D344632462D344230382D423046372D3739314545314133324237412F7265
310
736F75726365732F636F72652E786D6C504B0506000000000E000E0080040000641100000000
  0
XRECORD
  5
247
102
{ACAD_REACTORS
330
39
102
}
330
39
100
AcDbXrecord
280
     1
102
MATERIAL
148
0.0
149
0.0
149
0.0
 93
        0
 94
       63
282
     0
 72
     1
 77
     1
171
     1
175
     1
179
     1
273
     0
  0
XRECORD
  5
3A
102
{ACAD_REACTORS
330
39
102
}
330
39
100
AcDbXrecord
280
     1
 70
     1
 90
429727718
  1
30362254-06B7-45E0-A893-8CFA70E3D6BC
310
504B03040A0000080000CC70623B3DEE336E79000000790000001B0000006175746F6465736B2D64657369676E2D7061636B6167652E786D6C3C3F786D6C2076657273696F6E3D22312E302220656E636F64696E673D227574662D3822203F3E3C666F726D6174733E3C666F726D61743E687474703A2F2F736368656D612E
310
6175746F6465736B2E636F6D2F64657369676E2D7061636B6167652F323030393C2F666F726D61743E3C2F666F726D6174733E504B0304140006080800CC70623BD486FD9CA0000000F4000000130000005B436F6E74656E745F54797065735D2E786D6C7D8EC10E82300C865F65E91D8A1E8C310C0EEA1BF002731658846E
310
D98AC1B77784ABF1D8FE5FBFBF75BBCE937A534CCEB38643598122B6FEE978D0B0485F9C41B54DDD7D022595594E1A469170414C76A4D9A4D207E29CF43ECE46F218070CC6BECC4078ACAA135ACF422C856C0E68EA1BF5669944DDD7BCDE7B1F8E415D77AECB980613C2E4AC91FC167A2B244592486606FC29C8FD7F045B9A
310
EF7053A7E60B504B0304140006080800CC70623B1EC5D7A3EB0000007C01000008000000636F72652E786D6C8D90416EC3201045AF82665B6103C6756C6122AB4D4ED00B204C5C94182C03558F5F9C3852BBEB6A467FFE9B197D71FC9E6FE8CBACC17AD7032D0820E3B41FAD9B7A48F1820F808E52ACDEC75F36404ECDA687
310
4D0629A6D5A76597B477D1B89855E747B38B2A041301E95B6E7A08FAD3CCAA50296647B8168BD2573599823EBB0CA76447F43862C7BCCF5EAC59410E4DDD9C7973C2755553CCCFA4C603E3040F1565ED3B1FDE4E432BCA0D9622DAF9795FAF464533826484B498524CD807E51D79ED187F21878E10516EF63F505AC67F42C9
310
BA58B1FDDD071640D2FCC87D2045B96591CB3DA85CB7DCE40F504B0304140006080800CC70623B55019EA25F0000007C00000007000000636E782E786D6C4DCB3B0E80201045D1AD90E915ED2CF8AC45050C11660C8261F98AB1B07AC9C97D42D718D865D3E909258CFD00CCE24AC6E326A164D74DC0B4128928FF32603847
310
2BA13128B1252AC747C6BAB984FC68F0B87FE8960A5C09FE86CFB69FBA01504B0304140006080800CC70623B8C9102E971010000D40300000C0000006662782F636F72652E786D6CC5535B6E833010BC8AE5DF0A6C08340F1947A84D4ED00B38C6A128602363A31CBFCB234A53A551FA553EC09AD9F5CE8C31DB9E9B1AF5CA
310
7695D1198E428A91D2D214952E33ECDD315861B4E5CC1AE3BE9561A445A3323CC098B3D21ADFCE9034DA29ED00D5A6503328BA4E398C640D8B0C77F253352214DE4145770A5B214FA2546114020D759C75CE8200340D19DE981F0F6746269C33EFAB6266AB02A655C74A59CCF365BADC27CB5D902ED22848F6340DF238A141
310
BE88E2F57B92BFEDF23523433367AE6A2EEAA455C2A902F398D2751045018D3FA264435F3771F242571B4A1919CA6F9A7C5B3CD9E42BED16F12C776AEB308F40C848FC700B1139D4891EF410CEC810227CC6846F8386402064270EF5C5C709A05E49676C024C61FC95EA45ED154CA5211D1FF4FB8291A913A68E9B83EBBB33
310
E2A7673CDE118E5AE8124C0807CB8377834E366998436B950D7A7746DAD846D4CFD978E0F04FD455FC5D49D2D4C6FE9722321F10997F0F32DC47FE05504B0304140006080800CC70623BFFEA85907E0000009D0000000B0000006662782F636E782E786D6C4DCCD10A83201886E15B91FFDC95D95A811AB6F23E625948A6C3
310
E9D8E5AF46073BFAE0E1E365ED67B3E8ADC3CB78C7815C7240DA3DFC64DCC221C519D7805AC182F7F1EF06C88D9BE6703008B6049F9E274D7A1E938DBB5AE3D6131B2589BA0D3D965551E0B2EA732C9B9A624AAEB41E3A557677029960D9AFB4EF11165F504B0304140006080800CC70623B4FEEA4082C0100001202000031
310
0000006662782F39464131463745442D413632322D343644302D413938332D3331353338454246344243312F636F72652E786D6C8D515B6EC32010BC0AE2AB55850DD871ED0813254D72825EC00192A2C460F1A872FC42ED48ED5F7E00CDCECCCEB26C731F6FE05B39AFADE921293004CA082BB5B9F43086336A21D870E6AC
310
0D7F68109861543DCC30E4ECE26C9C164858139409093556AA051CBC570102714B8F1E7AF1A5C6A11862480C7F2DA6415C878B2A4891CA89C7990F2E050073937C42DE1DB7E4F87ED8A36D4329AA9B3D46DBAEAD504556557BD81DEBDD0761E52CE42C462D17B996298E3E6BE59E35C962CE821E1FF18553435012728A7187
310
0841987E927A8D9B35ADDF70BBC6989599FE4F1427F9A4286A132ABAC49D651EF234CD5CE04CDA78BA3DC2A8FB645D00B9DF8B57E215725C60BCA2A463E54C4CE327C7A65E1C7DB02E7DEFCBF594B864C5CA6CDBD49C957943E9FA5D5FBAF336F90F504B0304140006080800CC70623BAD7543B64E01000033030000300000
310
006662782F39464131463745442D413632322D343644302D413938332D3331353338454246344243312F636E782E786D6CD593CD6EC32010845F0571AD6CE3D48AD20813A9873E410FBD12D82434182C7EAAE6EDBB2424CD25871E7B41D6EC30B3FA84F9E67BB2E40B4234DE8DB46F1925E094D7C6ED479AD3AE5951B2113C
310
789FEE6C943839C1488B4C05DF079FE72A69D8C96C13AAD6B8631503449F83828872B949AC57D26200B826A308D316B4064D6E46FCDA41C05550DC9E483A00797BFD207EFB092A45DE9514C1BBD22178396BD39D891265658C238DEA00936C654E5E433CB65A26D9F6EDB5EBC14EBF49A45CB856E66048291F6939A9A81BB5
310
C8917738143CA680F4AA299D66A042CEB3354A2684DC9D8D178FE0D9B8B41CAAD720F880EE7EF93C0C18769E099ECC04D5A102C8049A8A05632F4DDF376CF1DE0F6BB65C2F8627B65A33C6BB62177CEBBDAD973006829F89F22E814B54F4BC2BE347F8AA8F681390B50FA73F804400B5F542E796F19FF974E7F78DB802FE05
310
E207504B0304140006080800CC70623B16AB87BA640500003C100000340000006662782F39464131463745442D413632322D343644302D413938332D3331353338454246344243312F6F626A656374732E786D6CAD575B6FA33818FD2B887DE6924B3BED8A326A92B68A663B534DD4D13E548A0C38942D60649B369D5FBFC7
310
600890A493BDE42160637FD7F31D7FF63E6FB3D478A55C242CBF3247B66B1A340F5994E4F19559CA8D75611A9F7D8F33263BCB4C232719BD32D5B4E97B316765A1A722BA21652A07B3B7B33F0D11D29C9A46981221AE4C113ED38CD8A4942CA2E2C58E882476BCD9DA23BB5ED8171B73523C0F841684D35CC252CCE79062D4
310
468DFA43D7747CCF51DF7D4FFDEB5593E3AB9CCA9FBEFE241792E4E19EB28198C968BAB8199F5D5A67D3E9C49A9E8F47D6EC76B6B0469F26EEFC7C3EBFBCBEB98462213924694B38DD98FE1D62C393D073EA4FADC5DAF04326852CCF6958F90F0F2B9BB5C48816348F90C7840A68EB78EDF68723159BCEE7891A6B95DDE9D3
310
BCEAEEE8086A6C6F9E5D4B59F0175C10A7A0820BAA5055C7473B5AE3CFDD452D602CD5DF12616444529E90D448938013FE6EFA58AA96F85E4F8C42275708571E98FE6827AF6B2B4AE3D7D83D64E5A64C53054DD3AF90BD06FEA9149565C94FCA0F6B834DC85599E4F2423B24DF0B6AFA979E534DFA9E7A4CC6FA631D486393
310
921829879BF5D781A373557BCB85E97FB90DB62B558F8795179C15944B051F40AB495CF35451D26A4727654E6D8033BD98EF82F21D91FF8AF2DD9982BCF1643BDD4EB516C9492E368C67C88DED563FC36D5EACF66DFF057C3658BDBFA69DF9578B3DA735B64F18C7F20770A9D45CFCF7FCF563D6456A277DBEF78A02637CA2
310
43B90A490AEAB94F72244481D24819A6C0E59B606BFA4B3025981DBB48EAB701D97BF19C577CC77F2D1B6C55A9EF3C732474C0B727303F625995056C3B02963D9EAC146BE78EC5FCEC7FA999EBC5EACBAAE41B12D27B4D2C0BBA49F244E2ECDC81B76B502F113D8F5EE8FB1BE3111CDD4FC2AA9B844CAB1288B68AB90A7CDC
310
1C166AB0D3DC5310625FCC14E779BFD0709F8890A629C9292B1B2DED31A4B0DA928CEE135085754027E3018A397D4D5427D15BD1330B677DC8934285AC3DF45A9EB68FF8F2B8FC0A509AFEECFD0FF2DE25CC6047F7214B195F07EFEB9A094D800F7BFAE8FED187B78EA8A3A400F115961BCAD1215E47C966530AF0EE8128FE
310
58CEBB996A8964FFA529A046635D9353B0336A8F700DDF46271A024E70B0B37C9DE01847591E54DED53D54202AB947E4076556AC49C6CA5C9E1226B7F1A7B1BE15DEED62C41B91E1B3E9AFAAA735036547343A925075041DF0A9979E893B391F8FCFA6967B3EFB644DCF6E5CEBFAE272625DCC6FAF3FB93793C5F90CE1EF57
310
407342756B10D1C489E8953CD1617E5CEECAD6F4EF8914CE5D5D504E5C3F1F9736DA62CFC11E00BCDDB8CC8A9466349744C1F75EBDA4DF09BA8A9E8C7A7E9991989E20E5DBDD6A6003664ED8F7A04A8DBE0DF6EAD9B9AA858342E47399053949D2C146EDB85DE4B176BB0965FBAC19BD19AA918E27FA50C1D22402E144464C
310
59462568E704B6E71915404CB72B8FF4EDE184DDAF753F284990D2C6926782963815403548A70C657FDEF80D2D9CEAA2AE4C1C76F60BFE74219A06527D6582DF6412526107381E55E353090704D085B52408D0933C4ED159D79BDA71BB4BC506F4831350EB6F979CD22D69BF7AC49B91A2C0A9DDA3D5CA36AD20FC478E37E6
310
1844E2352865EBCB6EA275A652E3836BE04EFB400BF1A2556F515F1FBB35B2AB35BD889C744FFA1004B5544B121E57F70215746DD2F5E2C1412B602CBF19455AC6C8E5E9922C4E01E65215385004546899059180EAFCF7A707CE7017CD8CDB0410789AB32C63B91E5CEBBBACB17AC6CD347A022D5075FD106377347AAABA7E
310
7D11590744509B44E205134DC1290F06580320F78E537D3D73540E06CB970B431F185308AD40BBD794D6D77003C5A36E8EAA54BA64597CD8F83BD552A080A365F7FF06504B0304140006080000CC70623B000000000000000000000000350000006662782F39464131463745442D413632322D343644302D413938332D3331
310
353338454246344243312F76657274696365732E62696E504B0304140006080800CC70623BF270F1330600000004000000360000006662782F39464131463745442D413632322D343644302D413938332D3331353338454246344243312F747269616E676C65732E62696E636660600000504B0304140006080000CC70623B
310
000000000000000000000000370000006662782F39464131463745442D413632322D343644302D413938332D3331353338454246344243312F617474726962757465732E62696E504B0304140006080800CC70623B08DA0BD19000000041010000360000006662782F39464131463745442D413632322D343644302D413938
310
332D3331353338454246344243312F6469726563746F72792E786D6C858F410AC3201045AF22B36F53E9A60B35CBEEBAE80D244E44489C6234F4F835464A48035D0DF398FF9F8AF63D0E6CC63039F212F8F9020C7D47C6792B21C5FE7403D62A1188E2E60C98D7234A5830286103A55745067B9D86B8A3CF9C7F90C11DE607
310
FB144396D7B6A82D282E9A152AD114D5EF2CB866EEE831B8EEA07A7BB5A8D7D61A2BAAEB7FD5F70921FF497D00504B0304140006080800CC70623B0D6EF93BFE000000A00100003B0000006662782F39464131463745442D413632322D343644302D413938332D3331353338454246344243312F7265736F75726365732F63
310
6F72652E786D6C8D50596E833010BD0A9ADFCA60B334011947A8694ED00B586642AC041B79A97AFC9A40A5F6AF3F33A3B7689E1E3F7DCD8FEC139DD7D6F4C0720A191A65476DA61E62B892236427C19DB5E1970C322367EC618541F0C9D9B8EC90B226A009093576C41D94DE63804C3DD2D18357379C652E63480A7FCF17A9
310
EE72C29CE5894E3AC17D702940B63D59270887DE46A7D0F36263058F518FBB468FE9A7BE6A7420864373B8D4873369AA8691FA421B3294352543C5CAF65C0F6FEF43CB8BD52C78D0F34F46E550061C419494B6843142CB0F5677F4B52BEB177AEC28E5C52AFF638ACBF84F53D42654E51E77B379102C05791282176B5F693D
310
CB4C7BED567C03504B010214000A0000080000CC70623B3DEE336E79000000790000001B00000000000000000000000000000000006175746F6465736B2D64657369676E2D7061636B6167652E786D6C504B01021400140006080800CC70623BD486FD9CA0000000F40000001300000000000000000000000000B20000005B
310
436F6E74656E745F54797065735D2E786D6C504B01021400140006080800CC70623B1EC5D7A3EB0000007C010000080000000000000000000000000083010000636F72652E786D6C504B01021400140006080800CC70623B55019EA25F0000007C000000070000000000000000000000000094020000636E782E786D6C504B
310
01021400140006080800CC70623B8C9102E971010000D40300000C00000000000000000000000000180300006662782F636F72652E786D6C504B01021400140006080800CC70623BFFEA85907E0000009D0000000B00000000000000000000000000B30400006662782F636E782E786D6C504B01021400140006080800CC70
310
623B4FEEA4082C0100001202000031000000000000000000000000005A0500006662782F39464131463745442D413632322D343644302D413938332D3331353338454246344243312F636F72652E786D6C504B01021400140006080800CC70623BAD7543B64E010000330300003000000000000000000000000000D5060000
310
6662782F39464131463745442D413632322D343644302D413938332D3331353338454246344243312F636E782E786D6C504B01021400140006080800CC70623B16AB87BA640500003C1000003400000000000000000000000000710800006662782F39464131463745442D413632322D343644302D413938332D3331353338
310
454246344243312F6F626A656374732E786D6C504B01021400140006080000CC70623B0000000000000000000000003500000000000000000000000000270E00006662782F39464131463745442D413632322D343644302D413938332D3331353338454246344243312F76657274696365732E62696E504B01021400140006
310
080800CC70623BF270F133060000000400000036000000000000000000000000007A0E00006662782F39464131463745442D413632322D343644302D413938332D3331353338454246344243312F747269616E676C65732E62696E504B01021400140006080000CC70623B0000000000000000000000003700000000000000
310
000000000000D40E00006662782F39464131463745442D413632322D343644302D413938332D3331353338454246344243312F617474726962757465732E62696E504B01021400140006080800CC70623B08DA0BD190000000410100003600000000000000000000000000290F00006662782F39464131463745442D413632
310
322D343644302D413938332D3331353338454246344243312F6469726563746F72792E786D6C504B01021400140006080800CC70623B0D6EF93BFE000000A00100003B000000000000000000000000000D1000006662782F39464131463745442D413632322D343644302D413938332D3331353338454246344243312F7265
310
736F75726365732F636F72652E786D6C504B0506000000000E000E0080040000641100000000
  0
XRECORD
  5
244
102
{ACAD_REACTORS
330
C
102
}
330
C
100
AcDbXrecord
280
     1
102
MATERIAL
148
0.0
149
0.0
149
0.0
 93
        0
 94
       63
282
     0
 72
     1
 77
     1
171
     1
175
     1
179
     1
273
     0
  0
XRECORD
  5
D
102
{ACAD_REACTORS
330
C
102
}
330
C
100
AcDbXrecord
280
     1
270
     1
271
     1
  0
XRECORD
  5
E
102
{ACAD_REACTORS
330
C
102
}
330
C
100
AcDbXrecord
280
     1
270
     1
271
     1
  0
XRECORD
  5
F
102
{ACAD_REACTORS
330
C
102
}
330
C
100
AcDbXrecord
280
     1
 70
     0
 90
1673772943
  1
ECE7A1D2-D628-4531-984C-D00F80459256
310
504B03040A0000080000CC70623B3DEE336E79000000790000001B0000006175746F6465736B2D64657369676E2D7061636B6167652E786D6C3C3F786D6C2076657273696F6E3D22312E302220656E636F64696E673D227574662D3822203F3E3C666F726D6174733E3C666F726D61743E687474703A2F2F736368656D612E
310
6175746F6465736B2E636F6D2F64657369676E2D7061636B6167652F323030393C2F666F726D61743E3C2F666F726D6174733E504B0304140006080800CC70623BD486FD9CA0000000F4000000130000005B436F6E74656E745F54797065735D2E786D6C7D8EC10E82300C865F65E91D8A1E8C310C0EEA1BF002731658846E
310
D98AC1B77784ABF1D8FE5FBFBF75BBCE937A534CCEB38643598122B6FEE978D0B0485F9C41B54DDD7D022595594E1A469170414C76A4D9A4D207E29CF43ECE46F218070CC6BECC4078ACAA135ACF422C856C0E68EA1BF5669944DDD7BCDE7B1F8E415D77AECB980613C2E4AC91FC167A2B244592486606FC29C8FD7F045B9A
310
EF7053A7E60B504B0304140006080800CC70623BD9DDAED0EC0000007C01000008000000636F72652E786D6C8D90416EC3201045AF82665B61836D9CD8C2444DD39CA01740405C94182C03558F5F9C3852BBEB6A467FFE9B197D7EF89E6EE8CB2CC17A37002D0820E394D7D68D03A478C17B4007C117EFE32F1B20272733C0
310
2A83E0E3E2D3BC49CABB685CCCAAF3DA6CA20CC14440EA969B0182FA34932C648AD911AEC52CD5558EA6A0CF2EC329598D1E47ACCEFBECC59A050463A7EA5833865FEBDD0E37353BE3EE8DBDE3F6786A48D375FBF6CC78B9C282473B3DEFABC5C86834888A900E538A49F5419B9EB47DD5BC907D4F082F57FB1F28CDFA9F50
310
B22ED6D5F6EE030B20687EE43E10BC5CB3C8E51E54AE6B6EE207504B0304140006080800CC70623B55019EA25F0000007C00000007000000636E782E786D6C4DCB3B0E80201045D1AD90E915ED2CF8AC45050C11660C8261F98AB1B07AC9C97D42D718D865D3E909258CFD00CCE24AC6E326A164D74DC0B4128928FF326038
310
472BA13128B1252AC747C6BAB984FC68F0B87FE8960A5C09FE86CFB69FBA01504B0304140006080800CC70623BA24EB22D72010000D40300000C0000006662782F636F72652E786D6CC5535B6E833010BC8AE5DF0A6C5E49888CA3A6694ED00B38E05014B091B1518EDFE511A5A9D228FD2A1F60CDEC7A67C6986DCE4D8D7A
310
69BA4AAB0C073EC548AA5C17952A33ECECD15B61B4E1CC686DBF9561A44423333CC098B3D268D7CE50AE9595CA02AA74216750749DB418E5352C32DCE59FB211BE70162ABA93DF8AFC244AE9073ED050C759670D0840D390E18DF9F1706664C23973AE2A66B62A605A75ACA4C13C4976E1364A12EF355A2EBD384AF65EFA96
310
BC7B8BED2EA6719AAE16FB8491A199335B351775B991C2CA02F390D2D40B028F861F41BCA68B7518BFD0D59A524686F29B26D7164F36B94AD9289CE54E6D1DE6010819891F6E21228B3AD1831EC219194284CF98F06DD01008846CC5A1BEF83801D4CBDC6A1303536877A57A513B0953A94FC707FDBE6064EA84A9E3E6E0FA
310
EE8CF0E9198F7784A316AA0413C2C2F2E0ECA0934D1AE6D05A69BCDE9E91D2A611F573361E38FC1375157F5752AE6B6DFE4B11990F88CCBF0719EE23FF02504B0304140006080800CC70623B408A7D3B7C0000009D0000000B0000006662782F636E782E786D6C4DCCD10A83201886E15B91FFDC552A92A0064DBC8F581632
310
D3703A76F9ABD1C18E3E78F878E5F0D9027ABBFCF2292AE86E2D20171F69F6715550CB827B40839639A5F2770314A7CD293819B45C73AAFB45B35BA61ACAA1C1C7E7855C58C15BC331339661262CC762340413D68D77DA5B42298546CBE6573AF60CEB2F504B0304140006080800CC70623B449FB9BD290100001202000031
310
0000006662782F36394639363044362D344446342D343946362D394244322D3234314243333846323333332F636F72652E786D6C8D515B6EC32010BC0AE22B55850D98B871848994463E412FE002495162B07854397EA176A4F62F3F2C9A9D991D587EB84F37F0AD7D30CEF6905418026DA553C65E7A98E219ED203808EE9D
310
8B7F6810D871D23D2C3014FCE25D9A57483A1BB58D19B54EE9151C43D0110279CB971E06F9A5A7B11A53CC8C70ADE6515EC78BAE4895DB992778883E0700CB907242D17643D7E2538BD869608875438BBAE38922CAC8F1BDD90DB4691A5E2F42C153326A951B95E398B3D1FE599322163C9AE9115F7A3D46ADA0A018778810
310
84E907617BDCEE297BC5BB3DC6BC2EF47FA234AB2745C9D8D8D035EE220B50105E2F0DC1954B9FB747187D9F9D8FA0CCDB042D5FA0C015C65B42DF78BD10F3F3B363CB56C7109DCFDFBBB97E662ED92EB62D13BC2E1BCAE5777DB9966D8A1F504B0304140006080800CC70623BAD7543B64E01000033030000300000006662
310
782F36394639363044362D344446342D343946362D394244322D3234314243333846323333332F636E782E786D6CD593CD6EC32010845F0571AD6CE3D48AD20813A9873E410FBD12D82434182C7EAAE6EDBB2424CD25871E7B41D6EC30B3FA84F9E67BB2E40B4234DE8DB46F1925E094D7C6ED479AD3AE5951B2113C789FEE
310
6C943839C1488B4C05DF079FE72A69D8C96C13AAD6B8631503449F83828872B949AC57D26200B826A308D316B4064D6E46FCDA41C05550DC9E483A00797BFD207EFB092A45DE9514C1BBD22178396BD39D891265658C238DEA00936C654E5E433CB65A26D9F6EDB5EBC14EBF49A45CB856E66048291F6939A9A81BB5C89177
310
38143CA680F4AA299D66A042CEB3354A2684DC9D8D178FE0D9B8B41CAAD720F880EE7EF93C0C18769E099ECC04D5A102C8049A8A05632F4DDF376CF1DE0F6BB65C2F8627B65A33C6BB62177CEBBDAD973006829F89F22E814B54F4BC2BE347F8AA8F681390B50FA73F804400B5F542E796F19FF974E7F78DB802FE05E20750
310
4B0304140006080800CC70623B8D05915C650500003B100000340000006662782F36394639363044362D344446342D343946362D394244322D3234314243333846323333332F6F626A656374732E786D6CAD575B6FA33814FE2B887D06429276DA1565D4266D158D3A339A6846FB502932E050B66023DB74D2FDF5FB190C01
310
9276B2973C046C8ECFF53B17071F77456EBD502133CEAE6CDF9DD81665314F32965ED995DA3A17B6F5310C04E7AA47665B8C14F4CAD6DB7618A48257A5D94AE89654B91AEDDEDDFC61C998326A5B714EA4BCB265FC440BE2924AF184CA6737218AB8E976E7FA6E4338649B0A523E8D98964450A6A029F619B8588D52FE7039
310
B1BD30F0F4F730D0FF866AF6369557DB33949F31A9088B0F848DD8CCFCF9F2767A76E99CCDE733677E3EF59D9BBB9BA5E37F984D16E78BC5E5F5ED25044B25C0C96822E8D60EEFE11B91C581D77CEA34368A1F5329E68CD1B8B61F16D63A1B8E092D294B10C78C4A48EB593D192E7DED9BDEE7995E1B91FDEDD3ACEA9FE831
310
6A756F9F7D4D79F4274C90A7A04248AA51D5F8C718DAE06FB2F75AC4796EBE65D22A88A22223B995679120E2D50E41AA49C260C046A35368846B0BECD0DFF3EBEB8AD4F835768F69B9ADF25C43D30E6B646F807FAA64AD59F61715C7A54127C4AACA98BA3006A9D792DAE165E0D59B61A01FB3A9F9D838D2DAE62445C86166
310
F37564E842E7DE6A69879FEEA2DD5AE7E371E1A5E025154AC307D06A03D73EB5978C58FFA4C8E9033066E0F3BD53BEC1F39F91BE7B55103791EDE6BBB991A2046172CB4581D8B893FA674DDA17A77B3B7C413D1B511FD2743BFF8A38F03A658705E3ADF8015C3A3417FF3D7E439FF591DA0B5F18BC20C1B8981957AE6392A3
310
F43C640C01D1A0B4728E2DD4F26DB4B3C3152A252A3B4E913CEC1C72F012782FF88EFF8637AA552DBEF76408E8A8DE9E50F9E1CB3A2DA0DB1B6039A893B56063DC5B3E3FFB5F72E67AB9FEB4AEC496C4F4C1149625DD662C53E89D7BF0F6151A046260D1337DFDC94502430F83B0EE07A130A224BCAD7DAE1D9FB6CD422FF6
310
920702629C4BB9AE79C12F243C6432A6794E18E5552BA56B431AAB5D91317302B2B071E86C3A42B1A02F999E24061403B5D0EB639195DA655DD3EBEAB4FB862DDF579F014AD0E73C22F99E28DA57FB98E75C6CA2D74D53086D600F4786E0FE3144B771A8A7B900F03594DB8A633CBC49B2EDB69228BB479CF863B5E807AAAB
310
23872F6DFEB4129B949CA33823F58830E86D65621E10047D9DB34D862E8EAC3C2ABC2F7B2C40D67CDFE01F5545B92105AF983AC54D93D69E56FB8E797F88913F898A9FEC705D3F9D1B54EC8426FB500D40A03BD0119B06E1B95DDC7EB8F6975367793EBD70E66733DFB9BC982F9CE564727731999F5D4ECFCE3B8D6A4DC2A0
310
6D50FD148437D110834A64C6CDDF57FBACB5C307A2A477DFE4939736CFEF2B175371E0E10CF0DD1D5C15654E0BCA14D1E87DD02FF93782A162C0A3D95F1524A52770F972BF1EE9809D13CE7DD599467F8ECE9ADD85CE85A34CD45355448C64F9E8A031DC2D596ACC6E5DD93D9B82DE2EF5CAF81363A8E47996A0DE24564A79
310
4115AACE09C55E14540231FDA13C319787134EBF34E3A022514E5B4D9E0826E25C02D5805B15ABE1BEF51B26383D445DD9E875EE33FE4C22DA16427D65A3BCA92CA6D28DD01DF5DC53330704308475351050232CCD31583787BA75774AFB06E5070DD0C8EF484E19968C5D83BA5B90B244D31E54D55A372320FE4786B7EA58
310
44E135AA5467CB7EA333A61683CC6A8C3257034C10CF46F40EF9F5BE59BE5BD30C3C72D235E95D10345C1D45445A5F0BB47E46A5EBE5570F9380B5FA629579952296A773720405982B9DE04011506178964401AA8BDF1FBF0A8EAB6861DD6580C0E38217056766716DAEB2D6FA0917D3E4116581EADB879C4E7CFFB11EFACD
310
3D641311495D92C8676CB409A72D18610D803CE8A626049E8EC1887CB5B44CC39883690DDA8399B4B9855B481E7D71D4A9D22F96E5BB73BF5793020C02137BF837504B0304140006080000CC70623B000000000000000000000000350000006662782F36394639363044362D344446342D343946362D394244322D32343142
310
43333846323333332F76657274696365732E62696E504B0304140006080800CC70623BF270F1330600000004000000360000006662782F36394639363044362D344446342D343946362D394244322D3234314243333846323333332F747269616E676C65732E62696E636660600000504B0304140006080000CC70623B0000
310
00000000000000000000370000006662782F36394639363044362D344446342D343946362D394244322D3234314243333846323333332F617474726962757465732E62696E504B0304140006080800CC70623B08DA0BD19000000041010000360000006662782F36394639363044362D344446342D343946362D394244322D
310
3234314243333846323333332F6469726563746F72792E786D6C858F410AC3201045AF22B36F53E9A60B35CBEEBAE80D244E44489C6234F4F835464A48035D0DF398FF9F8AF63D0E6CC63039F212F8F9020C7D47C6792B21C5FE7403D62A1188E2E60C98D7234A5830286103A55745067B9D86B8A3CF9C7F90C11DE607FB14
310
4396D7B6A82D282E9A152AD114D5EF2CB866EEE831B8EEA07A7BB5A8D7D61A2BAAEB7FD5F70921FF497D00504B0304140006080800CC70623BCA768048FE000000A00100003B0000006662782F36394639363044362D344446342D343946362D394244322D3234314243333846323333332F7265736F75726365732F636F72
310
652E786D6C8D50596E833010BD0A9ADFCA60D600328E9AA639412F609909B1126CE4A5EAF16B0295DABFFECC8CDEA2797AECF8353F924FB44E193D409E5248504B332A3D0D10FC95B4901C39B3C6F85F3248B49871801506CE266BC2B243D2688FDA47549B11775038871E12F988C7004EDE7016A9083E2ADC3D5D84BC8B09
310
D33C8D74D471E6BC8D0192EDC93A815B742658898E651BCB59086ADC356A8C3FD555A1055ED7E7E254D615792D0F075295F585746FF53B694EE78A565DD736979A65AB9933AFE69F8CD2A2F038022F28ED489E135A7CE4554F9BBEA85E68DB53CAB255FEC71496F19FA6A0B42F8B3DEE6673C0F318E4497096AD7DC5F52C33
310
EEB55BFE0D504B010214000A0000080000CC70623B3DEE336E79000000790000001B00000000000000000000000000000000006175746F6465736B2D64657369676E2D7061636B6167652E786D6C504B01021400140006080800CC70623BD486FD9CA0000000F40000001300000000000000000000000000B20000005B436F
310
6E74656E745F54797065735D2E786D6C504B01021400140006080800CC70623BD9DDAED0EC0000007C010000080000000000000000000000000083010000636F72652E786D6C504B01021400140006080800CC70623B55019EA25F0000007C000000070000000000000000000000000095020000636E782E786D6C504B0102
310
1400140006080800CC70623BA24EB22D72010000D40300000C00000000000000000000000000190300006662782F636F72652E786D6C504B01021400140006080800CC70623B408A7D3B7C0000009D0000000B00000000000000000000000000B50400006662782F636E782E786D6C504B01021400140006080800CC70623B
310
449FB9BD290100001202000031000000000000000000000000005A0500006662782F36394639363044362D344446342D343946362D394244322D3234314243333846323333332F636F72652E786D6C504B01021400140006080800CC70623BAD7543B64E010000330300003000000000000000000000000000D20600006662
310
782F36394639363044362D344446342D343946362D394244322D3234314243333846323333332F636E782E786D6C504B01021400140006080800CC70623B8D05915C650500003B10000034000000000000000000000000006E0800006662782F36394639363044362D344446342D343946362D394244322D32343142433338
310
46323333332F6F626A656374732E786D6C504B01021400140006080000CC70623B0000000000000000000000003500000000000000000000000000250E00006662782F36394639363044362D344446342D343946362D394244322D3234314243333846323333332F76657274696365732E62696E504B010214001400060808
310
00CC70623BF270F13306000000040000003600000000000000000000000000780E00006662782F36394639363044362D344446342D343946362D394244322D3234314243333846323333332F747269616E676C65732E62696E504B01021400140006080000CC70623B00000000000000000000000037000000000000000000
310
00000000D20E00006662782F36394639363044362D344446342D343946362D394244322D3234314243333846323333332F617474726962757465732E62696E504B01021400140006080800CC70623B08DA0BD190000000410100003600000000000000000000000000270F00006662782F36394639363044362D344446342D
310
343946362D394244322D3234314243333846323333332F6469726563746F72792E786D6C504B01021400140006080800CC70623BCA768048FE000000A00100003B000000000000000000000000000B1000006662782F36394639363044362D344446342D343946362D394244322D3234314243333846323333332F7265736F
310
75726365732F636F72652E786D6C504B0506000000000E000E0080040000621100000000
  0
XRECORD
  5
10
102
{ACAD_REACTORS
330
C
102
}
330
C
100
AcDbXrecord
280
     1
270
     1
271
     1
  0
XRECORD
  5
11
102
{ACAD_REACTORS
330
C
102
}
330
C
100
AcDbXrecord
280
     1
270
     1
271
     1
  0
CELLSTYLEMAP
  5
23A
102
{ACAD_REACTORS
330
44
102
}
330
44
100
AcDbCellStyleMap
 90
        3
300
CELLSTYLE
  1
TABLEFORMAT_BEGIN
 90
        5
170
     1
 91
        0
 92
    32768
 62
   257
 93
        1
300
CONTENTFORMAT
  1
CONTENTFORMAT_BEGIN
 90
        0
 91
        0
 92
      512
 93
        0
300

 40
0.0
140
1.0
 94
        5
 62
     0
340
21
144
6.0
309
CONTENTFORMAT_END
171
     1
301
MARGIN
  1
CELLMARGIN_BEGIN
 40
1.5
 40
1.5
 40
1.5
 40
1.5
 40
4.5
 40
4.5
309
CELLMARGIN_END
 94
        6
 95
        1
302
GRIDFORMAT
  1
GRIDFORMAT_BEGIN
 90
        0
 91
        1
 62
     0
 92
       -2
340
24
 93
        0
 40
1.125
309
GRIDFORMAT_END
 95
        2
302
GRIDFORMAT
  1
GRIDFORMAT_BEGIN
 90
        0
 91
        1
 62
     0
 92
       -2
340
24
 93
        0
 40
1.125
309
GRIDFORMAT_END
 95
        4
302
GRIDFORMAT
  1
GRIDFORMAT_BEGIN
 90
        0
 91
        1
 62
     0
 92
       -2
340
24
 93
        0
 40
1.125
309
GRIDFORMAT_END
 95
        8
302
GRIDFORMAT
  1
GRIDFORMAT_BEGIN
 90
        0
 91
        1
 62
     0
 92
       -2
340
24
 93
        0
 40
1.125
309
GRIDFORMAT_END
 95
       16
302
GRIDFORMAT
  1
GRIDFORMAT_BEGIN
 90
        0
 91
        1
 62
     0
 92
       -2
340
24
 93
        0
 40
1.125
309
GRIDFORMAT_END
 95
       32
302
GRIDFORMAT
  1
GRIDFORMAT_BEGIN
 90
        0
 91
        1
 62
     0
 92
       -2
340
24
 93
        0
 40
1.125
309
GRIDFORMAT_END
309
TABLEFORMAT_END
  1
CELLSTYLE_BEGIN
 90
        1
 91
        1
300
_TITLE
309
CELLSTYLE_END
300
CELLSTYLE
  1
TABLEFORMAT_BEGIN
 90
        5
170
     1
 91
        0
 92
        0
 62
   257
 93
        1
300
CONTENTFORMAT
  1
CONTENTFORMAT_BEGIN
 90
        0
 91
        0
 92
      512
 93
        0
300

 40
0.0
140
1.0
 94
        5
 62
     0
340
21
144
4.5
309
CONTENTFORMAT_END
171
     1
301
MARGIN
  1
CELLMARGIN_BEGIN
 40
1.5
 40
1.5
 40
1.5
 40
1.5
 40
4.5
 40
4.5
309
CELLMARGIN_END
 94
        6
 95
        1
302
GRIDFORMAT
  1
GRIDFORMAT_BEGIN
 90
        0
 91
        1
 62
     0
 92
       -2
340
24
 93
        0
 40
1.125
309
GRIDFORMAT_END
 95
        2
302
GRIDFORMAT
  1
GRIDFORMAT_BEGIN
 90
        0
 91
        1
 62
     0
 92
       -2
340
24
 93
        0
 40
1.125
309
GRIDFORMAT_END
 95
        4
302
GRIDFORMAT
  1
GRIDFORMAT_BEGIN
 90
        0
 91
        1
 62
     0
 92
       -2
340
24
 93
        0
 40
1.125
309
GRIDFORMAT_END
 95
        8
302
GRIDFORMAT
  1
GRIDFORMAT_BEGIN
 90
        0
 91
        1
 62
     0
 92
       -2
340
24
 93
        0
 40
1.125
309
GRIDFORMAT_END
 95
       16
302
GRIDFORMAT
  1
GRIDFORMAT_BEGIN
 90
        0
 91
        1
 62
     0
 92
       -2
340
24
 93
        0
 40
1.125
309
GRIDFORMAT_END
 95
       32
302
GRIDFORMAT
  1
GRIDFORMAT_BEGIN
 90
        0
 91
        1
 62
     0
 92
       -2
340
24
 93
        0
 40
1.125
309
GRIDFORMAT_END
309
TABLEFORMAT_END
  1
CELLSTYLE_BEGIN
 90
        2
 91
        1
300
_HEADER
309
CELLSTYLE_END
300
CELLSTYLE
  1
TABLEFORMAT_BEGIN
 90
        5
170
     1
 91
        0
 92
        0
 62
   257
 93
        1
300
CONTENTFORMAT
  1
CONTENTFORMAT_BEGIN
 90
        0
 91
        0
 92
      512
 93
        0
300

 40
0.0
140
1.0
 94
        2
 62
     0
340
21
144
4.5
309
CONTENTFORMAT_END
171
     1
301
MARGIN
  1
CELLMARGIN_BEGIN
 40
1.5
 40
1.5
 40
1.5
 40
1.5
 40
4.5
 40
4.5
309
CELLMARGIN_END
 94
        6
 95
        1
302
GRIDFORMAT
  1
GRIDFORMAT_BEGIN
 90
        0
 91
        1
 62
     0
 92
       -2
340
24
 93
        0
 40
1.125
309
GRIDFORMAT_END
 95
        2
302
GRIDFORMAT
  1
GRIDFORMAT_BEGIN
 90
        0
 91
        1
 62
     0
 92
       -2
340
24
 93
        0
 40
1.125
309
GRIDFORMAT_END
 95
        4
302
GRIDFORMAT
  1
GRIDFORMAT_BEGIN
 90
        0
 91
        1
 62
     0
 92
       -2
340
24
 93
        0
 40
1.125
309
GRIDFORMAT_END
 95
        8
302
GRIDFORMAT
  1
GRIDFORMAT_BEGIN
 90
        0
 91
        1
 62
     0
 92
       -2
340
24
 93
        0
 40
1.125
309
GRIDFORMAT_END
 95
       16
302
GRIDFORMAT
  1
GRIDFORMAT_BEGIN
 90
        0
 91
        1
 62
     0
 92
       -2
340
24
 93
        0
 40
1.125
309
GRIDFORMAT_END
 95
       32
302
GRIDFORMAT
  1
GRIDFORMAT_BEGIN
 90
        0
 91
        1
 62
     0
 92
       -2
340
24
 93
        0
 40
1.125
309
GRIDFORMAT_END
309
TABLEFORMAT_END
  1
CELLSTYLE_BEGIN
 90
        3
 91
        2
300
_DATA
309
CELLSTYLE_END
  0
XRECORD
  5
249
102
{ACAD_REACTORS
330
44
102
}
330
44
100
AcDbXrecord
280
     1
102
ACAD_ROUNDTRIP_PRE2007_TABLESTYLE
 90
      512
 91
        0
  1

 92
      512
 93
        0
  2

 94
      512
 95
        0
  3

  0
XRECORD
  5
246
102
{ACAD_REACTORS
330
245
102
}
330
245
100
AcDbXrecord
280
     1
102
RTVSPost2010Prop28
280
     1
102
RTVSPost2010PropOp28
 70
     1
102
RTVSPost2010Prop29
280
     1
102
RTVSPost2010PropOp29
 70
     1
102
RTVSPost2010Prop30
280
     0
102
RTVSPost2010PropOp30
 70
     1
102
RTVSPost2010Prop31
280
     0
102
RTVSPost2010PropOp31
 70
     1
102
RTVSPost2010Prop32
280
     0
102
RTVSPost2010PropOp32
 70
     1
102
RTVSPost2010Prop33
280
     0
102
RTVSPost2010PropOp33
 70
     1
102
RTVSPost2010Prop34
280
     0
102
RTVSPost2010PropOp34
 70
     1
102
RTVSPost2010Prop35
280
     0
102
RTVSPost2010PropOp35
 70
     1
102
RTVSPost2010Prop36
280
     0
102
RTVSPost2010PropOp36
 70
     1
102
RTVSPost2010Prop37
 90
       50
102
RTVSPost2010PropOp37
 70
     1
102
RTVSPost2010Prop38
140
0.0
102
RTVSPost2010PropOp38
 70
     1
102
RTVSPost2010Prop39
140
1.0
102
RTVSPost2010PropOp39
 70
     1
102
RTVSPost2010Prop40
 90
        0
102
RTVSPost2010PropOp40
 70
     1
102
RTVSPost2010Prop41ColorIndex
 90
       18
102
RTVSPost2010Prop41ColorRGB
 90
        0
102
RTVSPost2010PropOp41
 70
     1
102
RTVSPost2010Prop42
 90
       50
102
RTVSPost2010PropOp42
 70
     1
102
RTVSPost2010Prop43
 90
        3
102
RTVSPost2010PropOp43
 70
     1
102
RTVSPost2010Prop44ColorIndex
 90
        5
102
RTVSPost2010Prop44ColorRGB
 90
      255
102
RTVSPost2010PropOp44
 70
     1
102
RTVSPost2010Prop45
280
     0
102
RTVSPost2010PropOp45
 70
     1
102
RTVSPost2010Prop46
 90
       50
102
RTVSPost2010PropOp46
 70
     1
102
RTVSPost2010Prop47
 90
       50
102
RTVSPost2010PropOp47
 70
     1
102
RTVSPost2010Prop48
 90
       50
102
RTVSPost2010PropOp48
 70
     1
102
RTVSPost2010Prop49
280
     0
102
RTVSPost2010PropOp49
 70
     1
102
RTVSPost2010Prop50
 90
       50
102
RTVSPost2010PropOp50
 70
     1
102
RTVSPost2010Prop51ColorIndex
 90
      256
102
RTVSPost2010Prop51ColorRGB
 90
-16777216
102
RTVSPost2010PropOp51
 70
     0
102
RTVSPost2010Prop52
140
1.0
102
RTVSPost2010PropOp52
 70
     0
102
RTVSPost2010Prop53
 90
        2
102
RTVSPost2010PropOp53
 70
     1
102
RTVSPost2010Prop54
  1
strokes_ogs.tif
102
RTVSPost2010PropOp54
 70
     1
102
RTVSPost2010Prop55
280
     0
102
RTVSPost2010PropOp55
 70
     1
102
RTVSPost2010Prop56
140
1.0
102
RTVSPost2010PropOp56
 70
     1
102
RTVSPost2010Prop57
140
1.0
102
RTVSPost2010PropOp57
 70
     1
102
RTVSPropertyOp0
 70
     1
102
RTVSPropertyOp1
 70
     1
102
RTVSPropertyOp2
 70
     1
102
RTVSPropertyOp3
 70
     1
102
RTVSPropertyOp4
 70
     1
102
RTVSPropertyOp5
 70
     1
102
RTVSPropertyOp6
 70
     1
102
RTVSPropertyOp7
 70
     1
102
RTVSPropertyOp8
 70
     1
102
RTVSPropertyOp9
 70
     1
102
RTVSPropertyOp10
 70
     1
102
RTVSPropertyOp11
 70
     1
102
RTVSPropertyOp12
 70
     1
102
RTVSPropertyOp13
 70
     1
102
RTVSPropertyOp14
 70
     1
102
RTVSPropertyOp15
 70
     1
102
RTVSPropertyOp16
 70
     1
102
RTVSPropertyOp17
 70
     1
102
RTVSPropertyOp18
 70
     1
102
RTVSPropertyOp19
 70
     1
102
RTVSPropertyOp20
 70
     1
102
RTVSPropertyOp21
 70
     1
102
RTVSPropertyOp22
 70
     1
102
RTVSPropertyOp23
 70
     1
102
RTVSPropertyOp24
 70
     1
102
RTVSPropertyOp25
 70
     1
102
RTVSPropertyOp26
 70
     1
102
RTVSPropertyOp27
 70
     1
102
RTVSPropertyOp28
 70
     1
102
RTVSPropertyOp29
 70
     1
102
RTVSPropertyOp30
 70
     1
102
RTVSPropertyOp31
 70
     1
102
RTVSPropertyOp32
 70
     1
102
RTVSPropertyOp33
 70
     1
102
RTVSPropertyOp34
 70
     1
102
RTVSPropertyOp35
 70
     1
102
RTVSPropertyOp36
 70
     1
102
RTVSPropertyOp37
 70
     1
102
RTVSPropertyOp38
 70
     1
102
RTVSPropertyOp39
 70
     1
102
RTVSPropertyOp40
 70
     1
102
RTVSPropertyOp41
 70
     1
102
RTVSPropertyOp42
 70
     1
102
RTVSPropertyOp43
 70
     1
102
RTVSPropertyOp44
 70
     1
102
RTVSPropertyOp45
 70
     1
102
RTVSPropertyOp46
 70
     1
102
RTVSPropertyOp47
 70
     1
102
RTVSPropertyOp48
 70
     1
102
RTVSPropertyOp49
 70
     1
102
RTVSPropertyOp50
 70
     1
102
RTVSPropertyOp51
 70
     0
102
RTVSPropertyOp52
 70
     0
102
RTVSPropertyOp53
 70
     1
102
RTVSPropertyOp54
 70
     1
102
RTVSPropertyOp55
 70
     1
102
RTVSPropertyOp56
 70
     1
102
RTVSPropertyOp57
 70
     1
102
RTVSPropertyOp58
 70
     1
102
RTVSPropertyOp59
 70
     1
102
RTVSPropertyOp60
 70
     1
102
RTVSPropertyOp61
 70
     1
102
RTVSPropertyOp62
 70
     1
  0
XRECORD
  5
24B
102
{ACAD_REACTORS
330
24A
102
}
330
24A
100
AcDbXrecord
280
     1
102
RTVSPost2010Prop28
280
     0
102
RTVSPost2010PropOp28
 70
     1
102
RTVSPost2010Prop29
280
     1
102
RTVSPost2010PropOp29
 70
     1
102
RTVSPost2010Prop30
280
     1
102
RTVSPost2010PropOp30
 70
     1
102
RTVSPost2010Prop31
280
     0
102
RTVSPost2010PropOp31
 70
     1
102
RTVSPost2010Prop32
280
     0
102
RTVSPost2010PropOp32
 70
     1
102
RTVSPost2010Prop33
280
     0
102
RTVSPost2010PropOp33
 70
     1
102
RTVSPost2010Prop34
280
     0
102
RTVSPost2010PropOp34
 70
     1
102
RTVSPost2010Prop35
280
     0
102
RTVSPost2010PropOp35
 70
     1
102
RTVSPost2010Prop36
280
     0
102
RTVSPost2010PropOp36
 70
     1
102
RTVSPost2010Prop37
 90
       50
102
RTVSPost2010PropOp37
 70
     1
102
RTVSPost2010Prop38
140
0.0
102
RTVSPost2010PropOp38
 70
     1
102
RTVSPost2010Prop39
140
1.0
102
RTVSPost2010PropOp39
 70
     1
102
RTVSPost2010Prop40
 90
        0
102
RTVSPost2010PropOp40
 70
     1
102
RTVSPost2010Prop41ColorIndex
 90
       18
102
RTVSPost2010Prop41ColorRGB
 90
        0
102
RTVSPost2010PropOp41
 70
     1
102
RTVSPost2010Prop42
 90
       50
102
RTVSPost2010PropOp42
 70
     1
102
RTVSPost2010Prop43
 90
        3
102
RTVSPost2010PropOp43
 70
     1
102
RTVSPost2010Prop44ColorIndex
 90
        5
102
RTVSPost2010Prop44ColorRGB
 90
      255
102
RTVSPost2010PropOp44
 70
     1
102
RTVSPost2010Prop45
280
     0
102
RTVSPost2010PropOp45
 70
     1
102
RTVSPost2010Prop46
 90
       50
102
RTVSPost2010PropOp46
 70
     1
102
RTVSPost2010Prop47
 90
       50
102
RTVSPost2010PropOp47
 70
     1
102
RTVSPost2010Prop48
 90
       50
102
RTVSPost2010PropOp48
 70
     1
102
RTVSPost2010Prop49
280
     0
102
RTVSPost2010PropOp49
 70
     1
102
RTVSPost2010Prop50
 90
       50
102
RTVSPost2010PropOp50
 70
     1
102
RTVSPost2010Prop51ColorIndex
 90
      256
102
RTVSPost2010Prop51ColorRGB
 90
-16777216
102
RTVSPost2010PropOp51
 70
     0
102
RTVSPost2010Prop52
140
1.0
102
RTVSPost2010PropOp52
 70
     0
102
RTVSPost2010Prop53
 90
        2
102
RTVSPost2010PropOp53
 70
     1
102
RTVSPost2010Prop54
  1
strokes_ogs.tif
102
RTVSPost2010PropOp54
 70
     1
102
RTVSPost2010Prop55
280
     0
102
RTVSPost2010PropOp55
 70
     1
102
RTVSPost2010Prop56
140
1.0
102
RTVSPost2010PropOp56
 70
     1
102
RTVSPost2010Prop57
140
1.0
102
RTVSPost2010PropOp57
 70
     1
102
RTVSPropertyOp0
 70
     1
102
RTVSPropertyOp1
 70
     1
102
RTVSPropertyOp2
 70
     1
102
RTVSPropertyOp3
 70
     1
102
RTVSPropertyOp4
 70
     1
102
RTVSPropertyOp5
 70
     1
102
RTVSPropertyOp6
 70
     1
102
RTVSPropertyOp7
 70
     1
102
RTVSPropertyOp8
 70
     1
102
RTVSPropertyOp9
 70
     1
102
RTVSPropertyOp10
 70
     1
102
RTVSPropertyOp11
 70
     1
102
RTVSPropertyOp12
 70
     1
102
RTVSPropertyOp13
 70
     1
102
RTVSPropertyOp14
 70
     1
102
RTVSPropertyOp15
 70
     1
102
RTVSPropertyOp16
 70
     1
102
RTVSPropertyOp17
 70
     1
102
RTVSPropertyOp18
 70
     1
102
RTVSPropertyOp19
 70
     1
102
RTVSPropertyOp20
 70
     1
102
RTVSPropertyOp21
 70
     1
102
RTVSPropertyOp22
 70
     1
102
RTVSPropertyOp23
 70
     1
102
RTVSPropertyOp24
 70
     1
102
RTVSPropertyOp25
 70
     1
102
RTVSPropertyOp26
 70
     1
102
RTVSPropertyOp27
 70
     1
102
RTVSPropertyOp28
 70
     1
102
RTVSPropertyOp29
 70
     1
102
RTVSPropertyOp30
 70
     1
102
RTVSPropertyOp31
 70
     1
102
RTVSPropertyOp32
 70
     1
102
RTVSPropertyOp33
 70
     1
102
RTVSPropertyOp34
 70
     1
102
RTVSPropertyOp35
 70
     1
102
RTVSPropertyOp36
 70
     1
102
RTVSPropertyOp37
 70
     1
102
RTVSPropertyOp38
 70
     1
102
RTVSPropertyOp39
 70
     1
102
RTVSPropertyOp40
 70
     1
102
RTVSPropertyOp41
 70
     1
102
RTVSPropertyOp42
 70
     1
102
RTVSPropertyOp43
 70
     1
102
RTVSPropertyOp44
 70
     1
102
RTVSPropertyOp45
 70
     1
102
RTVSPropertyOp46
 70
     1
102
RTVSPropertyOp47
 70
     1
102
RTVSPropertyOp48
 70
     1
102
RTVSPropertyOp49
 70
     1
102
RTVSPropertyOp50
 70
     1
102
RTVSPropertyOp51
 70
     0
102
RTVSPropertyOp52
 70
     0
102
RTVSPropertyOp53
 70
     1
102
RTVSPropertyOp54
 70
     1
102
RTVSPropertyOp55
 70
     1
102
RTVSPropertyOp56
 70
     1
102
RTVSPropertyOp57
 70
     1
102
RTVSPropertyOp58
 70
     1
102
RTVSPropertyOp59
 70
     1
102
RTVSPropertyOp60
 70
     1
102
RTVSPropertyOp61
 70
     1
102
RTVSPropertyOp62
 70
     1
  0
XRECORD
  5
24D
102
{ACAD_REACTORS
330
24C
102
}
330
24C
100
AcDbXrecord
280
     1
102
RTVSPost2010Prop28
280
     0
102
RTVSPost2010PropOp28
 70
     1
102
RTVSPost2010Prop29
280
     1
102
RTVSPost2010PropOp29
 70
     1
102
RTVSPost2010Prop30
280
     1
102
RTVSPost2010PropOp30
 70
     1
102
RTVSPost2010Prop31
280
     0
102
RTVSPost2010PropOp31
 70
     1
102
RTVSPost2010Prop32
280
     0
102
RTVSPost2010PropOp32
 70
     1
102
RTVSPost2010Prop33
280
     0
102
RTVSPost2010PropOp33
 70
     1
102
RTVSPost2010Prop34
280
     0
102
RTVSPost2010PropOp34
 70
     1
102
RTVSPost2010Prop35
280
     0
102
RTVSPost2010PropOp35
 70
     1
102
RTVSPost2010Prop36
280
     0
102
RTVSPost2010PropOp36
 70
     1
102
RTVSPost2010Prop37
 90
       50
102
RTVSPost2010PropOp37
 70
     1
102
RTVSPost2010Prop38
140
0.0
102
RTVSPost2010PropOp38
 70
     1
102
RTVSPost2010Prop39
140
1.0
102
RTVSPost2010PropOp39
 70
     1
102
RTVSPost2010Prop40
 90
        0
102
RTVSPost2010PropOp40
 70
     1
102
RTVSPost2010Prop41ColorIndex
 90
       18
102
RTVSPost2010Prop41ColorRGB
 90
        0
102
RTVSPost2010PropOp41
 70
     1
102
RTVSPost2010Prop42
 90
       50
102
RTVSPost2010PropOp42
 70
     1
102
RTVSPost2010Prop43
 90
        3
102
RTVSPost2010PropOp43
 70
     1
102
RTVSPost2010Prop44ColorIndex
 90
        5
102
RTVSPost2010Prop44ColorRGB
 90
      255
102
RTVSPost2010PropOp44
 70
     1
102
RTVSPost2010Prop45
280
     0
102
RTVSPost2010PropOp45
 70
     1
102
RTVSPost2010Prop46
 90
       50
102
RTVSPost2010PropOp46
 70
     1
102
RTVSPost2010Prop47
 90
       50
102
RTVSPost2010PropOp47
 70
     1
102
RTVSPost2010Prop48
 90
       50
102
RTVSPost2010PropOp48
 70
     1
102
RTVSPost2010Prop49
280
     0
102
RTVSPost2010PropOp49
 70
     1
102
RTVSPost2010Prop50
 90
       50
102
RTVSPost2010PropOp50
 70
     1
102
RTVSPost2010Prop51ColorIndex
 90
      256
102
RTVSPost2010Prop51ColorRGB
 90
-16777216
102
RTVSPost2010PropOp51
 70
     0
102
RTVSPost2010Prop52
140
1.0
102
RTVSPost2010PropOp52
 70
     0
102
RTVSPost2010Prop53
 90
        2
102
RTVSPost2010PropOp53
 70
     1
102
RTVSPost2010Prop54
  1
strokes_ogs.tif
102
RTVSPost2010PropOp54
 70
     1
102
RTVSPost2010Prop55
280
     0
102
RTVSPost2010PropOp55
 70
     1
102
RTVSPost2010Prop56
140
1.0
102
RTVSPost2010PropOp56
 70
     1
102
RTVSPost2010Prop57
140
1.0
102
RTVSPost2010PropOp57
 70
     1
102
RTVSPropertyOp0
 70
     1
102
RTVSPropertyOp1
 70
     1
102
RTVSPropertyOp2
 70
     1
102
RTVSPropertyOp3
 70
     1
102
RTVSPropertyOp4
 70
     1
102
RTVSPropertyOp5
 70
     1
102
RTVSPropertyOp6
 70
     1
102
RTVSPropertyOp7
 70
     1
102
RTVSPropertyOp8
 70
     1
102
RTVSPropertyOp9
 70
     1
102
RTVSPropertyOp10
 70
     1
102
RTVSPropertyOp11
 70
     1
102
RTVSPropertyOp12
 70
     1
102
RTVSPropertyOp13
 70
     1
102
RTVSPropertyOp14
 70
     1
102
RTVSPropertyOp15
 70
     1
102
RTVSPropertyOp16
 70
     1
102
RTVSPropertyOp17
 70
     1
102
RTVSPropertyOp18
 70
     1
102
RTVSPropertyOp19
 70
     1
102
RTVSPropertyOp20
 70
     1
102
RTVSPropertyOp21
 70
     1
102
RTVSPropertyOp22
 70
     1
102
RTVSPropertyOp23
 70
     1
102
RTVSPropertyOp24
 70
     1
102
RTVSPropertyOp25
 70
     1
102
RTVSPropertyOp26
 70
     1
102
RTVSPropertyOp27
 70
     1
102
RTVSPropertyOp28
 70
     1
102
RTVSPropertyOp29
 70
     1
102
RTVSPropertyOp30
 70
     1
102
RTVSPropertyOp31
 70
     1
102
RTVSPropertyOp32
 70
     1
102
RTVSPropertyOp33
 70
     1
102
RTVSPropertyOp34
 70
     1
102
RTVSPropertyOp35
 70
     1
102
RTVSPropertyOp36
 70
     1
102
RTVSPropertyOp37
 70
     1
102
RTVSPropertyOp38
 70
     1
102
RTVSPropertyOp39
 70
     1
102
RTVSPropertyOp40
 70
     1
102
RTVSPropertyOp41
 70
     1
102
RTVSPropertyOp42
 70
     1
102
RTVSPropertyOp43
 70
     1
102
RTVSPropertyOp44
 70
     1
102
RTVSPropertyOp45
 70
     1
102
RTVSPropertyOp46
 70
     1
102
RTVSPropertyOp47
 70
     1
102
RTVSPropertyOp48
 70
     1
102
RTVSPropertyOp49
 70
     1
102
RTVSPropertyOp50
 70
     1
102
RTVSPropertyOp51
 70
     0
102
RTVSPropertyOp52
 70
     0
102
RTVSPropertyOp53
 70
     1
102
RTVSPropertyOp54
 70
     1
102
RTVSPropertyOp55
 70
     1
102
RTVSPropertyOp56
 70
     1
102
RTVSPropertyOp57
 70
     1
102
RTVSPropertyOp58
 70
     1
102
RTVSPropertyOp59
 70
     1
102
RTVSPropertyOp60
 70
     1
102
RTVSPropertyOp61
 70
     1
102
RTVSPropertyOp62
 70
     1
  0
ENDSEC
  0
EOF
