  0
SECTION
  2
HEADER
  9
$ACADVER
  1
AC1018
  9
$ACADMAINTVER
 70
   104
  9
$DWGCODEPAGE
  3
ANSI_932
  9
$INSBASE
 10
0.0
 20
0.0
 30
0.0
  9
$EXTMIN
 10
2.081494526395488
 20
2.273520873116595
 30
-0.0000000349181948
  9
$EXTMAX
 10
52.09718105179641
 20
25.21787501791144
 30
0.0000000814935746
  9
$LIMMIN
 10
-4.63544400603132
 20
-4.138742429332523
  9
$LIMMAX
 10
56.47815780203018
 20
30.19971827179961
  9
$ORTHOMODE
 70
     0
  9
$REGENMODE
 70
     1
  9
$FILLMODE
 70
     1
  9
$QTEXTMODE
 70
     0
  9
$MIRRTEXT
 70
     0
  9
$LTSCALE
 40
1.0
  9
$ATTMODE
 70
     1
  9
$TEXTSIZE
 40
2.5
  9
$TRACEWID
 40
1.0
  9
$TEXTSTYLE
  7
Standard
  9
$CLAYER
  8
0
  9
$CELTYPE
  6
ByLayer
  9
$CECOLOR
 62
   256
  9
$CELTSCALE
 40
1.0
  9
$DISPSILH
 70
     0
  9
$DIMSCALE
 40
1.0
  9
$DIMASZ
 40
2.5
  9
$DIMEXO
 40
0.625
  9
$DIMDLI
 40
3.75
  9
$DIMRND
 40
0.0
  9
$DIMDLE
 40
0.0
  9
$DIMEXE
 40
1.25
  9
$DIMTP
 40
0.0
  9
$DIMTM
 40
0.0
  9
$DIMTXT
 40
2.5
  9
$DIMCEN
 40
2.5
  9
$DIMTSZ
 40
0.0
  9
$DIMTOL
 70
     0
  9
$DIMLIM
 70
     0
  9
$DIMTIH
 70
     0
  9
$DIMTOH
 70
     0
  9
$DIMSE1
 70
     0
  9
$DIMSE2
 70
     0
  9
$DIMTAD
 70
     1
  9
$DIMZIN
 70
     8
  9
$DIMBLK
  1

  9
$DIMASO
 70
     1
  9
$DIMSHO
 70
     1
  9
$DIMPOST
  1

  9
$DIMAPOST
  1

  9
$DIMALT
 70
     0
  9
$DIMALTD
 70
     3
  9
$DIMALTF
 40
0.03937007874016
  9
$DIMLFAC
 40
1.0
  9
$DIMTOFL
 70
     1
  9
$DIMTVP
 40
0.0
  9
$DIMTIX
 70
     0
  9
$DIMSOXD
 70
     0
  9
$DIMSAH
 70
     0
  9
$DIMBLK1
  1

  9
$DIMBLK2
  1

  9
$DIMSTYLE
  2
ISO-25
  9
$DIMCLRD
 70
     0
  9
$DIMCLRE
 70
     0
  9
$DIMCLRT
 70
     0
  9
$DIMTFAC
 40
1.0
  9
$DIMGAP
 40
0.625
  9
$DIMJUST
 70
     0
  9
$DIMSD1
 70
     0
  9
$DIMSD2
 70
     0
  9
$DIMTOLJ
 70
     0
  9
$DIMTZIN
 70
     8
  9
$DIMALTZ
 70
     0
  9
$DIMALTTZ
 70
     0
  9
$DIMUPT
 70
     0
  9
$DIMDEC
 70
     2
  9
$DIMTDEC
 70
     2
  9
$DIMALTU
 70
     2
  9
$DIMALTTD
 70
     3
  9
$DIMTXSTY
  7
Standard
  9
$DIMAUNIT
 70
     0
  9
$DIMADEC
 70
     0
  9
$DIMALTRND
 40
0.0
  9
$DIMAZIN
 70
     0
  9
$DIMDSEP
 70
    44
  9
$DIMATFIT
 70
     3
  9
$DIMFRAC
 70
     0
  9
$DIMLDRBLK
  1

  9
$DIMLUNIT
 70
     2
  9
$DIMLWD
 70
    -2
  9
$DIMLWE
 70
    -2
  9
$DIMTMOVE
 70
     0
  9
$LUNITS
 70
     2
  9
$LUPREC
 70
     4
  9
$SKETCHINC
 40
1.0
  9
$FILLETRAD
 40
0.0
  9
$AUNITS
 70
     0
  9
$AUPREC
 70
     0
  9
$MENU
  1
.
  9
$ELEVATION
 40
0.0
  9
$PELEVATION
 40
0.0
  9
$THICKNESS
 40
0.0
  9
$LIMCHECK
 70
     0
  9
$CHAMFERA
 40
0.0
  9
$CHAMFERB
 40
0.0
  9
$CHAMFERC
 40
0.0
  9
$CHAMFERD
 40
0.0
  9
$SKPOLY
 70
     0
  9
$TDCREATE
 40
2458226.661261574
  9
$TDUCREATE
 40
2458226.327928241
  9
$TDUPDATE
 40
2458226.664664352
  9
$TDUUPDATE
 40
2458226.331331018
  9
$TDINDWG
 40
0.0037731481
  9
$TDUSRTIMER
 40
0.0037731481
  9
$USRTIMER
 70
     1
  9
$ANGBASE
 50
0.0
  9
$ANGDIR
 70
     0
  9
$PDMODE
 70
     0
  9
$PDSIZE
 40
0.0
  9
$PLINEWID
 40
0.0
  9
$SPLFRAME
 70
     0
  9
$SPLINETYPE
 70
     6
  9
$SPLINESEGS
 70
     8
  9
$HANDSEED
  5
255
  9
$SURFTAB1
 70
     6
  9
$SURFTAB2
 70
     6
  9
$SURFTYPE
 70
     6
  9
$SURFU
 70
     6
  9
$SURFV
 70
     6
  9
$UCSBASE
  2

  9
$UCSNAME
  2

  9
$UCSORG
 10
0.0
 20
0.0
 30
0.0
  9
$UCSXDIR
 10
1.0
 20
0.0
 30
0.0
  9
$UCSYDIR
 10
0.0
 20
1.0
 30
0.0
  9
$UCSORTHOREF
  2

  9
$UCSORTHOVIEW
 70
     0
  9
$UCSORGTOP
 10
0.0
 20
0.0
 30
0.0
  9
$UCSORGBOTTOM
 10
0.0
 20
0.0
 30
0.0
  9
$UCSORGLEFT
 10
0.0
 20
0.0
 30
0.0
  9
$UCSORGRIGHT
 10
0.0
 20
0.0
 30
0.0
  9
$UCSORGFRONT
 10
0.0
 20
0.0
 30
0.0
  9
$UCSORGBACK
 10
0.0
 20
0.0
 30
0.0
  9
$PUCSBASE
  2

  9
$PUCSNAME
  2

  9
$PUCSORG
 10
0.0
 20
0.0
 30
0.0
  9
$PUCSXDIR
 10
1.0
 20
0.0
 30
0.0
  9
$PUCSYDIR
 10
0.0
 20
1.0
 30
0.0
  9
$PUCSORTHOREF
  2

  9
$PUCSORTHOVIEW
 70
     0
  9
$PUCSORGTOP
 10
0.0
 20
0.0
 30
0.0
  9
$PUCSORGBOTTOM
 10
0.0
 20
0.0
 30
0.0
  9
$PUCSORGLEFT
 10
0.0
 20
0.0
 30
0.0
  9
$PUCSORGRIGHT
 10
0.0
 20
0.0
 30
0.0
  9
$PUCSORGFRONT
 10
0.0
 20
0.0
 30
0.0
  9
$PUCSORGBACK
 10
0.0
 20
0.0
 30
0.0
  9
$USERI1
 70
     0
  9
$USERI2
 70
     0
  9
$USERI3
 70
     0
  9
$USERI4
 70
     0
  9
$USERI5
 70
     0
  9
$USERR1
 40
0.0
  9
$USERR2
 40
0.0
  9
$USERR3
 40
0.0
  9
$USERR4
 40
0.0
  9
$USERR5
 40
0.0
  9
$WORLDVIEW
 70
     1
  9
$SHADEDGE
 70
     3
  9
$SHADEDIF
 70
    70
  9
$TILEMODE
 70
     1
  9
$MAXACTVP
 70
    64
  9
$PINSBASE
 10
0.0
 20
0.0
 30
0.0
  9
$PLIMCHECK
 70
     0
  9
$PEXTMIN
 10
0.0
 20
0.0
 30
0.0
  9
$PEXTMAX
 10
0.0
 20
0.0
 30
0.0
  9
$PLIMMIN
 10
0.0
 20
0.0
  9
$PLIMMAX
 10
12.0
 20
9.0
  9
$UNITMODE
 70
     0
  9
$VISRETAIN
 70
     1
  9
$PLINEGEN
 70
     0
  9
$PSLTSCALE
 70
     1
  9
$TREEDEPTH
 70
  3020
  9
$CMLSTYLE
  2
Standard
  9
$CMLJUST
 70
     0
  9
$CMLSCALE
 40
20.0
  9
$PROXYGRAPHICS
 70
     1
  9
$MEASUREMENT
 70
     1
  9
$CELWEIGHT
370
    -1
  9
$ENDCAPS
280
     0
  9
$JOINSTYLE
280
     0
  9
$LWDISPLAY
290
     0
  9
$INSUNITS
 70
     4
  9
$HYPERLINKBASE
  1

  9
$STYLESHEET
  1

  9
$XEDIT
290
     1
  9
$CEPSNTYPE
380
     0
  9
$PSTYLEMODE
290
     1
  9
$FINGERPRINTGUID
  2
{E2CD71F2-A410-1F4A-B3FE-B90523F224E1}
  9
$VERSIONGUID
  2
{1F5D6846-71B3-3649-9DED-B8F860CB1AE3}
  9
$EXTNAMES
290
     1
  9
$PSVPSCALE
 40
0.0
  9
$OLESTARTUP
290
     0
  9
$SORTENTS
280
   127
  9
$INDEXCTL
280
     0
  9
$HIDETEXT
280
     1
  9
$XCLIPFRAME
290
     0
  9
$HALOGAP
280
     0
  9
$OBSCOLOR
 70
   257
  9
$OBSLTYPE
280
     0
  9
$INTERSECTIONDISPLAY
280
     0
  9
$INTERSECTIONCOLOR
 70
   257
  9
$DIMASSOC
280
     2
  9
$PROJECTNAME
  1

  0
ENDSEC
  0
SECTION
  2
CLASSES
  0
CLASS
  1
ACDBDICTIONARYWDFLT
  2
AcDbDictionaryWithDefault
  3
ObjectDBX Classes
 90
        0
 91
        1
280
     0
281
     0
  0
CLASS
  1
DICTIONARYVAR
  2
AcDbDictionaryVar
  3
ObjectDBX Classes
 90
        0
 91
       12
280
     0
281
     0
  0
CLASS
  1
TABLESTYLE
  2
AcDbTableStyle
  3
ObjectDBX Classes
 90
     4095
 91
        1
280
     0
281
     0
  0
CLASS
  1
MATERIAL
  2
AcDbMaterial
  3
ObjectDBX Classes
 90
     1153
 91
        3
280
     0
281
     0
  0
CLASS
  1
VISUALSTYLE
  2
AcDbVisualStyle
  3
ObjectDBX Classes
 90
     4095
 91
        3
280
     0
281
     0
  0
CLASS
  1
SCALE
  2
AcDbScale
  3
ObjectDBX Classes
 90
     1153
 91
       17
280
     0
281
     0
  0
CLASS
  1
MLEADERSTYLE
  2
AcDbMLeaderStyle
  3
ACDB_MLEADERSTYLE_CLASS
 90
     4095
 91
        0
280
     0
281
     0
  0
CLASS
  1
CELLSTYLEMAP
  2
AcDbCellStyleMap
  3
ObjectDBX Classes
 90
     1152
 91
        1
280
     0
281
     0
  0
CLASS
  1
EXACXREFPANELOBJECT
  2
ExAcXREFPanelObject
  3
EXAC_ESW
 90
     1025
 91
        0
280
     1
281
     0
  0
CLASS
  1
NPOCOLLECTION
  2
AcDbImpNonPersistentObjectsCollection
  3
ObjectDBX Classes
 90
     1153
 91
        0
280
     0
281
     0
  0
CLASS
  1
LAYER_INDEX
  2
AcDbLayerIndex
  3
ObjectDBX Classes
 90
        0
 91
        0
280
     0
281
     0
  0
CLASS
  1
SPATIAL_INDEX
  2
AcDbSpatialIndex
  3
ObjectDBX Classes
 90
        0
 91
        0
280
     0
281
     0
  0
CLASS
  1
IDBUFFER
  2
AcDbIdBuffer
  3
ObjectDBX Classes
 90
        0
 91
        0
280
     0
281
     0
  0
CLASS
  1
ACDBSECTIONVIEWSTYLE
  2
AcDbSectionViewStyle
  3
ObjectDBX Classes
 90
     1025
 91
        0
280
     0
281
     0
  0
CLASS
  1
ACDBDETAILVIEWSTYLE
  2
AcDbDetailViewStyle
  3
ObjectDBX Classes
 90
     1025
 91
        0
280
     0
281
     0
  0
CLASS
  1
SORTENTSTABLE
  2
AcDbSortentsTable
  3
ObjectDBX Classes
 90
        0
 91
        0
280
     0
281
     0
  0
ENDSEC
  0
SECTION
  2
TABLES
  0
TABLE
  2
VPORT
  5
28
330
0
100
AcDbSymbolTable
 70
     1
  0
VPORT
  5
29
330
28
100
AcDbSymbolTableRecord
100
AcDbViewportTableRecord
  2
*Active
 70
     0
 10
0.0
 20
0.0
 11
1.0
 21
1.0
 12
48.03995609736354
 22
2.583192263637599
 13
0.0
 23
0.0
 14
10.0
 24
10.0
 15
10.0
 25
10.0
 16
0.0
 26
0.0
 36
1.0
 17
0.0
 27
0.0
 37
0.0
 40
88.63990869266761
 41
2.326023391812865
 42
50.0
 43
0.0
 44
0.0
 50
0.0
 51
0.0
 71
     0
 72
  1000
 73
     1
 74
     3
 75
     0
 76
     1
 77
     0
 78
     0
281
     0
 65
     1
110
0.0
120
0.0
130
0.0
111
1.0
121
0.0
131
0.0
112
0.0
122
1.0
132
0.0
 79
     0
146
0.0
1001
ACAD_NAV_VCDISPLAY
1070
     3
  0
ENDTAB
  0
TABLE
  2
LTYPE
  5
23
330
0
100
AcDbSymbolTable
 70
     1
  0
LTYPE
  5
24
330
23
100
AcDbSymbolTableRecord
100
AcDbLinetypeTableRecord
  2
ByBlock
 70
     0
  3

 72
    65
 73
     0
 40
0.0
  0
LTYPE
  5
25
330
23
100
AcDbSymbolTableRecord
100
AcDbLinetypeTableRecord
  2
ByLayer
 70
     0
  3

 72
    65
 73
     0
 40
0.0
  0
LTYPE
  5
13
330
23
100
AcDbSymbolTableRecord
100
AcDbLinetypeTableRecord
  2
Continuous
 70
     0
  3
Solid line
 72
    65
 73
     0
 40
0.0
  0
ENDTAB
  0
TABLE
  2
LAYER
  5
1D
102
{ACAD_XDICTIONARY
360
1E
102
}
330
0
100
AcDbSymbolTable
 70
     1
  0
LAYER
  5
5
102
{ACAD_XDICTIONARY
360
6
102
}
330
1D
100
AcDbSymbolTableRecord
100
AcDbLayerTableRecord
  2
0
 70
     0
 62
     7
  6
Continuous
370
    -3
390
7
  0
ENDTAB
  0
TABLE
  2
STYLE
  5
20
330
0
100
AcDbSymbolTable
 70
     1
  0
STYLE
  5
21
330
20
100
AcDbSymbolTableRecord
100
AcDbTextStyleTableRecord
  2
Standard
 70
     0
 40
0.0
 41
1.0
 50
0.0
 71
     0
 42
2.5
  3
arial.ttf
  4

1001
ACAD
1000
Arial
1071
       34
  0
ENDTAB
  0
TABLE
  2
VIEW
  5
26
330
0
100
AcDbSymbolTable
 70
     0
  0
ENDTAB
  0
TABLE
  2
UCS
  5
27
330
0
100
AcDbSymbolTable
 70
     0
  0
ENDTAB
  0
TABLE
  2
APPID
  5
2D
330
0
100
AcDbSymbolTable
 70
     6
  0
APPID
  5
12
330
2D
100
AcDbSymbolTableRecord
100
AcDbRegAppTableRecord
  2
ACAD
 70
     0
  0
APPID
  5
18
330
2D
100
AcDbSymbolTableRecord
100
AcDbRegAppTableRecord
  2
ACAD_PSEXT
 70
     0
  0
APPID
  5
31
330
2D
100
AcDbSymbolTableRecord
100
AcDbRegAppTableRecord
  2
AcadAnnotative
 70
     0
  0
APPID
  5
32
330
2D
100
AcDbSymbolTableRecord
100
AcDbRegAppTableRecord
  2
ACAD_DSTYLE_DIMJAG
 70
     0
  0
APPID
  5
33
330
2D
100
AcDbSymbolTableRecord
100
AcDbRegAppTableRecord
  2
ACAD_DSTYLE_DIMTALN
 70
     0
  0
APPID
  5
2C
330
2D
100
AcDbSymbolTableRecord
100
AcDbRegAppTableRecord
  2
ACAD_NAV_VCDISPLAY
 70
     0
  0
ENDTAB
  0
TABLE
  2
DIMSTYLE
  5
2E
330
0
100
AcDbSymbolTable
 70
     2
100
AcDbDimStyleTable
 71
     2
340
2F
340
30
  0
DIMSTYLE
105
30
330
2E
100
AcDbSymbolTableRecord
100
AcDbDimStyleTableRecord
  2
Annotative
 70
     0
 40
0.0
 41
2.5
 42
0.625
 43
3.75
 44
1.25
 73
     0
 74
     0
 77
     1
 78
     8
140
2.5
141
2.5
143
0.03937007874016
147
0.625
171
     3
172
     1
271
     2
272
     2
274
     3
278
    44
283
     0
284
     8
340
21
1001
AcadAnnotative
1000
AnnotativeData
1002
{
1070
     1
1070
     1
1002
}
1001
ACAD_DSTYLE_DIMJAG
1070
   388
1040
1.5
1001
ACAD_DSTYLE_DIMTALN
1070
   392
1070
     0
  0
DIMSTYLE
105
2F
330
2E
100
AcDbSymbolTableRecord
100
AcDbDimStyleTableRecord
  2
ISO-25
 70
     0
 41
2.5
 42
0.625
 43
3.75
 44
1.25
 73
     0
 74
     0
 77
     1
 78
     8
140
2.5
141
2.5
143
0.03937007874016
147
0.625
171
     3
172
     1
271
     2
272
     2
274
     3
278
    44
283
     0
284
     8
340
21
  0
ENDTAB
  0
TABLE
  2
BLOCK_RECORD
  5
1
330
0
100
AcDbSymbolTable
 70
     0
  0
BLOCK_RECORD
  5
2
102
{ACAD_XDICTIONARY
360
3
102
}
330
1
100
AcDbSymbolTableRecord
100
AcDbBlockTableRecord
  2
*Model_Space
340
15
  0
BLOCK_RECORD
  5
19
330
1
100
AcDbSymbolTableRecord
100
AcDbBlockTableRecord
  2
*Paper_Space
340
1C
  0
ENDTAB
  0
ENDSEC
  0
SECTION
  2
BLOCKS
  0
BLOCK
  5
4
330
2
100
AcDbEntity
  8
0
100
AcDbBlockBegin
  2
*Model_Space
 70
     0
 10
0.0
 20
0.0
 30
0.0
  3
*Model_Space
  1

  0
ENDBLK
  5
14
330
2
100
AcDbEntity
  8
0
100
AcDbBlockEnd
  0
BLOCK
  5
1A
330
19
100
AcDbEntity
 67
     1
  8
0
100
AcDbBlockBegin
  2
*Paper_Space
 70
     0
 10
0.0
 20
0.0
 30
0.0
  3
*Paper_Space
  1

  0
ENDBLK
  5
1B
330
19
100
AcDbEntity
 67
     1
  8
0
100
AcDbBlockEnd
  0
ENDSEC
  0
SECTION
  2
ENTITIES
  0
LINE
  5
58
330
2
100
AcDbEntity
  8
0
100
AcDbLine
 10
27.55103767893502
 20
16.17004761637636
 30
0.0
 11
26.48440981159524
 21
15.24632078688049
 31
0.0
  0
LINE
  5
59
330
2
100
AcDbEntity
  8
0
100
AcDbLine
 10
26.50335401240682
 20
14.91392536477806
 30
0.0
 11
26.52056457159813
 21
14.90487345718341
 31
0.0
  0
LINE
  5
5A
330
2
100
AcDbEntity
  8
0
100
AcDbLine
 10
52.04946028641666
 20
15.24632078688049
 30
0.0
 11
50.98283241907688
 21
16.17004761637636
 31
0.0
  0
LINE
  5
5B
330
2
100
AcDbEntity
  8
0
100
AcDbLine
 10
52.01330552641366
 20
14.90487345718341
 30
0.0
 11
52.03051608560508
 21
14.91392536477806
 31
0.0
  0
LINE
  5
5C
330
2
100
AcDbEntity
  8
0
100
AcDbLine
 10
35.96020089228819
 20
23.95344982876318
 30
0.0
 11
35.96020089228819
 21
19.13332868669383
 31
0.0
  0
SPLINE
  5
5D
330
2
100
AcDbEntity
  8
0
100
AcDbSpline
210
0.0
220
0.0
230
1.0
 70
     8
 71
     3
 72
    12
 73
     8
 74
     0
 42
0.000000001
 43
0.0000000001
 40
0.0
 40
0.0
 40
0.0
 40
0.0
 40
0.1814292812455421
 40
0.4157921650615058
 40
0.6513173281689835
 40
0.8893818971947961
 40
1.0
 40
1.0
 40
1.0
 40
1.0
 10
38.26887382095788
 20
25.0981922412349
 30
0.0
 10
38.23851843165789
 20
25.12106537284115
 30
0.0
 10
38.17632298849981
 20
25.16464514180908
 30
0.0
 10
38.05714714158921
 20
25.20533150169635
 30
0.0
 10
37.91852566767898
 20
25.22212903048231
 30
0.0
 10
37.79830995012571
 20
25.21128772067604
 30
0.0
 10
37.72657109405213
 20
25.19259093790803
 30
0.0
 10
37.7038122453987
 20
25.18665946265722
 30
0.0
  0
LINE
  5
5E
330
2
100
AcDbEntity
  8
0
100
AcDbLine
 10
38.32461547009553
 20
25.05049494075857
 30
0.0
 11
38.28461692507017
 21
25.08513469688413
 31
0.0
  0
LINE
  5
5F
330
2
100
AcDbEntity
  8
0
100
AcDbLine
 10
37.70381224539438
 20
25.18665946266654
 30
0.0
 11
36.8724580988503
 21
24.94666819251509
 31
0.0
  0
SPLINE
  5
60
330
2
100
AcDbEntity
  8
0
100
AcDbSpline
210
0.0
220
0.0
230
1.0
 70
     8
 71
     3
 72
    16
 73
    12
 74
     0
 42
0.000000001
 43
0.0000000001
 40
0.0
 40
0.0
 40
0.0
 40
0.0
 40
0.0698495378242813
 40
0.1990379081207496
 40
0.3285182403160729
 40
0.4581529125746114
 40
0.5879251972799279
 40
0.7178828956211268
 40
0.8480723407691126
 40
0.9707891010511616
 40
1.0
 40
1.0
 40
1.0
 40
1.0
 10
36.68771273294806
 20
24.89333679913878
 30
0.0
 10
36.66084038014492
 20
24.88469587071055
 30
0.0
 10
36.58426697601362
 20
24.86007334102536
 30
0.0
 10
36.46083639126391
 20
24.79700044762078
 30
0.0
 10
36.32498040810811
 20
24.69841661296826
 30
0.0
 10
36.20414181541992
 20
24.5775438529225
 30
0.0
 10
36.10313807006389
 20
24.43962873074324
 30
0.0
 10
36.02595242599682
 20
24.2897901173499
 30
0.0
 10
35.97710531014923
 20
24.13692565352974
 30
0.0
 10
35.96120728763333
 20
24.0240578339731
 30
0.0
 10
35.96036318634833
 20
23.9648362686527
 30
0.0
 10
35.96020089228387
 20
23.95344982875807
 30
0.0
  0
LINE
  5
61
330
2
100
AcDbEntity
  8
0
100
AcDbLine
 10
36.8724580988503
 20
24.94666819251509
 30
0.0
 11
36.68771273294681
 21
24.8933367991481
 31
0.0
  0
SPLINE
  5
62
330
2
100
AcDbEntity
  8
0
100
AcDbSpline
210
0.0
220
0.0
230
1.0
 70
     8
 71
     3
 72
    13
 73
     9
 74
     0
 42
0.000000001
 43
0.0000000001
 40
0.0
 40
0.0
 40
0.0
 40
0.0
 40
0.2785574303014062
 40
0.6383864624489386
 40
1.0
 40
1.0
 40
1.0
 40
1.030364617040013
 40
1.030364617040013
 40
1.030364617040013
 40
1.030364617040013
 10
42.84337359356777
 20
23.21648356986091
 30
0.0
 10
42.81755644761756
 20
23.23575603206879
 30
0.0
 10
42.75076500007048
 20
23.28269148417533
 30
0.0
 10
42.63195925441005
 20
23.32494758247029
 30
0.0
 10
42.53896638367689
 20
23.33191499034072
 30
0.0
 10
42.49235493826836
 20
23.33540731130077
 30
0.0
 10
42.48844098444044
 20
23.33570056079927
 30
0.0
 10
42.48452703061253
 20
23.33599381029777
 30
0.0
 10
42.48061307678461
 20
23.33628705979626
 30
0.0
  0
LINE
  5
63
330
2
100
AcDbEntity
  8
0
100
AcDbLine
 10
42.89911524270542
 20
23.16878626938453
 30
0.0
 11
42.85911669768018
 21
23.20342602551014
 31
0.0
  0
SPLINE
  5
64
330
2
100
AcDbEntity
  8
0
100
AcDbSpline
210
0.0
220
0.0
230
1.0
 70
     8
 71
     3
 72
    12
 73
     8
 74
     0
 42
0.000000001
 43
0.0000000001
 40
0.0
 40
0.0
 40
0.0
 40
0.0
 40
0.1814292812455341
 40
0.415792165061499
 40
0.6513173281689814
 40
0.8893818971947844
 40
1.0
 40
1.0
 40
1.0
 40
1.0
 10
41.96480712225002
 20
24.5639897799712
 30
0.0
 10
41.93832597431651
 20
24.58333666629974
 30
0.0
 10
41.87225628979308
 20
24.6304426805456
 30
0.0
 10
41.75308044288249
 20
24.67112904043287
 30
0.0
 10
41.61445896897226
 20
24.68792656921883
 30
0.0
 10
41.49424325141899
 20
24.67708525941262
 30
0.0
 10
41.42250439534541
 20
24.65838847664455
 30
0.0
 10
41.39974554669197
 20
24.65245700139374
 30
0.0
  0
LINE
  5
65
330
2
100
AcDbEntity
  8
0
100
AcDbLine
 10
42.02054877138755
 20
24.51629247949487
 30
0.0
 11
41.98055022636231
 21
24.55093223562042
 31
0.0
  0
LINE
  5
66
330
2
100
AcDbEntity
  8
0
100
AcDbLine
 10
34.57563663132078
 20
21.95263404990723
 30
0.0
 11
34.57563663132078
 21
18.69047371685255
 31
0.0
  0
LINE
  5
67
330
2
100
AcDbEntity
  8
0
100
AcDbLine
 10
41.39974554668651
 20
24.65245700140278
 30
0.0
 11
40.93805715948235
 21
24.51917904408029
 31
0.0
  0
SPLINE
  5
68
330
2
100
AcDbEntity
  8
0
100
AcDbSpline
210
0.0
220
0.0
230
1.0
 70
     8
 71
     3
 72
    11
 73
     7
 74
     0
 42
0.000000001
 43
0.0000000001
 40
0.0
 40
0.0
 40
0.0
 40
0.0
 40
0.1104046517395713
 40
0.5209289446612724
 40
0.9078897400403908
 40
1.0
 40
1.0
 40
1.0
 40
1.0
 10
34.66664079370207
 20
22.32818979446009
 30
0.0
 10
34.65953640508701
 20
22.31488313178588
 30
0.0
 10
34.62601533866973
 20
22.25209750061336
 30
0.0
 10
34.59377856918332
 20
22.13571823907611
 30
0.0
 10
34.57658611338775
 20
22.02326006635658
 30
0.0
 10
34.57578974739624
 20
21.96402339433874
 30
0.0
 10
34.57563663132351
 20
21.95263404990251
 30
0.0
  0
LINE
  5
69
330
2
100
AcDbEntity
  8
0
100
AcDbLine
 10
42.24450744293323
 20
23.84416905544688
 30
0.0
 11
42.20091275610139
 21
23.87064871804424
 31
0.0
  0
LINE
  5
6A
330
2
100
AcDbEntity
  8
0
100
AcDbLine
 10
42.30024909209214
 20
23.79647175499193
 30
0.0
 11
42.2602505470669
 21
23.83111151109611
 31
0.0
  0
LINE
  5
6B
330
2
100
AcDbEntity
  8
0
100
AcDbLine
 10
35.75542470124924
 20
23.09377278200938
 30
0.0
 11
35.75542470124924
 21
19.08077355057261
 31
0.0
  0
SPLINE
  5
6C
330
2
100
AcDbEntity
  8
0
100
AcDbSpline
210
0.0
220
0.0
230
1.0
 70
     8
 71
     3
 72
    13
 73
     9
 74
     0
 42
0.000000001
 43
0.0000000001
 40
0.0
 40
0.0
 40
0.0
 40
0.0
 40
0.2867385838583181
 40
0.6571356937018561
 40
1.0
 40
1.0
 40
1.0
 40
1.049545685410055
 40
1.049545685410055
 40
1.049545685410055
 40
1.049545685410055
 10
39.37578972781626
 20
24.61716808738677
 30
0.0
 10
39.34877123622823
 20
24.63642591636355
 30
0.0
 10
39.28316622076454
 20
24.68332783260914
 30
0.0
 10
39.16784304239764
 20
24.72467812574919
 30
0.0
 10
39.07857224799068
 20
24.7315133158418
 30
0.0
 10
39.03565983424687
 20
24.73479898734522
 30
0.0
 10
39.02945876603281
 20
24.73527378406124
 30
0.0
 10
39.02325769781874
 20
24.73574858077725
 30
0.0
 10
39.01705662960467
 20
24.73622337749328
 30
0.0
  0
LINE
  5
6D
330
2
100
AcDbEntity
  8
0
100
AcDbLine
 10
39.4315313769539
 20
24.56947078693176
 30
0.0
 11
39.39153283192866
 21
24.604110543036
 31
0.0
  0
SPLINE
  5
6E
330
2
100
AcDbEntity
  8
0
100
AcDbSpline
210
0.0
220
0.0
230
1.0
 70
     8
 71
     3
 72
    12
 73
     8
 74
     0
 42
0.000000001
 43
0.0000000001
 40
0.0
 40
0.0
 40
0.0
 40
0.0
 40
0.1535692531581339
 40
0.4205115435837768
 40
0.6879298583172734
 40
0.9399987505909608
 40
1.0
 40
1.0
 40
1.0
 40
1.0
 10
35.96020089228387
 20
23.6570127493076
 30
0.0
 10
35.94023404233599
 20
23.63108471510267
 30
0.0
 10
35.88555974576059
 20
23.56008718492413
 30
0.0
 10
35.82180523159844
 20
23.42969404620524
 30
0.0
 10
35.77216498080554
 20
23.27735795229395
 30
0.0
 10
35.75643864528388
 20
23.16437575845319
 30
0.0
 10
35.75558821263439
 20
23.10515841095551
 30
0.0
 10
35.75542470124799
 20
23.09377278201518
 30
0.0
  0
LINE
  5
6F
330
2
100
AcDbEntity
  8
0
100
AcDbLine
 10
30.21217158955778
 20
9.728525414682195
 30
0.0
 11
30.22335543643362
 21
9.61796101320013
 31
0.0
  0
LINE
  5
70
330
2
100
AcDbEntity
  8
0
100
AcDbLine
 10
48.31051466159954
 20
9.61796101320013
 30
0.0
 11
48.32169850847538
 21
9.728525414682195
 31
0.0
  0
SPLINE
  5
71
330
2
100
AcDbEntity
  8
0
100
AcDbSpline
210
0.0
220
0.0
230
1.0
 70
     8
 71
     3
 72
     9
 73
     5
 74
     0
 42
0.000000001
 43
0.0000000001
 40
0.0
 40
0.0
 40
0.0
 40
0.0
 40
0.2500021910301879
 40
1.0
 40
1.0
 40
1.0
 40
1.0
 10
45.31399077625815
 20
14.4589019000297
 30
0.0
 10
45.28680260315946
 20
14.7686925423649
 30
0.0
 10
45.1780508638783
 20
16.00784425163058
 30
0.0
 10
45.06554897226339
 20
17.24573488408182
 30
0.0
 10
44.98117280004737
 20
18.17415014616458
 30
0.0
  0
SPLINE
  5
72
330
2
100
AcDbEntity
  8
0
100
AcDbSpline
210
0.0
220
0.0
230
1.0
 70
     8
 71
     3
 72
     9
 73
     5
 74
     0
 42
0.000000001
 43
0.0000000001
 40
0.0
 40
0.0
 40
0.0
 40
0.0
 40
0.2424905473061644
 40
1.0
 40
1.0
 40
1.0
 40
1.0
 10
33.55266366845831
 20
18.17415946265274
 30
0.0
 10
33.52522683396285
 20
17.87403622227489
 30
0.0
 10
33.41208083796335
 20
16.6363663678749
 30
0.0
 10
33.30273400596343
 20
15.397414787553
 30
0.0
 10
33.2199027471014
 20
14.45889725402921
 30
0.0
  0
LINE
  5
73
330
2
100
AcDbEntity
  8
0
100
AcDbLine
 10
45.31863318854675
 20
14.31686441652511
 30
0.0
 11
45.31399077625815
 21
14.4589019000297
 31
0.0
  0
LINE
  5
74
330
2
100
AcDbEntity
  8
0
100
AcDbLine
 10
33.2199027471014
 20
14.45889725402921
 30
0.0
 11
33.21522107770988
 21
14.3168540425354
 31
0.0
  0
LINE
  5
75
330
2
100
AcDbEntity
  8
0
100
AcDbLine
 10
31.80192717214891
 20
15.85817895693205
 30
0.0
 11
31.71466443793247
 21
13.5950458220889
 31
0.0
  0
LINE
  5
76
330
2
100
AcDbEntity
  8
0
100
AcDbLine
 10
31.67177246559231
 20
12.48265523898359
 30
0.0
 11
31.66979871620493
 21
12.4314666335699
 31
0.0
  0
LINE
  5
77
330
2
100
AcDbEntity
  8
0
100
AcDbLine
 10
46.86407138182835
 20
12.4314666335699
 30
0.0
 11
46.86209763241947
 21
12.48265523898359
 31
0.0
  0
LINE
  5
78
330
2
100
AcDbEntity
  8
0
100
AcDbLine
 10
46.81920566010058
 20
13.5950458220889
 30
0.0
 11
46.73194292588436
 21
15.85817895693205
 31
0.0
  0
LINE
  5
79
330
2
100
AcDbEntity
  8
0
100
AcDbLine
 10
32.44466191719835
 20
13.51253246205479
 30
0.0
 11
32.31947386116576
 21
13.54867114097865
 31
0.0
  0
LINE
  5
7A
330
2
100
AcDbEntity
  8
0
100
AcDbLine
 10
46.21438846804062
 20
13.54866889832956
 30
0.0
 11
46.08920818081355
 21
13.51253246205479
 31
0.0
  0
LINE
  5
7B
330
2
100
AcDbEntity
  8
0
100
AcDbLine
 10
32.81765902225846
 20
16.88986496685808
 30
0.0
 11
32.25374668207474
 21
17.05265243756449
 31
0.0
  0
LINE
  5
7C
330
2
100
AcDbEntity
  8
0
100
AcDbLine
 10
46.28012341595831
 20
17.05265243756449
 30
0.0
 11
45.7162110757747
 21
16.88986496685808
 31
0.0
  0
LWPOLYLINE
  5
7D
330
2
100
AcDbEntity
  8
0
100
AcDbPolyline
 90
       17
 70
   128
 43
0.0
 10
28.47214983522145
 20
15.0936403030428
 10
28.50666098729971
 20
15.14862522130696
 10
28.50289523013771
 20
15.21683528236943
 10
28.46142586614519
 20
15.28788612272066
 10
28.38856623006495
 20
15.35096089600145
 10
28.29540854100173
 20
15.39645703976774
 10
28.19613521263909
 20
15.41744817855786
 10
28.10585970931561
 20
15.41073860173802
 10
28.03832565807352
 20
15.37734978161282
 10
28.00381450599525
 20
15.32236486332724
 10
28.00758026313588
 20
15.25415480226476
 10
28.0490496271284
 20
15.18310396191359
 10
28.12190926323001
 20
15.1200291886328
 10
28.21506695229323
 20
15.07453304486651
 10
28.31434028065587
 20
15.0535419060977
 10
28.40461578395798
 20
15.06025148289623
 10
28.47214983522145
 20
15.0936403030428
  0
LWPOLYLINE
  5
7E
330
2
100
AcDbEntity
  8
0
100
AcDbPolyline
 90
        9
 70
   128
 43
0.0
 10
27.57824106906219
 20
15.11078728698933
 10
27.61275222114046
 20
15.16577220527492
 10
27.60898646399983
 20
15.23398226631607
 10
27.56751710000731
 20
15.30503310666725
 10
27.4946574639057
 20
15.36810787996936
 10
27.40149977484248
 20
15.41360402373564
 10
27.3022264465011
 20
15.43459516250445
 10
27.21195094317773
 20
15.42788558570592
 10
27.20589370036862
 20
15.42627890199964
  0
LWPOLYLINE
  5
7F
330
2
100
AcDbEntity
  8
0
100
AcDbPolyline
 90
        9
 70
   128
 43
0.0
 10
27.11074497793743
 20
15.34266269790746
 10
27.10990573983599
 20
15.33951184727382
 10
27.11367149699788
 20
15.27130178623272
 10
27.1551408609904
 20
15.20025094588155
 10
27.22800049707075
 20
15.13717617257938
 10
27.32115818613397
 20
15.09168002883441
 10
27.42043151449661
 20
15.07068889004429
 10
27.5107070178201
 20
15.07739846684276
 10
27.57824106906219
 20
15.11078728698933
  0
LWPOLYLINE
  5
80
330
2
100
AcDbEntity
  8
0
100
AcDbPolyline
 90
       17
 70
   128
 43
0.0
 10
28.61941909422148
 20
14.42988453843409
 10
28.65393024629987
 20
14.4848694566983
 10
28.65016448915913
 20
14.55307951776083
 10
28.60869512516661
 20
14.62413035811201
 10
28.53583548906499
 20
14.6872051313928
 10
28.44267780000178
 20
14.73270127515903
 10
28.34340447166051
 20
14.75369241394921
 10
28.25312896833703
 20
14.74698283712936
 10
28.18559491707356
 20
14.71359401700411
 10
28.15108376499529
 20
14.65860909871858
 10
28.15484952215729
 20
14.59039903765611
 10
28.19631888614981
 20
14.51934819730493
 10
28.26917852223005
 20
14.45627342402415
 10
28.36233621129338
 20
14.41077728025786
 10
28.46160953965591
 20
14.38978614148905
 10
28.55188504297939
 20
14.39649571828752
 10
28.61941909422148
 20
14.42988453843409
  0
LINE
  5
81
330
2
100
AcDbEntity
  8
0
100
AcDbLine
 10
28.7876567175656
 20
15.41422094672398
 30
0.0
 11
27.67350806441664
 21
16.14284454604561
 31
0.0
  0
ARC
  5
82
330
2
100
AcDbEntity
  8
0
100
AcDbCircle
 10
27.42598155448741
 20
13.26084247746289
 30
0.0
 40
2.547782973804821
100
AcDbArc
 50
35.02348436040274
 51
57.69304655110519
  0
LINE
  5
83
330
2
100
AcDbEntity
  8
0
100
AcDbLine
 10
29.51240403401767
 20
14.72304606059285
 30
0.0
 11
29.52700806274334
 21
14.70128438272761
 31
0.0
  0
ARC
  5
84
330
2
100
AcDbEntity
  8
0
100
AcDbCircle
 10
30.0486136826205
 20
15.06683527849944
 30
0.0
 40
0.6369457434510546
100
AcDbArc
 50
215.0234843604027
 51
237.6930465511051
  0
LINE
  5
85
330
2
100
AcDbEntity
  8
0
100
AcDbLine
 10
29.70819489185101
 20
14.52849066120015
 30
0.0
 11
30.36271246461195
 21
14.1004535690736
 31
0.0
  0
LINE
  5
86
330
2
100
AcDbEntity
  8
0
100
AcDbLine
 10
29.66940435084109
 20
13.50003112989808
 30
0.0
 11
29.01488677808016
 21
13.92806822202462
 31
0.0
  0
ARC
  5
87
330
2
100
AcDbEntity
  8
0
100
AcDbCircle
 10
28.55112119161834
 20
13.21490949147502
 30
0.0
 40
0.8506902457166965
100
AcDbArc
 50
56.96413736000759
 51
75.62988647089735
  0
LINE
  5
88
330
2
100
AcDbEntity
  8
0
100
AcDbLine
 10
28.7622494300399
 20
14.03898397904586
 30
0.0
 11
28.73157824234431
 21
14.04683108907912
 31
0.0
  0
ARC
  5
89
330
2
100
AcDbEntity
  8
0
100
AcDbCircle
 10
29.57609119609435
 20
17.34312903942637
 30
0.0
 40
3.402760982865737
100
AcDbArc
 50
236.9641373600076
 51
255.6298864708907
  0
LINE
  5
8A
330
2
100
AcDbEntity
  8
0
100
AcDbLine
 10
27.72102885022582
 20
14.49049411722805
 30
0.0
 11
26.81267951422694
 21
15.08453043435654
 31
0.0
  0
ARC
  5
8B
330
2
100
AcDbEntity
  8
0
100
AcDbCircle
 10
26.26871285827588
 20
16.32857522716884
 30
0.0
 40
1.300940655525643
100
AcDbArc
 50
315.6185138917981
 51
349.0309109472034
  0
ARC
  5
8C
330
2
100
AcDbEntity
  8
0
100
AcDbCircle
 10
26.24142771743709
 20
16.34129586008433
 30
0.0
 40
1.300940655525658
100
AcDbArc
 50
315.6185138917981
 51
349.0309109472034
  0
LWPOLYLINE
  5
8D
330
2
100
AcDbEntity
  8
0
100
AcDbPolyline
 90
        9
 70
   128
 43
0.0
 10
26.4519722959376
 20
15.17002684671203
 10
26.44134544625126
 20
15.09029315612557
 10
26.44137445814533
 20
15.02249816254604
 10
26.45205821669492
 20
14.96924718957101
 10
26.47298615104273
 20
14.93258664222779
 10
26.50335401240682
 20
14.91392536477806
 10
26.54199478092346
 20
14.91398049966844
 10
26.58742351353112
 20
14.93274992810686
 10
26.63789440950007
 20
14.96951235146693
  0
LINE
  5
8E
330
2
100
AcDbEntity
  8
0
100
AcDbLine
 10
26.45694954161764
 20
15.19662519510407
 30
0.0
 11
26.4519722959376
 21
15.17002684671203
 31
0.0
  0
LINE
  5
8F
330
2
100
AcDbEntity
  8
0
100
AcDbLine
 10
27.5235774089573
 20
16.12035202462127
 30
0.0
 11
27.51860016327737
 21
16.09375367622928
 31
0.0
  0
LINE
  5
90
330
2
100
AcDbEntity
  8
0
100
AcDbLine
 10
26.63789440950007
 20
14.96951235146693
 30
0.0
 11
27.17120834316995
 21
15.43137576620418
 31
0.0
  0
LWPOLYLINE
  5
91
330
2
100
AcDbEntity
  8
0
100
AcDbPolyline
 90
        9
 70
   128
 43
0.0
 10
27.67350806441664
 20
16.14284454604561
 10
27.65397741782272
 20
16.15328594837635
 10
27.63387008157167
 20
16.15955276152604
 10
27.61413930401773
 20
16.16134788852568
 10
27.59572048153518
 20
16.15858622597508
 10
27.57948681344328
 20
16.15139869875438
 10
27.56620790521947
 20
16.14012605306064
 10
27.55651328316935
 20
16.12530270230761
 10
27.55086254979608
 20
16.10763139170578
  0
LWPOLYLINE
  5
92
330
2
100
AcDbEntity
  8
0
100
AcDbPolyline
 90
        9
 70
   128
 43
0.0
 10
27.68301657797247
 20
16.16612912525025
 10
27.6576267373855
 20
16.179702948293
 10
27.63148720027198
 20
16.18784980537478
 10
27.6058371894369
 20
16.1901834704594
 10
27.58189272023083
 20
16.18659330915003
 10
27.56078895170299
 20
16.17724952376736
 10
27.54352637102261
 20
16.16259508437409
 10
27.53092336235113
 20
16.1433247283866
 10
27.5235774089573
 20
16.12035202462127
  0
LINE
  5
93
330
2
100
AcDbEntity
  8
0
100
AcDbLine
 10
27.55086254979608
 20
16.10763139170578
 30
0.0
 11
27.54588530411615
 21
16.08103304331379
 31
0.0
  0
LINE
  5
94
330
2
100
AcDbEntity
  8
0
100
AcDbLine
 10
28.79716523110005
 20
15.43750552592863
 30
0.0
 11
27.68301657797247
 21
16.16612912525025
 31
0.0
  0
ARC
  5
95
330
2
100
AcDbEntity
  8
0
100
AcDbCircle
 10
26.54051798491491
 20
15.18288246955453
 30
0.0
 40
0.0846908921754771
100
AcDbArc
 50
131.491229823399
 51
170.6613651516956
  0
LINE
  5
96
330
2
100
AcDbEntity
  8
0
100
AcDbLine
 10
26.66517955031759
 20
14.95679171855138
 30
0.0
 11
27.19849348398748
 21
15.41865513331007
 31
0.0
  0
ARC
  5
97
330
2
100
AcDbEntity
  8
0
100
AcDbCircle
 10
27.43549006804324
 20
13.28412705666753
 30
0.0
 40
2.547782973804973
100
AcDbArc
 50
35.02348436040274
 51
57.69304655110519
  0
ARC
  5
98
330
2
100
AcDbEntity
  8
0
100
AcDbCircle
 10
30.48576332487176
 20
14.29633432369027
 30
0.0
 40
0.2065945407492535
100
AcDbArc
 50
236.6610925818052
 51
249.1503439898009
  0
LINE
  5
99
330
2
100
AcDbEntity
  8
0
100
AcDbLine
 10
30.41223281452824
 20
14.10326809589858
 30
0.0
 11
31.47057620709347
 21
13.70390741811965
 31
0.0
  0
ARC
  5
9A
330
2
100
AcDbEntity
  8
0
100
AcDbCircle
 10
30.52051180263175
 20
11.27577206281844
 30
0.0
 40
2.60738636882069
100
AcDbArc
 50
40.83879218670144
 51
68.63092307740299
  0
ARC
  5
9B
330
2
100
AcDbEntity
  8
0
100
AcDbCircle
 10
30.53222718759128
 20
11.28522184771597
 30
0.0
 40
2.568377758531337
100
AcDbArc
 50
40.75484759111239
 51
68.62970744749548
  0
LINE
  5
9C
330
2
100
AcDbEntity
  8
0
100
AcDbLine
 10
30.40978521327884
 20
14.0763711545068
 30
0.0
 11
31.46812860584407
 21
13.67701047672787
 31
0.0
  0
ARC
  5
9D
330
2
100
AcDbEntity
  8
0
100
AcDbCircle
 10
30.49629169604964
 20
14.30350789310407
 30
0.0
 40
0.2430524008830247
100
AcDbArc
 50
236.6610925818052
 51
249.1503439898009
  0
LINE
  5
9E
330
2
100
AcDbEntity
  8
0
100
AcDbLine
 10
29.71770340540684
 20
14.55177524038347
 30
0.0
 11
30.37222097816789
 21
14.1237381482783
 31
0.0
  0
LINE
  5
9F
330
2
100
AcDbEntity
  8
0
100
AcDbLine
 10
28.48165834877728
 20
15.11692488222607
 30
0.0
 11
28.50613931522526
 21
15.14662037476799
 31
0.0
  0
ARC
  5
A0
330
2
100
AcDbEntity
  8
0
100
AcDbCircle
 10
30.05812219617644
 20
15.09011985770408
 30
0.0
 40
0.6369457434507031
100
AcDbArc
 50
215.0234843602997
 51
237.6930465511051
  0
LWPOLYLINE
  5
A1
330
2
100
AcDbEntity
  8
0
100
AcDbPolyline
 90
        5
 70
   128
 43
0.0
 10
26.66517955031759
 20
14.95679171855138
 10
26.61470865436991
 20
14.92002929521268
 10
26.56927992176225
 20
14.90125986677426
 10
26.5306391532456
 20
14.90120473188383
 10
26.52056457159813
 20
14.90487345718341
  0
LINE
  5
A2
330
2
100
AcDbEntity
  8
0
100
AcDbLine
 10
29.52191254757349
 20
14.74633063979749
 30
0.0
 11
29.53651657629917
 21
14.72456896193225
 31
0.0
  0
LINE
  5
A3
330
2
100
AcDbEntity
  8
0
100
AcDbLine
 10
27.58774958261802
 20
15.13407186619398
 30
0.0
 11
27.612230549066
 21
15.16376735873589
 31
0.0
  0
LINE
  5
A4
330
2
100
AcDbEntity
  8
0
100
AcDbLine
 10
30.77482049207322
 20
13.07658803755234
 30
0.0
 11
29.71647709950799
 21
13.47594871533127
 31
0.0
  0
ARC
  5
A5
330
2
100
AcDbEntity
  8
0
100
AcDbCircle
 10
29.80298358227879
 20
13.70308545392854
 30
0.0
 40
0.2430524008827604
100
AcDbArc
 50
236.6610925818979
 51
249.1503439898009
  0
LINE
  5
A6
330
2
100
AcDbEntity
  8
0
100
AcDbLine
 10
28.62892760777743
 20
14.45316911761742
 30
0.0
 11
28.6534085742253
 21
14.48286461018065
 31
0.0
  0
ARC
  5
A7
330
2
100
AcDbEntity
  8
0
100
AcDbCircle
 10
29.84673590358989
 20
10.69970842327072
 30
0.0
 40
2.551646077370056
100
AcDbArc
 50
43.43807867210381
 51
68.67117243010004
  0
LWPOLYLINE
  5
A8
330
2
100
AcDbEntity
  8
0
100
AcDbPolyline
 90
       17
 70
   128
 43
0.0
 10
50.43504001638064
 20
14.77033591270108
 10
50.50257406762284
 20
14.73694709257583
 10
50.59284957094622
 20
14.73023751575604
 10
50.69212289930885
 20
14.75122865454617
 10
50.78528058837207
 20
14.79672479831239
 10
50.85814022445243
 20
14.85979957159324
 10
50.89960958844494
 20
14.93085041194442
 10
50.90337534560695
 20
14.99906047300689
 10
50.86886419352868
 20
15.0540453912711
 10
50.8013301422651
 20
15.08743421141767
 10
50.71105463894173
 20
15.09414378821614
 10
50.61178131060046
 20
15.07315264944734
 10
50.51862362153713
 20
15.02765650568105
 10
50.44576398543552
 20
14.96458173240026
 10
50.404294621443
 20
14.89353089204908
 10
50.40052886430237
 20
14.82532083098661
 10
50.43504001638064
 20
14.77033591270108
  0
LWPOLYLINE
  5
A9
330
2
100
AcDbEntity
  8
0
100
AcDbPolyline
 90
       17
 70
   128
 43
0.0
 10
50.5823092753808
 20
15.43409167730974
 10
50.64984332664426
 20
15.40070285718448
 10
50.74011882994637
 20
15.39399328036464
 10
50.83939215830901
 20
15.41498441915476
 10
50.93254984737223
 20
15.46048056292105
 10
51.00540948347384
 20
15.52355533620189
 10
51.04687884746636
 20
15.59460617655307
 10
51.05064460460699
 20
15.66281623761554
 10
51.01613345252872
 20
15.71780115587975
 10
50.94859940128663
 20
15.75118997602632
 10
50.85832389796315
 20
15.75789955282479
 10
50.7590505696005
 20
15.73690841405599
 10
50.66589288053728
 20
15.6914122702897
 10
50.59303324445693
 20
15.62833749700891
 10
50.55156388046441
 20
15.55728665665779
 10
50.54779812330252
 20
15.48907659559526
 10
50.5823092753808
 20
15.43409167730974
  0
LWPOLYLINE
  5
AA
330
2
100
AcDbEntity
  8
0
100
AcDbPolyline
 90
       17
 70
   128
 43
0.0
 10
49.54113125022138
 20
14.75318892875449
 10
49.60866530148485
 20
14.71980010860792
 10
49.69894080478695
 20
14.7130905318094
 10
49.7982141331496
 20
14.73408167057826
 10
49.89137182221281
 20
14.77957781434449
 10
49.96423145831442
 20
14.84265258764665
 10
50.00570082230694
 20
14.91370342799783
 10
50.00946657944758
 20
14.98191348903899
 10
49.97495542736931
 20
15.03689840732451
 10
49.90742137612722
 20
15.07028722747103
 10
49.81714587280373
 20
15.07699680426955
 10
49.7178725444412
 20
15.05600566547943
 10
49.62471485537787
 20
15.01050952173446
 10
49.55185521929752
 20
14.94743474843235
 10
49.51038585530501
 20
14.87638390808118
 10
49.50662009814312
 20
14.80817384704002
 10
49.54113125022138
 20
14.75318892875449
  0
LINE
  5
AB
330
2
100
AcDbEntity
  8
0
100
AcDbLine
 10
50.81284124780734
 20
14.49049411722805
 30
0.0
 11
51.72119058380622
 21
15.08453043435654
 31
0.0
  0
ARC
  5
AC
330
2
100
AcDbEntity
  8
0
100
AcDbCircle
 10
48.95777890191744
 20
17.34312903942637
 30
0.0
 40
3.40276098286655
100
AcDbArc
 50
284.3701135291026
 51
303.0358626399924
  0
LINE
  5
AD
330
2
100
AcDbEntity
  8
0
100
AcDbLine
 10
49.80229185566759
 20
14.04683108907912
 30
0.0
 11
49.771620667972
 21
14.03898397904586
 31
0.0
  0
ARC
  5
AE
330
2
100
AcDbEntity
  8
0
100
AcDbCircle
 10
49.98274890641482
 20
13.21490949147502
 30
0.0
 40
0.8506902457167431
100
AcDbArc
 50
104.3701135291093
 51
123.0358626399924
  0
LINE
  5
AF
330
2
100
AcDbEntity
  8
0
100
AcDbLine
 10
49.51898331993163
 20
13.92806822202462
 30
0.0
 11
48.86446574719207
 21
13.50003112989808
 31
0.0
  0
LINE
  5
B0
330
2
100
AcDbEntity
  8
0
100
AcDbLine
 10
48.17115763342122
 20
14.1004535690736
 30
0.0
 11
48.82567520616089
 21
14.52849066120015
 31
0.0
  0
ARC
  5
B1
330
2
100
AcDbEntity
  8
0
100
AcDbCircle
 10
48.48525641539129
 20
15.06683527849944
 30
0.0
 40
0.6369457434511551
100
AcDbArc
 50
302.3069534488948
 51
324.976515639699
  0
LINE
  5
B2
330
2
100
AcDbEntity
  8
0
100
AcDbLine
 10
49.00686203528983
 20
14.70128438272761
 30
0.0
 11
49.02146606401561
 21
14.72304606059285
 31
0.0
  0
ARC
  5
B3
330
2
100
AcDbEntity
  8
0
100
AcDbCircle
 10
51.10788854354575
 20
13.26084247746289
 30
0.0
 40
2.547782973805214
100
AcDbArc
 50
122.3069534488948
 51
144.9765156395972
  0
LINE
  5
B4
330
2
100
AcDbEntity
  8
0
100
AcDbLine
 10
49.74621338046756
 20
15.41422094672398
 30
0.0
 11
50.86036203359526
 21
16.14284454604561
 31
0.0
  0
ARC
  5
B5
330
2
100
AcDbEntity
  8
0
100
AcDbCircle
 10
52.26515723975729
 20
16.32857522716884
 30
0.0
 40
1.300940655525854
100
AcDbArc
 50
190.9690890527965
 51
224.3814861082019
  0
ARC
  5
B6
330
2
100
AcDbEntity
  8
0
100
AcDbCircle
 10
52.29244238059607
 20
16.34129586008433
 30
0.0
 40
1.30094065552566
100
AcDbArc
 50
190.9690890527965
 51
224.3814861082019
  0
LINE
  5
B7
330
2
100
AcDbEntity
  8
0
100
AcDbLine
 10
51.01029268905449
 20
16.12035202462127
 30
0.0
 11
51.01526993475579
 21
16.09375367622928
 31
0.0
  0
LINE
  5
B8
330
2
100
AcDbEntity
  8
0
100
AcDbLine
 10
52.07692055639427
 20
15.19662519510407
 30
0.0
 11
52.08189780209545
 21
15.17002684671203
 31
0.0
  0
LWPOLYLINE
  5
B9
330
2
100
AcDbEntity
  8
0
100
AcDbPolyline
 90
        9
 70
   128
 43
0.0
 10
51.8959756885331
 20
14.96951235146693
 10
51.94644658450193
 20
14.93274992810686
 10
51.99187531708844
 20
14.91398049966844
 10
52.03051608560508
 20
14.91392536477806
 10
52.06088394699031
 20
14.93258664222779
 10
52.08181188133824
 20
14.96924718957101
 10
52.09249563988783
 20
15.02249816254604
 10
52.09252465176053
 20
15.09029315612557
 10
52.08189780209545
 20
15.17002684671203
  0
LINE
  5
BA
330
2
100
AcDbEntity
  8
0
100
AcDbLine
 10
51.36266175486321
 20
15.43137576620418
 30
0.0
 11
51.8959756885331
 21
14.96951235146693
 31
0.0
  0
LWPOLYLINE
  5
BB
330
2
100
AcDbEntity
  8
0
100
AcDbPolyline
 90
        9
 70
   128
 43
0.0
 10
50.85085352003932
 20
16.16612912525025
 10
50.87624336062629
 20
16.179702948293
 10
50.90238289776118
 20
16.18784980537478
 10
50.92803290859638
 20
16.1901834704594
 10
50.95197737780233
 20
16.18659330915003
 10
50.97308114633017
 20
16.17724952376736
 10
50.99034372701044
 20
16.16259508437409
 10
51.00294673566065
 20
16.1433247283866
 10
51.01029268905449
 20
16.12035202462127
  0
LWPOLYLINE
  5
BC
330
2
100
AcDbEntity
  8
0
100
AcDbPolyline
 90
        9
 70
   128
 43
0.0
 10
50.86036203359526
 20
16.14284454604561
 10
50.87989268021044
 20
16.15328594837635
 10
50.90000001644011
 20
16.15955276152604
 10
50.91973079401544
 20
16.16134788852568
 10
50.93814961647672
 20
16.15858622597508
 10
50.9543832845684
 20
16.15139869875438
 10
50.96766219279231
 20
16.14012605306064
 10
50.97735681484244
 20
16.12530270230761
 10
50.98300754821571
 20
16.10763139170578
  0
LINE
  5
BD
330
2
100
AcDbEntity
  8
0
100
AcDbLine
 10
50.98300754821571
 20
16.10763139170578
 30
0.0
 11
50.98798479391689
 21
16.08103304331379
 31
0.0
  0
LINE
  5
BE
330
2
100
AcDbEntity
  8
0
100
AcDbLine
 10
49.73670486691162
 20
15.43750552592863
 30
0.0
 11
50.85085352003932
 21
16.16612912525025
 31
0.0
  0
ARC
  5
BF
330
2
100
AcDbEntity
  8
0
100
AcDbCircle
 10
51.99335211311825
 20
15.18288246955453
 30
0.0
 40
0.0846908921757528
100
AcDbArc
 50
9.338634848399935
 51
48.50877017650528
  0
LINE
  5
C0
330
2
100
AcDbEntity
  8
0
100
AcDbLine
 10
51.33537661402442
 20
15.41865513331007
 30
0.0
 11
51.86869054769431
 21
14.95679171855138
 31
0.0
  0
ARC
  5
C1
330
2
100
AcDbEntity
  8
0
100
AcDbCircle
 10
51.09838002998981
 20
13.28412705666753
 30
0.0
 40
2.547782973804576
100
AcDbArc
 50
122.3069534488948
 51
144.9765156395972
  0
ARC
  5
C2
330
2
100
AcDbEntity
  8
0
100
AcDbCircle
 10
48.03757840198352
 20
14.30350789310407
 30
0.0
 40
0.2430524008825497
100
AcDbArc
 50
290.8496560101991
 51
303.3389074181947
  0
LINE
  5
C3
330
2
100
AcDbEntity
  8
0
100
AcDbLine
 10
47.06574149218909
 20
13.67701047672787
 30
0.0
 11
48.12408488475444
 21
14.0763711545068
 31
0.0
  0
ARC
  5
C4
330
2
100
AcDbEntity
  8
0
100
AcDbCircle
 10
48.00164291042062
 20
11.28522184771597
 30
0.0
 40
2.568377758530782
100
AcDbArc
 50
111.3702925525045
 51
139.2451524088876
  0
ARC
  5
C5
330
2
100
AcDbEntity
  8
0
100
AcDbCircle
 10
48.0133582954013
 20
11.27577206281844
 30
0.0
 40
2.607386368820739
100
AcDbArc
 50
111.3690769225969
 51
139.1612078132985
  0
LINE
  5
C6
330
2
100
AcDbEntity
  8
0
100
AcDbLine
 10
47.06329389093958
 20
13.70390741811965
 30
0.0
 11
48.12163728350492
 21
14.10326809589858
 31
0.0
  0
ARC
  5
C7
330
2
100
AcDbEntity
  8
0
100
AcDbCircle
 10
48.04810677314003
 20
14.29633432369027
 30
0.0
 40
0.206594540747674
100
AcDbArc
 50
290.8496560101016
 51
303.3389074181947
  0
LINE
  5
C8
330
2
100
AcDbEntity
  8
0
100
AcDbLine
 10
48.16164911986539
 20
14.1237381482783
 30
0.0
 11
48.81616669262621
 21
14.55177524038347
 31
0.0
  0
ARC
  5
C9
330
2
100
AcDbEntity
  8
0
100
AcDbCircle
 10
48.47574790185672
 20
15.09011985770408
 30
0.0
 40
0.6369457434507705
100
AcDbArc
 50
302.3069534488948
 51
324.976515639699
  0
LWPOLYLINE
  5
CA
330
2
100
AcDbEntity
  8
0
100
AcDbPolyline
 90
        5
 70
   128
 43
0.0
 10
52.01330552641366
 20
14.90487345718341
 10
52.00323094476619
 20
14.90120473188383
 10
51.96459017624966
 20
14.90125986677426
 10
51.91916144366314
 20
14.92002929521268
 10
51.86869054769431
 20
14.95679171855138
  0
LINE
  5
CB
330
2
100
AcDbEntity
  8
0
100
AcDbLine
 10
48.99735352173388
 20
14.72456896193225
 30
0.0
 11
49.01195755045955
 21
14.74633063979749
 31
0.0
  0
LINE
  5
CC
330
2
100
AcDbEntity
  8
0
100
AcDbLine
 10
48.81739299852518
 20
13.47594871533127
 30
0.0
 11
47.75904960595994
 21
13.07658803755234
 31
0.0
  0
ARC
  5
CD
330
2
100
AcDbEntity
  8
0
100
AcDbCircle
 10
48.73088651575438
 20
13.70308545392854
 30
0.0
 40
0.2430524008806281
100
AcDbArc
 50
290.8496560101991
 51
303.3389074181947
  0
ARC
  5
CE
330
2
100
AcDbEntity
  8
0
100
AcDbCircle
 10
48.68713419444339
 20
10.69970842327072
 30
0.0
 40
2.551646077370272
100
AcDbArc
 50
111.3288275698999
 51
136.5619213278962
  0
LWPOLYLINE
  5
CF
330
2
100
AcDbEntity
  8
0
100
AcDbPolyline
 90
       17
 70
   128
 43
0.0
 10
39.64025480258556
 20
5.311385753615894
 10
39.53820959924371
 20
5.307884467900265
 10
39.45169985308235
 20
5.297913649731668
 10
39.39389588871222
 20
5.28299126582371
 10
39.37359783575061
 20
5.26538911381553
 10
39.39389588871222
 20
5.247786961807292
 10
39.45169985308235
 20
5.232864577899334
 10
39.53820959924371
 20
5.222893759730737
 10
39.64025480258556
 20
5.219392474015108
 10
39.74230000590592
 20
5.222893759730737
 10
39.82880975208866
 20
5.232864577899334
 10
39.88661371643753
 20
5.247786961807292
 10
39.9069117694205
 20
5.26538911381553
 10
39.88661371643753
 20
5.28299126582371
 10
39.82880975208866
 20
5.297913649731668
 10
39.74230000590592
 20
5.307884467900265
 10
39.64025480258556
 20
5.311385753615894
  0
LINE
  5
D0
330
2
100
AcDbEntity
  8
0
100
AcDbLine
 10
38.20030718167686
 20
5.35060635710468
 30
0.0
 11
38.20030718167686
 21
5.178915430982243
 31
0.0
  0
LINE
  5
D1
330
2
100
AcDbEntity
  8
0
100
AcDbLine
 10
40.33356291635629
 20
5.35060635710468
 30
0.0
 11
40.33356291635629
 21
5.178915430982243
 31
0.0
  0
ARC
  5
D2
330
2
100
AcDbEntity
  8
0
100
AcDbCircle
 10
39.81574513371254
 20
5.023063013907091
 30
0.0
 40
0.5180800771480226
100
AcDbArc
 50
268.2859860206984
 51
358.1767252638954
  0
LINE
  5
D3
330
2
100
AcDbEntity
  8
0
100
AcDbLine
 10
39.80024898268652
 20
4.5052147391672
 30
0.0
 11
38.73362111534675
 21
4.5052147391672
 31
0.0
  0
ARC
  5
D4
330
2
100
AcDbEntity
  8
0
100
AcDbCircle
 10
38.71812496429925
 20
5.023063013907091
 30
0.0
 40
0.5180800771480318
100
AcDbArc
 50
181.8232747361046
 51
271.7140139793016
  0
LINE
  5
D5
330
2
100
AcDbEntity
  8
0
100
AcDbLine
 10
38.20030718167686
 20
5.037488145310959
 30
0.0
 11
38.20030718167686
 21
5.006579375708184
 31
0.0
  0
LINE
  5
D6
330
2
100
AcDbEntity
  8
0
100
AcDbLine
 10
40.33356291635629
 20
5.037488145310959
 30
0.0
 11
40.33356291635629
 21
5.006579375708184
 31
0.0
  0
LINE
  5
D7
330
2
100
AcDbEntity
  8
0
100
AcDbLine
 10
38.20030718167686
 20
5.178915430982243
 30
0.0
 11
38.20030718167686
 21
5.037488145310959
 31
0.0
  0
LINE
  5
D8
330
2
100
AcDbEntity
  8
0
100
AcDbLine
 10
40.33356291635629
 20
5.178915430982243
 30
0.0
 11
40.33356291635629
 21
5.037488145310959
 31
0.0
  0
LWPOLYLINE
  5
D9
330
2
100
AcDbEntity
  8
0
100
AcDbPolyline
 90
        9
 70
   128
 43
0.0
 10
27.11074497793743
 20
15.34266269790746
 10
27.10990573983599
 20
15.33951184727382
 10
27.11367149699788
 20
15.27130178623272
 10
27.1551408609904
 20
15.20025094588155
 10
27.22800049707075
 20
15.13717617257938
 10
27.32115818613397
 20
15.09168002883441
 10
27.42043151449661
 20
15.07068889004429
 10
27.5107070178201
 20
15.07739846684276
 10
27.57824106906219
 20
15.11078728698933
  0
LINE
  5
DA
330
2
100
AcDbEntity
  8
0
100
AcDbLine
 10
38.50497945480936
 20
24.61878461060067
 30
0.0
 11
38.50497945480936
 21
19.49992632553099
 31
0.0
  0
LINE
  5
DB
330
2
100
AcDbEntity
  8
0
100
AcDbLine
 10
39.10208586384511
 20
19.5185068211513
 30
0.0
 11
39.10208586384511
 21
24.42166365179597
 31
0.0
  0
ARC
  5
DC
330
2
100
AcDbEntity
  8
0
100
AcDbCircle
 10
38.56538099259501
 20
24.44535801259585
 30
0.0
 40
0.5372276440810554
100
AcDbArc
 50
357.4721565201053
 51
107.1778750461018
  0
LINE
  5
DD
330
2
100
AcDbEntity
  8
0
100
AcDbLine
 10
38.26887382095788
 20
25.0981922412349
 30
0.0
 11
38.28461692507017
 21
25.08513469688413
 31
0.0
  0
ARC
  5
DE
330
2
100
AcDbEntity
  8
0
100
AcDbCircle
 10
37.95027740547232
 20
24.64056823606219
 30
0.0
 40
0.5551296153830077
100
AcDbArc
 50
357.7511011826025
 51
47.59820542870382
  0
LINE
  5
DF
330
2
100
AcDbEntity
  8
0
100
AcDbLine
 10
43.07947922739799
 20
22.73707593922657
 30
0.0
 11
43.07947922739799
 21
18.99603092374698
 31
0.0
  0
LINE
  5
E0
330
2
100
AcDbEntity
  8
0
100
AcDbLine
 10
43.90751734384503
 20
18.71077275661557
 30
0.0
 11
43.90751734384503
 21
22.6066192221306
 31
0.0
  0
ARC
  5
E1
330
2
100
AcDbEntity
  8
0
100
AcDbCircle
 10
43.36610145880922
 20
22.62775007268132
 30
0.0
 40
0.5418280847250202
100
AcDbArc
 50
357.7649448216937
 51
111.3846782332966
  0
LINE
  5
E2
330
2
100
AcDbEntity
  8
0
100
AcDbLine
 10
43.16853588023128
 20
23.13227511225514
 30
0.0
 11
42.98047448420937
 21
23.07798646344767
 31
0.0
  0
LINE
  5
E3
330
2
100
AcDbEntity
  8
0
100
AcDbLine
 10
42.84337359356777
 20
23.21648356986091
 30
0.0
 11
42.85911669768018
 21
23.20342602551014
 31
0.0
  0
ARC
  5
E4
330
2
100
AcDbEntity
  8
0
100
AcDbCircle
 10
42.52477717808233
 20
22.75885956468815
 30
0.0
 40
0.5551296153829602
100
AcDbArc
 50
357.7511011826025
 51
47.59820542870382
  0
LINE
  5
E5
330
2
100
AcDbEntity
  8
0
100
AcDbLine
 10
42.20091275610139
 20
24.08458214933691
 30
0.0
 11
42.20091275610139
 21
19.21910549800159
 31
0.0
  0
LINE
  5
E6
330
2
100
AcDbEntity
  8
0
100
AcDbLine
 10
41.96480712225002
 20
24.5639897799712
 30
0.0
 11
41.98055022636231
 21
24.55093223562042
 31
0.0
  0
ARC
  5
E7
330
2
100
AcDbEntity
  8
0
100
AcDbCircle
 10
41.64621070676446
 20
24.10636577479844
 30
0.0
 40
0.5551296153829491
100
AcDbArc
 50
357.7511011826025
 51
47.59820542870382
  0
LINE
  5
E8
330
2
100
AcDbEntity
  8
0
100
AcDbLine
 10
42.48061307678471
 20
23.3647614248126
 30
0.0
 11
42.48061307678471
 21
19.15591250954364
 31
0.0
  0
LINE
  5
E9
330
2
100
AcDbEntity
  8
0
100
AcDbLine
 10
42.24450744293323
 20
23.84416905544688
 30
0.0
 11
42.2602505470669
 21
23.83111151109611
 31
0.0
  0
ARC
  5
EA
330
2
100
AcDbEntity
  8
0
100
AcDbCircle
 10
41.92591102744768
 20
23.38654505027418
 30
0.0
 40
0.555129615383144
100
AcDbArc
 50
357.7511011826025
 51
47.59820542870382
  0
LINE
  5
EB
330
2
100
AcDbEntity
  8
0
100
AcDbLine
 10
41.04035591724778
 20
19.41258229295996
 30
0.0
 11
41.04035591724778
 21
24.18063076809924
 31
0.0
  0
LINE
  5
EC
330
2
100
AcDbEntity
  8
0
100
AcDbLine
 10
39.61189536164648
 20
24.13776045675249
 30
0.0
 11
39.61189536164648
 21
19.51543028216119
 31
0.0
  0
ARC
  5
ED
330
2
100
AcDbEntity
  8
0
100
AcDbCircle
 10
40.49894003223323
 20
24.20176161867127
 30
0.0
 40
0.5418280847249952
100
AcDbArc
 50
357.7649448216937
 51
111.3846782332966
  0
LINE
  5
EE
330
2
100
AcDbEntity
  8
0
100
AcDbLine
 10
40.30137445365528
 20
24.70628665824509
 30
0.0
 11
39.51289061845784
 21
24.47867098099491
 31
0.0
  0
LINE
  5
EF
330
2
100
AcDbEntity
  8
0
100
AcDbLine
 10
34.66664079370685
 20
22.34069769693818
 30
0.0
 11
34.66664079370685
 21
18.7266422493465
 31
0.0
  0
ARC
  5
F0
330
2
100
AcDbEntity
  8
0
100
AcDbCircle
 10
35.71664898664403
 20
22.28877595207021
 30
0.0
 40
1.05129114561834
100
AcDbArc
 50
107.2086421098983
 51
177.1690928842982
  0
LINE
  5
F1
330
2
100
AcDbEntity
  8
0
100
AcDbLine
 10
35.82052173376894
 20
23.41277589623698
 30
0.0
 11
35.40562225729923
 21
23.29300473401989
 31
0.0
  0
LINE
  5
F2
330
2
100
AcDbEntity
  8
0
100
AcDbLine
 10
39.37578972781626
 20
24.61716808738677
 30
0.0
 11
39.39153283192866
 21
24.604110543036
 31
0.0
  0
ARC
  5
F3
330
2
100
AcDbEntity
  8
0
100
AcDbCircle
 10
39.05719331230944
 20
24.15954408221401
 30
0.0
 40
0.5551296153828909
100
AcDbArc
 50
357.7511011826025
 51
47.59820542880071
  0
LWPOLYLINE
  5
F4
330
2
100
AcDbEntity
  8
0
100
AcDbPolyline
 90
       89
 70
   128
 43
0.0
 10
37.62406751222295
 20
6.125804067380755
 10
37.11581972030149
 20
6.193555288216515
 10
36.61853351897799
 20
6.279262877892932
 10
36.13474296481013
 20
6.382490090163656
 10
35.66691334354573
 20
6.502710902797701
 10
35.21742860767745
 20
6.639312698122211
 10
34.78857922840518
 20
6.791599384679244
 10
34.38255052386831
 20
6.958794944446395
 10
34.00141152327388
 20
7.140047387145983
 10
33.64710442357864
 20
7.334433091890133
 10
33.32143469258972
 20
7.540961513675853
 10
33.02606186859669
 20
7.758580231009688
 10
32.76249110378171
 20
7.986180308805984
 10
32.53206549435538
 20
8.222601949231858
 10
32.33595923641087
 20
8.466640401806927
 10
32.17517164248284
 20
8.717052102486633
 10
32.05052204931678
 20
8.972561010669238
 10
31.96264564261787
 20
9.231865111508483
 10
31.9119902204759
 20
9.493643050765427
 10
31.89881391125073
 20
9.756560868046477
 10
31.92318385841963
 20
10.01927879444409
 10
31.98497587831878
 20
10.28045807961612
 10
32.08387509299405
 20
10.53876781376746
 10
32.21937753468694
 20
10.79289170973882
 10
32.39079271401852
 20
11.04153481039
 10
32.59724713855997
 20
11.2834300874845
 10
32.83768876384943
 20
11.5173448981167
 10
33.11089235449833
 20
11.74208726606153
 10
33.4154657276124
 20
11.95651195568703
 10
33.74985684712533
 20
12.1595263079661
 10
34.11236173252451
 20
12.35009580825263
 10
34.5011331420128
 20
12.52724935808968
 10
34.91418998560562
 20
12.69008422359471
 10
35.34942742029466
 20
12.83777063559128
 10
35.80462757588725
 20
12.96955601799877
 10
36.27747085671763
 20
13.08476882270125
 10
36.76554776184639
 20
13.1828219516735
 10
37.26637116320592
 20
13.26321574863746
 10
37.77738897957113
 20
13.32554054523123
 10
38.29599718127088
 20
13.36947874857
 10
38.81955305978477
 20
13.3948064596623
 10
39.34538869434687
 20
13.40139461427495
 10
39.87082454714209
 20
13.38920964067981
 10
40.3931831174649
 20
13.35831363071955
 10
40.90980258578883
 20
13.30886402340323
 10
41.41805037773167
 20
13.24111280254615
 10
41.91533657903391
 20
13.15540521286968
 10
42.39912713320165
 20
13.05217800062033
 10
42.86695675448732
 20
12.93195718796491
 10
43.3164414903556
 20
12.7953553926404
 10
43.74529086962797
 20
12.64306870608337
 10
44.15131957416486
 20
12.47587314631622
 10
44.53245857475917
 20
12.29462070361663
 10
44.88676567443326
 20
12.10023499887254
 10
45.21243540542207
 20
11.89370657708681
 10
45.50780822943647
 20
11.67608785975292
 10
45.77137899425156
 20
11.44848778195663
 10
46.00180460367778
 20
11.21206614153075
 10
46.19791086160091
 20
10.96802768895574
 10
46.35869845552895
 20
10.71761598827598
 10
46.48334804871637
 20
10.46210708009337
 10
46.57122445539392
 20
10.20280297925419
 10
46.62187987755714
 20
9.941025039997242
 10
46.63505618678255
 20
9.678107222716135
 10
46.61068623959226
 20
9.415389296318522
 10
46.54889421969301
 20
9.154210011146489
 10
46.44999500503911
 20
8.895900276995149
 10
46.31449256334621
 20
8.641776381023788
 10
46.14307738399339
 20
8.393133280372666
 10
45.9366229594732
 20
8.151238003278109
 10
45.69618133418373
 20
7.917323192645909
 10
45.42297774353483
 20
7.692580824722455
 10
45.11840437039938
 20
7.478156135075579
 10
44.78401325088646
 20
7.275141782817826
 10
44.42150836548717
 20
7.084572282509981
 10
44.03273695602035
 20
6.907418732672937
 10
43.61968011242754
 20
6.744583867167904
 10
43.1844426777385
 20
6.59689745517133
 10
42.72924252214591
 20
6.465112072763844
 10
42.25639924129416
 20
6.349899268061363
 10
41.76832233618677
 20
6.251846139089167
 10
41.26749893480587
 20
6.171452342125149
 10
40.75648111844066
 20
6.109127545531435
 10
40.23787291676228
 20
6.065189342192667
 10
39.7143170382484
 20
6.039861631100308
 10
39.18848140366492
 20
6.033273476509037
 10
38.66304555089107
 20
6.045458450082861
 10
38.14068698056826
 20
6.076354460043063
 10
37.62406751222295
 20
6.125804067380755
  0
LWPOLYLINE
  5
F5
330
2
100
AcDbEntity
  8
0
100
AcDbPolyline
 90
       98
 70
   128
 43
0.0
 10
31.42495487334247
 20
7.582871118806252
 10
31.14833212572376
 20
7.841423644893865
 10
30.90576162015646
 20
8.108386811491897
 10
30.6982607816683
 20
8.3826408823289
 10
30.52669994090468
 20
8.663035540528454
 10
30.39179868361521
 20
8.948394713436385
 10
30.29412283256727
 20
9.237521505497198
 10
30.23408207421278
 20
9.529203218509024
 10
30.21192824039372
 20
9.822216437966375
 10
30.22775425197574
 20
10.11533216460694
 10
30.28149372914368
 20
10.4073209692107
 10
30.37292126985699
 20
10.69695814925515
 10
30.50165339526484
 20
10.98302886575223
 10
30.66715015807484
 20
11.26433323870029
 10
30.8687174073666
 20
11.53969137979729
 10
31.10550970001646
 20
11.80794834131669
 10
31.37653384689349
 20
12.06797896032557
 10
31.68065307851134
 20
12.31869257804422
 10
32.0165918131313
 20
12.55903761442053
 10
32.38294100694714
 20
12.78800597884978
 10
32.77816406414149
 20
13.0046372984369
 10
33.2006032818573
 20
13.20802294618053
 10
33.6484868032029
 20
13.3973098519277
 10
34.11993604902489
 20
13.57170408067557
 10
34.61297359738683
 20
13.7304741623706
 10
35.12553147743256
 20
13.87295416014874
 10
35.65545984328946
 20
13.99854646338579
 10
36.20053599123401
 20
14.10672429429431
 10
36.75847368248833
 20
14.19703391744329
 10
37.32693273246094
 20
14.26909654294209
 10
37.90352882634693
 20
14.32260991505475
 10
38.48584351974557
 20
14.35734958010076
 10
39.07143438246203
 20
14.37316982788164
 10
39.65784524291303
 20
14.37000430273113
 10
40.24261649017421
 20
14.34786628201166
 10
40.82329539040393
 20
14.30684862026547
 10
41.39744637446983
 20
14.24712335978918
 10
41.96266125364082
 20
14.16894100912358
 10
42.51656932027549
 20
14.07262949219105
 10
43.05684729143968
 20
13.95859277296361
 10
43.58122905359687
 20
13.82730916108252
 10
44.08751516735037
 20
13.67932930563753
 10
44.5735820928362
 20
13.51527388555499
 10
45.03739109640662
 20
13.33583100630054
 10
45.47699680195683
 20
13.14175331366962
 10
45.89055535037175
 20
12.93385483695263
 10
46.27633213336753
 20
12.71300757457394
 10
46.63270906904585
 20
12.48013783675318
 10
46.95819138869729
 20
12.23622236007813
 10
47.25141390635451
 20
11.98228421082208
 10
47.5111467448994
 20
11.71938849383574
 10
47.73630049450935
 20
11.44863788510454
 10
47.92593078213371
 20
11.17116800678607
 10
48.07924223243822
 20
10.88814266399149
 10
48.19559180391798
 20
10.60074896336292
 10
48.27449148605819
 20
10.31019233392672
 10
48.31561034612843
 20
10.01769147119208
 10
48.31877591737861
 20
9.724473225400714
 10
48.28397492229692
 20
9.431767455815673
 10
48.21135332833091
 20
9.14080187214617
 10
48.10121573570746
 20
8.852796885145579
 10
47.95402409973985
 20
8.568960487821613
 10
47.77039579334121
 20
8.290483188676802
 10
47.55110101740183
 20
8.018533018289787
 10
47.29705957044188
 20
7.754250630165898
 10
47.00933699057657
 20
7.498744516484322
 10
46.68914008628052
 20
7.25308635870985
 10
46.33781187466342
 20
7.01830653248183
 10
45.95682594835148
 20
6.795389786022127
 10
45.54778029469957
 20
6.585271109639762
 10
45.11239059333592
 20
6.388831814039036
 10
44.65248301996564
 20
6.206895833920924
 10
44.1699865868087
 20
6.04022627202292
 10
43.66692505158823
 20
5.889522198403909
 10
43.1454084291563
 20
5.755415718326645
 10
42.60762414153328
 20
5.638469320940799
 10
42.05582784288163
 20
5.53917352011561
 10
41.49233395862302
 20
5.457944796935947
 10
40.91950597797324
 20
5.395123852885916
 10
40.33974654053213
 20
5.350974180844815
 10
39.75548735886821
 20
5.325680959889865
 10
39.1691790190398
 20
5.319350278556811
 10
38.58328070197126
 20
5.332008689948992
 10
38.00024986881999
 20
5.363603100275128
 10
37.42253195351168
 20
5.414000991603614
 10
36.8525501057693
 20
5.482990977661103
 10
36.29269502753596
 20
5.57028369045625
 10
35.74531494556391
 20
5.675512994059516
 10
35.21270576217296
 20
5.798237520141952
 10
34.6971014253495
 20
5.937942519427934
 10
34.20066455886945
 20
6.094042020613841
 10
33.72547739148092
 20
6.265881288092174
 10
33.27353302329152
 20
6.452739568304963
 10
32.8467270660509
 20
6.653833112673424
 10
32.44684969229377
 20
6.868318464966961
 10
32.07557812664197
 20
7.095295999115393
 10
31.73446961111631
 20
7.333813692426502
 10
31.42495487334247
 20
7.582871118806252
  0
LWPOLYLINE
  5
F6
330
2
100
AcDbEntity
  8
0
100
AcDbPolyline
 90
       52
 70
   128
 43
0.0
 10
30.21217158955778
 20
9.728525414682195
 10
30.20073026195735
 20
9.93303343429207
 10
30.2165758449446
 20
10.22651164588038
 10
30.27038177966324
 20
10.51886154179718
 10
30.36192238529827
 20
10.8088569049938
 10
30.4908137087765
 20
11.09528139413678
 10
30.65651513505372
 20
11.37693364537452
 10
30.85833165480881
 20
11.65263231130078
 10
31.0954167793667
 20
11.92122101586736
 10
31.3667760913745
 20
12.18157320472565
 10
31.67127141553044
 20
12.43259687032341
 10
32.00762559265968
 20
12.67323913215458
 10
32.37442783644894
 20
12.90249065296118
 10
32.7701396507764
 20
13.11938987217925
 10
33.19310128281165
 20
13.32302703909371
 10
33.64153868446817
 20
13.51254802869923
 10
34.11357095343442
 20
13.68715792405541
 10
34.6072182223586
 20
13.84612435060833
 10
35.12040996299516
 20
13.98878054792905
 10
35.65099367088021
 20
14.11452816632712
 10
36.19674389352622
 20
14.22283977658262
 10
36.75537156484461
 20
14.31326108219704
 10
37.32453360624811
 20
14.38541282475282
 10
37.90184275432432
 20
14.43899237478891
 10
38.48487757391183
 20
14.47377500104548
 10
39.07119261431785
 20
14.48961481310667
 10
39.65832866652283
 20
14.48644537330395
 10
40.24382307787846
 20
14.4642799753403
 10
40.8252200813306
 20
14.42321158861259
 10
41.40008109584607
 20
14.36341246820964
 10
41.96599495449777
 20
14.28513343244245
 10
42.52058801791122
 20
14.18870281076502
 10
43.061534130062
 20
14.07452506671555
 10
43.58656437495551
 20
13.94307910144417
 10
44.09347659327273
 20
13.79491624499727
 10
44.58014461900506
 20
13.6306579438893
 10
45.04452719733808
 20
13.45099315454175
 10
45.48467654634487
 20
13.25667545348923
 10
45.89874652669471
 20
13.04851987672711
 10
46.28500038498725
 20
12.82739950106182
 10
46.64181803830888
 20
12.59424178218583
 10
46.9677028694199
 20
12.35002466462188
 10
47.26128800409469
 20
12.09577247983444
 10
47.52134204422509
 20
11.83255164981031
 10
47.74677423281582
 20
11.56146621423997
 10
47.93663902892308
 20
11.28365319960332
 10
48.09014007358974
 20
11.00027785025512
 10
48.20663353011832
 20
10.71252874088012
 10
48.28563078445313
 20
10.42161279124516
 10
48.3268004946417
 20
10.1287502039618
 10
48.32996998062959
 20
9.835169346464709
 10
48.32169850847538
 20
9.728525414682195
  0
SPLINE
  5
F7
330
2
100
AcDbEntity
  8
0
100
AcDbSpline
210
0.0
220
0.0
230
1.0
 70
     8
 71
     3
 72
     8
 73
     4
 74
     0
 42
0.000000001
 43
0.0000000001
 40
0.0
 40
0.0
 40
0.0
 40
0.0
 40
1.0
 40
1.0
 40
1.0
 40
1.0
 10
33.56874590367704
 20
18.19856753974866
 30
0.0
 10
33.56613435283384
 20
18.19702535871985
 30
0.0
 10
33.56356241447179
 20
18.19513492102706
 30
0.0
 10
33.56102837148785
 20
18.19290992361871
 30
0.0
  0
LWPOLYLINE
  5
F8
330
2
100
AcDbEntity
  8
0
100
AcDbPolyline
 90
       25
 70
   128
 43
0.0
 10
33.56874590368398
 20
18.19856753975219
 10
33.93242284848611
 20
18.39821256482222
 10
34.32401234104327
 20
18.58419047592829
 10
34.74146541040557
 20
18.75552815363105
 10
35.18259775591116
 20
18.91132908278709
 10
35.64510117627447
 20
19.05077804342929
 10
36.12655564729085
 20
19.17314537636085
 10
36.62444198437345
 20
19.27779080112842
 10
37.1361550240681
 20
19.36416676615093
 10
37.65901725547258
 20
19.43182131387394
 10
38.19029283013719
 20
19.48040044552638
 10
38.72720187719233
 20
19.50964997338391
 10
39.26693504901664
 20
19.5194168508963
 10
39.80666822081957
 20
19.50964997338391
 10
40.34357726789608
 20
19.48040044552638
 10
40.87485284253932
 20
19.43182131387394
 10
41.3977150739438
 20
19.36416676615093
 10
41.90942811365971
 20
19.27779080112842
 10
42.40731445072094
 20
19.17314537636085
 10
42.8887689217587
 20
19.05077804342929
 10
43.351272342122
 20
18.91132908278709
 10
43.79240468760622
 20
18.75552815363105
 10
44.20985775699
 20
18.58419047592829
 10
44.60144724952579
 20
18.39821256482222
 10
44.96512419434918
 20
18.19856753975219
  0
SPLINE
  5
F9
330
2
100
AcDbEntity
  8
0
100
AcDbSpline
210
0.0
220
0.0
230
1.0
 70
     8
 71
     3
 72
     8
 73
     4
 74
     0
 42
0.000000001
 43
0.0000000001
 40
0.0
 40
0.0
 40
0.0
 40
0.0
 40
1.0
 40
1.0
 40
1.0
 40
1.0
 10
44.97284172653451
 20
18.19290992361871
 30
0.0
 10
44.97031792593611
 20
18.19512592777741
 30
0.0
 10
44.96771596562621
 20
18.19703703900782
 30
0.0
 10
44.96512419434544
 20
18.19856753974866
 30
0.0
  0
ARC
  5
FA
330
2
100
AcDbEntity
  8
0
100
AcDbCircle
 10
42.19055878773156
 20
9.543082823708772
 30
0.0
 40
5.707349661002719
100
AcDbArc
 50
55.78013499250292
 51
56.76472523456438
  0
SPLINE
  5
FB
330
2
100
AcDbEntity
  8
0
100
AcDbSpline
210
0.0
220
0.0
230
1.0
 70
     8
 71
     3
 72
    12
 73
     8
 74
     0
 42
0.000000001
 43
0.0000000001
 40
0.0
 40
0.0
 40
0.0
 40
0.0
 40
0.2499999999999991
 40
0.2499999999999991
 40
0.4999999999999983
 40
0.4999999999999983
 40
1.0
 40
1.0
 40
1.0
 40
1.0
 10
45.46617279369548
 20
14.12830654001183
 30
0.0
 10
45.46569291598621
 20
14.14041183979717
 30
0.0
 10
45.46361419716482
 20
14.15338687251537
 30
0.0
 10
45.45652671133962
 20
14.17981413220477
 30
0.0
 10
45.45153080411421
 20
14.19310734986911
 30
0.0
 10
45.43336663514037
 20
14.23015705138121
 30
0.0
 10
45.41685994225145
 20
14.25107740601996
 30
0.0
 10
45.40020159298842
 20
14.26240832800911
 30
0.0
  0
LINE
  5
FC
330
2
100
AcDbEntity
  8
0
100
AcDbLine
 10
45.5013946606864
 20
13.23953146360978
 30
0.0
 11
45.46617279370366
 21
14.12830654000922
 31
0.0
  0
LINE
  5
FD
330
2
100
AcDbEntity
  8
0
100
AcDbLine
 10
33.06769730432961
 20
14.12830654000922
 30
0.0
 11
33.03235227965058
 21
13.23642374966832
 31
0.0
  0
SPLINE
  5
FE
330
2
100
AcDbEntity
  8
0
100
AcDbSpline
210
0.0
220
0.0
230
1.0
 70
     8
 71
     3
 72
    12
 73
     8
 74
     0
 42
0.000000001
 43
0.0000000001
 40
0.0
 40
0.0
 40
0.0
 40
0.0
 40
0.2500000000000007
 40
0.2500000000000007
 40
0.5000000000000015
 40
0.5000000000000015
 40
1.0
 40
1.0
 40
1.0
 40
1.0
 10
33.13366850503405
 20
14.26240832800911
 30
0.0
 10
33.12533850426462
 20
14.25674230507994
 30
0.0
 10
33.1171285412936
 20
14.24884196983353
 30
0.0
 10
33.10164180340724
 20
14.22935617599594
 30
0.0
 10
33.09448793325851
 20
14.21787611003688
 30
0.0
 10
33.07630373429402
 20
14.18081841715329
 30
0.0
 10
33.06865713977322
 20
14.15251915834867
 30
0.0
 10
33.067697304327
 20
14.12830654001183
 30
0.0
  0
ARC
  5
FF
330
2
100
AcDbEntity
  8
0
100
AcDbCircle
 10
36.34331131013096
 20
9.543082823943421
 30
0.0
 40
5.707349660711639
100
AcDbArc
 50
123.2354647813188
 51
124.219865007497
  0
LINE
  5
100
330
2
100
AcDbEntity
  8
0
100
AcDbLine
 10
45.98432130870082
 20
13.54878264393071
 30
0.0
 11
45.99125564472399
 21
12.99556079167999
 31
0.0
  0
LINE
  5
101
330
2
100
AcDbEntity
  8
0
100
AcDbLine
 10
45.98432130870082
 20
13.54878264393071
 30
0.0
 11
46.06911332671109
 21
16.39850272969423
 31
0.0
  0
LINE
  5
102
330
2
100
AcDbEntity
  8
0
100
AcDbLine
 10
32.54954878931108
 20
13.54878264393071
 30
0.0
 11
32.54260330898365
 21
12.99467169826661
 31
0.0
  0
LINE
  5
103
330
2
100
AcDbEntity
  8
0
100
AcDbLine
 10
32.4647567713007
 20
16.39850272969423
 30
0.0
 11
32.54954878931108
 21
13.54878264393071
 31
0.0
  0
SPLINE
  5
104
330
2
100
AcDbEntity
  8
0
100
AcDbSpline
210
0.0
220
0.0
230
1.0
 70
     8
 71
     3
 72
    10
 73
     6
 74
     0
 42
0.000000001
 43
0.0000000001
 40
0.0
 40
0.0
 40
0.0
 40
0.0
 40
0.4606811165303391
 40
0.918853867887876
 40
1.0
 40
1.0
 40
1.0
 40
1.0
 10
44.97284172653451
 20
18.19290992361871
 30
0.0
 10
44.97485785195135
 20
18.19052552594283
 30
0.0
 10
44.97887912517251
 20
18.18576971341119
 30
0.0
 10
44.98118437569087
 20
18.17885483073238
 30
0.0
 10
44.98113541535565
 20
18.17484049127182
 30
0.0
 10
44.98117280004737
 20
18.17415014616458
 30
0.0
  0
SPLINE
  5
105
330
2
100
AcDbEntity
  8
0
100
AcDbSpline
210
0.0
220
0.0
230
1.0
 70
     8
 71
     3
 72
    10
 73
     6
 74
     0
 42
0.000000001
 43
0.0000000001
 40
0.0
 40
0.0
 40
0.0
 40
0.0
 40
0.0931642053585279
 40
0.5453960097135929
 40
1.0
 40
1.0
 40
1.0
 40
1.0
 10
33.55266366845831
 20
18.17415946265274
 30
0.0
 10
33.5527225476111
 20
18.17510074627654
 30
0.0
 10
33.55272996854569
 20
18.17899324866946
 30
0.0
 10
33.55505542863205
 20
18.18588144032887
 30
0.0
 10
33.55903392143137
 20
18.19056301368951
 30
0.0
 10
33.56102837148785
 20
18.19290992361871
 30
0.0
  0
LINE
  5
106
330
2
100
AcDbEntity
  8
0
100
AcDbLine
 10
32.49313643373353
 20
12.98082799769005
 30
0.0
 11
32.49122864768526
 21
13.35782052334465
 31
0.0
  0
LINE
  5
107
330
2
100
AcDbEntity
  8
0
100
AcDbLine
 10
32.32620468361279
 20
13.14761218662906
 30
0.0
 11
32.33654538648125
 21
13.49511040512752
 31
0.0
  0
LINE
  5
108
330
2
100
AcDbEntity
  8
0
100
AcDbLine
 10
32.49122864768526
 20
13.35782052334465
 30
0.0
 11
32.47845281046318
 21
13.45414526040431
 31
0.0
  0
LINE
  5
109
330
2
100
AcDbEntity
  8
0
100
AcDbLine
 10
46.04073366427826
 20
12.98082799769005
 30
0.0
 11
46.0426414503479
 21
13.35782052334465
 31
0.0
  0
LINE
  5
10A
330
2
100
AcDbEntity
  8
0
100
AcDbLine
 10
46.0426414503479
 20
13.35782052334465
 30
0.0
 11
46.0554172875486
 21
13.45414526040431
 31
0.0
  0
LINE
  5
10B
330
2
100
AcDbEntity
  8
0
100
AcDbLine
 10
46.19732471155191
 20
13.49511040512752
 30
0.0
 11
46.20740213367798
 21
13.15645970786895
 31
0.0
  0
SPLINE
  5
10C
330
2
100
AcDbEntity
  8
0
100
AcDbSpline
210
0.0
220
0.0
230
1.0
 70
     8
 71
     3
 72
     8
 73
     4
 74
     0
 42
0.000000001
 43
0.0000000001
 40
0.0
 40
0.0
 40
0.0
 40
0.0
 40
1.0
 40
1.0
 40
1.0
 40
1.0
 10
32.24352014859415
 20
17.05191433289789
 30
0.0
 10
32.24223076663759
 20
17.05082802409473
 30
0.0
 10
32.24088580528428
 20
17.04932100089789
 30
0.0
 10
32.23953078588045
 20
17.04743348064252
 30
0.0
  0
SPLINE
  5
10D
330
2
100
AcDbEntity
  8
0
100
AcDbSpline
210
0.0
220
0.0
230
1.0
 70
     8
 71
     3
 72
     8
 73
     4
 74
     0
 42
0.000000001
 43
0.0000000001
 40
0.0
 40
0.0
 40
0.0
 40
0.0
 40
1.0
 40
1.0
 40
1.0
 40
1.0
 10
32.24338363910113
 20
13.61601520885327
 30
0.0
 10
32.24095110401368
 20
14.76214270401894
 30
0.0
 10
32.2409314957074
 20
15.90746629680612
 30
0.0
 10
32.24352014859415
 20
17.05191433289789
 30
0.0
  0
LWPOLYLINE
  5
10E
330
2
100
AcDbEntity
  8
0
100
AcDbPolyline
 90
        3
 70
   128
 43
0.0
 10
32.23898621118906
 20
13.47029291524089
 10
32.24063343662488
 20
13.52488105702613
 10
32.24338363909101
 20
13.61601520885963
  0
ARC
  5
10F
330
2
100
AcDbEntity
  8
0
100
AcDbCircle
 10
34.82769944567883
 20
11.31563473440749
 30
0.0
 40
3.368083741052942
100
AcDbArc
 50
138.7392205194044
 51
140.2284442543951
  0
SPLINE
  5
110
330
2
100
AcDbEntity
  8
0
100
AcDbSpline
210
0.0
220
0.0
230
1.0
 70
     8
 71
     3
 72
    12
 73
     8
 74
     0
 42
0.000000001
 43
0.0000000001
 40
0.0
 40
0.0
 40
0.0
 40
0.0
 40
0.2499999999999984
 40
0.2499999999999984
 40
0.4999999999999968
 40
0.4999999999999968
 40
1.0
 40
1.0
 40
1.0
 40
1.0
 10
32.33654538647761
 20
13.49511040512854
 30
0.0
 10
32.33690259778132
 20
13.50710947269059
 30
0.0
 10
32.33610172778526
 20
13.51759070834035
 30
0.0
 10
32.33233838683418
 20
13.53462087638948
 30
0.0
 10
32.329377535297
 20
13.54102333883352
 30
0.0
 10
32.318052594969
 20
13.5525347225554
 30
0.0
 10
32.30715441979305
 20
13.5497217652626
 30
0.0
 10
32.29585786184271
 20
13.53684302744446
 30
0.0
  0
ARC
  5
111
330
2
100
AcDbEntity
  8
0
100
AcDbCircle
 10
33.98080283237459
 20
15.73156834722729
 30
0.0
 40
2.182551119511264
100
AcDbArc
 50
142.921954976098
 51
176.6743833121954
  0
SPLINE
  5
112
330
2
100
AcDbEntity
  8
0
100
AcDbSpline
210
0.0
220
0.0
230
1.0
 70
     8
 71
     3
 72
    12
 73
     8
 74
     0
 42
0.000000001
 43
0.0000000001
 40
0.0
 40
0.0
 40
0.0
 40
0.0
 40
0.25
 40
0.25
 40
0.5
 40
0.5
 40
1.0
 40
1.0
 40
1.0
 40
1.0
 10
46.23801223617966
 20
13.53684302744446
 30
0.0
 10
46.23236339697405
 20
13.54328303504897
 30
0.0
 10
46.22687045526618
 20
13.54724976336032
 30
0.0
 10
46.21668060648949
 20
13.55000054585534
 30
0.0
 10
46.21206750153738
 20
13.54871097925931
 30
0.0
 10
46.20072845002892
 20
13.5372211712876
 30
0.0
 10
46.19661022936611
 20
13.51911054130281
 30
0.0
 10
46.19732471154475
 20
13.49511040512854
 30
0.0
  0
ARC
  5
113
330
2
100
AcDbEntity
  8
0
100
AcDbCircle
 10
43.7061706520983
 20
11.31563473419422
 30
0.0
 40
3.368083741367972
100
AcDbArc
 50
39.77155574570436
 51
41.26077948049757
  0
LWPOLYLINE
  5
114
330
2
100
AcDbEntity
  8
0
100
AcDbPolyline
 90
        3
 70
   128
 43
0.0
 10
46.2904864589209
 20
13.61601520885963
 10
46.29213381954094
 20
13.56142711276871
 10
46.29488388684399
 20
13.47029291524089
  0
SPLINE
  5
115
330
2
100
AcDbEntity
  8
0
100
AcDbSpline
210
0.0
220
0.0
230
1.0
 70
     8
 71
     3
 72
     8
 73
     4
 74
     0
 42
0.000000001
 43
0.0000000001
 40
0.0
 40
0.0
 40
0.0
 40
0.0
 40
1.0
 40
1.0
 40
1.0
 40
1.0
 10
46.29034994942822
 20
17.05191433289789
 30
0.0
 10
46.29293860223242
 20
15.90746633333035
 30
0.0
 10
46.29291899393774
 20
14.76214267059518
 30
0.0
 10
46.29048645892123
 20
13.61601520885321
 30
0.0
  0
SPLINE
  5
116
330
2
100
AcDbEntity
  8
0
100
AcDbSpline
210
0.0
220
0.0
230
1.0
 70
     8
 71
     3
 72
     8
 73
     4
 74
     0
 42
0.000000001
 43
0.0000000001
 40
0.0
 40
0.0
 40
0.0
 40
0.0
 40
1.0
 40
1.0
 40
1.0
 40
1.0
 10
46.29433931214203
 20
17.04743348064247
 30
0.0
 10
46.29297395166725
 20
17.04933540584366
 30
0.0
 10
46.29164456410683
 20
17.05082361550811
 30
0.0
 10
46.29034994942822
 20
17.05191433289789
 30
0.0
  0
ARC
  5
117
330
2
100
AcDbEntity
  8
0
100
AcDbCircle
 10
44.5755652615503
 20
15.73984681419901
 30
0.0
 40
2.159621987122466
100
AcDbArc
 50
3.140980006702714
 51
37.26268170499883
  0
ELLIPSE
  5
118
330
2
100
AcDbEntity
  8
0
100
AcDbEllipse
 10
32.425229910643
 20
13.40712385090469
 30
0.0
 11
0.0160891739213015
 21
0.1061419203376626
 31
0.0
210
0.0
220
0.0
230
1.0
 40
0.4926395442000001
 41
5.244502075586932
 42
6.218569152574255
  0
ELLIPSE
  5
119
330
2
100
AcDbEntity
  8
0
100
AcDbEllipse
 10
46.10864018739016
 20
13.40712385090469
 30
0.0
 11
-0.0160891739212894
 21
0.1061419203376626
 31
0.0
210
0.0
220
0.0
230
0.9999999999999998
 40
0.4926395442000001
 41
0.0646161546055782
 42
1.038683231592829
  0
LINE
  5
11A
330
2
100
AcDbEntity
  8
0
100
AcDbLine
 10
32.83442948865843
 20
16.72918373093856
 30
0.0
 11
32.82914602132826
 21
16.86539255523499
 31
0.0
  0
LINE
  5
11B
330
2
100
AcDbEntity
  8
0
100
AcDbLine
 10
32.4647567713007
 20
16.39850272969423
 30
0.0
 11
32.83442948865843
 21
16.72918373093856
 31
0.0
  0
SPLINE
  5
11C
330
2
100
AcDbEntity
  8
0
100
AcDbSpline
210
0.0
220
0.0
230
1.0
 70
     8
 71
     3
 72
     8
 73
     4
 74
     0
 42
0.000000001
 43
0.0000000001
 40
0.0
 40
0.0
 40
0.0
 40
0.0
 40
1.0
 40
1.0
 40
1.0
 40
1.0
 10
46.29034994942822
 20
17.05191433289789
 30
0.0
 10
46.28827575954142
 20
17.05366184512425
 30
0.0
 10
46.28476338670679
 20
17.05389391473173
 30
0.0
 10
46.28012341595831
 20
17.05265243756449
 30
0.0
  0
SPLINE
  5
11D
330
2
100
AcDbEntity
  8
0
100
AcDbSpline
210
0.0
220
0.0
230
1.0
 70
     8
 71
     3
 72
     8
 73
     4
 74
     0
 42
0.000000001
 43
0.0000000001
 40
0.0
 40
0.0
 40
0.0
 40
0.0
 40
1.0
 40
1.0
 40
1.0
 40
1.0
 10
32.24352014859415
 20
17.05191433289789
 30
0.0
 10
32.24559433848106
 20
17.05366184512425
 30
0.0
 10
32.24910671131556
 20
17.05389391473173
 30
0.0
 10
32.25374668207474
 20
17.05265243756449
 30
0.0
  0
LINE
  5
11E
330
2
100
AcDbEntity
  8
0
100
AcDbLine
 10
46.06911332671109
 20
16.39850272969423
 30
0.0
 11
45.69944060937473
 21
16.72918373093856
 31
0.0
  0
LINE
  5
11F
330
2
100
AcDbEntity
  8
0
100
AcDbLine
 10
45.69944060937473
 20
16.72918373093856
 30
0.0
 11
45.7047240767049
 21
16.86539255523499
 31
0.0
  0
LINE
  5
120
330
2
100
AcDbEntity
  8
0
100
AcDbLine
 10
32.83442948865843
 20
16.72918373093856
 30
0.0
 11
33.47120891448617
 21
17.28065089030966
 31
0.0
  0
LINE
  5
121
330
2
100
AcDbEntity
  8
0
100
AcDbLine
 10
45.06159536328766
 20
17.28157391774724
 30
0.0
 11
45.69944060937473
 21
16.72918373093856
 31
0.0
  0
ELLIPSE
  5
122
330
2
100
AcDbEntity
  8
0
100
AcDbEllipse
 10
45.73133791089094
 20
16.83872263387317
 30
0.0
 11
-0.0152022318478369
 21
0.0511202399740277
 31
0.0
210
0.0
220
0.0
230
1.0
 40
0.428626773
 41
6.279748432448139
 42
7.183246669445608
  0
LINE
  5
123
330
2
100
AcDbEntity
  8
0
100
AcDbLine
 10
45.04372263117
 20
17.47993585959162
 30
0.0
 11
45.72286112547987
 21
16.89178467085153
 31
0.0
  0
ELLIPSE
  5
124
330
2
100
AcDbEntity
  8
0
100
AcDbEllipse
 10
32.80253218714222
 20
16.83872263387317
 30
0.0
 11
0.0152022318478369
 21
0.0511202399740277
 31
0.0
210
0.0
220
0.0
230
1.0
 40
0.428626773
 41
5.383123944913828
 42
6.286622181912587
  0
LINE
  5
125
330
2
100
AcDbEntity
  8
0
100
AcDbLine
 10
32.81100897255328
 20
16.89178467085153
 30
0.0
 11
33.4893101902477
 21
17.4792107567944
 31
0.0
  0
ELLIPSE
  5
126
330
2
100
AcDbEntity
  8
0
100
AcDbEllipse
 10
27.41363139101554
 20
14.72011914808144
 30
0.0
 11
-0.0078266386231758
 21
0.4275634345886039
 31
0.0
210
0.0
220
0.0
230
1.0
 40
0.584460762865635
 41
1.255334287596886
 42
6.733877229837814
  0
ELLIPSE
  5
127
330
2
100
AcDbEntity
  8
0
100
AcDbEllipse
 10
27.39861594611352
 20
14.1474997542723
 30
0.0
 11
0.0171485171186244
 21
0.194197912260099
 31
0.0
210
0.0
220
0.0
230
1.0
 40
0.6457159237112302
 41
0.0
 42
6.283185307179584
  0
SPLINE
  5
128
330
2
100
AcDbEntity
  8
0
100
AcDbSpline
210
0.0
220
0.0
230
1.0
 70
     8
 71
     3
 72
    10
 73
     6
 74
     0
 42
0.000000001
 43
0.0000000001
 40
0.0
 40
0.0
 40
0.0
 40
0.0
 40
0.3852248288516202
 40
0.9303658622867883
 40
1.0
 40
1.0
 40
1.0
 40
1.0
 10
18.34742229044673
 20
11.40576551599312
 30
0.0
 10
18.32849680339723
 20
11.39062936435618
 30
0.0
 10
18.28278939889173
 20
11.35407367605515
 30
0.0
 10
18.24136895465085
 20
11.30184288273787
 30
0.0
 10
18.23045641808107
 20
11.26479861089171
 30
0.0
 10
18.22922038072966
 20
11.2606026933461
 30
0.0
  0
SPLINE
  5
129
330
2
100
AcDbEntity
  8
0
100
AcDbSpline
210
0.0
220
0.0
230
1.0
 70
     8
 71
     3
 72
    10
 73
     6
 74
     0
 42
0.000000001
 43
0.0000000001
 40
0.0
 40
0.0
 40
0.0
 40
0.0
 40
0.178406816138169
 40
0.5961940725780118
 40
1.0
 40
1.0
 40
1.0
 40
1.0
 10
18.62670528593844
 20
11.41994675904533
 30
0.0
 10
18.61751457143805
 20
11.42709947259465
 30
0.0
 10
18.58680134182964
 20
11.45100217717328
 30
0.0
 10
18.51872544088724
 20
11.46287539905853
 30
0.0
 10
18.46456022110351
 20
11.45279998221582
 30
0.0
 10
18.43793848514156
 20
11.44784800218207
 30
0.0
  0
SPLINE
  5
12A
330
2
100
AcDbEntity
  8
0
100
AcDbSpline
210
0.0
220
0.0
230
1.0
 70
     8
 71
     3
 72
    12
 73
     8
 74
     0
 42
0.000000001
 43
0.0000000001
 40
0.0
 40
0.0
 40
0.0
 40
0.0
 40
0.0291081485275992
 40
0.324446051290663
 40
0.5915218762100177
 40
0.8482103367107132
 40
1.0
 40
1.0
 40
1.0
 40
1.0
 10
18.24867310344416
 20
11.29906534015731
 30
0.0
 10
18.24659905171597
 20
11.29644487311037
 30
0.0
 10
18.22348119890148
 20
11.26723655073638
 30
0.0
 10
18.20449140481901
 20
11.20023581313762
 30
0.0
 10
18.19994673456836
 20
11.11165539298807
 30
0.0
 10
18.21959898605473
 20
11.03916118075835
 30
0.0
 10
18.24883811649079
 20
11.00715147986065
 30
0.0
 10
18.25970331955864
 20
10.99525673828634
 30
0.0
  0
LINE
  5
12B
330
2
100
AcDbEntity
  8
0
100
AcDbLine
 10
18.69252185142864
 20
11.3800132900933
 30
0.0
 11
18.62670528593844
 21
11.41994675904533
 31
0.0
  0
LINE
  5
12C
330
2
100
AcDbEntity
  8
0
100
AcDbLine
 10
18.25970331955864
 20
10.99525673828634
 30
0.0
 11
18.30862070334183
 21
10.9367232477374
 31
0.0
  0
SPLINE
  5
12D
330
2
100
AcDbEntity
  8
0
100
AcDbSpline
210
0.0
220
0.0
230
1.0
 70
     8
 71
     3
 72
     9
 73
     5
 74
     0
 42
0.000000001
 43
0.0000000001
 40
0.0
 40
0.0
 40
0.0
 40
0.0
 40
0.0304439907759075
 40
1.0
 40
1.0
 40
1.0
 40
1.0
 10
9.240535018818263
 20
8.786987250574497
 30
0.0
 10
9.239637024190869
 20
8.786670941636174
 30
0.0
 10
9.210140410757276
 20
8.776281077160007
 30
0.0
 10
9.186449290847349
 20
8.754015553855651
 30
0.0
 10
9.163479423173612
 20
8.732427881937383
 30
0.0
  0
SPLINE
  5
12E
330
2
100
AcDbEntity
  8
0
100
AcDbSpline
210
0.0
220
0.0
230
1.0
 70
     8
 71
     3
 72
     9
 73
     5
 74
     0
 42
0.000000001
 43
0.0000000001
 40
0.0
 40
0.0
 40
0.0
 40
0.0
 40
0.558387413646741
 40
1.0
 40
1.0
 40
1.0
 40
1.0
 10
9.163479423173612
 20
8.732427881937383
 30
0.0
 10
9.146305087542941
 20
8.714914932765907
 30
0.0
 10
9.115548062562083
 20
8.683551494508833
 30
0.0
 10
9.099415385049042
 20
8.64313442189055
 30
0.0
 10
9.092290991607796
 20
8.625285733918758
 30
0.0
  0
SPLINE
  5
12F
330
2
100
AcDbEntity
  8
0
100
AcDbSpline
210
0.0
220
0.0
230
1.0
 70
     8
 71
     3
 72
    10
 73
     6
 74
     0
 42
0.000000001
 43
0.0000000001
 40
0.0
 40
0.0
 40
0.0
 40
0.0
 40
0.3341848966245098
 40
0.6760545672849795
 40
1.0
 40
1.0
 40
1.0
 40
1.0
 10
9.479658433795066
 20
8.78883242145622
 30
0.0
 10
9.45535373283883
 20
8.799833668011416
 30
0.0
 10
9.406185430339519
 20
8.822089141118112
 30
0.0
 10
9.322754094364654
 20
8.820689333062716
 30
0.0
 10
9.271223763457555
 20
8.799430217330439
 30
0.0
 10
9.246152215427173
 20
8.78908681507039
 30
0.0
  0
SPLINE
  5
130
330
2
100
AcDbEntity
  8
0
100
AcDbSpline
210
0.0
220
0.0
230
1.0
 70
     8
 71
     3
 72
    11
 73
     7
 74
     0
 42
0.000000001
 43
0.0000000001
 40
0.0
 40
0.0
 40
0.0
 40
0.0
 40
0.1174437488512791
 40
0.4532904660140817
 40
0.7450588621110571
 40
1.0
 40
1.0
 40
1.0
 40
1.0
 10
9.095277226324697
 20
8.633537767723765
 30
0.0
 10
9.089202664667027
 20
8.62317485114255
 30
0.0
 10
9.06575704996635
 20
8.583177734801409
 30
0.0
 10
9.057163930390515
 20
8.508107704056101
 30
0.0
 10
9.068535731878228
 20
8.422533615038929
 30
0.0
 10
9.098425007846799
 20
8.379824442475779
 30
0.0
 10
9.112362950304941
 20
8.359908336436546
 30
0.0
  0
LINE
  5
131
330
2
100
AcDbEntity
  8
0
100
AcDbLine
 10
9.520940551270541
 20
8.7627367292136
 30
0.0
 11
9.489143166031908
 21
8.783640394882752
 31
0.0
  0
LINE
  5
132
330
2
100
AcDbEntity
  8
0
100
AcDbLine
 10
9.116344362148311
 20
8.353169259871918
 30
0.0
 11
9.141577206044303
 21
8.324684905493029
 31
0.0
  0
LINE
  5
133
330
2
100
AcDbEntity
  8
0
100
AcDbLine
 10
18.30862070334183
 20
10.9367232477374
 30
0.0
 11
18.34593821610269
 21
10.90440533368084
 31
0.0
  0
LINE
  5
134
330
2
100
AcDbEntity
  8
0
100
AcDbLine
 10
18.7298393641679
 20
11.34769537603671
 30
0.0
 11
18.69252185142864
 21
11.3800132900933
 31
0.0
  0
LINE
  5
135
330
2
100
AcDbEntity
  8
0
100
AcDbLine
 10
21.93906362628331
 20
12.00340754010474
 30
0.0
 11
21.89289512849677
 21
11.99007984278313
 31
0.0
  0
LINE
  5
136
330
2
100
AcDbEntity
  8
0
100
AcDbLine
 10
24.90072258213309
 20
12.47220167147418
 30
0.0
 11
23.25030690184417
 21
13.90150357740944
 31
0.0
  0
LINE
  5
137
330
2
100
AcDbEntity
  8
0
100
AcDbLine
 10
23.11357037371522
 20
14.01992088439442
 30
0.0
 11
23.00079767632815
 21
14.11758490518514
 31
0.0
  0
LINE
  5
138
330
2
100
AcDbEntity
  8
0
100
AcDbLine
 10
22.9398605334236
 20
14.17035801897452
 30
0.0
 11
21.90405551071672
 21
15.06739148200697
 31
0.0
  0
LINE
  5
139
330
2
100
AcDbEntity
  8
0
100
AcDbLine
 10
21.80820164355873
 20
15.06498411050694
 30
0.0
 11
5.372248765149379
 21
10.32033320114883
 31
0.0
  0
LINE
  5
13A
330
2
100
AcDbEntity
  8
0
100
AcDbLine
 10
21.86091088422404
 20
10.53154266012532
 30
0.0
 11
24.79299833517462
 21
7.992280441466789
 31
0.0
  0
LINE
  5
13B
330
2
100
AcDbEntity
  8
0
100
AcDbLine
 10
25.71224033859972
 20
8.272477407771987
 30
0.0
 11
25.71224033859972
 21
8.318645905558526
 31
0.0
  0
LINE
  5
13C
330
2
100
AcDbEntity
  8
0
100
AcDbLine
 10
5.94502093779829
 20
3.44944300879024
 30
0.0
 11
24.01521714368641
 21
8.665859330690011
 31
0.0
  0
LINE
  5
13D
330
2
100
AcDbEntity
  8
0
100
AcDbLine
 10
2.08242333459907
 20
4.821430491944425
 30
0.0
 11
2.08242333459907
 21
4.775261994157887
 31
0.0
  0
LINE
  5
13E
330
2
100
AcDbEntity
  8
0
100
AcDbLine
 10
18.34805443496361
 20
11.40616184217793
 30
0.0
 11
18.43471711308575
 21
11.44696416567183
 31
0.0
  0
LINE
  5
13F
330
2
100
AcDbEntity
  8
0
100
AcDbLine
 10
9.239825538826153
 20
8.78703584098497
 30
0.0
 11
9.24524393410843
 21
8.78975680646846
 31
0.0
  0
LINE
  5
140
330
2
100
AcDbEntity
  8
0
100
AcDbLine
 10
9.481938819235438
 20
8.788113525106098
 30
0.0
 11
9.489143166031908
 21
8.783640394882752
 31
0.0
  0
LINE
  5
141
330
2
100
AcDbEntity
  8
0
100
AcDbLine
 10
9.116344362148311
 20
8.353169259871918
 30
0.0
 11
9.112436733249978
 21
8.357747876281337
 31
0.0
  0
LWPOLYLINE
  5
142
330
2
100
AcDbEntity
  8
0
100
AcDbPolyline
 90
        6
 70
   128
 43
0.0
 10
9.487094155797194
 20
8.359688722896663
 10
9.553572004400621
 20
8.44344453671178
 10
9.592238267480297
 20
8.538827279467426
 10
9.597868555319791
 20
8.632953334290078
 10
9.569704732840364
 20
8.71311181733202
 10
9.520940551270541
 20
8.7627367292136
  0
ARC
  5
143
330
2
100
AcDbEntity
  8
0
100
AcDbCircle
 10
9.2975925526448
 20
8.507455491714438
 30
0.0
 40
0.2403037152505904
100
AcDbArc
 50
229.5154980495007
 51
322.0541318141942
  0
LWPOLYLINE
  5
144
330
2
100
AcDbEntity
  8
0
100
AcDbPolyline
 90
       11
 70
   128
 43
0.0
 10
18.34593821610269
 20
10.90440533368084
 10
18.35111582437434
 20
10.90010286163152
 10
18.42587261771837
 20
10.86583033842333
 10
18.51575771374632
 20
10.866701685344
 10
18.6086326962552
 20
10.90259968448836
 10
18.69195187501327
 20
10.96867572532682
 10
18.75446430583315
 20
11.05600624665325
 10
18.78772730883156
 20
11.15279673025699
 10
18.78724848670799
 20
11.24597481689193
 10
18.75309113201456
 20
11.32295633036463
 10
18.7298393641679
 20
11.34769537603671
  0
LWPOLYLINE
  5
145
330
2
100
AcDbEntity
  8
0
100
AcDbPolyline
 90
       14
 70
   128
 43
0.0
 10
18.23713689398028
 20
10.9209384753845
 10
18.29184232256739
 20
10.84548606175349
 10
18.37321043874158
 20
10.80043706033774
 10
18.47242293487761
 20
10.7906730917683
 10
18.57873107967657
 20
10.81725275174392
 10
18.68061287160299
 20
10.87729538088672
 10
18.76702788309922
 20
10.96429446160482
 10
18.82861294003123
 20
11.06882224161449
 10
18.85869205102585
 20
11.17955120410218
 10
18.85400840005718
 20
11.28448287263518
 10
18.81506832775312
 20
11.3722462294171
 10
18.74609042223255
 20
11.43332995150888
 10
18.65455146354611
 20
11.46111536961254
 10
18.55944335366485
 20
11.45473198080083
  0
LWPOLYLINE
  5
146
330
2
100
AcDbEntity
  8
0
100
AcDbPolyline
 90
        3
 70
   128
 43
0.0
 10
18.21549358325342
 20
11.05548631139635
 10
18.2150230166726
 20
11.01861807094704
 10
18.23713689398028
 20
10.9209384753845
  0
LWPOLYLINE
  5
147
330
2
100
AcDbEntity
  8
0
100
AcDbPolyline
 90
       14
 70
   128
 43
0.0
 10
9.127284405586351
 20
8.230714423179733
 10
9.199907138199932
 20
8.173934184376832
 10
9.293838831619041
 20
8.151098323200386
 10
9.398899011839603
 20
8.164680881530955
 10
9.503704645819198
 20
8.213210706744661
 10
9.596897467163898
 20
8.291427960741714
 10
9.66837955740516
 20
8.390857509972903
 10
9.710404455049911
 20
8.500724148905675
 10
9.71841647020301
 20
8.609121919321438
 10
9.691548769716746
 20
8.704304385106979
 10
9.63271418818249
 20
8.775957435815115
 10
9.548286013338838
 20
8.816315888051974
 10
9.447414150856275
 20
8.82100662302929
 10
9.415921964192421
 20
8.815362649591634
  0
ARC
  5
148
330
2
100
AcDbEntity
  8
0
100
AcDbCircle
 10
9.347911147289778
 20
8.394490264158406
 30
0.0
 40
0.2747702408283685
100
AcDbArc
 50
173.769377047998
 51
216.587270882995
  0
LWPOLYLINE
  5
149
330
2
100
AcDbEntity
  8
0
100
AcDbPolyline
 90
        4
 70
   128
 43
0.0
 10
21.96863503187524
 20
11.99330600981596
 10
21.95823466559887
 20
12.0005387350821
 10
21.94823397732534
 20
12.00394492505643
 10
21.93901725371006
 20
12.00339403883356
  0
LINE
  5
14A
330
2
100
AcDbEntity
  8
0
100
AcDbLine
 10
21.96863503187524
 20
11.99330600981596
 30
0.0
 11
22.07525641179154
 21
11.90096918624448
 31
0.0
  0
LWPOLYLINE
  5
14B
330
2
100
AcDbEntity
  8
0
100
AcDbPolyline
 90
        3
 70
   128
 43
0.0
 10
22.07525641179154
 20
11.90096918624448
 10
22.15035317709499
 20
11.85463471742301
 10
22.2040826596924
 20
11.85060359615841
  0
LINE
  5
14C
330
2
100
AcDbEntity
  8
0
100
AcDbLine
 10
24.90072258213309
 20
12.47220167147418
 30
0.0
 11
24.90072258213309
 21
9.035725840431751
 31
0.0
  0
ARC
  5
14D
330
2
100
AcDbEntity
  8
0
100
AcDbCircle
 10
22.07128292658786
 20
11.42424394041677
 30
0.0
 40
0.2021343439616214
100
AcDbArc
 50
179.5143398835028
 51
222.5891566898016
  0
LINE
  5
14E
330
2
100
AcDbEntity
  8
0
100
AcDbLine
 10
21.86915584413055
 20
11.93380972872827
 30
0.0
 11
21.86915584413055
 21
11.42595728500089
 31
0.0
  0
LINE
  5
14F
330
2
100
AcDbEntity
  8
0
100
AcDbLine
 10
21.9224665340887
 20
11.28745222160262
 30
0.0
 11
22.24233067381647
 21
11.01044175084564
 31
0.0
  0
LINE
  5
150
330
2
100
AcDbEntity
  8
0
100
AcDbLine
 10
5.360379172619786
 20
6.921904986174865
 30
0.0
 11
5.360379172619786
 21
10.29219810112101
 31
0.0
  0
LINE
  5
151
330
2
100
AcDbEntity
  8
0
100
AcDbLine
 10
18.93389137981057
 20
12.36379778070613
 30
0.0
 11
18.19519679111113
 21
12.15055502087347
 31
0.0
  0
LINE
  5
152
330
2
100
AcDbEntity
  8
0
100
AcDbLine
 10
18.93389137981057
 20
12.64080807946149
 30
0.0
 11
18.93389137981057
 21
12.36379778070613
 31
0.0
  0
LINE
  5
153
330
2
100
AcDbEntity
  8
0
100
AcDbLine
 10
18.93389137981057
 20
12.64080807946149
 30
0.0
 11
18.19519679111113
 21
12.42756531965014
 31
0.0
  0
LINE
  5
154
330
2
100
AcDbEntity
  8
0
100
AcDbLine
 10
18.19519679111113
 20
12.42756531965014
 30
0.0
 11
18.19519679111113
 21
12.15055502087347
 31
0.0
  0
LINE
  5
155
330
2
100
AcDbEntity
  8
0
100
AcDbLine
 10
9.792546704731421
 20
9.724918876246874
 30
0.0
 11
9.053852116053349
 21
9.511676116435467
 31
0.0
  0
LINE
  5
156
330
2
100
AcDbEntity
  8
0
100
AcDbLine
 10
9.792546704731421
 20
10.00192917500223
 30
0.0
 11
9.792546704731421
 21
9.724918876246874
 31
0.0
  0
LINE
  5
157
330
2
100
AcDbEntity
  8
0
100
AcDbLine
 10
9.792546704731421
 20
10.00192917500223
 30
0.0
 11
9.053852116053349
 21
9.788686415190852
 31
0.0
  0
LINE
  5
158
330
2
100
AcDbEntity
  8
0
100
AcDbLine
 10
9.053852116053349
 20
9.788686415190852
 30
0.0
 11
9.053852116053349
 21
9.511676116435467
 31
0.0
  0
LWPOLYLINE
  5
159
330
2
100
AcDbEntity
  8
0
100
AcDbPolyline
 90
        7
 70
   128
 43
0.0
 10
21.89289512849677
 20
11.99007984278313
 10
21.89284875592353
 20
11.99006634151183
 10
21.88477019609627
 20
11.9855794479208
 10
21.87814040695798
 20
11.97732853766797
 10
21.87321389154704
 20
11.96563119160817
 10
21.87018021140762
 20
11.95093656346859
 10
21.86915584413055
 20
11.93380972872827
  0
ARC
  5
15A
330
2
100
AcDbEntity
  8
0
100
AcDbCircle
 10
21.79163609813031
 20
10.57555607524435
 30
0.0
 40
0.6262995700052319
100
AcDbArc
 50
13.13109163540026
 51
43.97729533529894
  0
ARC
  5
15B
330
2
100
AcDbEntity
  8
0
100
AcDbCircle
 10
20.86075526372884
 20
11.41006216250184
 30
0.0
 40
0.1313615257228627
100
AcDbArc
 50
287.2089174333017
 51
357.1688175609007
  0
LINE
  5
15C
330
2
100
AcDbEntity
  8
0
100
AcDbLine
 10
20.89961945446203
 20
11.28458138659448
 30
0.0
 11
5.479372839434972
 21
6.833139619528026
 31
0.0
  0
LINE
  5
15D
330
2
100
AcDbEntity
  8
0
100
AcDbLine
 10
20.9919564500351
 20
12.60395231142991
 30
0.0
 11
20.9919564500351
 21
11.40357377681081
 31
0.0
  0
LWPOLYLINE
  5
15E
330
2
100
AcDbEntity
  8
0
100
AcDbPolyline
 90
        8
 70
   128
 43
0.0
 10
22.2040826596924
 20
11.85060359615841
 10
22.23053555543424
 20
11.87252797741536
 10
22.27155344103016
 20
11.94755350623563
 10
22.29292822041816
 20
12.05512844859197
 10
22.29292822041816
 20
12.18653760532476
 10
22.27155344103016
 20
12.33113440761374
 10
22.23053555543424
 20
12.47720568625564
 10
22.20522525761521
 20
12.53711149984122
  0
LWPOLYLINE
  5
15F
330
2
100
AcDbEntity
  8
0
100
AcDbPolyline
 90
        2
 70
   128
 43
0.0
 10
22.12061539263141
 20
12.70004634104779
 10
22.05856372845005
 20
12.77814246668288
  0
LWPOLYLINE
  5
160
330
2
100
AcDbEntity
  8
0
100
AcDbPolyline
 90
        2
 70
   128
 43
0.0
 10
22.05856372845005
 20
12.77814246668288
 10
22.0408052309167
 20
12.79794423070379
  0
ARC
  5
161
330
2
100
AcDbEntity
  8
0
100
AcDbCircle
 10
22.07128076556478
 20
13.04013743113273
 30
0.0
 40
0.2021321871967286
100
AcDbArc
 50
179.5141952210023
 51
222.589396757796
  0
ARC
  5
162
330
2
100
AcDbEntity
  8
0
100
AcDbCircle
 10
21.69178861533556
 20
13.03501077631443
 30
0.0
 40
0.1313590151395757
100
AcDbArc
 50
287.2081354590032
 51
357.1692786496004
  0
LINE
  5
163
330
2
100
AcDbEntity
  8
0
100
AcDbLine
 10
21.73065035077093
 20
12.90953186822139
 30
0.0
 11
21.08429275766594
 21
12.72294450303198
 31
0.0
  0
LINE
  5
164
330
2
100
AcDbEntity
  8
0
100
AcDbLine
 10
21.86915584413055
 20
15.07326104268725
 30
0.0
 11
21.86915584413055
 21
13.04185126777438
 31
0.0
  0
LINE
  5
165
330
2
100
AcDbEntity
  8
0
100
AcDbLine
 10
21.82298734634401
 20
13.02852357047408
 30
0.0
 11
21.82298734634401
 21
15.01376484759734
 31
0.0
  0
LINE
  5
166
330
2
100
AcDbEntity
  8
0
100
AcDbLine
 10
22.0408052309167
 20
12.79794423070379
 30
0.0
 11
22.01659182868661
 21
12.81951070711653
 31
0.0
  0
LINE
  5
167
330
2
100
AcDbEntity
  8
0
100
AcDbLine
 10
21.95044810751938
 20
12.87842382427595
 30
0.0
 11
21.9224665340887
 21
12.90334654837929
 31
0.0
  0
ARC
  5
168
330
2
100
AcDbEntity
  8
0
100
AcDbCircle
 10
21.12315575965636
 20
12.5974653973056
 30
0.0
 40
0.1313595786377937
100
AcDbArc
 50
107.2086376752048
 51
177.1694182046991
  0
LWPOLYLINE
  5
169
330
2
100
AcDbEntity
  8
0
100
AcDbPolyline
 90
        7
 70
   128
 43
0.0
 10
5.360379172619786
 20
10.29219810112101
 10
5.360891356247748
 20
10.30076203446395
 10
5.362408146653024
 20
10.30810921953252
 10
5.364871454022704
 20
10.31395767758175
 10
5.368186348581275
 20
10.31808347669005
 10
5.372225628505702
 20
10.32032640751285
 10
5.372248765149379
 20
10.32033320114883
  0
LWPOLYLINE
  5
16A
330
2
100
AcDbEntity
  8
0
100
AcDbPolyline
 90
        4
 70
   128
 43
0.0
 10
21.82298734634401
 20
15.05993334538382
 10
21.81778716321651
 20
15.0635500519881
 10
21.8127868687227
 20
15.06525310398558
 10
21.80817850691505
 20
15.06497731687091
  0
LINE
  5
16B
330
2
100
AcDbEntity
  8
0
100
AcDbLine
 10
21.82298734634401
 20
15.01376484759734
 30
0.0
 11
21.82298734634401
 21
15.05993334538382
 31
0.0
  0
LINE
  5
16C
330
2
100
AcDbEntity
  8
0
100
AcDbLine
 10
21.82298734634401
 20
15.05993334538382
 30
0.0
 11
21.86915584413055
 21
15.07326104268418
 31
0.0
  0
ARC
  5
16D
330
2
100
AcDbEntity
  8
0
100
AcDbCircle
 10
5.512939457297079
 20
8.536336926906699
 30
0.0
 40
0.2182507987423323
100
AcDbArc
 50
180.5536595746947
 51
216.0803568636966
  0
LINE
  5
16E
330
2
100
AcDbEntity
  8
0
100
AcDbLine
 10
5.294698848288817
 20
10.2424589407818
 30
0.0
 11
5.294698848288817
 21
8.53422796243521
 31
0.0
  0
LINE
  5
16F
330
2
100
AcDbEntity
  8
0
100
AcDbLine
 10
5.340866658111735
 20
10.30195493729704
 30
0.0
 11
5.362430165158684
 21
10.30817978560179
 31
0.0
  0
ARC
  5
170
330
2
100
AcDbEntity
  8
0
100
AcDbCircle
 10
5.360297888075592
 20
10.2392159686016
 30
0.0
 40
0.0656791510947229
100
AcDbArc
 50
107.2085625796092
 51
177.1698141882998
  0
ARC
  5
171
330
2
100
AcDbEntity
  8
0
100
AcDbCircle
 10
22.7789632062736
 20
10.60128657897692
 30
0.0
 40
0.1723544617009448
100
AcDbArc
 50
57.13638854680233
 51
107.6021872118065
  0
LINE
  5
172
330
2
100
AcDbEntity
  8
0
100
AcDbLine
 10
22.87248982059259
 20
10.74605823671777
 30
0.0
 11
25.69795589164824
 21
8.299132841651925
 31
0.0
  0
LWPOLYLINE
  5
173
330
2
100
AcDbEntity
  8
0
100
AcDbPolyline
 90
        9
 70
   128
 43
0.0
 10
25.65892958601216
 20
8.226309035244184
 10
25.67591952553357
 20
8.232396445755369
 10
25.69020737362098
 20
8.240023984296982
 10
25.70124513504743
 20
8.248898846920951
 10
25.70860772268066
 20
8.258679778650616
 10
25.71201204980935
 20
8.268990725961856
 10
25.71132812923384
 20
8.279435850798705
 10
25.70658200177172
 20
8.289613676626316
 10
25.69795589164824
 20
8.299132841651925
  0
LINE
  5
174
330
2
100
AcDbEntity
  8
0
100
AcDbLine
 10
24.82789868970326
 20
7.986411079382492
 30
0.0
 11
25.65892958601216
 21
8.226309035244184
 31
0.0
  0
LINE
  5
175
330
2
100
AcDbEntity
  8
0
100
AcDbLine
 10
22.72684213506136
 20
10.76557125388146
 30
0.0
 11
21.89581123875246
 21
10.52567329804102
 31
0.0
  0
LWPOLYLINE
  5
176
330
2
100
AcDbEntity
  8
0
100
AcDbPolyline
 90
        9
 70
   128
 43
0.0
 10
23.67074938886913
 20
9.468328078773794
 10
23.60819378882957
 20
9.440898202141852
 10
23.57139377867406
 20
9.403586812048786
 10
23.56595236761405
 20
9.362074391219465
 10
23.59269676520739
 20
9.322680476684496
 10
23.64755682788655
 20
9.291402855554053
 10
23.7221791554648
 20
9.273002845230507
 10
23.80520438386065
 20
9.270282022022456
 10
23.88399212385912
 20
9.283654453104475
  0
LINE
  5
177
330
2
100
AcDbEntity
  8
0
100
AcDbLine
 10
23.88399212385912
 20
9.283654453104475
 30
0.0
 11
24.0686654270628
 21
9.336965043755469
 31
0.0
  0
LWPOLYLINE
  5
178
330
2
100
AcDbEntity
  8
0
100
AcDbPolyline
 90
        9
 70
   128
 43
0.0
 10
24.0686654270628
 20
9.336965043755469
 10
24.13122102710236
 20
9.364394920387439
 10
24.16802103725786
 20
9.401706310459132
 10
24.17346244831788
 20
9.443218731309798
 10
24.14671805072453
 20
9.482612645844767
 10
24.09185798804538
 20
9.513890266975238
 10
24.01723566046712
 20
9.532290277277468
 10
23.93421043207149
 20
9.535011100506807
 10
23.85542269207281
 20
9.521638669424845
  0
LINE
  5
179
330
2
100
AcDbEntity
  8
0
100
AcDbLine
 10
23.85542269207281
 20
9.521638669424845
 30
0.0
 11
23.67074938886913
 21
9.468328078773794
 31
0.0
  0
ARC
  5
17A
330
2
100
AcDbEntity
  8
0
100
AcDbCircle
 10
22.7789632062736
 20
10.64745507676349
 30
0.0
 40
0.1723544617009058
100
AcDbArc
 50
57.13638854680233
 51
107.6021872118065
  0
LINE
  5
17B
330
2
100
AcDbEntity
  8
0
100
AcDbLine
 10
21.86915611878726
 20
11.44134686354664
 30
0.0
 11
21.84964274096615
 21
11.43571383658315
 31
0.0
  0
LINE
  5
17C
330
2
100
AcDbEntity
  8
0
100
AcDbLine
 10
21.89581123875246
 20
11.32290698819454
 30
0.0
 11
21.89581123875246
 21
10.57184179582759
 31
0.0
  0
ARC
  5
17D
330
2
100
AcDbEntity
  8
0
100
AcDbCircle
 10
21.88346808315555
 20
10.55719382174169
 30
0.0
 40
0.0338510990174674
100
AcDbArc
 50
177.7647556206018
 51
291.3848674345053
  0
LINE
  5
17E
330
2
100
AcDbEntity
  8
0
100
AcDbLine
 10
21.84964274096615
 20
10.55851409850592
 30
0.0
 11
21.84964274096615
 21
11.43571383658315
 31
0.0
  0
LINE
  5
17F
330
2
100
AcDbEntity
  8
0
100
AcDbLine
 10
22.72684213506136
 20
10.81173975166797
 30
0.0
 11
21.89581123875246
 21
10.57184179582759
 31
0.0
  0
LINE
  5
180
330
2
100
AcDbEntity
  8
0
100
AcDbLine
 10
25.69795589164824
 20
8.345301339438492
 30
0.0
 11
22.87248982059259
 21
10.79222673450425
 31
0.0
  0
ARC
  5
181
330
2
100
AcDbEntity
  8
0
100
AcDbCircle
 10
24.81569331061474
 20
8.020532338032126
 30
0.0
 40
0.0362385370791251
100
AcDbArc
 50
231.2248071589955
 51
289.6824349112951
  0
LWPOLYLINE
  5
182
330
2
100
AcDbEntity
  8
0
100
AcDbPolyline
 90
       10
 70
   128
 43
0.0
 10
22.35715364486691
 20
10.70501987698415
 10
22.33657156844015
 20
10.7688777911377
 10
22.29333345915165
 20
10.85636344479786
 10
22.24233067381647
 20
10.91810475527259
 10
22.19132788845991
 20
10.94470286033868
 10
22.14808977919279
 20
10.93210780876626
 10
22.11919906743014
 20
10.88223729698586
 10
22.1090539985853
 20
10.80268394077831
 10
22.11919906743014
 20
10.70555846590423
 10
22.13660467191107
 20
10.63827492683441
  0
LINE
  5
183
330
2
100
AcDbEntity
  8
0
100
AcDbLine
 10
21.86915584413055
 20
13.03842359446139
 30
0.0
 11
21.86915584413055
 21
12.83830756624937
 31
0.0
  0
LINE
  5
184
330
2
100
AcDbEntity
  8
0
100
AcDbLine
 10
21.86915584413055
 20
12.73525410362398
 30
0.0
 11
21.86915584413055
 21
12.50271294631105
 31
0.0
  0
LINE
  5
185
330
2
100
AcDbEntity
  8
0
100
AcDbLine
 10
21.86915584413055
 20
12.27720399097563
 30
0.0
 11
21.86915584413055
 21
11.51829428057388
 31
0.0
  0
LINE
  5
186
330
2
100
AcDbEntity
  8
0
100
AcDbLine
 10
2.966765671437997
 20
5.98469675700403
 30
0.0
 11
3.012933481260688
 21
5.998024255711413
 31
0.0
  0
ARC
  5
187
330
2
100
AcDbEntity
  8
0
100
AcDbCircle
 10
3.041174486411364
 20
6.053092929654042
 30
0.0
 40
0.1010678394953756
100
AcDbArc
 50
179.5143988047048
 51
222.5890500659946
  0
LINE
  5
188
330
2
100
AcDbEntity
  8
0
100
AcDbLine
 10
21.84964274096615
 20
11.43571383658315
 30
0.0
 11
21.77742138361782
 21
11.41486532653002
 31
0.0
  0
LINE
  5
189
330
2
100
AcDbEntity
  8
0
100
AcDbLine
 10
21.69845872459064
 20
11.39207077030738
 30
0.0
 11
3.012933481260688
 21
5.998024255711413
 31
0.0
  0
LINE
  5
18A
330
2
100
AcDbEntity
  8
0
100
AcDbLine
 10
21.6383140431617
 20
12.65203418325973
 30
0.0
 11
21.6383140431617
 21
12.88287667219234
 31
0.0
  0
LINE
  5
18B
330
2
100
AcDbEntity
  8
0
100
AcDbLine
 10
2.940110276815858
 20
7.623674988660184
 30
0.0
 11
2.940110276815858
 21
6.053949503673152
 31
0.0
  0
ARC
  5
18C
330
2
100
AcDbEntity
  8
0
100
AcDbCircle
 10
3.071311179040321
 20
7.617186853977131
 30
0.0
 40
0.1313612295844776
100
AcDbArc
 50
107.2094559851007
 51
177.1689207830023
  0
LINE
  5
18D
330
2
100
AcDbEntity
  8
0
100
AcDbLine
 10
3.032445896461467
 20
7.742666981669287
 30
0.0
 11
5.360380035911703
 21
8.41468368271029
 31
0.0
  0
LINE
  5
18E
330
2
100
AcDbEntity
  8
0
100
AcDbLine
 10
21.3151352465984
 20
12.78958298959764
 30
0.0
 11
21.3151352465984
 21
12.55874050066509
 31
0.0
  0
LINE
  5
18F
330
2
100
AcDbEntity
  8
0
100
AcDbLine
 10
21.3151352465984
 20
12.55874050066509
 30
0.0
 11
21.6383140431617
 21
12.65203418325973
 31
0.0
  0
LINE
  5
190
330
2
100
AcDbEntity
  8
0
100
AcDbLine
 10
21.6383140431617
 20
12.00567659013328
 30
0.0
 11
21.6383140431617
 21
12.19035023731888
 31
0.0
  0
LINE
  5
191
330
2
100
AcDbEntity
  8
0
100
AcDbLine
 10
21.6383140431617
 20
12.19035023731888
 30
0.0
 11
21.3151352465984
 21
12.09705655472413
 31
0.0
  0
LINE
  5
192
330
2
100
AcDbEntity
  8
0
100
AcDbLine
 10
21.3151352465984
 20
12.09705655472413
 30
0.0
 11
21.3151352465984
 21
11.91238290753864
 31
0.0
  0
LINE
  5
193
330
2
100
AcDbEntity
  8
0
100
AcDbLine
 10
21.3151352465984
 20
11.91238290753864
 30
0.0
 11
21.6383140431617
 21
12.00567659013328
 31
0.0
  0
LINE
  5
194
330
2
100
AcDbEntity
  8
0
100
AcDbLine
 10
3.012933481260688
 20
5.998024255711413
 30
0.0
 11
5.945020932211491
 21
3.458762037074194
 31
0.0
  0
ARC
  5
195
330
2
100
AcDbEntity
  8
0
100
AcDbCircle
 10
25.67681952114504
 20
8.316819336231162
 30
0.0
 40
0.0354678821482397
100
AcDbArc
 50
2.951995516900564
 51
53.4210509663067
  0
LINE
  5
196
330
2
100
AcDbEntity
  8
0
100
AcDbLine
 10
2.135734087186619
 20
4.867598864493459
 30
0.0
 11
2.966765671437997
 21
5.107497018926864
 31
0.0
  0
LINE
  5
197
330
2
100
AcDbEntity
  8
0
100
AcDbLine
 10
2.966765671437997
 20
5.107497018926864
 30
0.0
 11
2.966765671437997
 21
5.98469675700403
 31
0.0
  0
LINE
  5
198
330
2
100
AcDbEntity
  8
0
100
AcDbLine
 10
3.012933481260688
 20
5.120824517634218
 30
0.0
 11
3.012933481260688
 21
5.998024255711413
 31
0.0
  0
ARC
  5
199
330
2
100
AcDbEntity
  8
0
100
AcDbCircle
 10
2.947333030148456
 20
5.124068584986389
 30
0.0
 40
0.0656806147922965
100
AcDbArc
 50
287.2094559851007
 51
357.1689207829028
  0
LINE
  5
19A
330
2
100
AcDbEntity
  8
0
100
AcDbLine
 10
2.135734087186619
 20
4.82143036668566
 30
0.0
 11
2.966765671437997
 21
5.061328521140296
 31
0.0
  0
LINE
  5
19B
330
2
100
AcDbEntity
  8
0
100
AcDbLine
 10
3.012933481260688
 20
5.120824517634218
 30
0.0
 11
5.945020932211491
 21
2.581562298996999
 31
0.0
  0
ARC
  5
19C
330
2
100
AcDbEntity
  8
0
100
AcDbCircle
 10
5.879420481099259
 20
2.58480636634917
 30
0.0
 40
0.0656806147922627
100
AcDbArc
 50
287.2094559851007
 51
357.1689207829028
  0
ARC
  5
19D
330
2
100
AcDbEntity
  8
0
100
AcDbCircle
 10
5.015700737807264
 20
2.44644530326812
 30
0.0
 40
0.1723472121932562
100
AcDbArc
 50
237.13526893439
 51
287.6028573528975
  0
LINE
  5
19E
330
2
100
AcDbEntity
  8
0
100
AcDbLine
 10
4.92217522853366
 20
2.301681562419332
 30
0.0
 11
2.096709157477789
 21
4.748606957463863
 31
0.0
  0
LWPOLYLINE
  5
19F
330
2
100
AcDbEntity
  8
0
100
AcDbPolyline
 90
        9
 70
   128
 43
0.0
 10
2.135734087186619
 20
4.82143036668566
 10
2.118744835607685
 20
4.815343154788791
 10
2.104455611613957
 20
4.807715219018575
 10
2.093418538129981
 20
4.798840555008837
 10
2.086055262554282
 20
4.789059424686314
 10
2.082652999316906
 20
4.778749073175191
 10
2.083336231928569
 20
4.768303749724083
 10
2.088080983463214
 20
4.758125526710614
 10
2.096709157477789
 20
4.748606957463863
  0
LINE
  5
1A0
330
2
100
AcDbEntity
  8
0
100
AcDbLine
 10
5.898853122388572
 20
2.522066302503105
 30
0.0
 11
5.067821538137422
 21
2.282168148048413
 31
0.0
  0
LINE
  5
1A1
330
2
100
AcDbEntity
  8
0
100
AcDbLine
 10
4.123914972271904
 20
3.579411521749022
 30
0.0
 11
3.939240981125976
 21
3.526100732505028
 31
0.0
  0
LWPOLYLINE
  5
1A2
330
2
100
AcDbEntity
  8
0
100
AcDbPolyline
 90
        9
 70
   128
 43
0.0
 10
3.910672237281914
 20
3.764085147439743
 10
3.989458601374508
 20
3.777457181314389
 10
4.072484517733983
 20
3.774736556699394
 10
4.147106157348389
 20
3.756336347782877
 10
4.201967595933638
 20
3.725059123838377
 10
4.22871061762089
 20
3.685664812117437
 10
4.223269894524719
 20
3.644152589881031
 10
4.186469196405369
 20
3.606841001195107
 10
4.123914972271904
 20
3.579411521749022
  0
LINE
  5
1A3
330
2
100
AcDbEntity
  8
0
100
AcDbLine
 10
3.725998246135986
 20
3.710774358174404
 30
0.0
 11
3.910672237281914
 21
3.764085147439743
 31
0.0
  0
LWPOLYLINE
  5
1A4
330
2
100
AcDbEntity
  8
0
100
AcDbPolyline
 90
        9
 70
   128
 43
0.0
 10
3.939240981125976
 20
3.526100732505028
 10
3.860454617054756
 20
3.512728698630354
 10
3.777428700695281
 20
3.515449323245348
 10
3.702807061080648
 20
3.533849532161923
 10
3.647945622474253
 20
3.565126756085049
 10
3.621202600808146
 20
3.604521067805933
 10
3.626643323904545
 20
3.646033290063712
 10
3.663444022023895
 20
3.683344878728291
 10
3.725998246135986
 20
3.710774358174404
  0
LINE
  5
1A5
330
2
100
AcDbEntity
  8
0
100
AcDbLine
 10
5.945020932211491
 20
2.581562298996999
 30
0.0
 11
5.945020932211491
 21
3.458762037074194
 31
0.0
  0
LWPOLYLINE
  5
1A6
330
2
100
AcDbEntity
  8
0
100
AcDbPolyline
 90
        7
 70
   128
 43
0.0
 10
2.08242333459907
 20
4.821430491944425
 10
2.082652999316906
 20
4.824917570961758
 10
2.086055262554282
 20
4.835227922472881
 10
2.093418538129981
 20
4.845009052795376
 10
2.104455611613957
 20
4.853883716826459
 10
2.118744835607685
 20
4.861511652575245
 10
2.135734087186619
 20
4.867598864493459
  0
LWPOLYLINE
  5
1A7
330
2
100
AcDbEntity
  8
0
100
AcDbPolyline
 90
       10
 70
   128
 43
0.0
 10
18.62670528593844
 20
11.41994675904533
 10
18.68143836854415
 20
11.36881229777975
 10
18.70680906189886
 20
11.28867340720216
 10
18.6988727226651
 20
11.19566072454705
 10
18.65869982096251
 20
11.10233519805376
 10
18.59171563173118
 20
11.02130098936507
 10
18.50696686619699
 20
10.96350260888508
 10
18.4158998500186
 20
10.93674601101446
 10
18.33081260678091
 20
10.94464462193798
 10
18.27167683616972
 20
10.98092948553483
  0
LWPOLYLINE
  5
1A8
330
2
100
AcDbEntity
  8
0
100
AcDbPolyline
 90
       16
 70
   128
 43
0.0
 10
9.24524393410843
 20
8.78975680646846
 10
9.246332291304952
 20
8.790286664485023
 10
9.335214337547085
 20
8.815673987765649
 10
9.417227762842003
 20
8.805084891463422
 10
9.479884665863664
 20
8.760131251106599
 10
9.513648505802166
 20
8.687657530035608
 10
9.513377448432265
 20
8.598696892312887
 10
9.479114147481595
 20
8.506792847986218
 10
9.416071985290045
 20
8.425936208348332
 10
9.333852171126181
 20
8.368437896484266
 10
9.244970124905421
 20
8.343050917185564
 10
9.162956699610731
 20
8.353639669505923
 10
9.100298420661374
 20
8.398592912676804
 10
9.066534580723327
 20
8.471066633747796
 10
9.066805638071627
 20
8.560027271470545
 10
9.088121478513812
 20
8.626418650276889
  0
ARC
  5
1A9
330
2
100
AcDbEntity
  8
0
100
AcDbCircle
 10
5.456908689835927
 20
6.927166156133864
 30
0.0
 40
0.0966727862602447
100
AcDbArc
 50
183.1197180373444
 51
283.4368231249525
  0
ARC
  5
1AA
330
2
100
AcDbEntity
  8
0
100
AcDbCircle
 10
21.87396518966147
 20
14.99516751833749
 30
0.0
 40
0.0782414746110899
100
AcDbArc
 50
67.38216101075377
 51
93.52407748584916
  0
LINE
  5
1AB
330
2
100
AcDbEntity
  8
0
100
AcDbLine
 10
22.03583257403375
 20
10.30960223669189
 30
0.0
 11
22.18110327263639
 21
10.18379412126904
 31
0.0
  0
LINE
  5
1AC
330
2
100
AcDbEntity
  8
0
100
AcDbLine
 10
22.07304708987749
 20
10.29674875138676
 30
0.0
 11
22.11728241211449
 21
10.30951838897891
 31
0.0
  0
ARC
  5
1AD
330
2
100
AcDbEntity
  8
0
100
AcDbCircle
 10
22.10363878104613
 20
10.41747655934674
 30
0.0
 40
0.124543386740375
100
AcDbArc
 50
174.8069247138021
 51
197.7982758284822
  0
ARC
  5
1AE
330
2
100
AcDbEntity
  8
0
100
AcDbCircle
 10
22.10363878104613
 20
10.41747655934674
 30
0.0
 40
0.124543386740375
100
AcDbArc
 50
238.8205845890726
 51
255.7808851649026
  0
LWPOLYLINE
  5
1AF
330
2
100
AcDbEntity
  8
0
100
AcDbPolyline
 90
        3
 70
   128
 43
0.0
 10
22.18110327263639
 20
10.18379412126904
 10
22.20140161603422
 20
10.16981633998108
 10
22.23297911008785
 20
10.15824355899795
  0
LINE
  5
1B0
330
2
100
AcDbEntity
  8
0
100
AcDbLine
 10
22.23297911008785
 20
10.15824355899795
 30
0.0
 11
22.27721443232463
 21
10.17101319661151
 31
0.0
  0
ELLIPSE
  5
1B1
330
2
100
AcDbEntity
  8
0
100
AcDbEllipse
 10
22.19959633152553
 20
10.46648273342697
 30
0.0
 11
0.0184930588891826
 21
0.2826886121579176
 31
0.0
210
0.0
220
0.0
230
1.0
 40
0.6128168285279186
 41
1.9018349736237
 42
6.870853096261243
  0
ELLIPSE
  5
1B2
330
2
100
AcDbEntity
  8
0
100
AcDbEllipse
 10
22.25809065963381
 20
10.12978509644981
 30
0.0
 11
-0.0455233000266227
 21
0.0704651339788705
 31
0.0
210
0.0
220
0.0
230
1.0
 40
0.6994241437507363
 41
0.0
 42
6.283185307179585
  0
ARC
  5
1B3
330
2
100
AcDbEntity
  8
0
100
AcDbCircle
 10
21.72287669207549
 20
16.07587478841253
 30
0.0
 40
6.041907002565188
100
AcDbArc
 50
275.5546823295032
 51
339.4343720710991
  0
POLYLINE
  5
1B4
330
2
100
AcDbEntity
  8
0
100
AcDb2dPolyline
 66
     1
 10
0.0
 20
0.0
 30
0.0
 70
     2
  0
VERTEX
  5
1B5
330
1B4
100
AcDbEntity
  8
0
100
AcDbVertex
100
AcDb2dVertex
 10
21.86915584413055
 20
12.50271294631105
 30
0.0
 42
0.0067045199463909
  0
VERTEX
  5
1B6
330
1B4
100
AcDbEntity
  8
0
100
AcDbVertex
100
AcDb2dVertex
 10
22.12347089190416
 20
12.70234973029241
 30
0.0
 42
0.0501186739966826
 70
     1
  0
VERTEX
  5
1B7
330
1B4
100
AcDbEntity
  8
0
100
AcDbVertex
100
AcDb2dVertex
 10
22.15432185098712
 20
12.73281380962487
 30
0.0
 42
0.0172839214496608
  0
VERTEX
  5
1B8
330
1B4
100
AcDbEntity
  8
0
100
AcDbVertex
100
AcDb2dVertex
 10
22.71366519351795
 20
13.45801611266819
 30
0.0
 42
0.0066833728106379
 70
     1
  0
VERTEX
  5
1B9
330
1B4
100
AcDbEntity
  8
0
100
AcDbVertex
100
AcDb2dVertex
 10
24.06832410057382
 20
15.40012665685492
 30
0.0
 42
0.0058690167807455
  0
VERTEX
  5
1BA
330
1B4
100
AcDbEntity
  8
0
100
AcDbVertex
100
AcDb2dVertex
 10
24.50603628282852
 20
16.06248891421774
 30
0.0
 42
-0.0055899550345994
 70
     1
  0
VERTEX
  5
1BB
330
1B4
100
AcDbEntity
  8
0
100
AcDbVertex
100
AcDb2dVertex
 10
24.9652102706948
 20
16.75817177247688
 30
0.0
 42
-0.0583248844971142
  0
VERTEX
  5
1BC
330
1B4
100
AcDbEntity
  8
0
100
AcDbVertex
100
AcDb2dVertex
 10
25.47455372489208
 20
17.34944670887429
 30
0.0
 42
-0.0473375732486717
 70
     1
  0
VERTEX
  5
1BD
330
1B4
100
AcDbEntity
  8
0
100
AcDbVertex
100
AcDb2dVertex
 10
26.23996306562503
 20
17.9296012724109
 30
0.0
 42
-0.174617249837134
  0
VERTEX
  5
1BE
330
1B4
100
AcDbEntity
  8
0
100
AcDbVertex
100
AcDb2dVertex
 10
27.21807294617429
 20
18.13626580065994
 30
0.0
 42
-0.1834518074477105
 70
     1
  0
VERTEX
  5
1BF
330
1B4
100
AcDbEntity
  8
0
100
AcDbVertex
100
AcDb2dVertex
 10
28.05553148761601
 20
17.67833568623518
 30
0.0
 42
-0.0396751802337727
  0
VERTEX
  5
1C0
330
1B4
100
AcDbEntity
  8
0
100
AcDbVertex
100
AcDb2dVertex
 10
28.3786754566047
 20
17.2334819916646
 30
0.0
 42
-0.059738168795049
 70
     1
  0
VERTEX
  5
1C1
330
1B4
100
AcDbEntity
  8
0
100
AcDbVertex
100
AcDb2dVertex
 10
28.5310704439471
 20
16.90082838224484
 30
0.0
 42
-0.0348577842408616
  0
VERTEX
  5
1C2
330
1B4
100
AcDbEntity
  8
0
100
AcDbVertex
100
AcDb2dVertex
 10
28.65096625571027
 20
16.41208394096716
 30
0.0
 42
-0.0505908605494362
 70
     1
  0
VERTEX
  5
1C3
330
1B4
100
AcDbEntity
  8
0
100
AcDbVertex
100
AcDb2dVertex
 10
28.67517451040522
 20
16.06572718957488
 30
0.0
 42
-0.0772983630562495
  0
VERTEX
  5
1C4
330
1B4
100
AcDbEntity
  8
0
100
AcDbVertex
100
AcDb2dVertex
 10
28.64256308370205
 20
15.8920460139044
 30
0.0
 42
-0.0454054468664174
 70
     1
  0
VERTEX
  5
1C5
330
1B4
100
AcDbEntity
  8
0
100
AcDbVertex
100
AcDb2dVertex
 10
28.51746332089465
 20
15.61973482656677
 30
0.0
  0
SEQEND
  5
1C6
330
1B4
100
AcDbEntity
  8
0
  0
POLYLINE
  5
1C7
330
2
100
AcDbEntity
  8
0
100
AcDb2dPolyline
 66
     1
 10
0.0
 20
0.0
 30
0.0
  0
VERTEX
  5
1C8
330
1C7
100
AcDbEntity
  8
0
100
AcDbVertex
100
AcDb2dVertex
 10
21.86915584413055
 20
12.27720399097563
 30
0.0
 42
0.0095008428507942
  0
VERTEX
  5
1C9
330
1C7
100
AcDbEntity
  8
0
100
AcDbVertex
100
AcDb2dVertex
 10
22.23650451093886
 20
12.56226618033764
 30
0.0
 42
0.0501186739966924
  0
VERTEX
  5
1CA
330
1C7
100
AcDbEntity
  8
0
100
AcDbVertex
100
AcDb2dVertex
 10
22.29296788667398
 20
12.61802148937514
 30
0.0
 42
0.0172839214496618
  0
VERTEX
  5
1CB
330
1C7
100
AcDbEntity
  8
0
100
AcDbVertex
100
AcDb2dVertex
 10
22.85990921771873
 20
13.35307477007336
 30
0.0
 42
0.0066833728106379
  0
VERTEX
  5
1CC
330
1C7
100
AcDbEntity
  8
0
100
AcDbVertex
100
AcDb2dVertex
 10
24.21732094319009
 20
15.29913190010785
 30
0.0
 42
0.0058690167807453
  0
VERTEX
  5
1CD
330
1C7
100
AcDbEntity
  8
0
100
AcDbVertex
100
AcDb2dVertex
 10
24.6573627849732
 20
15.96501948440198
 30
0.0
 42
-0.0055899550345992
  0
VERTEX
  5
1CE
330
1C7
100
AcDbEntity
  8
0
100
AcDbVertex
100
AcDb2dVertex
 10
25.11431975185633
 20
16.65734339042223
 30
0.0
 42
-0.0583248844971176
  0
VERTEX
  5
1CF
330
1C7
100
AcDbEntity
  8
0
100
AcDbVertex
100
AcDb2dVertex
 10
25.5963482521754
 20
17.21690957021562
 30
0.0
 42
-0.0473375732486709
  0
VERTEX
  5
1D0
330
1C7
100
AcDbEntity
  8
0
100
AcDbVertex
100
AcDb2dVertex
 10
26.33465609757104
 20
17.77652211086078
 30
0.0
 42
-0.1746172498371493
  0
VERTEX
  5
1D1
330
1C7
100
AcDbEntity
  8
0
100
AcDbVertex
100
AcDb2dVertex
 10
27.19339703691594
 20
17.9579652131616
 30
0.0
 42
-0.1834518074477271
  0
VERTEX
  5
1D2
330
1C7
100
AcDbEntity
  8
0
100
AcDbVertex
100
AcDb2dVertex
 10
27.91873781615482
 20
17.56134213321539
 30
0.0
 42
-0.0396751802337699
  0
VERTEX
  5
1D3
330
1C7
100
AcDbEntity
  8
0
100
AcDbVertex
100
AcDb2dVertex
 10
28.22511950093645
 20
17.1395641100934
 30
0.0
 42
-0.0597381687950483
  0
VERTEX
  5
1D4
330
1C7
100
AcDbEntity
  8
0
100
AcDbVertex
100
AcDb2dVertex
 10
28.35966417514828
 20
16.84587484717695
 30
0.0
 42
-0.0348577842408601
  0
VERTEX
  5
1D5
330
1C7
100
AcDbEntity
  8
0
100
AcDbVertex
100
AcDb2dVertex
 10
28.47358774352802
 20
16.38147571632072
 30
0.0
 42
-0.0505908605494308
  0
VERTEX
  5
1D6
330
1C7
100
AcDbEntity
  8
0
100
AcDbVertex
100
AcDb2dVertex
 10
28.495262759963
 20
16.07136297282122
 30
0.0
 42
-0.0772983630562457
  0
VERTEX
  5
1D7
330
1C7
100
AcDbEntity
  8
0
100
AcDbVertex
100
AcDb2dVertex
 10
28.47286093360754
 20
15.95205584854236
 30
0.0
 42
-0.0435860634477136
  0
VERTEX
  5
1D8
330
1C7
100
AcDbEntity
  8
0
100
AcDbVertex
100
AcDb2dVertex
 10
28.36667699839404
 20
15.71868933445142
 30
0.0
 42
-0.0454054468664149
  0
SEQEND
  5
1D9
330
1C7
100
AcDbEntity
  8
0
  0
POLYLINE
  5
1DA
330
2
100
AcDbEntity
  8
0
100
AcDb2dPolyline
 66
     1
 10
0.0
 20
0.0
 30
0.0
 70
     2
  0
VERTEX
  5
1DB
330
1DA
100
AcDbEntity
  8
0
100
AcDbVertex
100
AcDb2dVertex
 10
22.02246828338389
 20
10.3916298482826
 30
0.0
 42
-0.0522236093001447
  0
VERTEX
  5
1DC
330
1DA
100
AcDbEntity
  8
0
100
AcDbVertex
100
AcDb2dVertex
 10
22.00154646063584
 20
10.38228398333672
 30
0.0
 42
-0.0716608154131766
 70
     1
  0
VERTEX
  5
1DD
330
1DA
100
AcDbEntity
  8
0
100
AcDbVertex
100
AcDb2dVertex
 10
21.98505621622212
 20
10.37940779918102
 30
0.0
 42
-0.0981337861266901
  0
VERTEX
  5
1DE
330
1DA
100
AcDbEntity
  8
0
100
AcDbVertex
100
AcDb2dVertex
 10
21.94595673688764
 20
10.38596012091878
 30
0.0
 42
-0.081569919082386
 70
     1
  0
VERTEX
  5
1DF
330
1DA
100
AcDbEntity
  8
0
100
AcDbVertex
100
AcDb2dVertex
 10
21.90479381349064
 20
10.40977275808433
 30
0.0
 42
-0.085903982657382
  0
VERTEX
  5
1E0
330
1DA
100
AcDbEntity
  8
0
100
AcDbVertex
100
AcDb2dVertex
 10
21.85638531606173
 20
10.46584583938209
 30
0.0
 42
-0.0972633807585109
 70
     1
  0
VERTEX
  5
1E1
330
1DA
100
AcDbEntity
  8
0
100
AcDbVertex
100
AcDb2dVertex
 10
21.83409741063361
 20
10.52750283548312
 30
0.0
 42
-0.0090938820223754
  0
VERTEX
  5
1E2
330
1DA
100
AcDbEntity
  8
0
100
AcDbVertex
100
AcDb2dVertex
 10
21.82658232242238
 20
10.58293004930812
 30
0.0
 42
-0.0067669099887715
 70
     1
  0
VERTEX
  5
1E3
330
1DA
100
AcDbEntity
  8
0
100
AcDbVertex
100
AcDb2dVertex
 10
21.81885075298874
 20
10.65769737826454
 30
0.0
 42
-0.0088501182275486
  0
VERTEX
  5
1E4
330
1DA
100
AcDbEntity
  8
0
100
AcDbVertex
100
AcDb2dVertex
 10
21.81139156282552
 20
10.76139453884946
 30
0.0
 42
-0.0012355515575566
 70
     1
  0
VERTEX
  5
1E5
330
1DA
100
AcDbEntity
  8
0
100
AcDbVertex
100
AcDb2dVertex
 10
21.77295736509359
 20
11.50503518867228
 30
0.0
 42
-0.0195778265971305
  0
VERTEX
  5
1E6
330
1DA
100
AcDbEntity
  8
0
100
AcDbVertex
100
AcDb2dVertex
 10
21.76386863628431
 20
12.41241393132841
 30
0.0
 42
-0.0790087975948558
 70
     1
  0
VERTEX
  5
1E7
330
1DA
100
AcDbEntity
  8
0
100
AcDbVertex
100
AcDb2dVertex
 10
21.80587742611215
 20
12.63464864974756
 30
0.0
 42
-0.2230685931993146
  0
VERTEX
  5
1E8
330
1DA
100
AcDbEntity
  8
0
100
AcDbVertex
100
AcDb2dVertex
 10
21.97149285007094
 20
12.80090555716157
 30
0.0
 42
0.1514243915724875
 70
     1
  0
VERTEX
  5
1E9
330
1DA
100
AcDbEntity
  8
0
100
AcDbVertex
100
AcDb2dVertex
 10
22.23987997940776
 20
13.00448854880687
 30
0.0
 42
0.0084154427520946
  0
VERTEX
  5
1EA
330
1DA
100
AcDbEntity
  8
0
100
AcDbVertex
100
AcDb2dVertex
 10
22.76739532530541
 20
13.76823268540815
 30
0.0
 42
-0.0035690854634239
 70
     1
  0
VERTEX
  5
1EB
330
1DA
100
AcDbEntity
  8
0
100
AcDbVertex
100
AcDb2dVertex
 10
23.99362496194635
 20
15.58090817363134
 30
0.0
 42
-0.0022600936830834
  0
VERTEX
  5
1EC
330
1DA
100
AcDbEntity
  8
0
100
AcDbVertex
100
AcDb2dVertex
 10
24.69318421984212
 20
16.58949378502325
 30
0.0
 42
-0.0024018306525935
 70
     1
  0
VERTEX
  5
1ED
330
1DA
100
AcDbEntity
  8
0
100
AcDbVertex
100
AcDb2dVertex
 10
25.36028168590883
 20
17.53238248080282
 30
0.0
 42
-0.2068838122284174
  0
VERTEX
  5
1EE
330
1DA
100
AcDbEntity
  8
0
100
AcDbVertex
100
AcDb2dVertex
 10
26.6851546134385
 20
18.3305841270236
 30
0.0
 42
-0.2177678617245061
 70
     1
  0
VERTEX
  5
1EF
330
1DA
100
AcDbEntity
  8
0
100
AcDbVertex
100
AcDb2dVertex
 10
28.09751139935406
 20
17.9020101217927
 30
0.0
 42
-0.0490479462761191
  0
VERTEX
  5
1F0
330
1DA
100
AcDbEntity
  8
0
100
AcDbVertex
100
AcDb2dVertex
 10
28.56343696349791
 20
17.40119435497269
 30
0.0
 42
-0.077969508977539
 70
     1
  0
VERTEX
  5
1F1
330
1DA
100
AcDbEntity
  8
0
100
AcDbVertex
100
AcDb2dVertex
 10
28.76885247424571
 20
17.02129383058241
 30
0.0
 42
-0.0451372916589528
  0
VERTEX
  5
1F2
330
1DA
100
AcDbEntity
  8
0
100
AcDbVertex
100
AcDb2dVertex
 10
28.91758502562311
 20
16.43843130209418
 30
0.0
 42
-0.0672992237023312
 70
     1
  0
VERTEX
  5
1F3
330
1DA
100
AcDbEntity
  8
0
100
AcDbVertex
100
AcDb2dVertex
 10
28.92779037263881
 20
16.03410673323364
 30
0.0
 42
-0.082833913616645
  0
VERTEX
  5
1F4
330
1DA
100
AcDbEntity
  8
0
100
AcDbVertex
100
AcDb2dVertex
 10
28.86516370906043
 20
15.81167627629077
 30
0.0
 42
-0.0543039207141835
 70
     1
  0
VERTEX
  5
1F5
330
1DA
100
AcDbEntity
  8
0
100
AcDbVertex
100
AcDb2dVertex
 10
28.68216798265439
 20
15.5120223320464
 30
0.0
  0
SEQEND
  5
1F6
330
1DA
100
AcDbEntity
  8
0
  0
POLYLINE
  5
1F7
330
2
100
AcDbEntity
  8
0
100
AcDb2dPolyline
 66
     1
 10
0.0
 20
0.0
 30
0.0
  0
VERTEX
  5
1F8
330
1F7
100
AcDbEntity
  8
0
100
AcDbVertex
100
AcDb2dVertex
 10
22.0849103576129
 20
10.33755342573474
 30
0.0
 42
-0.0880119848073951
  0
VERTEX
  5
1F9
330
1F7
100
AcDbEntity
  8
0
100
AcDbVertex
100
AcDb2dVertex
 10
22.02638937367737
 20
10.30623906456097
 30
0.0
 42
-0.0716608154131926
  0
VERTEX
  5
1FA
330
1F7
100
AcDbEntity
  8
0
100
AcDbVertex
100
AcDb2dVertex
 10
21.98742412537649
 20
10.29944285057078
 30
0.0
 42
-0.098133786126553
  0
VERTEX
  5
1FB
330
1F7
100
AcDbEntity
  8
0
100
AcDbVertex
100
AcDb2dVertex
 10
21.91764911948576
 20
10.31113580136269
 30
0.0
 42
-0.0815699190824735
  0
VERTEX
  5
1FC
330
1F7
100
AcDbEntity
  8
0
100
AcDbVertex
100
AcDb2dVertex
 10
21.85404144624022
 20
10.34793266414453
 30
0.0
 42
-0.0859039826574027
  0
VERTEX
  5
1FD
330
1F7
100
AcDbEntity
  8
0
100
AcDbVertex
100
AcDb2dVertex
 10
21.78780088475674
 20
10.4246611846842
 30
0.0
 42
-0.0972633807585175
  0
VERTEX
  5
1FE
330
1F7
100
AcDbEntity
  8
0
100
AcDbVertex
100
AcDb2dVertex
 10
21.75503133944676
 20
10.51531446450636
 30
0.0
 42
-0.0090938820223737
  0
VERTEX
  5
1FF
330
1F7
100
AcDbEntity
  8
0
100
AcDbVertex
100
AcDb2dVertex
 10
21.74712530341844
 20
10.57362509734642
 30
0.0
 42
-0.0067669099887718
  0
VERTEX
  5
200
330
1F7
100
AcDbEntity
  8
0
100
AcDbVertex
100
AcDb2dVertex
 10
21.7391710102022
 20
10.65054625321491
 30
0.0
 42
-0.0088501182275505
  0
VERTEX
  5
201
330
1F7
100
AcDbEntity
  8
0
100
AcDbVertex
100
AcDb2dVertex
 10
21.73150864555418
 20
10.75706793184162
 30
0.0
 42
-0.0012355515575567
  0
VERTEX
  5
202
330
1F7
100
AcDbEntity
  8
0
100
AcDbVertex
100
AcDb2dVertex
 10
21.69305404051897
 20
11.5011034305472
 30
0.0
 42
-0.0195778265971307
  0
VERTEX
  5
203
330
1F7
100
AcDbEntity
  8
0
100
AcDbVertex
100
AcDb2dVertex
 10
21.68390258669319
 20
12.41474436321744
 30
0.0
 42
-0.0790087975948656
  0
VERTEX
  5
204
330
1F7
100
AcDbEntity
  8
0
100
AcDbVertex
100
AcDb2dVertex
 10
21.73057826477384
 20
12.6616678337057
 30
0.0
 42
-0.2230685931993589
  0
VERTEX
  5
205
330
1F7
100
AcDbEntity
  8
0
100
AcDbVertex
100
AcDb2dVertex
 10
21.9441827742296
 20
12.87609970425782
 30
0.0
 42
0.1514243915725038
  0
VERTEX
  5
206
330
1F7
100
AcDbEntity
  8
0
100
AcDbVertex
100
AcDb2dVertex
 10
22.1748294923641
 20
13.05105499740847
 30
0.0
 42
0.0084154427520943
  0
VERTEX
  5
207
330
1F7
100
AcDbEntity
  8
0
100
AcDbVertex
100
AcDb2dVertex
 10
22.70081451174042
 20
13.81258350575032
 30
0.0
 42
-0.0035690854634239
  0
VERTEX
  5
208
330
1F7
100
AcDbEntity
  8
0
100
AcDbVertex
100
AcDb2dVertex
 10
23.92768407653398
 20
15.62620496856254
 30
0.0
 42
-0.0022600936830835
  0
VERTEX
  5
209
330
1F7
100
AcDbEntity
  8
0
100
AcDbVertex
100
AcDb2dVertex
 10
24.62765552274823
 20
16.63538485013589
 30
0.0
 42
-0.0024018306525934
  0
VERTEX
  5
20A
330
1F7
100
AcDbEntity
  8
0
100
AcDbVertex
100
AcDb2dVertex
 10
25.29519689558788
 20
17.57890097249023
 30
0.0
 42
-0.2068838122284107
  0
VERTEX
  5
20B
330
1F7
100
AcDbEntity
  8
0
100
AcDbVertex
100
AcDb2dVertex
 10
26.67444881245569
 20
18.40986455225786
 30
0.0
 42
-0.2177678617245121
  0
VERTEX
  5
20C
330
1F7
100
AcDbEntity
  8
0
100
AcDbVertex
100
AcDb2dVertex
 10
28.15046969825812
 20
17.9619719311149
 30
0.0
 42
-0.0490479462761149
  0
VERTEX
  5
20D
330
1F7
100
AcDbEntity
  8
0
100
AcDbVertex
100
AcDb2dVertex
 10
28.62706038551528
 20
17.44969239793121
 30
0.0
 42
-0.0779695089775292
  0
VERTEX
  5
20E
330
1F7
100
AcDbEntity
  8
0
100
AcDbVertex
100
AcDb2dVertex
 10
28.84427131023881
 20
17.04797714329737
 30
0.0
 42
-0.0451372916589505
  0
VERTEX
  5
20F
330
1F7
100
AcDbEntity
  8
0
100
AcDbVertex
100
AcDb2dVertex
 10
28.996567907074
 20
16.4511476080716
 30
0.0
 42
-0.067299223702331
  0
VERTEX
  5
210
330
1F7
100
AcDbEntity
  8
0
100
AcDbVertex
100
AcDb2dVertex
 10
29.00731420371199
 20
16.02539121308575
 30
0.0
 42
-0.0828339136166399
  0
VERTEX
  5
211
330
1F7
100
AcDbEntity
  8
0
100
AcDbVertex
100
AcDb2dVertex
 10
28.93755264435845
 20
15.77761982247625
 30
0.0
 42
-0.0533449078694019
  0
VERTEX
  5
212
330
1F7
100
AcDbEntity
  8
0
100
AcDbVertex
100
AcDb2dVertex
 10
28.74948965054614
 20
15.46834003708082
 30
0.0
 42
-0.0543039207141832
  0
SEQEND
  5
213
330
1F7
100
AcDbEntity
  8
0
  0
POLYLINE
  5
214
330
2
100
AcDbEntity
  8
0
100
AcDb2dPolyline
 66
     1
 10
0.0
 20
0.0
 30
0.0
  0
VERTEX
  5
215
330
214
100
AcDbEntity
  8
0
100
AcDbVertex
100
AcDb2dVertex
 10
28.98181942151223
 20
15.30819513912976
 30
0.0
 42
-0.0126313408439932
  0
VERTEX
  5
216
330
214
100
AcDbEntity
  8
0
100
AcDbVertex
100
AcDb2dVertex
 10
29.85721327851911
 20
17.20813063720681
 30
0.0
 42
-0.0199910048208844
  0
VERTEX
  5
217
330
214
100
AcDbEntity
  8
0
100
AcDbVertex
100
AcDb2dVertex
 10
30.48756779677729
 20
18.37027362530199
 30
0.0
 42
-0.0063314807418255
  0
VERTEX
  5
218
330
214
100
AcDbEntity
  8
0
100
AcDbVertex
100
AcDb2dVertex
 10
31.76806678880507
 20
20.46053482252893
 30
0.0
 42
-0.0124454299934577
  0
VERTEX
  5
219
330
214
100
AcDbEntity
  8
0
100
AcDbVertex
100
AcDb2dVertex
 10
32.45905087379083
 20
21.49884517649235
 30
0.0
 42
-0.0618612185897802
  0
VERTEX
  5
21A
330
214
100
AcDbEntity
  8
0
100
AcDbVertex
100
AcDb2dVertex
 10
33.59995082436899
 20
22.7593289530399
 30
0.0
 42
-0.0937738624238892
  0
VERTEX
  5
21B
330
214
100
AcDbEntity
  8
0
100
AcDbVertex
100
AcDb2dVertex
 10
34.57549421049384
 20
23.32384805983503
 30
0.0
 42
-0.0949537826242413
  0
VERTEX
  5
21C
330
214
100
AcDbEntity
  8
0
100
AcDbVertex
100
AcDb2dVertex
 10
34.82653317194627
 20
23.36133922739632
 30
0.0
 42
-0.0409648491948239
  0
VERTEX
  5
21D
330
214
100
AcDbEntity
  8
0
100
AcDbVertex
100
AcDb2dVertex
 10
35.39821333930433
 20
23.29068004496477
 30
0.0
  0
SEQEND
  5
21E
330
214
100
AcDbEntity
  8
0
  0
POLYLINE
  5
21F
330
2
100
AcDbEntity
  8
0
100
AcDb2dPolyline
 66
     1
 10
0.0
 20
0.0
 30
0.0
  0
VERTEX
  5
220
330
21F
100
AcDbEntity
  8
0
100
AcDbVertex
100
AcDb2dVertex
 10
29.12648146173138
 20
15.18892287773269
 30
0.0
 42
-0.0129488501704755
  0
VERTEX
  5
221
330
21F
100
AcDbEntity
  8
0
100
AcDbVertex
100
AcDb2dVertex
 10
30.01874028030147
 20
17.12870124909886
 30
0.0
 42
-0.0199910048208844
  0
VERTEX
  5
222
330
21F
100
AcDbEntity
  8
0
100
AcDbVertex
100
AcDb2dVertex
 10
30.64223490626205
 20
18.27819710688595
 30
0.0
 42
-0.0063314807418256
  0
VERTEX
  5
223
330
21F
100
AcDbEntity
  8
0
100
AcDbVertex
100
AcDb2dVertex
 10
31.92035265795357
 20
20.36457121454288
 30
0.0
 42
-0.0124454299934575
  0
VERTEX
  5
224
330
21F
100
AcDbEntity
  8
0
100
AcDbVertex
100
AcDb2dVertex
 10
32.60637308824971
 20
21.39542291038432
 30
0.0
 42
-0.0618612185897826
  0
VERTEX
  5
225
330
21F
100
AcDbEntity
  8
0
100
AcDbVertex
100
AcDb2dVertex
 10
33.71749779333413
 20
22.62301053870385
 30
0.0
 42
-0.0937738624238907
  0
VERTEX
  5
226
330
21F
100
AcDbEntity
  8
0
100
AcDbVertex
100
AcDb2dVertex
 10
34.63511244451638
 20
23.15400794039309
 30
0.0
 42
-0.094953782624239
  0
VERTEX
  5
227
330
21F
100
AcDbEntity
  8
0
100
AcDbVertex
100
AcDb2dVertex
 10
34.81913877548186
 20
23.18149117235837
 30
0.0
 42
-0.0227086535702853
  0
VERTEX
  5
228
330
21F
100
AcDbEntity
  8
0
100
AcDbVertex
100
AcDb2dVertex
 10
35.12135323285668
 20
23.15528390839737
 30
0.0
 42
-0.0412505636532654
  0
SEQEND
  5
229
330
21F
100
AcDbEntity
  8
0
  0
ARC
  5
22A
330
2
100
AcDbEntity
  8
0
100
AcDbCircle
 10
34.11344232010288
 20
13.50333292983075
 30
0.0
 40
5.181914856704577
100
AcDbArc
 50
85.39501420909605
 51
161.7292178272466
  0
ARC
  5
22B
330
2
100
AcDbEntity
  8
0
100
AcDbCircle
 10
34.11344232010288
 20
13.50333292983075
 30
0.0
 40
5.101914856704577
100
AcDbArc
 50
87.22203975862354
 51
162.1709090994183
  0
ELLIPSE
  5
22C
330
2
100
AcDbEntity
  8
0
100
AcDbEllipse
 10
28.66977634322734
 20
16.73754546149558
 30
0.0
 11
-0.2975199166743347
 21
-0.0738179717522064
 31
0.0
210
0.0
220
0.0
230
1.0
 40
0.5660109677204617
 41
2.583794123332249
 42
6.794339374965185
  0
ELLIPSE
  5
22D
330
2
100
AcDbEntity
  8
0
100
AcDbEllipse
 10
28.66977634322734
 20
16.73754546149558
 30
0.0
 11
-0.2975199166743347
 21
-0.0738179717522064
 31
0.0
210
0.0
220
0.0
230
1.0
 40
0.5660109677204617
 41
7.559267606818734
 42
8.47922614181877
  0
ELLIPSE
  5
22E
330
2
100
AcDbEntity
  8
0
100
AcDbEllipse
 10
26.65826519108373
 20
18.16426736892973
 30
0.0
 11
-0.0487725195990834
 21
0.2654057707878508
 31
0.0
210
0.0
220
0.0
230
1.0
 40
0.5611334380277662
 41
5.79298932616165
 42
9.944559693964292
  0
ELLIPSE
  5
22F
330
2
100
AcDbEntity
  8
0
100
AcDbEllipse
 10
26.65826519108373
 20
18.16426736892973
 30
0.0
 11
-0.0487725195990834
 21
0.2654057707878508
 31
0.0
210
0.0
220
0.0
230
1.0
 40
0.5611334380277662
 41
10.78786918776028
 42
11.6037977047041
  0
ELLIPSE
  5
230
330
2
100
AcDbEntity
  8
0
100
AcDbEllipse
 10
24.61726591066213
 20
16.27572734701726
 30
0.0
 11
-0.2130452760820845
 21
0.1304372846925616
 31
0.0
210
0.0
220
0.0
230
1.0
 40
0.6931773132916838
 41
5.583791809800897
 42
10.02719966741963
  0
ELLIPSE
  5
231
330
2
100
AcDbEntity
  8
0
100
AcDbEllipse
 10
24.61726591066213
 20
16.27572734701726
 30
0.0
 11
-0.2130452760820845
 21
0.1304372846925616
 31
0.0
210
0.0
220
0.0
230
1.0
 40
0.6931773132916838
 41
10.88255966674286
 42
11.44409926742288
  0
ELLIPSE
  5
232
330
2
100
AcDbEntity
  8
0
100
AcDbEllipse
 10
22.98841201269147
 20
13.8842281014534
 30
0.0
 11
-0.1868381040658276
 21
0.1677219512093873
 31
0.0
210
0.0
220
0.0
230
0.9999999999999998
 40
0.8279377963067847
 41
5.752581667542911
 42
10.14123187143013
  0
ELLIPSE
  5
233
330
2
100
AcDbEntity
  8
0
100
AcDbEllipse
 10
22.98841201269147
 20
13.8842281014534
 30
0.0
 11
-0.1868381040658276
 21
0.1677219512093873
 31
0.0
210
0.0
220
0.0
230
0.9999999999999998
 40
0.8279377963067847
 41
10.99655524060162
 42
11.6109456381251
  0
ENDSEC
  0
SECTION
  2
OBJECTS
  0
DICTIONARY
  5
9
330
0
100
AcDbDictionary
281
     1
  3
ACAD_COLOR
350
3E
  3
ACAD_GROUP
350
35
  3
ACAD_LAYOUT
350
16
  3
ACAD_MATERIAL
350
B
  3
ACAD_MLEADERSTYLE
350
41
  3
ACAD_MLINESTYLE
350
36
  3
ACAD_PLOTSETTINGS
350
37
  3
ACAD_PLOTSTYLENAME
350
8
  3
ACAD_SCALELIST
350
3F
  3
ACAD_TABLESTYLE
350
40
  3
ACAD_VISUALSTYLE
350
2B
  3
ACDB_RECOMPOSE_DATA
350
242
  3
AcDbVariableDictionary
350
234
  3
AcDsDecomposeData
350
248
  0
DICTIONARY
  5
1E
330
1D
100
AcDbDictionary
280
     1
281
     1
  3
ACAD_LAYERSTATES
360
1F
  0
DICTIONARY
  5
6
330
5
100
AcDbDictionary
280
     1
281
     1
  0
DICTIONARY
  5
3
330
2
100
AcDbDictionary
280
     1
281
     1
  0
DICTIONARY
  5
3E
102
{ACAD_REACTORS
330
9
102
}
330
9
100
AcDbDictionary
281
     1
  0
DICTIONARY
  5
35
102
{ACAD_REACTORS
330
9
102
}
330
9
100
AcDbDictionary
281
     1
  0
DICTIONARY
  5
16
102
{ACAD_REACTORS
330
9
102
}
330
9
100
AcDbDictionary
281
     1
  3
Model
350
15
  3
レイアウト1
350
1C
  0
DICTIONARY
  5
B
102
{ACAD_REACTORS
330
9
102
}
330
9
100
AcDbDictionary
281
     1
  3
ByBlock
350
3B
  3
ByLayer
350
38
  3
Global
350
A
  0
DICTIONARY
  5
41
102
{ACAD_REACTORS
330
9
102
}
330
9
100
AcDbDictionary
281
     1
  0
DICTIONARY
  5
36
102
{ACAD_REACTORS
330
9
102
}
330
9
100
AcDbDictionary
281
     1
  3
Standard
350
42
  0
DICTIONARY
  5
37
102
{ACAD_REACTORS
330
9
102
}
330
9
100
AcDbDictionary
281
     1
  0
ACDBDICTIONARYWDFLT
  5
8
102
{ACAD_REACTORS
330
9
102
}
330
9
100
AcDbDictionary
281
     1
  3
Normal
350
7
100
AcDbDictionaryWithDefault
340
7
  0
DICTIONARY
  5
3F
102
{ACAD_REACTORS
330
9
102
}
330
9
100
AcDbDictionary
281
     1
  3
A0
350
47
  3
A1
350
48
  3
A2
350
49
  3
A3
350
4A
  3
A4
350
4B
  3
A5
350
4C
  3
A6
350
4D
  3
A7
350
4E
  3
A8
350
4F
  3
A9
350
50
  3
B0
350
51
  3
B1
350
52
  3
B2
350
53
  3
B3
350
54
  3
B4
350
55
  3
B5
350
56
  3
B6
350
57
  0
DICTIONARY
  5
40
102
{ACAD_REACTORS
330
9
102
}
330
9
100
AcDbDictionary
281
     1
  3
Standard
350
43
  0
DICTIONARY
  5
2B
102
{ACAD_REACTORS
330
9
102
}
330
9
100
AcDbDictionary
281
     1
  3
2dWireframe
350
2A
  3
Realistic
350
45
  3
Wireframe
350
46
  0
XRECORD
  5
242
102
{ACAD_REACTORS
330
9
102
}
330
9
100
AcDbXrecord
280
     1
 90
        1
330
43
  0
DICTIONARY
  5
234
102
{ACAD_REACTORS
330
9
102
}
330
9
100
AcDbDictionary
281
     1
  3
CANNOSCALE
350
23A
  3
CMLEADERSTYLE
350
236
  3
CTABLESTYLE
350
235
  3
CVIEWDETAILSTYLE
350
237
  3
CVIEWSECTIONSTYLE
350
238
  3
LAYEREVAL
350
23C
  3
LAYERNOTIFY
350
23D
  3
LIGHTINGUNITS
350
23B
  3
MSLTSCALE
350
239
  3
PSOLHEIGHT
350
23F
  3
PSOLWIDTH
350
23E
  3
XCLIPFRAME
350
240
  0
DICTIONARY
  5
248
102
{ACAD_REACTORS
330
9
102
}
330
9
100
AcDbDictionary
281
     1
  3
AcDsRecords
350
24A
  3
AcDsSchemas
350
249
1001
ACAD
1070
     2
  0
DICTIONARY
  5
1F
102
{ACAD_REACTORS
330
1E
102
}
330
1E
100
AcDbDictionary
281
     1
  0
LAYOUT
  5
15
102
{ACAD_XDICTIONARY
360
17
102
}
102
{ACAD_REACTORS
330
16
102
}
330
16
100
AcDbPlotSettings
  1

  2
none_device
  4
ISO_A4_(210.00_x_297.00_MM)
  6

 40
7.5
 41
20.0
 42
7.5
 43
20.0
 44
210.0
 45
297.0
 46
11.54999923706054
 47
-13.65000009536743
 48
0.0
 49
0.0
140
0.0
141
0.0
142
1.0
143
8.704084754739808
 70
 11952
 72
     1
 73
     0
 74
     0
  7

 75
     0
147
0.1148885871608098
 76
     0
 77
     2
 78
   300
148
0.0
149
0.0
100
AcDbLayout
  1
Model
 70
     1
 71
     0
 10
0.0
 20
0.0
 11
12.0
 21
9.0
 12
0.0
 22
0.0
 32
0.0
 14
0.0
 24
0.0
 34
0.0
 15
0.0
 25
0.0
 35
0.0
146
0.0
 13
0.0
 23
0.0
 33
0.0
 16
1.0
 26
0.0
 36
0.0
 17
0.0
 27
1.0
 37
0.0
 76
     0
330
2
331
29
1001
ACAD_PSEXT
1000
None
1000
None
1000
Not applicable
1000
The layout will not be plotted unless a new plotter configuration name is selected.
1070
     0
  0
LAYOUT
  5
1C
102
{ACAD_REACTORS
330
16
102
}
330
16
100
AcDbPlotSettings
  1

  2
C:\Documents and Settings\basas\Application Data\Autodesk\AutoCAD 2005\R16.1\enu\plotters\Default Windows System Printer.pc3
  4

  6

 40
0.0
 41
0.0
 42
0.0
 43
0.0
 44
0.0
 45
0.0
 46
0.0
 47
0.0
 48
0.0
 49
0.0
140
0.0
141
0.0
142
1.0
143
1.0
 70
   688
 72
     0
 73
     0
 74
     5
  7

 75
    16
147
1.0
 76
     0
 77
     2
 78
   300
148
0.0
149
0.0
100
AcDbLayout
  1
レイアウト1
 70
     1
 71
     1
 10
0.0
 20
0.0
 11
12.0
 21
9.0
 12
0.0
 22
0.0
 32
0.0
 14
0.0
 24
0.0
 34
0.0
 15
0.0
 25
0.0
 35
0.0
146
0.0
 13
0.0
 23
0.0
 33
0.0
 16
1.0
 26
0.0
 36
0.0
 17
0.0
 27
1.0
 37
0.0
 76
     0
330
19
  0
MATERIAL
  5
3B
102
{ACAD_XDICTIONARY
360
3C
102
}
102
{ACAD_REACTORS
330
B
102
}
330
B
100
AcDbMaterial
  1
ByBlock
  0
MATERIAL
  5
38
102
{ACAD_XDICTIONARY
360
39
102
}
102
{ACAD_REACTORS
330
B
102
}
330
B
100
AcDbMaterial
  1
ByLayer
  0
MATERIAL
  5
A
102
{ACAD_XDICTIONARY
360
C
102
}
102
{ACAD_REACTORS
330
B
102
}
330
B
100
AcDbMaterial
  1
Global
 43
0.0007999999797903
 43
0.0
 43
0.0
 43
0.0
 43
0.0
 43
0.0007999999797903
 43
0.0
 43
0.0
 43
0.0
 43
0.0
 43
1.0
 43
0.0
 43
0.0
 43
0.0
 43
0.0
 43
1.0
 49
0.0007999999797903
 49
0.0
 49
0.0
 49
0.0
 49
0.0
 49
0.0007999999797903
 49
0.0
 49
0.0
 49
0.0
 49
0.0
 49
1.0
 49
0.0
 49
0.0
 49
0.0
 49
0.0
 49
1.0
142
0.0007999999797903
142
0.0
142
0.0
142
0.0
142
0.0
142
0.0007999999797903
142
0.0
142
0.0
142
0.0
142
0.0
142
1.0
142
0.0
142
0.0
142
0.0
142
0.0
142
1.0
144
0.0007999999797903
144
0.0
144
0.0
144
0.0
144
0.0
144
0.0007999999797903
144
0.0
144
0.0
144
0.0
144
0.0
144
1.0
144
0.0
144
0.0
144
0.0
144
0.0
144
1.0
1001
ACAD
1070
    -1
1070
     3
1070
     0
1000

1071
        0
1070
     0
  0
MLINESTYLE
  5
42
102
{ACAD_REACTORS
330
36
102
}
330
36
100
AcDbMlineStyle
  2
STANDARD
 70
     0
  3

 62
   256
 51
90.0
 52
90.0
 71
     2
 49
0.5
 62
   256
  6
BYLAYER
 49
-0.5
 62
   256
  6
BYLAYER
  0
ACDBPLACEHOLDER
  5
7
102
{ACAD_REACTORS
330
8
102
}
330
8
  0
SCALE
  5
47
102
{ACAD_REACTORS
330
3F
102
}
330
3F
100
AcDbScale
 70
     0
300
1:1
140
1.0
141
1.0
290
     1
  0
SCALE
  5
48
102
{ACAD_REACTORS
330
3F
102
}
330
3F
100
AcDbScale
 70
     0
300
1:2
140
1.0
141
2.0
290
     0
  0
SCALE
  5
49
102
{ACAD_REACTORS
330
3F
102
}
330
3F
100
AcDbScale
 70
     0
300
1:4
140
1.0
141
4.0
290
     0
  0
SCALE
  5
4A
102
{ACAD_REACTORS
330
3F
102
}
330
3F
100
AcDbScale
 70
     0
300
1:5
140
1.0
141
5.0
290
     0
  0
SCALE
  5
4B
102
{ACAD_REACTORS
330
3F
102
}
330
3F
100
AcDbScale
 70
     0
300
1:8
140
1.0
141
8.0
290
     0
  0
SCALE
  5
4C
102
{ACAD_REACTORS
330
3F
102
}
330
3F
100
AcDbScale
 70
     0
300
1:10
140
1.0
141
10.0
290
     0
  0
SCALE
  5
4D
102
{ACAD_REACTORS
330
3F
102
}
330
3F
100
AcDbScale
 70
     0
300
1:16
140
1.0
141
16.0
290
     0
  0
SCALE
  5
4E
102
{ACAD_REACTORS
330
3F
102
}
330
3F
100
AcDbScale
 70
     0
300
1:20
140
1.0
141
20.0
290
     0
  0
SCALE
  5
4F
102
{ACAD_REACTORS
330
3F
102
}
330
3F
100
AcDbScale
 70
     0
300
1:30
140
1.0
141
30.0
290
     0
  0
SCALE
  5
50
102
{ACAD_REACTORS
330
3F
102
}
330
3F
100
AcDbScale
 70
     0
300
1:40
140
1.0
141
40.0
290
     0
  0
SCALE
  5
51
102
{ACAD_REACTORS
330
3F
102
}
330
3F
100
AcDbScale
 70
     0
300
1:50
140
1.0
141
50.0
290
     0
  0
SCALE
  5
52
102
{ACAD_REACTORS
330
3F
102
}
330
3F
100
AcDbScale
 70
     0
300
1:100
140
1.0
141
100.0
290
     0
  0
SCALE
  5
53
102
{ACAD_REACTORS
330
3F
102
}
330
3F
100
AcDbScale
 70
     0
300
2:1
140
2.0
141
1.0
290
     0
  0
SCALE
  5
54
102
{ACAD_REACTORS
330
3F
102
}
330
3F
100
AcDbScale
 70
     0
300
4:1
140
4.0
141
1.0
290
     0
  0
SCALE
  5
55
102
{ACAD_REACTORS
330
3F
102
}
330
3F
100
AcDbScale
 70
     0
300
8:1
140
8.0
141
1.0
290
     0
  0
SCALE
  5
56
102
{ACAD_REACTORS
330
3F
102
}
330
3F
100
AcDbScale
 70
     0
300
10:1
140
10.0
141
1.0
290
     0
  0
SCALE
  5
57
102
{ACAD_REACTORS
330
3F
102
}
330
3F
100
AcDbScale
 70
     0
300
100:1
140
100.0
141
1.0
290
     0
  0
TABLESTYLE
  5
43
102
{ACAD_XDICTIONARY
360
44
102
}
102
{ACAD_REACTORS
330
40
102
}
330
40
100
AcDbTableStyle
  3
Standard
 70
     0
 71
     0
 40
1.5
 41
1.5
280
     0
281
     0
  7
Standard
140
4.5
170
     2
 62
     0
 63
     7
283
     0
274
    -2
284
     1
 64
     0
275
    -2
285
     1
 65
     0
276
    -2
286
     1
 66
     0
277
    -2
287
     1
 67
     0
278
    -2
288
     1
 68
     0
279
    -2
289
     1
 69
     0
  7
Standard
140
6.0
170
     5
 62
     0
 63
     7
283
     0
274
    -2
284
     1
 64
     0
275
    -2
285
     1
 65
     0
276
    -2
286
     1
 66
     0
277
    -2
287
     1
 67
     0
278
    -2
288
     1
 68
     0
279
    -2
289
     1
 69
     0
  7
Standard
140
4.5
170
     5
 62
     0
 63
     7
283
     0
274
    -2
284
     1
 64
     0
275
    -2
285
     1
 65
     0
276
    -2
286
     1
 66
     0
277
    -2
287
     1
 67
     0
278
    -2
288
     1
 68
     0
279
    -2
289
     1
 69
     0
  0
VISUALSTYLE
  5
2A
102
{ACAD_XDICTIONARY
360
24C
102
}
102
{ACAD_REACTORS
330
2B
102
}
330
2B
100
AcDbVisualStyle
  2
2dWireframe
 70
     4
 71
     0
 72
     2
 73
     1
 90
        0
 40
-0.6
 41
-30.0
 62
     5
 63
     7
421
 16777215
 74
     1
 91
        4
 64
     7
 65
   257
 75
     1
175
     1
 42
1.0
 92
        0
 66
   257
 43
1.0
 76
     1
 77
     6
 78
     2
 67
     7
 79
     5
170
     0
171
     0
290
     0
174
     0
 93
        1
 44
0.0
173
     0
291
     0
 45
0.0
1001
ACAD
1000
AcDbSavedByObjectVersion
1070
     0
  0
VISUALSTYLE
  5
45
102
{ACAD_XDICTIONARY
360
251
102
}
102
{ACAD_REACTORS
330
2B
102
}
330
2B
100
AcDbVisualStyle
  2
Realistic
 70
     8
 71
     2
 72
     3
 73
     0
 90
        2
 40
-0.6
 41
30.0
 62
     5
 63
     7
421
 16777215
 74
     0
 91
        0
 64
     7
 65
   257
 75
     1
175
     1
 42
1.0
 92
        8
 66
   257
 43
1.0
 76
     1
 77
     6
 78
     2
 67
     7
 79
     3
170
     0
171
     0
290
     0
174
     0
 93
       13
 44
0.0
173
     0
291
     0
 45
0.0
1001
ACAD
1000
AcDbSavedByObjectVersion
1070
     0
  0
VISUALSTYLE
  5
46
102
{ACAD_XDICTIONARY
360
253
102
}
102
{ACAD_REACTORS
330
2B
102
}
330
2B
100
AcDbVisualStyle
  2
Wireframe
 70
     5
 71
     0
 72
     2
 73
     0
 90
        0
 40
-0.6
 41
-30.0
 62
     5
 63
     7
421
 16777215
 74
     1
 91
        4
 64
     7
 65
   257
 75
     1
175
     1
 42
1.0
 92
        0
 66
   257
 43
1.0
 76
     1
 77
     6
 78
     2
 67
     7
 79
     3
170
     0
171
     0
290
     0
174
     0
 93
        1
 44
0.0
173
     0
291
     0
 45
0.0
1001
ACAD
1000
AcDbSavedByObjectVersion
1070
     0
  0
DICTIONARYVAR
  5
23A
102
{ACAD_REACTORS
330
234
102
}
330
234
100
DictionaryVariables
280
     0
  1
1:1
  0
DICTIONARYVAR
  5
236
102
{ACAD_REACTORS
330
234
102
}
330
234
100
DictionaryVariables
280
     0
  1
STANDARD
  0
DICTIONARYVAR
  5
235
102
{ACAD_REACTORS
330
234
102
}
330
234
100
DictionaryVariables
280
     0
  1
STANDARD
  0
DICTIONARYVAR
  5
237
102
{ACAD_REACTORS
330
234
102
}
330
234
100
DictionaryVariables
280
     0
  1

  0
DICTIONARYVAR
  5
238
102
{ACAD_REACTORS
330
234
102
}
330
234
100
DictionaryVariables
280
     0
  1

  0
DICTIONARYVAR
  5
23C
102
{ACAD_REACTORS
330
234
102
}
330
234
100
DictionaryVariables
280
     0
  1
0
  0
DICTIONARYVAR
  5
23D
102
{ACAD_REACTORS
330
234
102
}
330
234
100
DictionaryVariables
280
     0
  1
0
  0
DICTIONARYVAR
  5
23B
102
{ACAD_REACTORS
330
234
102
}
330
234
100
DictionaryVariables
280
     0
  1
2
  0
DICTIONARYVAR
  5
239
102
{ACAD_REACTORS
330
234
102
}
330
234
100
DictionaryVariables
280
     0
  1
1
  0
DICTIONARYVAR
  5
23F
102
{ACAD_REACTORS
330
234
102
}
330
234
100
DictionaryVariables
280
     0
  1
80.000000
  0
DICTIONARYVAR
  5
23E
102
{ACAD_REACTORS
330
234
102
}
330
234
100
DictionaryVariables
280
     0
  1
5.000000
  0
DICTIONARYVAR
  5
240
102
{ACAD_REACTORS
330
234
102
}
330
234
100
DictionaryVariables
280
     0
  1
2
  0
DICTIONARY
  5
24A
102
{ACAD_REACTORS
330
248
102
}
330
248
100
AcDbDictionary
281
     1
  0
DICTIONARY
  5
249
102
{ACAD_REACTORS
330
248
102
}
330
248
100
AcDbDictionary
281
     1
  3
1004557872
350
243
  3
1004557888
350
244
  3
1004557904
350
245
  3
1004557920
350
246
  3
1004557936
350
247
  0
DICTIONARY
  5
17
330
15
100
AcDbDictionary
280
     1
281
     1
  0
DICTIONARY
  5
3C
330
3B
100
AcDbDictionary
280
     1
281
     1
  3
ACAD_XREC_ROUNDTRIP
360
24F
  3
FBXASSET
360
3D
  0
DICTIONARY
  5
39
330
38
100
AcDbDictionary
280
     1
281
     1
  3
ACAD_XREC_ROUNDTRIP
360
24E
  3
FBXASSET
360
3A
  0
DICTIONARY
  5
C
330
A
100
AcDbDictionary
280
     1
281
     1
  3
ACAD_XREC_ROUNDTRIP
360
24B
  3
BUMPTILE
360
D
  3
DIFFUSETILE
360
E
  3
FBXASSET
360
F
  3
OPACITYTILE
360
10
  3
REFLECTIONTILE
360
11
  0
DICTIONARY
  5
44
330
43
100
AcDbDictionary
280
     1
281
     1
  3
ACAD_ROUNDTRIP_2008_TABLESTYLE_CELLSTYLEMAP
360
241
  3
ACAD_XREC_ROUNDTRIP
360
250
  0
DICTIONARY
  5
24C
330
2A
100
AcDbDictionary
280
     1
281
     1
  3
ACAD_XREC_ROUNDTRIP
360
24D
  0
DICTIONARY
  5
251
330
45
100
AcDbDictionary
280
     1
281
     1
  3
ACAD_XREC_ROUNDTRIP
360
252
  0
DICTIONARY
  5
253
330
46
100
AcDbDictionary
280
     1
281
     1
  3
ACAD_XREC_ROUNDTRIP
360
254
  0
XRECORD
  5
243
102
{ACAD_REACTORS
330
249
102
}
330
249
100
AcDbXrecord
280
     1
  1
AcDb_Thumbnail_Schema
102
{ATTRRECORD
341
244
  2
AcDbDs::TreatedAsObjectData
280
     1
291
     1
102
ATTRRECORD}
102
{ATTRRECORD
341
245
  2
AcDbDs::Legacy
280
     1
291
     1
102
ATTRRECORD}
  2
AcDbDs::ID
280
    10
 91
        8
102
{ATTRRECORD
341
246
  2
AcDs:Indexable
280
     1
291
     1
102
ATTRRECORD}
102
{ATTRRECORD
341
247
  2
AcDbDs::HandleAttribute
280
     7
282
     1
102
ATTRRECORD}
  2
Thumbnail_Data
280
    15
 91
        0
  0
XRECORD
  5
244
102
{ACAD_REACTORS
330
249
102
}
330
249
100
AcDbXrecord
280
     1
  1
AcDbDs::TreatedAsObjectDataSchema
  2
AcDbDs::TreatedAsObjectData
280
     1
 91
        0
  0
XRECORD
  5
245
102
{ACAD_REACTORS
330
249
102
}
330
249
100
AcDbXrecord
280
     1
  1
AcDbDs::LegacySchema
  2
AcDbDs::Legacy
280
     1
 91
        0
  0
XRECORD
  5
246
102
{ACAD_REACTORS
330
249
102
}
330
249
100
AcDbXrecord
280
     1
  1
AcDbDs::IndexedPropertySchema
  2
AcDs:Indexable
280
     1
 91
        0
  0
XRECORD
  5
247
102
{ACAD_REACTORS
330
249
102
}
330
249
100
AcDbXrecord
280
     1
  1
AcDbDs::HandleAttributeSchema
  2
AcDbDs::HandleAttribute
280
     7
 91
        1
284
     1
  0
XRECORD
  5
24F
102
{ACAD_REACTORS
330
3C
102
}
330
3C
100
AcDbXrecord
280
     1
102
MATERIAL
148
0.0
149
0.0
149
0.0
 93
        0
 94
       63
282
     0
 72
     1
 77
     1
171
     1
175
     1
179
     1
273
     0
  0
XRECORD
  5
3D
102
{ACAD_REACTORS
330
3C
102
}
330
3C
100
AcDbXrecord
280
     1
 70
     1
 90
429727718
  1
D62C5603-E3A1-4AEA-B7FB-FE5D8D0755AF
310
504B03040A0000080000CC70623B3DEE336E79000000790000001B0000006175746F6465736B2D64657369676E2D7061636B6167652E786D6C3C3F786D6C2076657273696F6E3D22312E302220656E636F64696E673D227574662D3822203F3E3C666F726D6174733E3C666F726D61743E687474703A2F2F736368656D612E
310
6175746F6465736B2E636F6D2F64657369676E2D7061636B6167652F323030393C2F666F726D61743E3C2F666F726D6174733E504B0304140006080800CC70623BD486FD9CA0000000F4000000130000005B436F6E74656E745F54797065735D2E786D6C7D8EC10E82300C865F65E91D8A1E8C310C0EEA1BF002731658846E
310
D98AC1B77784ABF1D8FE5FBFBF75BBCE937A534CCEB38643598122B6FEE978D0B0485F9C41B54DDD7D022595594E1A469170414C76A4D9A4D207E29CF43ECE46F218070CC6BECC4078ACAA135ACF422C856C0E68EA1BF5669944DDD7BCDE7B1F8E415D77AECB980613C2E4AC91FC167A2B244592486606FC29C8FD7F045B9A
310
EF7053A7E60B504B0304140006080800CC70623B853B8169EB0000007C01000008000000636F72652E786D6C8D90416EC3201045AF62CDB6C206821CC7C244919D9CA01740401C94182C03558F5F9C3852BBEB6A467FFE9B197D7EFC9E1EC5975982F5AE035262288C535E5B377690E21535501C055FBC8FBF6C503839990E
310
5619041F179FE64D52DE45E362569DD7661365082642A11EB9E920A89B99642953CC8E702F67A9EE7234257977194EC9EAE275C4EABCCF5EAD5940D4AC6F0E35A568B8F43562CD7046CD199FD07E60174276A7BE677B5EADB0E0D14EEFFB6A31321A0D82627C4084204C3F096B71DD52F6819B16635EADF63F509AF53FA164
310
5DDCD1EDDD17164090FCC8732078B56691CB33A85CD7DCC40F504B0304140006080800CC70623B55019EA25F0000007C00000007000000636E782E786D6C4DCB3B0E80201045D1AD90E915ED2CF8AC45050C11660C8261F98AB1B07AC9C97D42D718D865D3E909258CFD00CCE24AC6E326A164D74DC0B4128928FF32603847
310
2BA13128B1252AC747C6BAB984FC68F0B87FE8960A5C09FE86CFB69FBA01504B0304140006080800CC70623BDBABAAF470010000D40300000C0000006662782F636F72652E786D6CC553D16E823014FD95A6AF4B694182CC941A83FA05FB810A9511A125A5257EFE2E82712ECEB8A7F100CD39F7F69E734AF9FADC366850B6
310
AF8DCE7018308C942E4C59EB2AC3DE1D498AD15A706B8CFB56869196ADCAF00863C12B6B7C374385D14E6907A836A59A41D9F7CA615434B0C8705F7CAA5606D23BA8E84F41278B93AC54100640439DE0BDB320004D43C63716C7C399D30917DCFBBA9CD9BA8469F5B156168B24CED3F7248AC8769F27244EB73B92EED8862C
310
B7F13E0C179B3C8F979C8ECD82BBBABDAA2BAC924E9558448CBD9330242CFA08E3154B5651FCC6D215639C8EE5774DBE2B5F6CF2B5768B68963BB5F5588420E442FC700B1139D4CB01F450C1E918227C2E09DF070D8140C84E1E9AAB8F1340832A9CB13130A5F1376A908D57309505ECF2A0DF179C4E9D30F5B239B87E3823
310
7A79C6F31DE1A8A5AEC08474B03C7837EAE4938639B44E5932B833D2C6B6B279CDC613877FA26EE21F4A2A4C63EC7F29A2F301D1F9F7A0E37D145F504B0304140006080800CC70623B9C113CC27E0000009D0000000B0000006662782F636E782E786D6C4DCCDF0A83201C86E15B91DFB94BFB330DD428C8FB886521330DA7
310
6397BF1A1DECE883878F57749FCDA1B7892F1BBC047A23808C7F84D9FA55424E0BE6803A256208E9EF06C84F9B91703228B1C690F78B66B34CD9A5439DF5CF0BFBF65E35BCA1B8D6A5C6F540381E886698B5741C695F9503EBA150A2F8958E3DC3EA0B504B0304140006080800CC70623B7DF2F77C2A010000120200003100
310
00006662782F41393633353835312D344632462D344230382D423046372D3739314545314133324237412F636F72652E786D6C8D51DB8EC22014FC15C2939B0D2DB4B45643319AE817EC0F6041255A68B86CFCFC856D4D76DF7CE190393373060EDB3DC707F856CE6B6B7A480A0C81328395DA5C7B18C3057510EC3873D686
310
3F34088C18550F330C39BB3A1BA7051AAC09CA84841A2BD5020AEF55806078A44B0FFD7053A328440C89E1EFC52486BBB8AA8214A99D789CF9E05200300FC927E4FB4D5B375D43103D5527440FB843077C5AA3F5861C8F645F5787F59E95B390B318B55CE45AA638FAA2957BD7248B390B7A7CC51F9C124149C82B8C378810
310
84AB2F42B7B8DD56F413775B8C5999E9FF4471926F8AA236A1AE96B8B3CC434E5839373893369E1FAF30EA395917409EB7F26AF8801C171837A4A6AC9C89E9F9C9B1A58BA30FD6A5EF5DDDCF894B9AD9B6A59C957943A9FCAE2FD5BC4DFE03504B0304140006080800CC70623BAD7543B64E01000033030000300000006662
310
782F41393633353835312D344632462D344230382D423046372D3739314545314133324237412F636E782E786D6CD593CD6EC32010845F0571AD6CE3D48AD20813A9873E410FBD12D82434182C7EAAE6EDBB2424CD25871E7B41D6EC30B3FA84F9E67BB2E40B4234DE8DB46F1925E094D7C6ED479AD3AE5951B2113C789FEE
310
6C943839C1488B4C05DF079FE72A69D8C96C13AAD6B8631503449F83828872B949AC57D26200B826A308D316B4064D6E46FCDA41C05550DC9E483A00797BFD207EFB092A45DE9514C1BBD22178396BD39D891265658C238DEA00936C654E5E433CB65A26D9F6EDB5EBC14EBF49A45CB856E66048291F6939A9A81BB5C89177
310
38143CA680F4AA299D66A042CEB3354A2684DC9D8D178FE0D9B8B41CAAD720F880EE7EF93C0C18769E099ECC04D5A102C8049A8A05632F4DDF376CF1DE0F6BB65C2F8627B65A33C6BB62177CEBBDAD973006829F89F22E814B54F4BC2BE347F8AA8F681390B50FA73F804400B5F542E796F19FF974E7F78DB802FE05E20750
310
4B0304140006080800CC70623BE75B7789680500003C100000340000006662782F41393633353835312D344632462D344230382D423046372D3739314545314133324237412F6F626A656374732E786D6CAD575B8F9B3818FD2B887D06C22499CB8AA1CA655245D5B455A356FB305264C061D8018C6C3393D95FBFC7600890
310
A4CD5EF210B0B1BFEBF98E3F7B1FF6596ABC522E1296DF9BAE3D320D9A872C4AF2F8DE2CE5CEBA358D0FBEC719939D65A691938CDE9B6ADAF4BD98B3B2D05311DD91329583D9D5FC0F438434A7A611A644887B5384CF34233629258BA878B12322891DEFF6B66BD70BFB62634E8AE781D082709A4B588AF91C528CDA28B73F
310
1C998EEF39EABBEFA97FBD6A7C7E9553F9D3D79FE442923C3C523610337627CB87ABE99D359D4CC6D6E4FACAB5E6ABF9D2726FC6A3C5F56271377BB88362213924694B38DD99FE47C48627A1E7D49F5A8BB5E1A74C0A599ED3B0F21F1E56366B89112D681E218F0915D0D6F17AD41FBA2A369DCF6335D62ABBD39779D5DDD1
310
11D4D8DE3CBB96B2E04FB8202E41051754A1AA8E8F76B4C6DFE810B580B1547F4B84911149794252234D024EF8BBE963A95AE27B3D310A9D5C215C7960FAEE415ED75694C6AFB17BCACA5D99A60A9AA65F217B0BFC53292ACB92BF283FAD0D3621576592CB5BED907C2FA8E9DF794E35E97BEA31BED21FEB401ABB94C44839
310
DCACBF0E1C5DA8DA5B2F4DFFD32AD86F543D9E565E7056502E157C00AD2671CD534549AB752FCA9CDA00677A313F04E51B22FF19E57B300579E3C97EB29F682D92935CEC18CF901B7B54FD8C51F362B56FC72FE0B3C1EAE335EDCCBF5AEC39ADB17DC238973F804BA5E6F6BFE7AF1FB32E523BE9F3BD571418E3631DCA4D48
310
5250CF639223210A9446CA30052EDF057BD35F8329C1ECD84552BF0DC8D18BE7BCE23BFE6BD960AB4A7DE79923A103BEBD80F911CBAA2C60DB19B01CF164A5583B772EE6D3FFA56666CBCDA74DC97724A48F9A58967497E489C4D979006FD7A05E227A1EBDD0F737C623387A9C844D3709995625106D157315F8B8392CD4E0
310
A0B9A720C4BE9829CEF37EA1E13111214D53925356365ADA634861B52519DD27A00AEB808EAF0628E6F435519D446F45CF2C9CF5214F0A15B2F6D06B79DA3EE3CBF7F56780D2F4E7EF73A0F5E5B02A38D07DC852C6B7C1FBB6664213E0C39E3EBA7FF4E1AD23EA2829407C85E586727488B751B2DB9502BC7B228A3FD68B6E
310
A65A22397E690AA8D158D7E404EC8CDA235CC3B7D1898680131CEC2CDF2638C65196279577750F15884AEE19F94199155B92B13297978469D4F8D358DF0AEF7631E28DC8F0D9F437D5D39A83B2231A1D52D543813A824EF8D44BCFF2FA6A31BD1E8DAD87F1CCB526B3879935BF59CDADD5C37479BB1CDD4CA7B3556B516589
310
EF352754B706114D9C885EC9131DE6EFEB43D99AFE2391C2F958179413D7CFEF6B1B6DB1E7600F00DE6E5C67454A339A4BA2E0FBA85ED26F045D454F463DBFCE484C2F90F2E5E3666003662ED8F755951A7D1BECD5B30B550B2785C8E7320B7292A4838DDA71BBC863ED7613CAF659337A3354231D4FF4A182A54904C2898C
310
98B28C4AD0CE056CCF332A80986E571EE9DBC305BB5FEB7E509220A58D25CF042D712A806AC0AD0C657FDEF80D2D9CEAA2EE4D1C76F60BFE74219A06527D6F82DF6412526107381E55E353090704D085B52408A8913C4ED159D79BDA71BB4BC506F4831350EB6F975CD22D69BF7AC49B91A2C0A9DDA3D5CA36AD20FC478E37
310
E61844E2352865EBCB61A275A65283CAAA9DD27703B4102F5AF51EF5F573B75CBB5AD38BC845F7A49F82A0966A49C2E3EA5EA0ECD326CD965F1DB402C6FA8B51A4658C5C5E2EC9E214602E55810345408596591009A82E7E7FFACA19EEA299B14A0081A705CB3296EBC14CDF658DCD336EA6D1136881AAEB87B81AB9EE53D5
310
F5EB8BC8362082DA24122F98680A4E7930C01A0079749CEA14382A0783E5EBA5A10F8C098456A03D6A4AEB6BB881E2513747552A5DB22C7EDAF83BD5528081A365F7FF06504B0304140006080000CC70623B000000000000000000000000350000006662782F41393633353835312D344632462D344230382D423046372D37
310
39314545314133324237412F76657274696365732E62696E504B0304140006080800CC70623BF270F1330600000004000000360000006662782F41393633353835312D344632462D344230382D423046372D3739314545314133324237412F747269616E676C65732E62696E636660600000504B0304140006080000CC7062
310
3B000000000000000000000000370000006662782F41393633353835312D344632462D344230382D423046372D3739314545314133324237412F617474726962757465732E62696E504B0304140006080800CC70623B08DA0BD19000000041010000360000006662782F41393633353835312D344632462D344230382D4230
310
46372D3739314545314133324237412F6469726563746F72792E786D6C858F410AC3201045AF22B36F53E9A60B35CBEEBAE80D244E44489C6234F4F835464A48035D0DF398FF9F8AF63D0E6CC63039F212F8F9020C7D47C6792B21C5FE7403D62A1188E2E60C98D7234A5830286103A55745067B9D86B8A3CF9C7F90C11DE6
310
07FB144396D7B6A82D282E9A152AD114D5EF2CB866EEE831B8EEA07A7BB5A8D7D61A2BAAEB7FD5F70921FF497D00504B0304140006080800CC70623BEDD1DC58FD000000A00100003B0000006662782F41393633353835312D344632462D344230382D423046372D3739314545314133324237412F7265736F75726365732F
310
636F72652E786D6C8D504B6E833010BD0A9A6D65B00922041947112427E8052C33A156828DFCA97AFC9A40A576D7CDCCE87D344F8F9FBFE667F689CE6B6B3A6039850C8DB2A336530731DC4903D95970676DF82583CCC8193B5861107C72362E3BA4AC096842428D1D7107A5F7182053CF7474E0D507CE32973124857FE48B
310
540F3961CEF244279DE03EB81420DB9EAC1384436FA353E879B1B182C7A8C75DA3C7F453DF353A1075D537A7BA6464B8F535A99AE14A9A2BBD90E350DD183B5CFABE3AF262350B1EF4FC9351399401471025A527C218A1E53BAB5A5AB765F5469B96525EACF23FA6B88CFF34456DC2A1DCE36E360F82A5202F42F062ED2BAD
310
579969AFDD8A6F504B010214000A0000080000CC70623B3DEE336E79000000790000001B00000000000000000000000000000000006175746F6465736B2D64657369676E2D7061636B6167652E786D6C504B01021400140006080800CC70623BD486FD9CA0000000F40000001300000000000000000000000000B20000005B
310
436F6E74656E745F54797065735D2E786D6C504B01021400140006080800CC70623B853B8169EB0000007C010000080000000000000000000000000083010000636F72652E786D6C504B01021400140006080800CC70623B55019EA25F0000007C000000070000000000000000000000000094020000636E782E786D6C504B
310
01021400140006080800CC70623BDBABAAF470010000D40300000C00000000000000000000000000180300006662782F636F72652E786D6C504B01021400140006080800CC70623B9C113CC27E0000009D0000000B00000000000000000000000000B20400006662782F636E782E786D6C504B01021400140006080800CC70
310
623B7DF2F77C2A010000120200003100000000000000000000000000590500006662782F41393633353835312D344632462D344230382D423046372D3739314545314133324237412F636F72652E786D6C504B01021400140006080800CC70623BAD7543B64E010000330300003000000000000000000000000000D2060000
310
6662782F41393633353835312D344632462D344230382D423046372D3739314545314133324237412F636E782E786D6C504B01021400140006080800CC70623BE75B7789680500003C10000034000000000000000000000000006E0800006662782F41393633353835312D344632462D344230382D423046372D3739314545
310
314133324237412F6F626A656374732E786D6C504B01021400140006080000CC70623B0000000000000000000000003500000000000000000000000000280E00006662782F41393633353835312D344632462D344230382D423046372D3739314545314133324237412F76657274696365732E62696E504B01021400140006
310
080800CC70623BF270F133060000000400000036000000000000000000000000007B0E00006662782F41393633353835312D344632462D344230382D423046372D3739314545314133324237412F747269616E676C65732E62696E504B01021400140006080000CC70623B0000000000000000000000003700000000000000
310
000000000000D50E00006662782F41393633353835312D344632462D344230382D423046372D3739314545314133324237412F617474726962757465732E62696E504B01021400140006080800CC70623B08DA0BD1900000004101000036000000000000000000000000002A0F00006662782F41393633353835312D344632
310
462D344230382D423046372D3739314545314133324237412F6469726563746F72792E786D6C504B01021400140006080800CC70623BEDD1DC58FD000000A00100003B000000000000000000000000000E1000006662782F41393633353835312D344632462D344230382D423046372D3739314545314133324237412F7265
310
736F75726365732F636F72652E786D6C504B0506000000000E000E0080040000641100000000
  0
XRECORD
  5
24E
102
{ACAD_REACTORS
330
39
102
}
330
39
100
AcDbXrecord
280
     1
102
MATERIAL
148
0.0
149
0.0
149
0.0
 93
        0
 94
       63
282
     0
 72
     1
 77
     1
171
     1
175
     1
179
     1
273
     0
  0
XRECORD
  5
3A
102
{ACAD_REACTORS
330
39
102
}
330
39
100
AcDbXrecord
280
     1
 70
     1
 90
429727718
  1
30362254-06B7-45E0-A893-8CFA70E3D6BC
310
504B03040A0000080000CC70623B3DEE336E79000000790000001B0000006175746F6465736B2D64657369676E2D7061636B6167652E786D6C3C3F786D6C2076657273696F6E3D22312E302220656E636F64696E673D227574662D3822203F3E3C666F726D6174733E3C666F726D61743E687474703A2F2F736368656D612E
310
6175746F6465736B2E636F6D2F64657369676E2D7061636B6167652F323030393C2F666F726D61743E3C2F666F726D6174733E504B0304140006080800CC70623BD486FD9CA0000000F4000000130000005B436F6E74656E745F54797065735D2E786D6C7D8EC10E82300C865F65E91D8A1E8C310C0EEA1BF002731658846E
310
D98AC1B77784ABF1D8FE5FBFBF75BBCE937A534CCEB38643598122B6FEE978D0B0485F9C41B54DDD7D022595594E1A469170414C76A4D9A4D207E29CF43ECE46F218070CC6BECC4078ACAA135ACF422C856C0E68EA1BF5669944DDD7BCDE7B1F8E415D77AECB980613C2E4AC91FC167A2B244592486606FC29C8FD7F045B9A
310
EF7053A7E60B504B0304140006080800CC70623B1EC5D7A3EB0000007C01000008000000636F72652E786D6C8D90416EC3201045AF82665B6103C6756C6122AB4D4ED00B204C5C94182C03558F5F9C3852BBEB6A467FFE9B197D71FC9E6FE8CBACC17AD7032D0820E3B41FAD9B7A48F1820F808E52ACDEC75F36404ECDA687
310
4D0629A6D5A76597B477D1B89855E747B38B2A041301E95B6E7A08FAD3CCAA50296647B8168BD2573599823EBB0CA76447F43862C7BCCF5EAC59410E4DDD9C7973C2755553CCCFA4C603E3040F1565ED3B1FDE4E432BCA0D9622DAF9795FAF464533826484B498524CD807E51D79ED187F21878E10516EF63F505AC67F42C9
310
BA58B1FDDD071640D2FCC87D2045B96591CB3DA85CB7DCE40F504B0304140006080800CC70623B55019EA25F0000007C00000007000000636E782E786D6C4DCB3B0E80201045D1AD90E915ED2CF8AC45050C11660C8261F98AB1B07AC9C97D42D718D865D3E909258CFD00CCE24AC6E326A164D74DC0B4128928FF32603847
310
2BA13128B1252AC747C6BAB984FC68F0B87FE8960A5C09FE86CFB69FBA01504B0304140006080800CC70623B8C9102E971010000D40300000C0000006662782F636F72652E786D6CC5535B6E833010BC8AE5DF0A6C08340F1947A84D4ED00B38C6A128602363A31CBFCB234A53A551FA553EC09AD9F5CE8C31DB9E9B1AF5CA
310
7695D1198E428A91D2D214952E33ECDD315861B4E5CC1AE3BE9561A445A3323CC098B3D21ADFCE9034DA29ED00D5A6503328BA4E398C640D8B0C77F253352214DE4145770A5B214FA2546114020D759C75CE8200340D19DE981F0F6746269C33EFAB6266AB02A655C74A59CCF365BADC27CB5D902ED22848F6340DF238A141
310
BE88E2F57B92BFEDF23523433367AE6A2EEAA455C2A902F398D2751045018D3FA264435F3771F242571B4A1919CA6F9A7C5B3CD9E42BED16F12C776AEB308F40C848FC700B1139D4891EF410CEC810227CC6846F8386402064270EF5C5C709A05E49676C024C61FC95EA45ED154CA5211D1FF4FB8291A913A68E9B83EBBB33
310
E2A7673CDE118E5AE8124C0807CB8377834E366998436B950D7A7746DAD846D4CFD978E0F04FD455FC5D49D2D4C6FE9722321F10997F0F32DC47FE05504B0304140006080800CC70623BFFEA85907E0000009D0000000B0000006662782F636E782E786D6C4DCCD10A83201886E15B91FFDC95D95A811AB6F23E625948A6C3
310
E9D8E5AF46073BFAE0E1E365ED67B3E8ADC3CB78C7815C7240DA3DFC64DCC221C519D7805AC182F7F1EF06C88D9BE6703008B6049F9E274D7A1E938DBB5AE3D6131B2589BA0D3D965551E0B2EA732C9B9A624AAEB41E3A557677029960D9AFB4EF11165F504B0304140006080800CC70623B4FEEA4082C0100001202000031
310
0000006662782F39464131463745442D413632322D343644302D413938332D3331353338454246344243312F636F72652E786D6C8D515B6EC32010BC0AE2AB55850DD871ED0813254D72825EC00192A2C460F1A872FC42ED48ED5F7E00CDCECCCEB26C731F6FE05B39AFADE921293004CA082BB5B9F43086336A21D870E6AC
310
0D7F68109861543DCC30E4ECE26C9C164858139409093556AA051CBC570102714B8F1E7AF1A5C6A11862480C7F2DA6415C878B2A4891CA89C7990F2E050073937C42DE1DB7E4F87ED8A36D4329AA9B3D46DBAEAD504556557BD81DEBDD0761E52CE42C462D17B996298E3E6BE59E35C962CE821E1FF18553435012728A7187
310
0841987E927A8D9B35ADDF70BBC6989599FE4F1427F9A4286A132ABAC49D651EF234CD5CE04CDA78BA3DC2A8FB645D00B9DF8B57E215725C60BCA2A463E54C4CE327C7A65E1C7DB02E7DEFCBF594B864C5CA6CDBD49C957943E9FA5D5FBAF336F90F504B0304140006080800CC70623BAD7543B64E01000033030000300000
310
006662782F39464131463745442D413632322D343644302D413938332D3331353338454246344243312F636E782E786D6CD593CD6EC32010845F0571AD6CE3D48AD20813A9873E410FBD12D82434182C7EAAE6EDBB2424CD25871E7B41D6EC30B3FA84F9E67BB2E40B4234DE8DB46F1925E094D7C6ED479AD3AE5951B2113C
310
789FEE6C943839C1488B4C05DF079FE72A69D8C96C13AAD6B8631503449F83828872B949AC57D26200B826A308D316B4064D6E46FCDA41C05550DC9E483A00797BFD207EFB092A45DE9514C1BBD22178396BD39D891265658C238DEA00936C654E5E433CB65A26D9F6EDB5EBC14EBF49A45CB856E66048291F6939A9A81BB5
310
C8917738143CA680F4AA299D66A042CEB3354A2684DC9D8D178FE0D9B8B41CAAD720F880EE7EF93C0C18769E099ECC04D5A102C8049A8A05632F4DDF376CF1DE0F6BB65C2F8627B65A33C6BB62177CEBBDAD973006829F89F22E814B54F4BC2BE347F8AA8F681390B50FA73F804400B5F542E796F19FF974E7F78DB802FE05
310
E207504B0304140006080800CC70623B16AB87BA640500003C100000340000006662782F39464131463745442D413632322D343644302D413938332D3331353338454246344243312F6F626A656374732E786D6CAD575B6FA33818FD2B887DE6924B3BED8A326A92B68A663B534DD4D13E548A0C38942D60649B369D5FBFC7
310
600890A493BDE42160637FD7F31D7FF63E6FB3D478A55C242CBF3247B66B1A340F5994E4F19559CA8D75611A9F7D8F33263BCB4C232719BD32D5B4E97B316765A1A722BA21652A07B3B7B33F0D11D29C9A46981221AE4C113ED38CD8A4942CA2E2C58E882476BCD9DA23BB5ED8171B73523C0F841684D35CC252CCE79062D4
310
468DFA43D7747CCF51DF7D4FFDEB5593E3AB9CCA9FBEFE241792E4E19EB28198C968BAB8199F5D5A67D3E9C49A9E8F47D6EC76B6B0469F26EEFC7C3EBFBCBEB98462213924694B38DD98FE1D62C393D073EA4FADC5DAF04326852CCF6958F90F0F2B9BB5C48816348F90C7840A68EB78EDF68723159BCEE7891A6B95DDE9D3
310
BCEAEEE8086A6C6F9E5D4B59F0175C10A7A0820BAA5055C7473B5AE3CFDD452D602CD5DF12616444529E90D448938013FE6EFA58AA96F85E4F8C42275708571E98FE6827AF6B2B4AE3D7D83D64E5A64C53054DD3AF90BD06FEA9149565C94FCA0F6B834DC85599E4F2423B24DF0B6AFA979E534DFA9E7A4CC6FA631D486393
310
921829879BF5D781A373557BCB85E97FB90DB62B558F8795179C15944B051F40AB495CF35451D26A4727654E6D8033BD98EF82F21D91FF8AF2DD9982BCF1643BDD4EB516C9492E368C67C88DED563FC36D5EACF66DFF057C3658BDBFA69DF9578B3DA735B64F18C7F20770A9D45CFCF7FCF563D6456A277DBEF78A02637CA2
310
43B90A490AEAB94F72244481D24819A6C0E59B606BFA4B3025981DBB48EAB701D97BF19C577CC77F2D1B6C55A9EF3C732474C0B727303F625995056C3B02963D9EAC146BE78EC5FCEC7FA999EBC5EACBAAE41B12D27B4D2C0BBA49F244E2ECDC81B76B502F113D8F5EE8FB1BE3111CDD4FC2AA9B844CAB1288B68AB90A7CDC
310
1C166AB0D3DC5310625FCC14E779BFD0709F8890A629C9292B1B2DED31A4B0DA928CEE135085754027E3018A397D4D5427D15BD1330B677DC8934285AC3DF45A9EB68FF8F2B8FC0A509AFEECFD0FF2DE25CC6047F7214B195F07EFEB9A094D800F7BFAE8FED187B78EA8A3A400F115961BCAD1215E47C966530AF0EE8128FE
310
58CEBB996A8964FFA529A046635D9353B0336A8F700DDF46271A024E70B0B37C9DE01847591E54DED53D54202AB947E4076556AC49C6CA5C9E1226B7F1A7B1BE15DEED62C41B91E1B3E9AFAAA735036547343A925075041DF0A9979E893B391F8FCFA6967B3EFB644DCF6E5CEBFAE272625DCC6FAF3FB93793C5F90CE1EF57
310
407342756B10D1C489E8953CD1617E5CEECAD6F4EF8914CE5D5D504E5C3F1F9736DA62CFC11E00BCDDB8CC8A9466349744C1F75EBDA4DF09BA8A9E8C7A7E9991989E20E5DBDD6A6003664ED8F7A04A8DBE0DF6EAD9B9AA858342E47399053949D2C146EDB85DE4B176BB0965FBAC19BD19AA918E27FA50C1D22402E144464C
310
59462568E704B6E71915404CB72B8FF4EDE184DDAF753F284990D2C6926782963815403548A70C657FDEF80D2D9CEAA2AE4C1C76F60BFE74219A06527D6582DF6412526107381E55E353090704D085B52408D0933C4ED159D79BDA71BB4BC506F4831350EB6F979CD22D69BF7AC49B91A2C0A9DDA3D5CA36AD20FC478E37E6
310
1844E2352865EBCB6EA275A652E3836BE04EFB400BF1A2556F515F1FBB35B2AB35BD889C744FFA1004B5544B121E57F70215746DD2F5E2C1412B602CBF19455AC6C8E5E9922C4E01E65215385004546899059180EAFCF7A707CE7017CD8CDB0410789AB32C63B91E5CEBBBACB17AC6CD347A022D5075FD106377347AAABA7E
310
7D11590744509B44E205134DC1290F06580320F78E537D3D73540E06CB970B431F185308AD40BBD794D6D77003C5A36E8EAA54BA64597CD8F83BD552A080A365F7FF06504B0304140006080000CC70623B000000000000000000000000350000006662782F39464131463745442D413632322D343644302D413938332D3331
310
353338454246344243312F76657274696365732E62696E504B0304140006080800CC70623BF270F1330600000004000000360000006662782F39464131463745442D413632322D343644302D413938332D3331353338454246344243312F747269616E676C65732E62696E636660600000504B0304140006080000CC70623B
310
000000000000000000000000370000006662782F39464131463745442D413632322D343644302D413938332D3331353338454246344243312F617474726962757465732E62696E504B0304140006080800CC70623B08DA0BD19000000041010000360000006662782F39464131463745442D413632322D343644302D413938
310
332D3331353338454246344243312F6469726563746F72792E786D6C858F410AC3201045AF22B36F53E9A60B35CBEEBAE80D244E44489C6234F4F835464A48035D0DF398FF9F8AF63D0E6CC63039F212F8F9020C7D47C6792B21C5FE7403D62A1188E2E60C98D7234A5830286103A55745067B9D86B8A3CF9C7F90C11DE607
310
FB144396D7B6A82D282E9A152AD114D5EF2CB866EEE831B8EEA07A7BB5A8D7D61A2BAAEB7FD5F70921FF497D00504B0304140006080800CC70623B0D6EF93BFE000000A00100003B0000006662782F39464131463745442D413632322D343644302D413938332D3331353338454246344243312F7265736F75726365732F63
310
6F72652E786D6C8D50596E833010BD0A9ADFCA60B334011947A8694ED00B586642AC041B79A97AFC9A40A5F6AF3F33A3B7689E1E3F7DCD8FEC139DD7D6F4C0720A191A65476DA61E62B892236427C19DB5E1970C322367EC618541F0C9D9B8EC90B226A009093576C41D94DE63804C3DD2D18357379C652E63480A7FCF17A9
310
EE72C29CE5894E3AC17D702940B63D59270887DE46A7D0F36263058F518FBB468FE9A7BE6A7420864373B8D4873369AA8691FA421B3294352543C5CAF65C0F6FEF43CB8BD52C78D0F34F46E550061C419494B6843142CB0F5677F4B52BEB177AEC28E5C52AFF638ACBF84F53D42654E51E77B379102C05791282176B5F693D
310
CB4C7BED567C03504B010214000A0000080000CC70623B3DEE336E79000000790000001B00000000000000000000000000000000006175746F6465736B2D64657369676E2D7061636B6167652E786D6C504B01021400140006080800CC70623BD486FD9CA0000000F40000001300000000000000000000000000B20000005B
310
436F6E74656E745F54797065735D2E786D6C504B01021400140006080800CC70623B1EC5D7A3EB0000007C010000080000000000000000000000000083010000636F72652E786D6C504B01021400140006080800CC70623B55019EA25F0000007C000000070000000000000000000000000094020000636E782E786D6C504B
310
01021400140006080800CC70623B8C9102E971010000D40300000C00000000000000000000000000180300006662782F636F72652E786D6C504B01021400140006080800CC70623BFFEA85907E0000009D0000000B00000000000000000000000000B30400006662782F636E782E786D6C504B01021400140006080800CC70
310
623B4FEEA4082C0100001202000031000000000000000000000000005A0500006662782F39464131463745442D413632322D343644302D413938332D3331353338454246344243312F636F72652E786D6C504B01021400140006080800CC70623BAD7543B64E010000330300003000000000000000000000000000D5060000
310
6662782F39464131463745442D413632322D343644302D413938332D3331353338454246344243312F636E782E786D6C504B01021400140006080800CC70623B16AB87BA640500003C1000003400000000000000000000000000710800006662782F39464131463745442D413632322D343644302D413938332D3331353338
310
454246344243312F6F626A656374732E786D6C504B01021400140006080000CC70623B0000000000000000000000003500000000000000000000000000270E00006662782F39464131463745442D413632322D343644302D413938332D3331353338454246344243312F76657274696365732E62696E504B01021400140006
310
080800CC70623BF270F133060000000400000036000000000000000000000000007A0E00006662782F39464131463745442D413632322D343644302D413938332D3331353338454246344243312F747269616E676C65732E62696E504B01021400140006080000CC70623B0000000000000000000000003700000000000000
310
000000000000D40E00006662782F39464131463745442D413632322D343644302D413938332D3331353338454246344243312F617474726962757465732E62696E504B01021400140006080800CC70623B08DA0BD190000000410100003600000000000000000000000000290F00006662782F39464131463745442D413632
310
322D343644302D413938332D3331353338454246344243312F6469726563746F72792E786D6C504B01021400140006080800CC70623B0D6EF93BFE000000A00100003B000000000000000000000000000D1000006662782F39464131463745442D413632322D343644302D413938332D3331353338454246344243312F7265
310
736F75726365732F636F72652E786D6C504B0506000000000E000E0080040000641100000000
  0
XRECORD
  5
24B
102
{ACAD_REACTORS
330
C
102
}
330
C
100
AcDbXrecord
280
     1
102
MATERIAL
148
0.0
149
0.0
149
0.0
 93
        0
 94
       63
282
     0
 72
     1
 77
     1
171
     1
175
     1
179
     1
273
     0
  0
XRECORD
  5
D
102
{ACAD_REACTORS
330
C
102
}
330
C
100
AcDbXrecord
280
     1
270
     1
271
     1
  0
XRECORD
  5
E
102
{ACAD_REACTORS
330
C
102
}
330
C
100
AcDbXrecord
280
     1
270
     1
271
     1
  0
XRECORD
  5
F
102
{ACAD_REACTORS
330
C
102
}
330
C
100
AcDbXrecord
280
     1
 70
     0
 90
1673772943
  1
ECE7A1D2-D628-4531-984C-D00F80459256
310
504B03040A0000080000CC70623B3DEE336E79000000790000001B0000006175746F6465736B2D64657369676E2D7061636B6167652E786D6C3C3F786D6C2076657273696F6E3D22312E302220656E636F64696E673D227574662D3822203F3E3C666F726D6174733E3C666F726D61743E687474703A2F2F736368656D612E
310
6175746F6465736B2E636F6D2F64657369676E2D7061636B6167652F323030393C2F666F726D61743E3C2F666F726D6174733E504B0304140006080800CC70623BD486FD9CA0000000F4000000130000005B436F6E74656E745F54797065735D2E786D6C7D8EC10E82300C865F65E91D8A1E8C310C0EEA1BF002731658846E
310
D98AC1B77784ABF1D8FE5FBFBF75BBCE937A534CCEB38643598122B6FEE978D0B0485F9C41B54DDD7D022595594E1A469170414C76A4D9A4D207E29CF43ECE46F218070CC6BECC4078ACAA135ACF422C856C0E68EA1BF5669944DDD7BCDE7B1F8E415D77AECB980613C2E4AC91FC167A2B244592486606FC29C8FD7F045B9A
310
EF7053A7E60B504B0304140006080800CC70623BD9DDAED0EC0000007C01000008000000636F72652E786D6C8D90416EC3201045AF82665B61836D9CD8C2444DD39CA01740405C94182C03558F5F9C3852BBEB6A467FFE9B197D7EF89E6EE8CB2CC17A37002D0820E394D7D68D03A478C17B4007C117EFE32F1B20272733C0
310
2A83E0E3E2D3BC49CABB685CCCAAF3DA6CA20CC14440EA969B0182FA34932C648AD911AEC52CD5558EA6A0CF2EC329598D1E47ACCEFBECC59A050463A7EA5833865FEBDD0E37353BE3EE8DBDE3F6786A48D375FBF6CC78B9C282473B3DEFABC5C86834888A900E538A49F5419B9EB47DD5BC907D4F082F57FB1F28CDFA9F50
310
B22ED6D5F6EE030B20687EE43E10BC5CB3C8E51E54AE6B6EE207504B0304140006080800CC70623B55019EA25F0000007C00000007000000636E782E786D6C4DCB3B0E80201045D1AD90E915ED2CF8AC45050C11660C8261F98AB1B07AC9C97D42D718D865D3E909258CFD00CCE24AC6E326A164D74DC0B4128928FF326038
310
472BA13128B1252AC747C6BAB984FC68F0B87FE8960A5C09FE86CFB69FBA01504B0304140006080800CC70623BA24EB22D72010000D40300000C0000006662782F636F72652E786D6CC5535B6E833010BC8AE5DF0A6C5E49888CA3A6694ED00B38E05014B091B1518EDFE511A5A9D228FD2A1F60CDEC7A67C6986DCE4D8D7A
310
69BA4AAB0C073EC548AA5C17952A33ECECD15B61B4E1CC686DBF9561A44423333CC098B3D268D7CE50AE9595CA02AA74216750749DB418E5352C32DCE59FB211BE70162ABA93DF8AFC244AE9073ED050C759670D0840D390E18DF9F1706664C23973AE2A66B62A605A75ACA4C13C4976E1364A12EF355A2EBD384AF65EFA96
310
BC7B8BED2EA6719AAE16FB8491A199335B351775B991C2CA02F390D2D40B028F861F41BCA68B7518BFD0D59A524686F29B26D7164F36B94AD9289CE54E6D1DE6010819891F6E21228B3AD1831EC219194284CF98F06DD01008846CC5A1BEF83801D4CBDC6A1303536877A57A513B0953A94FC707FDBE6064EA84A9E3E6E0FA
310
EE8CF0E9198F7784A316AA0413C2C2F2E0ECA0934D1AE6D05A69BCDE9E91D2A611F573361E38FC1375157F5752AE6B6DFE4B11990F88CCBF0719EE23FF02504B0304140006080800CC70623B408A7D3B7C0000009D0000000B0000006662782F636E782E786D6C4DCCD10A83201886E15B91FFDC552A92A0064DBC8F581632
310
D3703A76F9ABD1C18E3E78F878E5F0D9027ABBFCF2292AE86E2D20171F69F6715550CB827B40839639A5F2770314A7CD293819B45C73AAFB45B35BA61ACAA1C1C7E7855C58C15BC331339661262CC762340413D68D77DA5B42298546CBE6573AF60CEB2F504B0304140006080800CC70623B449FB9BD290100001202000031
310
0000006662782F36394639363044362D344446342D343946362D394244322D3234314243333846323333332F636F72652E786D6C8D515B6EC32010BC0AE22B55850D98B871848994463E412FE002495162B07854397EA176A4F62F3F2C9A9D991D587EB84F37F0AD7D30CEF6905418026DA553C65E7A98E219ED203808EE9D
310
8B7F6810D871D23D2C3014FCE25D9A57483A1BB58D19B54EE9151C43D0110279CB971E06F9A5A7B11A53CC8C70ADE6515EC78BAE4895DB992778883E0700CB907242D17643D7E2538BD869608875438BBAE38922CAC8F1BDD90DB4691A5E2F42C153326A951B95E398B3D1FE599322163C9AE9115F7A3D46ADA0A018778810
310
84E907617BDCEE297BC5BB3DC6BC2EF47FA234AB2745C9D8D8D035EE220B50105E2F0DC1954B9FB747187D9F9D8FA0CCDB042D5FA0C015C65B42DF78BD10F3F3B363CB56C7109DCFDFBBB97E662ED92EB62D13BC2E1BCAE5777DB9966D8A1F504B0304140006080800CC70623BAD7543B64E01000033030000300000006662
310
782F36394639363044362D344446342D343946362D394244322D3234314243333846323333332F636E782E786D6CD593CD6EC32010845F0571AD6CE3D48AD20813A9873E410FBD12D82434182C7EAAE6EDBB2424CD25871E7B41D6EC30B3FA84F9E67BB2E40B4234DE8DB46F1925E094D7C6ED479AD3AE5951B2113C789FEE
310
6C943839C1488B4C05DF079FE72A69D8C96C13AAD6B8631503449F83828872B949AC57D26200B826A308D316B4064D6E46FCDA41C05550DC9E483A00797BFD207EFB092A45DE9514C1BBD22178396BD39D891265658C238DEA00936C654E5E433CB65A26D9F6EDB5EBC14EBF49A45CB856E66048291F6939A9A81BB5C89177
310
38143CA680F4AA299D66A042CEB3354A2684DC9D8D178FE0D9B8B41CAAD720F880EE7EF93C0C18769E099ECC04D5A102C8049A8A05632F4DDF376CF1DE0F6BB65C2F8627B65A33C6BB62177CEBBDAD973006829F89F22E814B54F4BC2BE347F8AA8F681390B50FA73F804400B5F542E796F19FF974E7F78DB802FE05E20750
310
4B0304140006080800CC70623B8D05915C650500003B100000340000006662782F36394639363044362D344446342D343946362D394244322D3234314243333846323333332F6F626A656374732E786D6CAD575B6FA33814FE2B887D06429276DA1565D4266D158D3A339A6846FB502932E050B66023DB74D2FDF5FB190C01
310
9276B2973C046C8ECFF53B17071F77456EBD502133CEAE6CDF9DD81665314F32965ED995DA3A17B6F5310C04E7AA47665B8C14F4CAD6DB7618A48257A5D94AE89654B91AEDDEDDFC61C998326A5B714EA4BCB265FC440BE2924AF184CA6737218AB8E976E7FA6E4338649B0A523E8D98964450A6A029F619B8588D52FE7039
310
B1BD30F0F4F730D0FF866AF6369557DB33949F31A9088B0F848DD8CCFCF9F2767A76E99CCDE733677E3EF59D9BBB9BA5E37F984D16E78BC5E5F5ED25044B25C0C96822E8D60EEFE11B91C581D77CEA34368A1F5329E68CD1B8B61F16D63A1B8E092D294B10C78C4A48EB593D192E7DED9BDEE7995E1B91FDEDD3ACEA9FE831
310
6A756F9F7D4D79F4274C90A7A04248AA51D5F8C718DAE06FB2F75AC4796EBE65D22A88A22223B995679120E2D50E41AA49C260C046A35368846B0BECD0DFF3EBEB8AD4F835768F69B9ADF25C43D30E6B646F807FAA64AD59F61715C7A54127C4AACA98BA3006A9D792DAE165E0D59B61A01FB3A9F9D838D2DAE62445C86166
310
F37564E842E7DE6A69879FEEA2DD5AE7E371E1A5E025154AC307D06A03D73EB5978C58FFA4C8E9033066E0F3BD53BEC1F39F91BE7B55103791EDE6BBB991A2046172CB4581D8B893FA674DDA17A77B3B7C413D1B511FD2743BFF8A38F03A658705E3ADF8015C3A3417FF3D7E439FF591DA0B5F18BC20C1B8981957AE6392A3
310
F43C640C01D1A0B4728E2DD4F26DB4B3C3152A252A3B4E913CEC1C72F012782FF88EFF8637AA552DBEF76408E8A8DE9E50F9E1CB3A2DA0DB1B6039A893B56063DC5B3E3FFB5F72E67AB9FEB4AEC496C4F4C1149625DD662C53E89D7BF0F6151A046260D1337DFDC94502430F83B0EE07A130A224BCAD7DAE1D9FB6CD422FF6
310
920702629C4BB9AE79C12F243C6432A6794E18E5552BA56B431AAB5D91317302B2B071E86C3A42B1A02F999E24061403B5D0EB639195DA655DD3EBEAB4FB862DDF579F014AD0E73C22F99E28DA57FB98E75C6CA2D74D53086D600F4786E0FE3144B771A8A7B900F03594DB8A633CBC49B2EDB69228BB479CF863B5E807AAAB
310
23872F6DFEB4129B949CA33823F58830E86D65621E10047D9DB34D862E8EAC3C2ABC2F7B2C40D67CDFE01F5545B92105AF983AC54D93D69E56FB8E797F88913F898A9FEC705D3F9D1B54EC8426FB500D40A03BD0119B06E1B95DDC7EB8F6975367793EBD70E66733DFB9BC982F9CE564727731999F5D4ECFCE3B8D6A4DC2A0
310
6D50FD148437D110834A64C6CDDF57FBACB5C307A2A477DFE4939736CFEF2B175371E0E10CF0DD1D5C15654E0BCA14D1E87DD02FF93782A162C0A3D95F1524A52770F972BF1EE9809D13CE7DD599467F8ECE9ADD85CE85A34CD45355448C64F9E8A031DC2D596ACC6E5DD93D9B82DE2EF5CAF81363A8E47996A0DE24564A79
310
4115AACE09C55E14540231FDA13C319787134EBF34E3A022514E5B4D9E0826E25C02D5805B15ABE1BEF51B26383D445DD9E875EE33FE4C22DA16427D65A3BCA92CA6D28DD01DF5DC53330704308475351050232CCD31583787BA75774AFB06E5070DD0C8EF484E19968C5D83BA5B90B244D31E54D55A372320FE4786B7EA58
310
44E135AA5467CB7EA333A61683CC6A8C3257034C10CF46F40EF9F5BE59BE5BD30C3C72D235E95D10345C1D45445A5F0BB47E46A5EBE5570F9380B5FA629579952296A773720405982B9DE04011506178964401AA8BDF1FBF0A8EAB6861DD6580C0E38217056766716DAEB2D6FA0917D3E4116581EADB879C4E7CFFB11EFACD
310
3D641311495D92C8676CB409A72D18610D803CE8A626049E8EC1887CB5B44CC39883690DDA8399B4B9855B481E7D71D4A9D22F96E5BB73BF5793020C02137BF837504B0304140006080000CC70623B000000000000000000000000350000006662782F36394639363044362D344446342D343946362D394244322D32343142
310
43333846323333332F76657274696365732E62696E504B0304140006080800CC70623BF270F1330600000004000000360000006662782F36394639363044362D344446342D343946362D394244322D3234314243333846323333332F747269616E676C65732E62696E636660600000504B0304140006080000CC70623B0000
310
00000000000000000000370000006662782F36394639363044362D344446342D343946362D394244322D3234314243333846323333332F617474726962757465732E62696E504B0304140006080800CC70623B08DA0BD19000000041010000360000006662782F36394639363044362D344446342D343946362D394244322D
310
3234314243333846323333332F6469726563746F72792E786D6C858F410AC3201045AF22B36F53E9A60B35CBEEBAE80D244E44489C6234F4F835464A48035D0DF398FF9F8AF63D0E6CC63039F212F8F9020C7D47C6792B21C5FE7403D62A1188E2E60C98D7234A5830286103A55745067B9D86B8A3CF9C7F90C11DE607FB14
310
4396D7B6A82D282E9A152AD114D5EF2CB866EEE831B8EEA07A7BB5A8D7D61A2BAAEB7FD5F70921FF497D00504B0304140006080800CC70623BCA768048FE000000A00100003B0000006662782F36394639363044362D344446342D343946362D394244322D3234314243333846323333332F7265736F75726365732F636F72
310
652E786D6C8D50596E833010BD0A9ADFCA60D600328E9AA639412F609909B1126CE4A5EAF16B0295DABFFECC8CDEA2797AECF8353F924FB44E193D409E5248504B332A3D0D10FC95B4901C39B3C6F85F3248B49871801506CE266BC2B243D2688FDA47549B11775038871E12F988C7004EDE7016A9083E2ADC3D5D84BC8B09
310
D33C8D74D471E6BC8D0192EDC93A815B742658898E651BCB59086ADC356A8C3FD555A1055ED7E7E254D615792D0F075295F585746FF53B694EE78A565DD736979A65AB9933AFE69F8CD2A2F038022F28ED489E135A7CE4554F9BBEA85E68DB53CAB255FEC71496F19FA6A0B42F8B3DEE6673C0F318E4497096AD7DC5F52C33
310
EEB55BFE0D504B010214000A0000080000CC70623B3DEE336E79000000790000001B00000000000000000000000000000000006175746F6465736B2D64657369676E2D7061636B6167652E786D6C504B01021400140006080800CC70623BD486FD9CA0000000F40000001300000000000000000000000000B20000005B436F
310
6E74656E745F54797065735D2E786D6C504B01021400140006080800CC70623BD9DDAED0EC0000007C010000080000000000000000000000000083010000636F72652E786D6C504B01021400140006080800CC70623B55019EA25F0000007C000000070000000000000000000000000095020000636E782E786D6C504B0102
310
1400140006080800CC70623BA24EB22D72010000D40300000C00000000000000000000000000190300006662782F636F72652E786D6C504B01021400140006080800CC70623B408A7D3B7C0000009D0000000B00000000000000000000000000B50400006662782F636E782E786D6C504B01021400140006080800CC70623B
310
449FB9BD290100001202000031000000000000000000000000005A0500006662782F36394639363044362D344446342D343946362D394244322D3234314243333846323333332F636F72652E786D6C504B01021400140006080800CC70623BAD7543B64E010000330300003000000000000000000000000000D20600006662
310
782F36394639363044362D344446342D343946362D394244322D3234314243333846323333332F636E782E786D6C504B01021400140006080800CC70623B8D05915C650500003B10000034000000000000000000000000006E0800006662782F36394639363044362D344446342D343946362D394244322D32343142433338
310
46323333332F6F626A656374732E786D6C504B01021400140006080000CC70623B0000000000000000000000003500000000000000000000000000250E00006662782F36394639363044362D344446342D343946362D394244322D3234314243333846323333332F76657274696365732E62696E504B010214001400060808
310
00CC70623BF270F13306000000040000003600000000000000000000000000780E00006662782F36394639363044362D344446342D343946362D394244322D3234314243333846323333332F747269616E676C65732E62696E504B01021400140006080000CC70623B00000000000000000000000037000000000000000000
310
00000000D20E00006662782F36394639363044362D344446342D343946362D394244322D3234314243333846323333332F617474726962757465732E62696E504B01021400140006080800CC70623B08DA0BD190000000410100003600000000000000000000000000270F00006662782F36394639363044362D344446342D
310
343946362D394244322D3234314243333846323333332F6469726563746F72792E786D6C504B01021400140006080800CC70623BCA768048FE000000A00100003B000000000000000000000000000B1000006662782F36394639363044362D344446342D343946362D394244322D3234314243333846323333332F7265736F
310
75726365732F636F72652E786D6C504B0506000000000E000E0080040000621100000000
  0
XRECORD
  5
10
102
{ACAD_REACTORS
330
C
102
}
330
C
100
AcDbXrecord
280
     1
270
     1
271
     1
  0
XRECORD
  5
11
102
{ACAD_REACTORS
330
C
102
}
330
C
100
AcDbXrecord
280
     1
270
     1
271
     1
  0
CELLSTYLEMAP
  5
241
102
{ACAD_REACTORS
330
44
102
}
330
44
100
AcDbCellStyleMap
 90
        3
300
CELLSTYLE
  1
TABLEFORMAT_BEGIN
 90
        5
170
     1
 91
        0
 92
    32768
 62
   257
 93
        1
300
CONTENTFORMAT
  1
CONTENTFORMAT_BEGIN
 90
        0
 91
        0
 92
      512
 93
        0
300

 40
0.0
140
1.0
 94
        5
 62
     0
340
21
144
6.0
309
CONTENTFORMAT_END
171
     1
301
MARGIN
  1
CELLMARGIN_BEGIN
 40
1.5
 40
1.5
 40
1.5
 40
1.5
 40
4.5
 40
4.5
309
CELLMARGIN_END
 94
        6
 95
        1
302
GRIDFORMAT
  1
GRIDFORMAT_BEGIN
 90
        0
 91
        1
 62
     0
 92
       -2
340
24
 93
        0
 40
1.125
309
GRIDFORMAT_END
 95
        2
302
GRIDFORMAT
  1
GRIDFORMAT_BEGIN
 90
        0
 91
        1
 62
     0
 92
       -2
340
24
 93
        0
 40
1.125
309
GRIDFORMAT_END
 95
        4
302
GRIDFORMAT
  1
GRIDFORMAT_BEGIN
 90
        0
 91
        1
 62
     0
 92
       -2
340
24
 93
        0
 40
1.125
309
GRIDFORMAT_END
 95
        8
302
GRIDFORMAT
  1
GRIDFORMAT_BEGIN
 90
        0
 91
        1
 62
     0
 92
       -2
340
24
 93
        0
 40
1.125
309
GRIDFORMAT_END
 95
       16
302
GRIDFORMAT
  1
GRIDFORMAT_BEGIN
 90
        0
 91
        1
 62
     0
 92
       -2
340
24
 93
        0
 40
1.125
309
GRIDFORMAT_END
 95
       32
302
GRIDFORMAT
  1
GRIDFORMAT_BEGIN
 90
        0
 91
        1
 62
     0
 92
       -2
340
24
 93
        0
 40
1.125
309
GRIDFORMAT_END
309
TABLEFORMAT_END
  1
CELLSTYLE_BEGIN
 90
        1
 91
        1
300
_TITLE
309
CELLSTYLE_END
300
CELLSTYLE
  1
TABLEFORMAT_BEGIN
 90
        5
170
     1
 91
        0
 92
        0
 62
   257
 93
        1
300
CONTENTFORMAT
  1
CONTENTFORMAT_BEGIN
 90
        0
 91
        0
 92
      512
 93
        0
300

 40
0.0
140
1.0
 94
        5
 62
     0
340
21
144
4.5
309
CONTENTFORMAT_END
171
     1
301
MARGIN
  1
CELLMARGIN_BEGIN
 40
1.5
 40
1.5
 40
1.5
 40
1.5
 40
4.5
 40
4.5
309
CELLMARGIN_END
 94
        6
 95
        1
302
GRIDFORMAT
  1
GRIDFORMAT_BEGIN
 90
        0
 91
        1
 62
     0
 92
       -2
340
24
 93
        0
 40
1.125
309
GRIDFORMAT_END
 95
        2
302
GRIDFORMAT
  1
GRIDFORMAT_BEGIN
 90
        0
 91
        1
 62
     0
 92
       -2
340
24
 93
        0
 40
1.125
309
GRIDFORMAT_END
 95
        4
302
GRIDFORMAT
  1
GRIDFORMAT_BEGIN
 90
        0
 91
        1
 62
     0
 92
       -2
340
24
 93
        0
 40
1.125
309
GRIDFORMAT_END
 95
        8
302
GRIDFORMAT
  1
GRIDFORMAT_BEGIN
 90
        0
 91
        1
 62
     0
 92
       -2
340
24
 93
        0
 40
1.125
309
GRIDFORMAT_END
 95
       16
302
GRIDFORMAT
  1
GRIDFORMAT_BEGIN
 90
        0
 91
        1
 62
     0
 92
       -2
340
24
 93
        0
 40
1.125
309
GRIDFORMAT_END
 95
       32
302
GRIDFORMAT
  1
GRIDFORMAT_BEGIN
 90
        0
 91
        1
 62
     0
 92
       -2
340
24
 93
        0
 40
1.125
309
GRIDFORMAT_END
309
TABLEFORMAT_END
  1
CELLSTYLE_BEGIN
 90
        2
 91
        1
300
_HEADER
309
CELLSTYLE_END
300
CELLSTYLE
  1
TABLEFORMAT_BEGIN
 90
        5
170
     1
 91
        0
 92
        0
 62
   257
 93
        1
300
CONTENTFORMAT
  1
CONTENTFORMAT_BEGIN
 90
        0
 91
        0
 92
      512
 93
        0
300

 40
0.0
140
1.0
 94
        2
 62
     0
340
21
144
4.5
309
CONTENTFORMAT_END
171
     1
301
MARGIN
  1
CELLMARGIN_BEGIN
 40
1.5
 40
1.5
 40
1.5
 40
1.5
 40
4.5
 40
4.5
309
CELLMARGIN_END
 94
        6
 95
        1
302
GRIDFORMAT
  1
GRIDFORMAT_BEGIN
 90
        0
 91
        1
 62
     0
 92
       -2
340
24
 93
        0
 40
1.125
309
GRIDFORMAT_END
 95
        2
302
GRIDFORMAT
  1
GRIDFORMAT_BEGIN
 90
        0
 91
        1
 62
     0
 92
       -2
340
24
 93
        0
 40
1.125
309
GRIDFORMAT_END
 95
        4
302
GRIDFORMAT
  1
GRIDFORMAT_BEGIN
 90
        0
 91
        1
 62
     0
 92
       -2
340
24
 93
        0
 40
1.125
309
GRIDFORMAT_END
 95
        8
302
GRIDFORMAT
  1
GRIDFORMAT_BEGIN
 90
        0
 91
        1
 62
     0
 92
       -2
340
24
 93
        0
 40
1.125
309
GRIDFORMAT_END
 95
       16
302
GRIDFORMAT
  1
GRIDFORMAT_BEGIN
 90
        0
 91
        1
 62
     0
 92
       -2
340
24
 93
        0
 40
1.125
309
GRIDFORMAT_END
 95
       32
302
GRIDFORMAT
  1
GRIDFORMAT_BEGIN
 90
        0
 91
        1
 62
     0
 92
       -2
340
24
 93
        0
 40
1.125
309
GRIDFORMAT_END
309
TABLEFORMAT_END
  1
CELLSTYLE_BEGIN
 90
        3
 91
        2
300
_DATA
309
CELLSTYLE_END
  0
XRECORD
  5
250
102
{ACAD_REACTORS
330
44
102
}
330
44
100
AcDbXrecord
280
     1
102
ACAD_ROUNDTRIP_PRE2007_TABLESTYLE
 90
      512
 91
        0
  1

 92
      512
 93
        0
  2

 94
      512
 95
        0
  3

  0
XRECORD
  5
24D
102
{ACAD_REACTORS
330
24C
102
}
330
24C
100
AcDbXrecord
280
     1
102
RTVSPost2010Prop28
280
     1
102
RTVSPost2010PropOp28
 70
     1
102
RTVSPost2010Prop29
280
     1
102
RTVSPost2010PropOp29
 70
     1
102
RTVSPost2010Prop30
280
     0
102
RTVSPost2010PropOp30
 70
     1
102
RTVSPost2010Prop31
280
     0
102
RTVSPost2010PropOp31
 70
     1
102
RTVSPost2010Prop32
280
     0
102
RTVSPost2010PropOp32
 70
     1
102
RTVSPost2010Prop33
280
     0
102
RTVSPost2010PropOp33
 70
     1
102
RTVSPost2010Prop34
280
     0
102
RTVSPost2010PropOp34
 70
     1
102
RTVSPost2010Prop35
280
     0
102
RTVSPost2010PropOp35
 70
     1
102
RTVSPost2010Prop36
280
     0
102
RTVSPost2010PropOp36
 70
     1
102
RTVSPost2010Prop37
 90
       50
102
RTVSPost2010PropOp37
 70
     1
102
RTVSPost2010Prop38
140
0.0
102
RTVSPost2010PropOp38
 70
     1
102
RTVSPost2010Prop39
140
1.0
102
RTVSPost2010PropOp39
 70
     1
102
RTVSPost2010Prop40
 90
        0
102
RTVSPost2010PropOp40
 70
     1
102
RTVSPost2010Prop41ColorIndex
 90
       18
102
RTVSPost2010Prop41ColorRGB
 90
        0
102
RTVSPost2010PropOp41
 70
     1
102
RTVSPost2010Prop42
 90
       50
102
RTVSPost2010PropOp42
 70
     1
102
RTVSPost2010Prop43
 90
        3
102
RTVSPost2010PropOp43
 70
     1
102
RTVSPost2010Prop44ColorIndex
 90
        5
102
RTVSPost2010Prop44ColorRGB
 90
      255
102
RTVSPost2010PropOp44
 70
     1
102
RTVSPost2010Prop45
280
     0
102
RTVSPost2010PropOp45
 70
     1
102
RTVSPost2010Prop46
 90
       50
102
RTVSPost2010PropOp46
 70
     1
102
RTVSPost2010Prop47
 90
       50
102
RTVSPost2010PropOp47
 70
     1
102
RTVSPost2010Prop48
 90
       50
102
RTVSPost2010PropOp48
 70
     1
102
RTVSPost2010Prop49
280
     0
102
RTVSPost2010PropOp49
 70
     1
102
RTVSPost2010Prop50
 90
       50
102
RTVSPost2010PropOp50
 70
     1
102
RTVSPost2010Prop51ColorIndex
 90
      256
102
RTVSPost2010Prop51ColorRGB
 90
-16777216
102
RTVSPost2010PropOp51
 70
     0
102
RTVSPost2010Prop52
140
1.0
102
RTVSPost2010PropOp52
 70
     0
102
RTVSPost2010Prop53
 90
        2
102
RTVSPost2010PropOp53
 70
     1
102
RTVSPost2010Prop54
  1
strokes_ogs.tif
102
RTVSPost2010PropOp54
 70
     1
102
RTVSPost2010Prop55
280
     0
102
RTVSPost2010PropOp55
 70
     1
102
RTVSPost2010Prop56
140
1.0
102
RTVSPost2010PropOp56
 70
     1
102
RTVSPost2010Prop57
140
1.0
102
RTVSPost2010PropOp57
 70
     1
102
RTVSPropertyOp0
 70
     1
102
RTVSPropertyOp1
 70
     1
102
RTVSPropertyOp2
 70
     1
102
RTVSPropertyOp3
 70
     1
102
RTVSPropertyOp4
 70
     1
102
RTVSPropertyOp5
 70
     1
102
RTVSPropertyOp6
 70
     1
102
RTVSPropertyOp7
 70
     1
102
RTVSPropertyOp8
 70
     1
102
RTVSPropertyOp9
 70
     1
102
RTVSPropertyOp10
 70
     1
102
RTVSPropertyOp11
 70
     1
102
RTVSPropertyOp12
 70
     1
102
RTVSPropertyOp13
 70
     1
102
RTVSPropertyOp14
 70
     1
102
RTVSPropertyOp15
 70
     1
102
RTVSPropertyOp16
 70
     1
102
RTVSPropertyOp17
 70
     1
102
RTVSPropertyOp18
 70
     1
102
RTVSPropertyOp19
 70
     1
102
RTVSPropertyOp20
 70
     1
102
RTVSPropertyOp21
 70
     1
102
RTVSPropertyOp22
 70
     1
102
RTVSPropertyOp23
 70
     1
102
RTVSPropertyOp24
 70
     1
102
RTVSPropertyOp25
 70
     1
102
RTVSPropertyOp26
 70
     1
102
RTVSPropertyOp27
 70
     1
102
RTVSPropertyOp28
 70
     1
102
RTVSPropertyOp29
 70
     1
102
RTVSPropertyOp30
 70
     1
102
RTVSPropertyOp31
 70
     1
102
RTVSPropertyOp32
 70
     1
102
RTVSPropertyOp33
 70
     1
102
RTVSPropertyOp34
 70
     1
102
RTVSPropertyOp35
 70
     1
102
RTVSPropertyOp36
 70
     1
102
RTVSPropertyOp37
 70
     1
102
RTVSPropertyOp38
 70
     1
102
RTVSPropertyOp39
 70
     1
102
RTVSPropertyOp40
 70
     1
102
RTVSPropertyOp41
 70
     1
102
RTVSPropertyOp42
 70
     1
102
RTVSPropertyOp43
 70
     1
102
RTVSPropertyOp44
 70
     1
102
RTVSPropertyOp45
 70
     1
102
RTVSPropertyOp46
 70
     1
102
RTVSPropertyOp47
 70
     1
102
RTVSPropertyOp48
 70
     1
102
RTVSPropertyOp49
 70
     1
102
RTVSPropertyOp50
 70
     1
102
RTVSPropertyOp51
 70
     0
102
RTVSPropertyOp52
 70
     0
102
RTVSPropertyOp53
 70
     1
102
RTVSPropertyOp54
 70
     1
102
RTVSPropertyOp55
 70
     1
102
RTVSPropertyOp56
 70
     1
102
RTVSPropertyOp57
 70
     1
102
RTVSPropertyOp58
 70
     1
102
RTVSPropertyOp59
 70
     1
102
RTVSPropertyOp60
 70
     1
102
RTVSPropertyOp61
 70
     1
102
RTVSPropertyOp62
 70
     1
  0
XRECORD
  5
252
102
{ACAD_REACTORS
330
251
102
}
330
251
100
AcDbXrecord
280
     1
102
RTVSPost2010Prop28
280
     0
102
RTVSPost2010PropOp28
 70
     1
102
RTVSPost2010Prop29
280
     1
102
RTVSPost2010PropOp29
 70
     1
102
RTVSPost2010Prop30
280
     1
102
RTVSPost2010PropOp30
 70
     1
102
RTVSPost2010Prop31
280
     0
102
RTVSPost2010PropOp31
 70
     1
102
RTVSPost2010Prop32
280
     0
102
RTVSPost2010PropOp32
 70
     1
102
RTVSPost2010Prop33
280
     0
102
RTVSPost2010PropOp33
 70
     1
102
RTVSPost2010Prop34
280
     0
102
RTVSPost2010PropOp34
 70
     1
102
RTVSPost2010Prop35
280
     0
102
RTVSPost2010PropOp35
 70
     1
102
RTVSPost2010Prop36
280
     0
102
RTVSPost2010PropOp36
 70
     1
102
RTVSPost2010Prop37
 90
       50
102
RTVSPost2010PropOp37
 70
     1
102
RTVSPost2010Prop38
140
0.0
102
RTVSPost2010PropOp38
 70
     1
102
RTVSPost2010Prop39
140
1.0
102
RTVSPost2010PropOp39
 70
     1
102
RTVSPost2010Prop40
 90
        0
102
RTVSPost2010PropOp40
 70
     1
102
RTVSPost2010Prop41ColorIndex
 90
       18
102
RTVSPost2010Prop41ColorRGB
 90
        0
102
RTVSPost2010PropOp41
 70
     1
102
RTVSPost2010Prop42
 90
       50
102
RTVSPost2010PropOp42
 70
     1
102
RTVSPost2010Prop43
 90
        3
102
RTVSPost2010PropOp43
 70
     1
102
RTVSPost2010Prop44ColorIndex
 90
        5
102
RTVSPost2010Prop44ColorRGB
 90
      255
102
RTVSPost2010PropOp44
 70
     1
102
RTVSPost2010Prop45
280
     0
102
RTVSPost2010PropOp45
 70
     1
102
RTVSPost2010Prop46
 90
       50
102
RTVSPost2010PropOp46
 70
     1
102
RTVSPost2010Prop47
 90
       50
102
RTVSPost2010PropOp47
 70
     1
102
RTVSPost2010Prop48
 90
       50
102
RTVSPost2010PropOp48
 70
     1
102
RTVSPost2010Prop49
280
     0
102
RTVSPost2010PropOp49
 70
     1
102
RTVSPost2010Prop50
 90
       50
102
RTVSPost2010PropOp50
 70
     1
102
RTVSPost2010Prop51ColorIndex
 90
      256
102
RTVSPost2010Prop51ColorRGB
 90
-16777216
102
RTVSPost2010PropOp51
 70
     0
102
RTVSPost2010Prop52
140
1.0
102
RTVSPost2010PropOp52
 70
     0
102
RTVSPost2010Prop53
 90
        2
102
RTVSPost2010PropOp53
 70
     1
102
RTVSPost2010Prop54
  1
strokes_ogs.tif
102
RTVSPost2010PropOp54
 70
     1
102
RTVSPost2010Prop55
280
     0
102
RTVSPost2010PropOp55
 70
     1
102
RTVSPost2010Prop56
140
1.0
102
RTVSPost2010PropOp56
 70
     1
102
RTVSPost2010Prop57
140
1.0
102
RTVSPost2010PropOp57
 70
     1
102
RTVSPropertyOp0
 70
     1
102
RTVSPropertyOp1
 70
     1
102
RTVSPropertyOp2
 70
     1
102
RTVSPropertyOp3
 70
     1
102
RTVSPropertyOp4
 70
     1
102
RTVSPropertyOp5
 70
     1
102
RTVSPropertyOp6
 70
     1
102
RTVSPropertyOp7
 70
     1
102
RTVSPropertyOp8
 70
     1
102
RTVSPropertyOp9
 70
     1
102
RTVSPropertyOp10
 70
     1
102
RTVSPropertyOp11
 70
     1
102
RTVSPropertyOp12
 70
     1
102
RTVSPropertyOp13
 70
     1
102
RTVSPropertyOp14
 70
     1
102
RTVSPropertyOp15
 70
     1
102
RTVSPropertyOp16
 70
     1
102
RTVSPropertyOp17
 70
     1
102
RTVSPropertyOp18
 70
     1
102
RTVSPropertyOp19
 70
     1
102
RTVSPropertyOp20
 70
     1
102
RTVSPropertyOp21
 70
     1
102
RTVSPropertyOp22
 70
     1
102
RTVSPropertyOp23
 70
     1
102
RTVSPropertyOp24
 70
     1
102
RTVSPropertyOp25
 70
     1
102
RTVSPropertyOp26
 70
     1
102
RTVSPropertyOp27
 70
     1
102
RTVSPropertyOp28
 70
     1
102
RTVSPropertyOp29
 70
     1
102
RTVSPropertyOp30
 70
     1
102
RTVSPropertyOp31
 70
     1
102
RTVSPropertyOp32
 70
     1
102
RTVSPropertyOp33
 70
     1
102
RTVSPropertyOp34
 70
     1
102
RTVSPropertyOp35
 70
     1
102
RTVSPropertyOp36
 70
     1
102
RTVSPropertyOp37
 70
     1
102
RTVSPropertyOp38
 70
     1
102
RTVSPropertyOp39
 70
     1
102
RTVSPropertyOp40
 70
     1
102
RTVSPropertyOp41
 70
     1
102
RTVSPropertyOp42
 70
     1
102
RTVSPropertyOp43
 70
     1
102
RTVSPropertyOp44
 70
     1
102
RTVSPropertyOp45
 70
     1
102
RTVSPropertyOp46
 70
     1
102
RTVSPropertyOp47
 70
     1
102
RTVSPropertyOp48
 70
     1
102
RTVSPropertyOp49
 70
     1
102
RTVSPropertyOp50
 70
     1
102
RTVSPropertyOp51
 70
     0
102
RTVSPropertyOp52
 70
     0
102
RTVSPropertyOp53
 70
     1
102
RTVSPropertyOp54
 70
     1
102
RTVSPropertyOp55
 70
     1
102
RTVSPropertyOp56
 70
     1
102
RTVSPropertyOp57
 70
     1
102
RTVSPropertyOp58
 70
     1
102
RTVSPropertyOp59
 70
     1
102
RTVSPropertyOp60
 70
     1
102
RTVSPropertyOp61
 70
     1
102
RTVSPropertyOp62
 70
     1
  0
XRECORD
  5
254
102
{ACAD_REACTORS
330
253
102
}
330
253
100
AcDbXrecord
280
     1
102
RTVSPost2010Prop28
280
     0
102
RTVSPost2010PropOp28
 70
     1
102
RTVSPost2010Prop29
280
     1
102
RTVSPost2010PropOp29
 70
     1
102
RTVSPost2010Prop30
280
     1
102
RTVSPost2010PropOp30
 70
     1
102
RTVSPost2010Prop31
280
     0
102
RTVSPost2010PropOp31
 70
     1
102
RTVSPost2010Prop32
280
     0
102
RTVSPost2010PropOp32
 70
     1
102
RTVSPost2010Prop33
280
     0
102
RTVSPost2010PropOp33
 70
     1
102
RTVSPost2010Prop34
280
     0
102
RTVSPost2010PropOp34
 70
     1
102
RTVSPost2010Prop35
280
     0
102
RTVSPost2010PropOp35
 70
     1
102
RTVSPost2010Prop36
280
     0
102
RTVSPost2010PropOp36
 70
     1
102
RTVSPost2010Prop37
 90
       50
102
RTVSPost2010PropOp37
 70
     1
102
RTVSPost2010Prop38
140
0.0
102
RTVSPost2010PropOp38
 70
     1
102
RTVSPost2010Prop39
140
1.0
102
RTVSPost2010PropOp39
 70
     1
102
RTVSPost2010Prop40
 90
        0
102
RTVSPost2010PropOp40
 70
     1
102
RTVSPost2010Prop41ColorIndex
 90
       18
102
RTVSPost2010Prop41ColorRGB
 90
        0
102
RTVSPost2010PropOp41
 70
     1
102
RTVSPost2010Prop42
 90
       50
102
RTVSPost2010PropOp42
 70
     1
102
RTVSPost2010Prop43
 90
        3
102
RTVSPost2010PropOp43
 70
     1
102
RTVSPost2010Prop44ColorIndex
 90
        5
102
RTVSPost2010Prop44ColorRGB
 90
      255
102
RTVSPost2010PropOp44
 70
     1
102
RTVSPost2010Prop45
280
     0
102
RTVSPost2010PropOp45
 70
     1
102
RTVSPost2010Prop46
 90
       50
102
RTVSPost2010PropOp46
 70
     1
102
RTVSPost2010Prop47
 90
       50
102
RTVSPost2010PropOp47
 70
     1
102
RTVSPost2010Prop48
 90
       50
102
RTVSPost2010PropOp48
 70
     1
102
RTVSPost2010Prop49
280
     0
102
RTVSPost2010PropOp49
 70
     1
102
RTVSPost2010Prop50
 90
       50
102
RTVSPost2010PropOp50
 70
     1
102
RTVSPost2010Prop51ColorIndex
 90
      256
102
RTVSPost2010Prop51ColorRGB
 90
-16777216
102
RTVSPost2010PropOp51
 70
     0
102
RTVSPost2010Prop52
140
1.0
102
RTVSPost2010PropOp52
 70
     0
102
RTVSPost2010Prop53
 90
        2
102
RTVSPost2010PropOp53
 70
     1
102
RTVSPost2010Prop54
  1
strokes_ogs.tif
102
RTVSPost2010PropOp54
 70
     1
102
RTVSPost2010Prop55
280
     0
102
RTVSPost2010PropOp55
 70
     1
102
RTVSPost2010Prop56
140
1.0
102
RTVSPost2010PropOp56
 70
     1
102
RTVSPost2010Prop57
140
1.0
102
RTVSPost2010PropOp57
 70
     1
102
RTVSPropertyOp0
 70
     1
102
RTVSPropertyOp1
 70
     1
102
RTVSPropertyOp2
 70
     1
102
RTVSPropertyOp3
 70
     1
102
RTVSPropertyOp4
 70
     1
102
RTVSPropertyOp5
 70
     1
102
RTVSPropertyOp6
 70
     1
102
RTVSPropertyOp7
 70
     1
102
RTVSPropertyOp8
 70
     1
102
RTVSPropertyOp9
 70
     1
102
RTVSPropertyOp10
 70
     1
102
RTVSPropertyOp11
 70
     1
102
RTVSPropertyOp12
 70
     1
102
RTVSPropertyOp13
 70
     1
102
RTVSPropertyOp14
 70
     1
102
RTVSPropertyOp15
 70
     1
102
RTVSPropertyOp16
 70
     1
102
RTVSPropertyOp17
 70
     1
102
RTVSPropertyOp18
 70
     1
102
RTVSPropertyOp19
 70
     1
102
RTVSPropertyOp20
 70
     1
102
RTVSPropertyOp21
 70
     1
102
RTVSPropertyOp22
 70
     1
102
RTVSPropertyOp23
 70
     1
102
RTVSPropertyOp24
 70
     1
102
RTVSPropertyOp25
 70
     1
102
RTVSPropertyOp26
 70
     1
102
RTVSPropertyOp27
 70
     1
102
RTVSPropertyOp28
 70
     1
102
RTVSPropertyOp29
 70
     1
102
RTVSPropertyOp30
 70
     1
102
RTVSPropertyOp31
 70
     1
102
RTVSPropertyOp32
 70
     1
102
RTVSPropertyOp33
 70
     1
102
RTVSPropertyOp34
 70
     1
102
RTVSPropertyOp35
 70
     1
102
RTVSPropertyOp36
 70
     1
102
RTVSPropertyOp37
 70
     1
102
RTVSPropertyOp38
 70
     1
102
RTVSPropertyOp39
 70
     1
102
RTVSPropertyOp40
 70
     1
102
RTVSPropertyOp41
 70
     1
102
RTVSPropertyOp42
 70
     1
102
RTVSPropertyOp43
 70
     1
102
RTVSPropertyOp44
 70
     1
102
RTVSPropertyOp45
 70
     1
102
RTVSPropertyOp46
 70
     1
102
RTVSPropertyOp47
 70
     1
102
RTVSPropertyOp48
 70
     1
102
RTVSPropertyOp49
 70
     1
102
RTVSPropertyOp50
 70
     1
102
RTVSPropertyOp51
 70
     0
102
RTVSPropertyOp52
 70
     0
102
RTVSPropertyOp53
 70
     1
102
RTVSPropertyOp54
 70
     1
102
RTVSPropertyOp55
 70
     1
102
RTVSPropertyOp56
 70
     1
102
RTVSPropertyOp57
 70
     1
102
RTVSPropertyOp58
 70
     1
102
RTVSPropertyOp59
 70
     1
102
RTVSPropertyOp60
 70
     1
102
RTVSPropertyOp61
 70
     1
102
RTVSPropertyOp62
 70
     1
  0
ENDSEC
  0
EOF
