  0
SECTION
  2
HEADER
  9
$ACADVER
  1
AC1018
  9
$ACADMAINTVER
 70
   104
  9
$DWGCODEPAGE
  3
ANSI_932
  9
$INSBASE
 10
0.0
 20
0.0
 30
0.0
  9
$EXTMIN
 10
2.134095218654351
 20
3.593765954479749
 30
-0.0015258207003583
  9
$EXTMAX
 10
52.1539312137221
 20
25.27871741619743
 30
0.0000000349246037
  9
$LIMMIN
 10
-2.314186634670477
 20
-4.722121411457919
  9
$LIMMAX
 10
56.06406215257994
 20
29.82698700556193
  9
$ORTHOMODE
 70
     0
  9
$REGENMODE
 70
     1
  9
$FILLMODE
 70
     1
  9
$QTEXTMODE
 70
     0
  9
$MIRRTEXT
 70
     0
  9
$LTSCALE
 40
1.0
  9
$ATTMODE
 70
     1
  9
$TEXTSIZE
 40
2.5
  9
$TRACEWID
 40
1.0
  9
$TEXTSTYLE
  7
Standard
  9
$CLAYER
  8
0
  9
$CELTYPE
  6
ByLayer
  9
$CECOLOR
 62
   256
  9
$CELTSCALE
 40
1.0
  9
$DISPSILH
 70
     0
  9
$DIMSCALE
 40
1.0
  9
$DIMASZ
 40
2.5
  9
$DIMEXO
 40
0.625
  9
$DIMDLI
 40
3.75
  9
$DIMRND
 40
0.0
  9
$DIMDLE
 40
0.0
  9
$DIMEXE
 40
1.25
  9
$DIMTP
 40
0.0
  9
$DIMTM
 40
0.0
  9
$DIMTXT
 40
2.5
  9
$DIMCEN
 40
2.5
  9
$DIMTSZ
 40
0.0
  9
$DIMTOL
 70
     0
  9
$DIMLIM
 70
     0
  9
$DIMTIH
 70
     0
  9
$DIMTOH
 70
     0
  9
$DIMSE1
 70
     0
  9
$DIMSE2
 70
     0
  9
$DIMTAD
 70
     1
  9
$DIMZIN
 70
     8
  9
$DIMBLK
  1

  9
$DIMASO
 70
     1
  9
$DIMSHO
 70
     1
  9
$DIMPOST
  1

  9
$DIMAPOST
  1

  9
$DIMALT
 70
     0
  9
$DIMALTD
 70
     3
  9
$DIMALTF
 40
0.03937007874016
  9
$DIMLFAC
 40
1.0
  9
$DIMTOFL
 70
     1
  9
$DIMTVP
 40
0.0
  9
$DIMTIX
 70
     0
  9
$DIMSOXD
 70
     0
  9
$DIMSAH
 70
     0
  9
$DIMBLK1
  1

  9
$DIMBLK2
  1

  9
$DIMSTYLE
  2
ISO-25
  9
$DIMCLRD
 70
     0
  9
$DIMCLRE
 70
     0
  9
$DIMCLRT
 70
     0
  9
$DIMTFAC
 40
1.0
  9
$DIMGAP
 40
0.625
  9
$DIMJUST
 70
     0
  9
$DIMSD1
 70
     0
  9
$DIMSD2
 70
     0
  9
$DIMTOLJ
 70
     0
  9
$DIMTZIN
 70
     8
  9
$DIMALTZ
 70
     0
  9
$DIMALTTZ
 70
     0
  9
$DIMUPT
 70
     0
  9
$DIMDEC
 70
     2
  9
$DIMTDEC
 70
     2
  9
$DIMALTU
 70
     2
  9
$DIMALTTD
 70
     3
  9
$DIMTXSTY
  7
Standard
  9
$DIMAUNIT
 70
     0
  9
$DIMADEC
 70
     0
  9
$DIMALTRND
 40
0.0
  9
$DIMAZIN
 70
     0
  9
$DIMDSEP
 70
    44
  9
$DIMATFIT
 70
     3
  9
$DIMFRAC
 70
     0
  9
$DIMLDRBLK
  1

  9
$DIMLUNIT
 70
     2
  9
$DIMLWD
 70
    -2
  9
$DIMLWE
 70
    -2
  9
$DIMTMOVE
 70
     0
  9
$LUNITS
 70
     2
  9
$LUPREC
 70
     4
  9
$SKETCHINC
 40
1.0
  9
$FILLETRAD
 40
0.0
  9
$AUNITS
 70
     0
  9
$AUPREC
 70
     0
  9
$MENU
  1
.
  9
$ELEVATION
 40
0.0
  9
$PELEVATION
 40
0.0
  9
$THICKNESS
 40
0.0
  9
$LIMCHECK
 70
     0
  9
$CHAMFERA
 40
0.0
  9
$CHAMFERB
 40
0.0
  9
$CHAMFERC
 40
0.0
  9
$CHAMFERD
 40
0.0
  9
$SKPOLY
 70
     0
  9
$TDCREATE
 40
2458241.663611111
  9
$TDUCREATE
 40
2458241.330277778
  9
$TDUPDATE
 40
2458241.663969908
  9
$TDUUPDATE
 40
2458241.330636574
  9
$TDINDWG
 40
0.0004513889
  9
$TDUSRTIMER
 40
0.0004513889
  9
$USRTIMER
 70
     1
  9
$ANGBASE
 50
0.0
  9
$ANGDIR
 70
     0
  9
$PDMODE
 70
     0
  9
$PDSIZE
 40
0.0
  9
$PLINEWID
 40
0.0
  9
$SPLFRAME
 70
     0
  9
$SPLINETYPE
 70
     6
  9
$SPLINESEGS
 70
     8
  9
$HANDSEED
  5
261
  9
$SURFTAB1
 70
     6
  9
$SURFTAB2
 70
     6
  9
$SURFTYPE
 70
     6
  9
$SURFU
 70
     6
  9
$SURFV
 70
     6
  9
$UCSBASE
  2

  9
$UCSNAME
  2

  9
$UCSORG
 10
0.0
 20
0.0
 30
0.0
  9
$UCSXDIR
 10
1.0
 20
0.0
 30
0.0
  9
$UCSYDIR
 10
0.0
 20
1.0
 30
0.0
  9
$UCSORTHOREF
  2

  9
$UCSORTHOVIEW
 70
     0
  9
$UCSORGTOP
 10
0.0
 20
0.0
 30
0.0
  9
$UCSORGBOTTOM
 10
0.0
 20
0.0
 30
0.0
  9
$UCSORGLEFT
 10
0.0
 20
0.0
 30
0.0
  9
$UCSORGRIGHT
 10
0.0
 20
0.0
 30
0.0
  9
$UCSORGFRONT
 10
0.0
 20
0.0
 30
0.0
  9
$UCSORGBACK
 10
0.0
 20
0.0
 30
0.0
  9
$PUCSBASE
  2

  9
$PUCSNAME
  2

  9
$PUCSORG
 10
0.0
 20
0.0
 30
0.0
  9
$PUCSXDIR
 10
1.0
 20
0.0
 30
0.0
  9
$PUCSYDIR
 10
0.0
 20
1.0
 30
0.0
  9
$PUCSORTHOREF
  2

  9
$PUCSORTHOVIEW
 70
     0
  9
$PUCSORGTOP
 10
0.0
 20
0.0
 30
0.0
  9
$PUCSORGBOTTOM
 10
0.0
 20
0.0
 30
0.0
  9
$PUCSORGLEFT
 10
0.0
 20
0.0
 30
0.0
  9
$PUCSORGRIGHT
 10
0.0
 20
0.0
 30
0.0
  9
$PUCSORGFRONT
 10
0.0
 20
0.0
 30
0.0
  9
$PUCSORGBACK
 10
0.0
 20
0.0
 30
0.0
  9
$USERI1
 70
     0
  9
$USERI2
 70
     0
  9
$USERI3
 70
     0
  9
$USERI4
 70
     0
  9
$USERI5
 70
     0
  9
$USERR1
 40
0.0
  9
$USERR2
 40
0.0
  9
$USERR3
 40
0.0
  9
$USERR4
 40
0.0
  9
$USERR5
 40
0.0
  9
$WORLDVIEW
 70
     1
  9
$SHADEDGE
 70
     3
  9
$SHADEDIF
 70
    70
  9
$TILEMODE
 70
     1
  9
$MAXACTVP
 70
    64
  9
$PINSBASE
 10
0.0
 20
0.0
 30
0.0
  9
$PLIMCHECK
 70
     0
  9
$PEXTMIN
 10
0.0
 20
0.0
 30
0.0
  9
$PEXTMAX
 10
0.0
 20
0.0
 30
0.0
  9
$PLIMMIN
 10
0.0
 20
0.0
  9
$PLIMMAX
 10
12.0
 20
9.0
  9
$UNITMODE
 70
     0
  9
$VISRETAIN
 70
     1
  9
$PLINEGEN
 70
     0
  9
$PSLTSCALE
 70
     1
  9
$TREEDEPTH
 70
  3020
  9
$CMLSTYLE
  2
Standard
  9
$CMLJUST
 70
     0
  9
$CMLSCALE
 40
20.0
  9
$PROXYGRAPHICS
 70
     1
  9
$MEASUREMENT
 70
     1
  9
$CELWEIGHT
370
    -1
  9
$ENDCAPS
280
     0
  9
$JOINSTYLE
280
     0
  9
$LWDISPLAY
290
     0
  9
$INSUNITS
 70
     4
  9
$HYPERLINKBASE
  1

  9
$STYLESHEET
  1

  9
$XEDIT
290
     1
  9
$CEPSNTYPE
380
     0
  9
$PSTYLEMODE
290
     1
  9
$FINGERPRINTGUID
  2
{6939EC4F-211C-024E-98F6-1C32685F2B4C}
  9
$VERSIONGUID
  2
{8A983EF2-70A4-0E48-B57D-540A9E992FF7}
  9
$EXTNAMES
290
     1
  9
$PSVPSCALE
 40
0.0
  9
$OLESTARTUP
290
     0
  9
$SORTENTS
280
   127
  9
$INDEXCTL
280
     0
  9
$HIDETEXT
280
     1
  9
$XCLIPFRAME
290
     0
  9
$HALOGAP
280
     0
  9
$OBSCOLOR
 70
   257
  9
$OBSLTYPE
280
     0
  9
$INTERSECTIONDISPLAY
280
     0
  9
$INTERSECTIONCOLOR
 70
   257
  9
$DIMASSOC
280
     2
  9
$PROJECTNAME
  1

  0
ENDSEC
  0
SECTION
  2
CLASSES
  0
CLASS
  1
ACDBDICTIONARYWDFLT
  2
AcDbDictionaryWithDefault
  3
ObjectDBX Classes
 90
        0
 91
        1
280
     0
281
     0
  0
CLASS
  1
DICTIONARYVAR
  2
AcDbDictionaryVar
  3
ObjectDBX Classes
 90
        0
 91
       12
280
     0
281
     0
  0
CLASS
  1
TABLESTYLE
  2
AcDbTableStyle
  3
ObjectDBX Classes
 90
     4095
 91
        1
280
     0
281
     0
  0
CLASS
  1
MATERIAL
  2
AcDbMaterial
  3
ObjectDBX Classes
 90
     1153
 91
        3
280
     0
281
     0
  0
CLASS
  1
VISUALSTYLE
  2
AcDbVisualStyle
  3
ObjectDBX Classes
 90
     4095
 91
        3
280
     0
281
     0
  0
CLASS
  1
SCALE
  2
AcDbScale
  3
ObjectDBX Classes
 90
     1153
 91
       17
280
     0
281
     0
  0
CLASS
  1
MLEADERSTYLE
  2
AcDbMLeaderStyle
  3
ACDB_MLEADERSTYLE_CLASS
 90
     4095
 91
        0
280
     0
281
     0
  0
CLASS
  1
CELLSTYLEMAP
  2
AcDbCellStyleMap
  3
ObjectDBX Classes
 90
     1152
 91
        1
280
     0
281
     0
  0
CLASS
  1
EXACXREFPANELOBJECT
  2
ExAcXREFPanelObject
  3
EXAC_ESW
 90
     1025
 91
        0
280
     1
281
     0
  0
CLASS
  1
NPOCOLLECTION
  2
AcDbImpNonPersistentObjectsCollection
  3
ObjectDBX Classes
 90
     1153
 91
        0
280
     0
281
     0
  0
CLASS
  1
LAYER_INDEX
  2
AcDbLayerIndex
  3
ObjectDBX Classes
 90
        0
 91
        0
280
     0
281
     0
  0
CLASS
  1
SPATIAL_INDEX
  2
AcDbSpatialIndex
  3
ObjectDBX Classes
 90
        0
 91
        0
280
     0
281
     0
  0
CLASS
  1
IDBUFFER
  2
AcDbIdBuffer
  3
ObjectDBX Classes
 90
        0
 91
        0
280
     0
281
     0
  0
CLASS
  1
ACDBSECTIONVIEWSTYLE
  2
AcDbSectionViewStyle
  3
ObjectDBX Classes
 90
     1025
 91
        0
280
     0
281
     0
  0
CLASS
  1
ACDBDETAILVIEWSTYLE
  2
AcDbDetailViewStyle
  3
ObjectDBX Classes
 90
     1025
 91
        0
280
     0
281
     0
  0
CLASS
  1
SORTENTSTABLE
  2
AcDbSortentsTable
  3
ObjectDBX Classes
 90
        0
 91
        0
280
     0
281
     0
  0
ENDSEC
  0
SECTION
  2
TABLES
  0
TABLE
  2
VPORT
  5
28
330
0
100
AcDbSymbolTable
 70
     1
  0
VPORT
  5
29
330
28
100
AcDbSymbolTableRecord
100
AcDbViewportTableRecord
  2
*Active
 70
     0
 10
0.0
 20
0.0
 11
1.0
 21
1.0
 12
26.87493775895474
 22
12.552432797052
 13
0.0
 23
0.0
 14
10.0
 24
10.0
 15
10.0
 25
10.0
 16
0.0
 26
0.0
 36
1.0
 17
0.0
 27
0.0
 37
0.0
 40
34.85172834476017
 41
2.326023391812865
 42
50.0
 43
0.0
 44
0.0
 50
0.0
 51
0.0
 71
     0
 72
  1000
 73
     1
 74
     3
 75
     0
 76
     1
 77
     0
 78
     0
281
     0
 65
     1
110
0.0
120
0.0
130
0.0
111
1.0
121
0.0
131
0.0
112
0.0
122
1.0
132
0.0
 79
     0
146
0.0
1001
ACAD_NAV_VCDISPLAY
1070
     3
  0
ENDTAB
  0
TABLE
  2
LTYPE
  5
23
330
0
100
AcDbSymbolTable
 70
     1
  0
LTYPE
  5
24
330
23
100
AcDbSymbolTableRecord
100
AcDbLinetypeTableRecord
  2
ByBlock
 70
     0
  3

 72
    65
 73
     0
 40
0.0
  0
LTYPE
  5
25
330
23
100
AcDbSymbolTableRecord
100
AcDbLinetypeTableRecord
  2
ByLayer
 70
     0
  3

 72
    65
 73
     0
 40
0.0
  0
LTYPE
  5
13
330
23
100
AcDbSymbolTableRecord
100
AcDbLinetypeTableRecord
  2
Continuous
 70
     0
  3
Solid line
 72
    65
 73
     0
 40
0.0
  0
ENDTAB
  0
TABLE
  2
LAYER
  5
1D
102
{ACAD_XDICTIONARY
360
1E
102
}
330
0
100
AcDbSymbolTable
 70
     1
  0
LAYER
  5
5
102
{ACAD_XDICTIONARY
360
6
102
}
330
1D
100
AcDbSymbolTableRecord
100
AcDbLayerTableRecord
  2
0
 70
     0
 62
     7
  6
Continuous
370
    -3
390
7
  0
ENDTAB
  0
TABLE
  2
STYLE
  5
20
330
0
100
AcDbSymbolTable
 70
     1
  0
STYLE
  5
21
330
20
100
AcDbSymbolTableRecord
100
AcDbTextStyleTableRecord
  2
Standard
 70
     0
 40
0.0
 41
1.0
 50
0.0
 71
     0
 42
2.5
  3
arial.ttf
  4

1001
ACAD
1000
Arial
1071
       34
  0
ENDTAB
  0
TABLE
  2
VIEW
  5
26
330
0
100
AcDbSymbolTable
 70
     0
  0
ENDTAB
  0
TABLE
  2
UCS
  5
27
330
0
100
AcDbSymbolTable
 70
     0
  0
ENDTAB
  0
TABLE
  2
APPID
  5
2D
330
0
100
AcDbSymbolTable
 70
     6
  0
APPID
  5
12
330
2D
100
AcDbSymbolTableRecord
100
AcDbRegAppTableRecord
  2
ACAD
 70
     0
  0
APPID
  5
18
330
2D
100
AcDbSymbolTableRecord
100
AcDbRegAppTableRecord
  2
ACAD_PSEXT
 70
     0
  0
APPID
  5
31
330
2D
100
AcDbSymbolTableRecord
100
AcDbRegAppTableRecord
  2
AcadAnnotative
 70
     0
  0
APPID
  5
32
330
2D
100
AcDbSymbolTableRecord
100
AcDbRegAppTableRecord
  2
ACAD_DSTYLE_DIMJAG
 70
     0
  0
APPID
  5
33
330
2D
100
AcDbSymbolTableRecord
100
AcDbRegAppTableRecord
  2
ACAD_DSTYLE_DIMTALN
 70
     0
  0
APPID
  5
2C
330
2D
100
AcDbSymbolTableRecord
100
AcDbRegAppTableRecord
  2
ACAD_NAV_VCDISPLAY
 70
     0
  0
ENDTAB
  0
TABLE
  2
DIMSTYLE
  5
2E
330
0
100
AcDbSymbolTable
 70
     2
100
AcDbDimStyleTable
 71
     2
340
2F
340
30
  0
DIMSTYLE
105
30
330
2E
100
AcDbSymbolTableRecord
100
AcDbDimStyleTableRecord
  2
Annotative
 70
     0
 40
0.0
 41
2.5
 42
0.625
 43
3.75
 44
1.25
 73
     0
 74
     0
 77
     1
 78
     8
140
2.5
141
2.5
143
0.03937007874016
147
0.625
171
     3
172
     1
271
     2
272
     2
274
     3
278
    44
283
     0
284
     8
340
21
1001
AcadAnnotative
1000
AnnotativeData
1002
{
1070
     1
1070
     1
1002
}
1001
ACAD_DSTYLE_DIMJAG
1070
   388
1040
1.5
1001
ACAD_DSTYLE_DIMTALN
1070
   392
1070
     0
  0
DIMSTYLE
105
2F
330
2E
100
AcDbSymbolTableRecord
100
AcDbDimStyleTableRecord
  2
ISO-25
 70
     0
 41
2.5
 42
0.625
 43
3.75
 44
1.25
 73
     0
 74
     0
 77
     1
 78
     8
140
2.5
141
2.5
143
0.03937007874016
147
0.625
171
     3
172
     1
271
     2
272
     2
274
     3
278
    44
283
     0
284
     8
340
21
  0
ENDTAB
  0
TABLE
  2
BLOCK_RECORD
  5
1
330
0
100
AcDbSymbolTable
 70
     0
  0
BLOCK_RECORD
  5
2
102
{ACAD_XDICTIONARY
360
3
102
}
330
1
100
AcDbSymbolTableRecord
100
AcDbBlockTableRecord
  2
*Model_Space
340
15
  0
BLOCK_RECORD
  5
19
330
1
100
AcDbSymbolTableRecord
100
AcDbBlockTableRecord
  2
*Paper_Space
340
1C
  0
ENDTAB
  0
ENDSEC
  0
SECTION
  2
BLOCKS
  0
BLOCK
  5
4
330
2
100
AcDbEntity
  8
0
100
AcDbBlockBegin
  2
*Model_Space
 70
     0
 10
0.0
 20
0.0
 30
0.0
  3
*Model_Space
  1

  0
ENDBLK
  5
14
330
2
100
AcDbEntity
  8
0
100
AcDbBlockEnd
  0
BLOCK
  5
1A
330
19
100
AcDbEntity
 67
     1
  8
0
100
AcDbBlockBegin
  2
*Paper_Space
 70
     0
 10
0.0
 20
0.0
 30
0.0
  3
*Paper_Space
  1

  0
ENDBLK
  5
1B
330
19
100
AcDbEntity
 67
     1
  8
0
100
AcDbBlockEnd
  0
ENDSEC
  0
SECTION
  2
ENTITIES
  0
ELLIPSE
  5
58
330
2
100
AcDbEntity
  8
0
100
AcDbEllipse
 10
23.05449514366916
 20
12.40095798314138
 30
0.0
 11
0.0
 21
0.3466022707582251
 31
0.0
210
0.0
220
0.0
230
1.0
 40
0.4578919007023706
 41
1.74722545534259
 42
6.835944686399921
  0
ELLIPSE
  5
59
330
2
100
AcDbEntity
  8
0
100
AcDbEllipse
 10
23.31269743001564
 20
12.41103087614806
 30
0.0
 11
-0.1466781689730704
 21
-0.1143839320571574
 31
0.0
210
0.0
220
0.0
230
1.0
 40
0.6407620893900635
 41
0.0
 42
6.283185307179585
  0
ELLIPSE
  5
5A
330
2
100
AcDbEntity
  8
0
100
AcDbEllipse
 10
30.25474567159199
 20
14.50411406421108
 30
0.0
 11
0.0208418585312009
 21
0.2046145420071462
 31
0.0
210
0.0
220
0.0
230
1.0
 40
0.7151041201610264
 41
1.77474674691261
 42
6.720820369635412
  0
ELLIPSE
  5
5B
330
2
100
AcDbEntity
  8
0
100
AcDbEllipse
 10
30.19370559792009
 20
14.26060187577531
 30
0.0
 11
0.0299693348592501
 21
0.0687627567294131
 31
0.0
210
0.0
220
0.0
230
1.0
 40
0.6387634015822857
 41
0.0
 42
6.283185307179585
  0
SPLINE
  5
5C
330
2
100
AcDbEntity
  8
0
100
AcDbSpline
210
0.0
220
0.0
230
1.0
 70
     8
 71
     3
 72
    18
 73
    14
 74
     0
 42
0.000000001
 43
0.0000000001
 40
0.0
 40
0.0
 40
0.0
 40
0.0
 40
0.017240850539708
 40
0.0869954013194637
 40
0.156458455881764
 40
0.2319526734019552
 40
0.3152269825211567
 40
0.4012950271655964
 40
0.4863045222327322
 40
0.5703556669964252
 40
0.653958151200616
 40
0.737581728815174
 40
0.8167648045512748
 40
0.8167648045512748
 40
0.8167648045512748
 40
0.8167648045512748
 10
23.55611350048207
 20
13.3525855895088
 30
0.0
 10
23.57608564371202
 20
13.3590947760959
 30
0.0
 10
23.59265724278998
 20
13.36069814592463
 30
0.0
 10
23.64225623939285
 20
13.39706186596481
 30
0.0
 10
23.6944037489788
 20
13.45857148856402
 30
0.0
 10
23.73193073301752
 20
13.54170672487726
 30
0.0
 10
23.75551415751886
 20
13.64584729464144
 30
0.0
 10
23.76303043858616
 20
13.7694163361881
 30
0.0
 10
23.75402289131915
 20
13.90471223961879
 30
0.0
 10
23.72956587428871
 20
14.0446221182957
 30
0.0
 10
23.69107245602544
 20
14.1836925067318
 30
0.0
 10
23.64111147146429
 20
14.31407123576548
 30
0.0
 10
23.60156967860263
 20
14.39278545843291
 30
0.0
 10
23.581102250404
 20
14.42859523733949
 30
0.0
  0
SPLINE
  5
5D
330
2
100
AcDbEntity
  8
0
100
AcDbSpline
210
0.0
220
0.0
230
1.0
 70
     8
 71
     3
 72
     9
 73
     5
 74
     0
 42
0.000000001
 43
0.0000000001
 40
0.9638797392329683
 40
0.9638797392329683
 40
0.9638797392329683
 40
0.9638797392329683
 40
0.9888533531979323
 40
1.0
 40
1.0
 40
1.0
 40
1.0
 10
23.45580031513765
 20
14.59946470538983
 30
0.0
 10
23.44813846154711
 20
14.60731132627399
 30
0.0
 10
23.43692288355157
 20
14.6181530680048
 30
0.0
 10
23.42551475343589
 20
14.62821291560044
 30
0.0
 10
23.4219942252235
 20
14.63131736627855
 30
0.0
  0
LINE
  5
5E
330
2
100
AcDbEntity
  8
0
100
AcDbLine
 10
23.47463123062448
 20
13.32906368428286
 30
0.0
 11
23.55611350048207
 21
13.3525855895088
 31
0.0
  0
LINE
  5
5F
330
2
100
AcDbEntity
  8
0
100
AcDbLine
 10
23.4219942252214
 20
14.63131736628054
 30
0.0
 11
23.17448136339908
 21
14.84566979239037
 31
0.0
  0
SPLINE
  5
60
330
2
100
AcDbEntity
  8
0
100
AcDbSpline
210
0.0
220
0.0
230
1.0
 70
     8
 71
     3
 72
    12
 73
     8
 74
     0
 42
0.000000001
 43
0.0000000001
 40
0.0
 40
0.0
 40
0.0
 40
0.0
 40
0.0400550096553744
 40
0.2991015524225178
 40
0.5650594950903657
 40
0.7950481104558082
 40
1.0
 40
1.0
 40
1.0
 40
1.0
 10
8.287987543046483
 20
9.856026041606696
 30
0.0
 10
8.284752438075543
 20
9.852782178676989
 30
0.0
 10
8.260595037356949
 20
9.828559379920534
 30
0.0
 10
8.234312891097147
 20
9.767193660578413
 30
0.0
 10
8.220238374712266
 20
9.685434142109443
 30
0.0
 10
8.233778430706252
 20
9.609288739735461
 30
0.0
 10
8.261247852552401
 20
9.572246059289909
 30
0.0
 10
8.274191944556832
 20
9.554790873430192
 30
0.0
  0
SPLINE
  5
61
330
2
100
AcDbEntity
  8
0
100
AcDbSpline
210
0.0
220
0.0
230
1.0
 70
     8
 71
     3
 72
    11
 73
     7
 74
     0
 42
0.000000001
 43
0.0000000001
 40
0.0
 40
0.0
 40
0.0
 40
0.0
 40
0.1913946887443772
 40
0.4660174995096198
 40
0.7508366158090582
 40
1.0
 40
1.0
 40
1.0
 40
1.0
 10
8.536022315216428
 20
9.96100310135688
 30
0.0
 10
8.518751605649413
 20
9.963169454213584
 30
0.0
 10
8.476700005680982
 20
9.968444200069598
 30
0.0
 10
8.407683341712811
 20
9.951805597943462
 30
0.0
 10
8.338210685937269
 20
9.914308441899493
 30
0.0
 10
8.303966390017535
 20
9.874568998135941
 30
0.0
 10
8.287987543046483
 20
9.856026041606696
 30
0.0
  0
LINE
  5
62
330
2
100
AcDbEntity
  8
0
100
AcDbLine
 10
8.657401081006071
 20
9.896194344803006
 30
0.0
 11
8.613335008645947
 21
9.925958130482968
 31
0.0
  0
LINE
  5
63
330
2
100
AcDbEntity
  8
0
100
AcDbLine
 10
8.273684786957346
 20
9.553835915525155
 30
0.0
 11
8.318629645835358
 21
9.505014786244942
 31
0.0
  0
SPLINE
  5
64
330
2
100
AcDbEntity
  8
0
100
AcDbSpline
210
0.0
220
0.0
230
1.0
 70
     8
 71
     3
 72
     9
 73
     5
 74
     0
 42
0.000000001
 43
0.0000000001
 40
0.0
 40
0.0
 40
0.0
 40
0.0
 40
0.7787715758955957
 40
1.0
 40
1.0
 40
1.0
 40
1.0
 10
19.84844939140953
 20
13.23723113190806
 30
0.0
 10
19.80428709878617
 20
13.20262415464458
 30
0.0
 10
19.78404380300742
 20
13.1859508589946
 30
0.0
 10
19.75262107552942
 20
13.1398328922283
 30
0.0
 10
19.73406320797994
 20
13.09615805234233
 30
0.0
  0
SPLINE
  5
65
330
2
100
AcDbEntity
  8
0
100
AcDbSpline
210
0.0
220
0.0
230
1.0
 70
     8
 71
     3
 72
    11
 73
     7
 74
     0
 42
0.000000001
 43
0.0000000001
 40
0.0
 40
0.0
 40
0.0
 40
0.0
 40
0.1816716358079484
 40
0.4720495812117186
 40
0.7674114883819828
 40
1.0
 40
1.0
 40
1.0
 40
1.0
 10
20.08855654783827
 20
13.25227629083309
 30
0.0
 10
20.07852251801546
 20
13.25847156122097
 30
0.0
 10
20.04100881570543
 20
13.27929737412398
 30
0.0
 10
19.97524928410143
 20
13.28466463677364
 30
0.0
 10
19.90572571141354
 20
13.27301147220277
 30
0.0
 10
19.865965672941
 20
13.2481734989081
 30
0.0
 10
19.84844939140953
 20
13.23723113190806
 30
0.0
  0
SPLINE
  5
66
330
2
100
AcDbEntity
  8
0
100
AcDbSpline
210
0.0
220
0.0
230
1.0
 70
     8
 71
     3
 72
    11
 73
     7
 74
     0
 42
0.000000001
 43
0.0000000001
 40
0.0
 40
0.0
 40
0.0
 40
0.0
 40
0.2697517538920862
 40
0.5854360404777701
 40
0.8895270626030809
 40
1.0
 40
1.0
 40
1.0
 40
1.0
 10
19.73406320797994
 20
13.09615805234233
 30
0.0
 10
19.72638289983501
 20
13.07485808014883
 30
0.0
 10
19.7097145033369
 20
13.02863123934673
 30
0.0
 10
19.71615193851391
 20
12.9570595964559
 30
0.0
 10
19.73475846964516
 20
12.90000504213322
 30
0.0
 10
19.75906712371738
 20
12.87842442753486
 30
0.0
 10
19.76554488995305
 20
12.87267362882033
 30
0.0
  0
LINE
  5
67
330
2
100
AcDbEntity
  8
0
100
AcDbLine
 10
20.14640113468863
 20
13.21278298166248
 30
0.0
 11
20.08855654783827
 21
13.25227629083309
 31
0.0
  0
LINE
  5
68
330
2
100
AcDbEntity
  8
0
100
AcDbLine
 10
19.76506230214869
 20
12.87310208322083
 30
0.0
 11
19.80762969951797
 21
12.82160342310442
 31
0.0
  0
LINE
  5
69
330
2
100
AcDbEntity
  8
0
100
AcDbLine
 10
19.80762969951797
 20
12.82160342310442
 30
0.0
 11
19.84056036683426
 21
12.79308462867544
 31
0.0
  0
LINE
  5
6A
330
2
100
AcDbEntity
  8
0
100
AcDbLine
 10
20.17933180200498
 20
13.18426418723356
 30
0.0
 11
20.14640113468863
 21
13.21278298166248
 31
0.0
  0
LINE
  5
6B
330
2
100
AcDbEntity
  8
0
100
AcDbLine
 10
8.318629645835358
 20
9.505014786244942
 30
0.0
 11
8.351560313151708
 21
9.476495991815909
 31
0.0
  0
LINE
  5
6C
330
2
100
AcDbEntity
  8
0
100
AcDbLine
 10
8.690331748322364
 20
9.86767555037403
 30
0.0
 11
8.657401081006071
 21
9.896194344803006
 31
0.0
  0
LINE
  5
6D
330
2
100
AcDbEntity
  8
0
100
AcDbLine
 10
19.79436426204256
 20
12.73974196159929
 30
0.0
 11
19.81788616726851
 21
12.71937139412318
 31
0.0
  0
LINE
  5
6E
330
2
100
AcDbEntity
  8
0
100
AcDbLine
 10
26.2390361511711
 20
13.55055397168144
 30
0.0
 11
25.83267203770265
 21
13.9024756171471
 31
0.0
  0
LINE
  5
6F
330
2
100
AcDbEntity
  8
0
100
AcDbLine
 10
25.77052638434452
 20
13.95629533170086
 30
0.0
 11
25.65748515732304
 21
14.05419190594858
 31
0.0
  0
LINE
  5
70
330
2
100
AcDbEntity
  8
0
100
AcDbLine
 10
24.93549874877613
 20
14.67945047696321
 30
0.0
 11
24.13698083445309
 21
15.37098727613994
 31
0.0
  0
LINE
  5
71
330
2
100
AcDbEntity
  8
0
100
AcDbLine
 10
24.00087144098154
 20
15.48886146857933
 30
0.0
 11
23.76939565458929
 21
15.68932537995482
 31
0.0
  0
LINE
  5
72
330
2
100
AcDbEntity
  8
0
100
AcDbLine
 10
23.70885647107116
 20
15.74175385080559
 30
0.0
 11
22.89892560908561
 21
16.44317455259005
 31
0.0
  0
LINE
  5
73
330
2
100
AcDbEntity
  8
0
100
AcDbLine
 10
22.81433946553108
 20
16.44105005302805
 30
0.0
 11
5.051204630744678
 21
11.31327471377005
 31
0.0
  0
LINE
  5
74
330
2
100
AcDbEntity
  8
0
100
AcDbLine
 10
22.86085270793831
 20
12.44053147457828
 30
0.0
 11
22.87324423041344
 21
12.42980010132328
 31
0.0
  0
LINE
  5
75
330
2
100
AcDbEntity
  8
0
100
AcDbLine
 10
22.99250181219594
 20
12.32652000590553
 30
0.0
 11
26.15391943957184
 21
9.58865202862205
 31
0.0
  0
LINE
  5
76
330
2
100
AcDbEntity
  8
0
100
AcDbLine
 10
26.96510108218741
 20
9.835910953706388
 30
0.0
 11
26.96510108218741
 21
9.876652088658659
 31
0.0
  0
LINE
  5
77
330
2
100
AcDbEntity
  8
0
100
AcDbLine
 10
6.262301856040608
 20
4.638965927420997
 30
0.0
 11
25.46756894809806
 21
10.18304899014021
 31
0.0
  0
LINE
  5
78
330
2
100
AcDbEntity
  8
0
100
AcDbLine
 10
2.148109750049343
 20
6.460788190284404
 30
0.0
 11
2.148109750049343
 21
6.420047055332076
 31
0.0
  0
LINE
  5
79
330
2
100
AcDbEntity
  8
0
100
AcDbLine
 10
23.35510230277401
 20
11.95032681796499
 30
0.0
 11
23.49623373412971
 21
11.82810341310801
 31
0.0
  0
ARC
  5
7A
330
2
100
AcDbEntity
  8
0
100
AcDbCircle
 10
23.06736373928607
 20
13.75424749342733
 30
0.0
 40
0.1159184540799964
100
AcDbArc
 50
287.2086421099016
 51
357.1690928842982
  0
LINE
  5
7B
330
2
100
AcDbEntity
  8
0
100
AcDbLine
 10
23.10165846136261
 20
13.6435182739873
 30
0.0
 11
23.02017619145795
 21
13.61999636876135
 31
0.0
  0
LINE
  5
7C
330
2
100
AcDbEntity
  8
0
100
AcDbLine
 10
23.02017619145795
 20
13.74117111100707
 30
0.0
 11
23.02017619145795
 21
13.61999636876135
 31
0.0
  0
ELLIPSE
  5
7D
330
2
100
AcDbEntity
  8
0
100
AcDbEllipse
 10
22.97943505650562
 20
13.7294101583941
 30
0.0
 11
0.0307973294529781
 21
0.0355618836394096
 31
0.0
210
0.0
220
0.0
230
1.0
 40
0.7500001676000001
 41
5.569458163343826
 42
7.14025449013853
  0
LINE
  5
7E
330
2
100
AcDbEntity
  8
0
100
AcDbLine
 10
22.93869392155329
 20
13.75839040447784
 30
0.0
 11
22.97943505650562
 21
13.77015135709075
 31
0.0
  0
ELLIPSE
  5
7F
330
2
100
AcDbEntity
  8
0
100
AcDbEllipse
 10
22.93869392155329
 20
13.71764920578113
 30
0.0
 11
0.0307973294529781
 21
0.0355618836394096
 31
0.0
210
0.0
220
0.0
230
1.0
 40
0.7500001676000001
 41
0.8570691829591911
 42
2.003944435669186
  0
LINE
  5
80
330
2
100
AcDbEntity
  8
0
100
AcDbLine
 10
23.18314073122019
 20
14.81245185730341
 30
0.0
 11
23.18314073122019
 21
13.74852244907083
 31
0.0
  0
LINE
  5
81
330
2
100
AcDbEntity
  8
0
100
AcDbLine
 10
23.02017619145795
 20
13.61999636876135
 30
0.0
 11
23.27891714894349
 21
13.39592012657067
 31
0.0
  0
LWPOLYLINE
  5
82
330
2
100
AcDbEntity
  8
0
100
AcDbPolyline
 90
        6
 70
   128
 43
0.0
 10
23.25372114865331
 20
14.21295865532687
 10
23.26270533786106
 20
14.30883772744306
 10
23.28748462591295
 20
14.37411076327817
 10
23.32587462130135
 20
14.41117191544583
 10
23.37449109518729
 20
14.41675409781737
 10
23.3832873505753
 20
14.41249942136591
  0
LWPOLYLINE
  5
83
330
2
100
AcDbEntity
  8
0
100
AcDbPolyline
 90
       16
 70
   128
 43
0.0
 10
23.5252664679619
 20
14.27129415163392
 10
23.53664752747591
 20
14.25359271513241
 10
23.58020422794465
 20
14.15526612315136
 10
23.61156725342448
 20
14.0480196618127
 10
23.62797183009547
 20
13.94130752783667
 10
23.62797183009547
 20
13.84453681481079
 10
23.61156725342448
 20
13.76623824108236
 10
23.58020422794465
 20
13.7133141333727
 10
23.53664752747591
 20
13.69042995963946
 10
23.48473684623411
 20
13.69960304955157
 10
23.42904831456952
 20
13.74002475928904
 10
23.37449109518729
 20
13.80813175641703
 10
23.32587462130135
 20
13.89792014166403
 10
23.28748462591295
 20
14.00147471639343
 10
23.26270533786106
 20
14.10966673809332
 10
23.25372114865331
 20
14.21295865532687
  0
LINE
  5
84
330
2
100
AcDbEntity
  8
0
100
AcDbLine
 10
22.89795278664809
 20
14.80694755917733
 30
0.0
 11
22.89795278664809
 21
14.6836770214179
 31
0.0
  0
ARC
  5
85
330
2
100
AcDbEntity
  8
0
100
AcDbCircle
 10
22.84973934498964
 20
14.6755675005599
 30
0.0
 40
0.1128724775239949
100
AcDbArc
 50
107.1423691898988
 51
134.6372710727001
  0
LINE
  5
86
330
2
100
AcDbEntity
  8
0
100
AcDbLine
 10
22.89795278664809
 20
14.80694755917733
 30
0.0
 11
22.81647051674349
 21
14.78342565393655
 31
0.0
  0
ELLIPSE
  5
87
330
2
100
AcDbEntity
  8
0
100
AcDbEllipse
 10
22.93869392155329
 20
14.69543797403094
 30
0.0
 11
0.0307973294529781
 21
0.0355618836394096
 31
0.0
210
0.0
220
0.0
230
1.0
 40
0.7500001676000001
 41
2.427865509753582
 42
3.998661836548997
  0
LINE
  5
88
330
2
100
AcDbEntity
  8
0
100
AcDbLine
 10
22.93869392155329
 20
14.65469677538124
 30
0.0
 11
22.97943505650562
 21
14.66645772799427
 31
0.0
  0
ELLIPSE
  5
89
330
2
100
AcDbEntity
  8
0
100
AcDbEllipse
 10
22.97943505650562
 20
14.70719892664391
 30
0.0
 11
0.0307973294529781
 21
0.0355618836394096
 31
0.0
210
0.0
220
0.0
230
1.0
 40
0.7500001676000001
 41
3.998661836549243
 42
5.56945816334399
  0
LINE
  5
8A
330
2
100
AcDbEntity
  8
0
100
AcDbLine
 10
23.09337319386066
 20
14.86336057151669
 30
0.0
 11
23.02017619145795
 21
14.84223041700142
 31
0.0
  0
ARC
  5
8B
330
2
100
AcDbEntity
  8
0
100
AcDbCircle
 10
23.12344262317759
 20
14.81012190731019
 30
0.0
 40
0.059743558404542
100
AcDbArc
 50
357.7649448217997
 51
33.63919704944963
  0
LINE
  5
8C
330
2
100
AcDbEntity
  8
0
100
AcDbLine
 10
23.02017619145795
 20
14.84223041700142
 30
0.0
 11
23.02017619145795
 21
14.71895987925688
 31
0.0
  0
ARC
  5
8D
330
2
100
AcDbEntity
  8
0
100
AcDbCircle
 10
23.43622106915399
 20
13.53651539529062
 30
0.0
 40
0.2109776122978122
100
AcDbArc
 50
221.7897421464006
 51
280.4896553037018
  0
LINE
  5
8E
330
2
100
AcDbEntity
  8
0
100
AcDbLine
 10
24.32724022595284
 20
13.88867022836268
 30
0.0
 11
25.36223393308956
 21
14.18744717613896
 31
0.0
  0
LINE
  5
8F
330
2
100
AcDbEntity
  8
0
100
AcDbLine
 10
25.83267203774972
 20
13.78003582661586
 30
0.0
 11
25.36223393308956
 21
14.18744717613896
 31
0.0
  0
LINE
  5
90
330
2
100
AcDbEntity
  8
0
100
AcDbLine
 10
25.83267203774972
 20
13.78003582661586
 30
0.0
 11
24.77886080633823
 21
13.47582672755334
 31
0.0
  0
LINE
  5
91
330
2
100
AcDbEntity
  8
0
100
AcDbLine
 10
24.41724160821446
 20
14.45107633285488
 30
0.0
 11
25.10149066937589
 21
14.47477318027506
 31
0.0
  0
LINE
  5
92
330
2
100
AcDbEntity
  8
0
100
AcDbLine
 10
25.10149066937589
 20
14.47477318027506
 30
0.0
 11
25.10149066946997
 21
14.19365934917943
 31
0.0
  0
LINE
  5
93
330
2
100
AcDbEntity
  8
0
100
AcDbLine
 10
24.41724160830847
 20
14.16996250180625
 30
0.0
 11
25.10149066946997
 21
14.19365934917943
 31
0.0
  0
LINE
  5
94
330
2
100
AcDbEntity
  8
0
100
AcDbLine
 10
24.23550479557162
 20
14.0403839547348
 30
0.0
 11
24.31926087875252
 21
13.9678490590573
 31
0.0
  0
LINE
  5
95
330
2
100
AcDbEntity
  8
0
100
AcDbLine
 10
24.23149735987511
 20
14.07208078211204
 30
0.0
 11
24.37242636006795
 21
14.15702545397903
 31
0.0
  0
LINE
  5
96
330
2
100
AcDbEntity
  8
0
100
AcDbLine
 10
24.37242636006795
 20
14.15702545397903
 30
0.0
 11
24.41724160830847
 21
14.16996250180625
 31
0.0
  0
LINE
  5
97
330
2
100
AcDbEntity
  8
0
100
AcDbLine
 10
25.10149066946997
 20
14.19365934917943
 30
0.0
 11
24.31926087875252
 21
13.9678490590573
 31
0.0
  0
LINE
  5
98
330
2
100
AcDbEntity
  8
0
100
AcDbLine
 10
25.33371513870753
 20
14.79440564688281
 30
0.0
 11
24.34370555961101
 21
14.50861449834042
 31
0.0
  0
LINE
  5
99
330
2
100
AcDbEntity
  8
0
100
AcDbLine
 10
25.33371513870753
 20
14.51736592921651
 30
0.0
 11
25.33371513870753
 21
14.79440564688281
 31
0.0
  0
LINE
  5
9A
330
2
100
AcDbEntity
  8
0
100
AcDbLine
 10
25.18704705280396
 20
14.47502649976275
 30
0.0
 11
25.33371513870753
 21
14.51736592921651
 31
0.0
  0
LINE
  5
9B
330
2
100
AcDbEntity
  8
0
100
AcDbLine
 10
25.18704705280396
 20
14.28761727914207
 30
0.0
 11
25.18704705280396
 21
14.47502649976275
 31
0.0
  0
LINE
  5
9C
330
2
100
AcDbEntity
  8
0
100
AcDbLine
 10
25.36223393318357
 20
14.33818937542492
 30
0.0
 11
25.18704705280396
 21
14.28761727914207
 31
0.0
  0
LINE
  5
9D
330
2
100
AcDbEntity
  8
0
100
AcDbLine
 10
25.36223393308956
 20
14.18744717613896
 30
0.0
 11
25.36223393318357
 21
14.33818937542492
 31
0.0
  0
LINE
  5
9E
330
2
100
AcDbEntity
  8
0
100
AcDbLine
 10
25.36223393318357
 20
14.33818937542492
 30
0.0
 11
25.39986898154513
 21
14.30559646737833
 31
0.0
  0
LINE
  5
9F
330
2
100
AcDbEntity
  8
0
100
AcDbLine
 10
25.39986898154513
 20
14.20781774352099
 30
0.0
 11
25.39986898154513
 21
14.30559646737833
 31
0.0
  0
LINE
  5
A0
330
2
100
AcDbEntity
  8
0
100
AcDbLine
 10
25.39986898154513
 20
14.20781774352099
 30
0.0
 11
25.79503698934116
 21
13.86559220999686
 31
0.0
  0
LINE
  5
A1
330
2
100
AcDbEntity
  8
0
100
AcDbLine
 10
25.79503698934116
 20
13.96337093385421
 30
0.0
 11
25.79503698934116
 21
13.86559220999686
 31
0.0
  0
LINE
  5
A2
330
2
100
AcDbEntity
  8
0
100
AcDbLine
 10
25.79503698934116
 20
13.96337093385421
 30
0.0
 11
25.83267203770265
 21
13.93077802599583
 31
0.0
  0
LINE
  5
A3
330
2
100
AcDbEntity
  8
0
100
AcDbLine
 10
25.83267203770265
 20
13.93077802599583
 30
0.0
 11
25.83267203774972
 21
13.78003582661586
 31
0.0
  0
LINE
  5
A4
330
2
100
AcDbEntity
  8
0
100
AcDbLine
 10
25.22468210116552
 20
14.44243359185736
 30
0.0
 11
25.18704705280396
 21
14.47502649976275
 31
0.0
  0
LINE
  5
A5
330
2
100
AcDbEntity
  8
0
100
AcDbLine
 10
25.22468210116552
 20
14.44243359185736
 30
0.0
 11
25.22468210116552
 21
14.29848158180857
 31
0.0
  0
LINE
  5
A6
330
2
100
AcDbEntity
  8
0
100
AcDbLine
 10
25.80415324327373
 20
14.38699429740671
 30
0.0
 11
25.80415324322667
 21
14.10995457978742
 31
0.0
  0
LINE
  5
A7
330
2
100
AcDbEntity
  8
0
100
AcDbLine
 10
25.76651819477104
 20
14.14254748773987
 30
0.0
 11
25.80415324322667
 21
14.10995457978742
 31
0.0
  0
LINE
  5
A8
330
2
100
AcDbEntity
  8
0
100
AcDbLine
 10
25.76651819477104
 20
14.26477089259686
 30
0.0
 11
25.76651819477104
 21
14.14254748773987
 31
0.0
  0
LINE
  5
A9
330
2
100
AcDbEntity
  8
0
100
AcDbLine
 10
25.76651819477104
 20
14.26477089259686
 30
0.0
 11
25.37135018697501
 21
14.60699642612098
 31
0.0
  0
LINE
  5
AA
330
2
100
AcDbEntity
  8
0
100
AcDbLine
 10
25.37135018697501
 20
14.48477302126406
 30
0.0
 11
25.33371513870753
 21
14.51736592921651
 31
0.0
  0
LINE
  5
AB
330
2
100
AcDbEntity
  8
0
100
AcDbLine
 10
25.80415324327373
 20
14.38699429740671
 30
0.0
 11
25.33371513870753
 21
14.79440564688281
 31
0.0
  0
LINE
  5
AC
330
2
100
AcDbEntity
  8
0
100
AcDbLine
 10
25.37135018697501
 20
14.48477302126406
 30
0.0
 11
25.37135018697501
 21
14.60699642612098
 31
0.0
  0
LINE
  5
AD
330
2
100
AcDbEntity
  8
0
100
AcDbLine
 10
25.37135018697501
 20
14.48477302126406
 30
0.0
 11
25.22468210116552
 21
14.44243359185736
 31
0.0
  0
LINE
  5
AE
330
2
100
AcDbEntity
  8
0
100
AcDbLine
 10
24.41724160821446
 20
14.45107633285488
 30
0.0
 11
24.37242636006795
 21
14.43813928507472
 31
0.0
  0
LINE
  5
AF
330
2
100
AcDbEntity
  8
0
100
AcDbLine
 10
24.23149735992217
 20
14.35319461320773
 30
0.0
 11
24.37242636006795
 21
14.43813928507472
 31
0.0
  0
LINE
  5
B0
330
2
100
AcDbEntity
  8
0
100
AcDbLine
 10
25.76651819477104
 20
14.26477089259686
 30
0.0
 11
25.44220841090481
 21
14.17115072209219
 31
0.0
  0
LINE
  5
B1
330
2
100
AcDbEntity
  8
0
100
AcDbLine
 10
25.71035813052771
 20
13.93892625290163
 30
0.0
 11
25.79503698934116
 21
13.96337093385421
 31
0.0
  0
LINE
  5
B2
330
2
100
AcDbEntity
  8
0
100
AcDbLine
 10
25.61985010896149
 20
14.10020805833318
 30
0.0
 11
25.76651819477104
 21
14.14254748773987
 31
0.0
  0
LINE
  5
B3
330
2
100
AcDbEntity
  8
0
100
AcDbLine
 10
25.61985010900855
 20
14.01730849879834
 30
0.0
 11
25.61985010896149
 21
14.10020805833318
 31
0.0
  0
LINE
  5
B4
330
2
100
AcDbEntity
  8
0
100
AcDbLine
 10
25.61985010896149
 20
14.10020805833318
 30
0.0
 11
25.65748515732304
 21
14.06761515038073
 31
0.0
  0
LINE
  5
B5
330
2
100
AcDbEntity
  8
0
100
AcDbLine
 10
25.65748515732304
 20
13.98471559084589
 30
0.0
 11
25.65748515732304
 21
14.06761515038073
 31
0.0
  0
LINE
  5
B6
330
2
100
AcDbEntity
  8
0
100
AcDbLine
 10
25.65748515732304
 20
14.06761515038073
 30
0.0
 11
25.80415324322667
 21
14.10995457978742
 31
0.0
  0
LINE
  5
B7
330
2
100
AcDbEntity
  8
0
100
AcDbLine
 10
24.89668009286834
 20
13.46778935091902
 30
0.0
 11
24.86026469890237
 21
13.49932600719978
 31
0.0
  0
LINE
  5
B8
330
2
100
AcDbEntity
  8
0
100
AcDbLine
 10
25.18876009976685
 20
13.50180788875764
 30
0.0
 11
25.14394485133812
 21
13.48887084088335
 31
0.0
  0
LINE
  5
B9
330
2
100
AcDbEntity
  8
0
100
AcDbLine
 10
25.14394485133812
 20
13.48887084088335
 30
0.0
 11
24.92635186386588
 21
13.47031912970908
 31
0.0
  0
LINE
  5
BA
330
2
100
AcDbEntity
  8
0
100
AcDbLine
 10
24.90360350613094
 20
13.46837963261316
 30
0.0
 11
24.89668009286834
 21
13.46778935091902
 31
0.0
  0
LINE
  5
BB
330
2
100
AcDbEntity
  8
0
100
AcDbLine
 10
25.39231845787095
 20
13.65291669768282
 30
0.0
 11
25.18876009976685
 21
13.50180788875764
 31
0.0
  0
LINE
  5
BC
330
2
100
AcDbEntity
  8
0
100
AcDbLine
 10
24.88160329321715
 20
13.46202871815512
 30
0.0
 11
24.84396824480859
 21
13.49462162610757
 31
0.0
  0
LWPOLYLINE
  5
BD
330
2
100
AcDbEntity
  8
0
100
AcDbPolyline
 90
       11
 70
   128
 43
0.0
 10
19.84056036683426
 20
12.79308462867544
 10
19.8617427734402
 20
12.77782650952395
 10
19.93246279719142
 20
12.75605348509583
 10
20.01364736821825
 20
12.76569720528647
 10
20.09433206037124
 20
12.80545523223657
 10
20.16361995885035
 20
12.86995802413821
 10
20.21215334908607
 20
12.95049412150052
 10
20.23337752772596
 20
13.03618667813049
 10
20.22442605189019
 20
13.11546243935055
 10
20.18650786800322
 20
13.17761477443514
 10
20.17933180200498
 20
13.18426418723356
  0
LWPOLYLINE
  5
BE
330
2
100
AcDbEntity
  8
0
100
AcDbPolyline
 90
       10
 70
   128
 43
0.0
 10
8.351560313151708
 20
9.476495991815909
 10
8.40381437831536
 20
9.447248331260368
 10
8.480730006182852
 20
9.440038582082024
 10
8.563077031036129
 20
9.464168091568069
 10
8.639734030851343
 20
9.516378035800244
 10
8.700348052998492
 20
9.589617172474788
 10
8.736732837956196
 20
9.673994150356804
 10
8.743974418858442
 20
9.758113391055132
 10
8.721094780148575
 20
9.830614124975909
 10
8.690331748322364
 20
9.86767555037403
  0
LWPOLYLINE
  5
BF
330
2
100
AcDbEntity
  8
0
100
AcDbPolyline
 90
       13
 70
   128
 43
0.0
 10
19.82132368860618
 20
12.72032253722045
 10
19.90099740085179
 20
12.69366652611018
 10
19.99247739340967
 20
12.69897919651453
 10
20.08585038975969
 20
12.73568483818326
 10
20.17099797682323
 20
12.79980582524786
 10
20.2386930923596
 20
12.88439365386466
 10
20.28159992022199
 20
12.98028192022309
 10
20.29506883981907
 20
13.07707964288823
 10
20.27764028475349
 20
13.16429728660586
 10
20.23120290938186
 20
13.23248346632317
 10
20.16078892387065
 20
13.27424915148754
 10
20.07402877612896
 20
13.28506838204379
 10
20.03253901274502
 20
13.27948804124924
  0
ARC
  5
C0
330
2
100
AcDbEntity
  8
0
100
AcDbCircle
 10
19.93901532090996
 20
12.90047854545082
 30
0.0
 40
0.2151917926137846
100
AcDbArc
 50
172.7842900930993
 51
236.8443704358005
  0
LWPOLYLINE
  5
C1
330
2
100
AcDbEntity
  8
0
100
AcDbPolyline
 90
       16
 70
   128
 43
0.0
 10
8.236852022233847
 20
9.61503001622259
 10
8.241656487433374
 20
9.533759877208865
 10
8.275524956928052
 20
9.455978146399388
 10
8.3359886078631
 20
9.401615029967217
 10
8.416495265490993
 20
9.376561615138484
 10
8.508320784251736
 20
9.383532828111469
 10
8.601514444374515
 20
9.42177322982792
 10
8.68597726671976
 20
9.487138879401413
 10
8.752556393930603
 20
9.572546394384858
 10
8.794036944489903
 20
9.668740545385276
 10
8.805923857093489
 20
9.76529720347537
 10
8.786929000375437
 20
9.85175295659377
 10
8.739110761678375
 20
9.918738982280615
 10
8.667650989249978
 20
9.95899630532574
 10
8.580293458174537
 20
9.9681624201462
 10
8.534939914990502
 20
9.960969862281615
  0
LINE
  5
C2
330
2
100
AcDbEntity
  8
0
100
AcDbLine
 10
26.24897988291326
 20
13.52675314624372
 30
0.0
 11
26.24897988291326
 21
10.50943659039586
 31
0.0
  0
ARC
  5
C3
330
2
100
AcDbEntity
  8
0
100
AcDbCircle
 10
23.50820522054335
 20
14.96229288159623
 30
0.0
 40
0.5994127600644533
100
AcDbArc
 50
180.917671003298
 51
209.3262752225972
  0
LINE
  5
C4
330
2
100
AcDbEntity
  8
0
100
AcDbLine
 10
22.90886934082778
 20
16.41937372715233
 30
0.0
 11
22.90886934082778
 21
14.95269286924537
 31
0.0
  0
LINE
  5
C5
330
2
100
AcDbEntity
  8
0
100
AcDbLine
 10
24.23550479557162
 20
14.06861024100601
 30
0.0
 11
24.23550479557162
 21
13.98712797110136
 31
0.0
  0
LINE
  5
C6
330
2
100
AcDbEntity
  8
0
100
AcDbLine
 10
24.23550479557162
 20
13.98712797110136
 30
0.0
 11
24.32724022595284
 21
13.907682757982
 31
0.0
  0
LINE
  5
C7
330
2
100
AcDbEntity
  8
0
100
AcDbLine
 10
24.32724022595284
 20
13.907682757982
 30
0.0
 11
24.32724022595284
 21
13.86694162302967
 31
0.0
  0
LINE
  5
C8
330
2
100
AcDbEntity
  8
0
100
AcDbLine
 10
24.32724022595284
 20
13.86694162302967
 30
0.0
 11
24.8306089977882
 21
13.43101147912461
 31
0.0
  0
LINE
  5
C9
330
2
100
AcDbEntity
  8
0
100
AcDbLine
 10
24.8306089977882
 20
13.43101147912461
 30
0.0
 11
24.8306089977882
 21
13.47175261407693
 31
0.0
  0
LINE
  5
CA
330
2
100
AcDbEntity
  8
0
100
AcDbLine
 10
24.8306089977882
 20
13.47175261407693
 30
0.0
 11
24.92234442816948
 21
13.39230740095752
 31
0.0
  0
LINE
  5
CB
330
2
100
AcDbEntity
  8
0
100
AcDbLine
 10
24.92234442816948
 20
13.39230740095752
 30
0.0
 11
24.92234442816948
 21
13.47378967081511
 31
0.0
  0
ARC
  5
CC
330
2
100
AcDbEntity
  8
0
100
AcDbCircle
 10
23.40322835382727
 20
13.51045647273759
 30
0.0
 40
0.5351193708734171
100
AcDbArc
 50
179.5143498991009
 51
222.5890989716006
  0
LINE
  5
CD
330
2
100
AcDbEntity
  8
0
100
AcDbLine
 10
5.040730330957899
 20
8.232861929473756
 30
0.0
 11
5.040730330957899
 21
11.28844705014455
 31
0.0
  0
LINE
  5
CE
330
2
100
AcDbEntity
  8
0
100
AcDbLine
 10
20.35939706921704
 20
14.08091983490772
 30
0.0
 11
19.70753891012111
 21
13.89274459310007
 31
0.0
  0
LINE
  5
CF
330
2
100
AcDbEntity
  8
0
100
AcDbLine
 10
20.35939706921704
 20
14.3253666445745
 30
0.0
 11
20.35939706921704
 21
14.08091983490772
 31
0.0
  0
LINE
  5
D0
330
2
100
AcDbEntity
  8
0
100
AcDbLine
 10
20.35939706921704
 20
14.3253666445745
 30
0.0
 11
19.70753891012111
 21
14.13719140276691
 31
0.0
  0
LINE
  5
D1
330
2
100
AcDbEntity
  8
0
100
AcDbLine
 10
19.70753891012111
 20
14.13719140276691
 30
0.0
 11
19.70753891012111
 21
13.89274459310007
 31
0.0
  0
LINE
  5
D2
330
2
100
AcDbEntity
  8
0
100
AcDbLine
 10
8.870397015534422
 20
10.76433119804818
 30
0.0
 11
8.218538856438613
 21
10.57615595624054
 31
0.0
  0
LINE
  5
D3
330
2
100
AcDbEntity
  8
0
100
AcDbLine
 10
8.870397015534422
 20
11.00877800771502
 30
0.0
 11
8.870397015534422
 21
10.76433119804818
 31
0.0
  0
LINE
  5
D4
330
2
100
AcDbEntity
  8
0
100
AcDbLine
 10
8.870397015534422
 20
11.00877800771502
 30
0.0
 11
8.218538856438613
 21
10.82060276590738
 31
0.0
  0
LINE
  5
D5
330
2
100
AcDbEntity
  8
0
100
AcDbLine
 10
8.218538856438613
 20
10.82060276590738
 30
0.0
 11
8.218538856438613
 21
10.57615595624054
 31
0.0
  0
LINE
  5
D6
330
2
100
AcDbEntity
  8
0
100
AcDbLine
 10
22.86812820587545
 20
13.5964744635354
 30
0.0
 11
22.86812820587545
 21
13.51499219363075
 31
0.0
  0
ARC
  5
D7
330
2
100
AcDbEntity
  8
0
100
AcDbCircle
 10
22.55402777401934
 20
12.54417444486273
 30
0.0
 40
0.7582419628729183
100
AcDbArc
 50
3.993744757497534
 51
43.57567031960198
  0
LWPOLYLINE
  5
D8
330
2
100
AcDbEntity
  8
0
100
AcDbPolyline
 90
        5
 70
   128
 43
0.0
 10
22.86812820587545
 20
13.5964744635354
 10
22.87084000676509
 20
13.64181518187104
 10
22.87887119643278
 20
13.68071650495022
 10
22.89191314076084
 20
13.71168347672835
 10
22.90155906695674
 20
13.72368768346177
  0
LINE
  5
D9
330
2
100
AcDbEntity
  8
0
100
AcDbLine
 10
23.10334725813504
 20
13.06683970929646
 30
0.0
 11
23.00925963723125
 21
13.14832197915405
 31
0.0
  0
ARC
  5
DA
330
2
100
AcDbEntity
  8
0
100
AcDbCircle
 10
21.51516168225214
 20
13.56460612524535
 30
0.0
 40
0.5795922703998146
100
AcDbArc
 50
287.2086421099972
 51
357.1690928842982
  0
LINE
  5
DB
330
2
100
AcDbEntity
  8
0
100
AcDbLine
 10
5.064252236183847
 20
8.212491361997592
 30
0.0
 11
5.040730330957899
 21
8.232861929473756
 31
0.0
  0
LINE
  5
DC
330
2
100
AcDbEntity
  8
0
100
AcDbLine
 10
21.68663529258765
 20
13.0109600280922
 30
0.0
 11
5.064252236183847
 21
8.212491361997592
 31
0.0
  0
LINE
  5
DD
330
2
100
AcDbEntity
  8
0
100
AcDbLine
 10
22.09404664201679
 20
14.39154473741439
 30
0.0
 11
22.09404664201679
 21
13.53598090365102
 31
0.0
  0
ARC
  5
DE
330
2
100
AcDbEntity
  8
0
100
AcDbCircle
 10
22.48005609512086
 20
14.94634609694776
 30
0.0
 40
0.3477553622398834
100
AcDbArc
 50
287.2086421099972
 51
357.1690928842982
  0
LINE
  5
DF
330
2
100
AcDbEntity
  8
0
100
AcDbLine
 10
22.58294026130341
 20
14.61415843867473
 30
0.0
 11
22.17552891187432
 21
14.49654891254499
 31
0.0
  0
LINE
  5
E0
330
2
100
AcDbEntity
  8
0
100
AcDbLine
 10
22.82738707097019
 20
14.92917096401942
 30
0.0
 11
22.82738707097019
 21
16.39585182192633
 31
0.0
  0
ARC
  5
E1
330
2
100
AcDbEntity
  8
0
100
AcDbCircle
 10
22.20982363395086
 20
14.3858196931049
 30
0.0
 40
0.1159184540798942
100
AcDbArc
 50
107.2086421099016
 51
177.1690928842982
  0
ARC
  5
E2
330
2
100
AcDbEntity
  8
0
100
AcDbCircle
 10
26.21839834314403
 20
13.52795410956889
 30
0.0
 40
0.0306051121506509
100
AcDbArc
 50
357.7511011827003
 51
47.59820542870211
  0
ARC
  5
E3
330
2
100
AcDbEntity
  8
0
100
AcDbCircle
 10
22.87902028683004
 20
16.42053870200948
 30
0.0
 40
0.0298717792022964
100
AcDbArc
 50
357.7649448217997
 51
111.3846782331006
  0
LWPOLYLINE
  5
E4
330
2
100
AcDbEntity
  8
0
100
AcDbPolyline
 90
        7
 70
   128
 43
0.0
 10
5.040730330957899
 20
11.28844705014455
 10
5.041182297733655
 20
11.29600383652598
 10
5.04252082934488
 20
11.30248739039604
 10
5.044694486772129
 20
11.30764855235117
 10
5.047619737473041
 20
11.31128898182908
 10
5.051184165793301
 20
11.31326877924039
 10
5.051204630744678
 20
11.31327471377005
  0
LWPOLYLINE
  5
E5
330
2
100
AcDbEntity
  8
0
100
AcDbPolyline
 90
        5
 70
   128
 43
0.0
 10
22.82738707097019
 20
16.43659295687865
 10
22.82279817490564
 20
16.4397842279551
 10
22.81838562755115
 20
16.44128720129993
 10
22.8143190005797
 20
16.44104411849838
 10
22.81431889792975
 20
16.44104406148329
  0
LINE
  5
E6
330
2
100
AcDbEntity
  8
0
100
AcDbLine
 10
22.82738707097019
 20
16.39585182192633
 30
0.0
 11
22.82738707097019
 21
16.43659295687865
 31
0.0
  0
LINE
  5
E7
330
2
100
AcDbEntity
  8
0
100
AcDbLine
 10
22.82738707097019
 20
16.43659295687865
 30
0.0
 11
22.86812820587545
 21
16.44835390949163
 31
0.0
  0
LINE
  5
E8
330
2
100
AcDbEntity
  8
0
100
AcDbLine
 10
24.79532613994934
 20
13.46156733033888
 30
0.0
 11
24.8306089977882
 21
13.47175261407693
 31
0.0
  0
LINE
  5
E9
330
2
100
AcDbEntity
  8
0
100
AcDbLine
 10
24.88160329321715
 20
13.48084624242995
 30
0.0
 11
24.88160329321715
 21
13.4275902587965
 31
0.0
  0
ARC
  5
EA
330
2
100
AcDbEntity
  8
0
100
AcDbCircle
 10
5.17535689665658
 20
9.738993634666826
 30
0.0
 40
0.1925959222443675
100
AcDbArc
 50
180.5536564466985
 51
216.0802073398988
  0
LINE
  5
EB
330
2
100
AcDbEntity
  8
0
100
AcDbLine
 10
4.982769966279192
 20
11.24455457744238
 30
0.0
 11
4.982769966279192
 21
9.73713258458315
 31
0.0
  0
LINE
  5
EC
330
2
100
AcDbEntity
  8
0
100
AcDbLine
 10
5.02351110123152
 20
11.29705666500768
 30
0.0
 11
5.042539708261244
 21
11.30254975068322
 31
0.0
  0
ARC
  5
ED
330
2
100
AcDbEntity
  8
0
100
AcDbCircle
 10
5.040658462269789
 20
11.24169205528767
 30
0.0
 40
0.0579592270398979
100
AcDbArc
 50
107.2086421099016
 51
177.1690928842982
  0
ARC
  5
EE
330
2
100
AcDbEntity
  8
0
100
AcDbCircle
 10
23.67098445468918
 20
12.50207704024222
 30
0.0
 40
0.1520933465009114
100
AcDbArc
 50
57.13635930490134
 51
107.6021602702013
  0
LINE
  5
EF
330
2
100
AcDbEntity
  8
0
100
AcDbLine
 10
23.75351662041146
 20
12.62983003498397
 30
0.0
 11
26.9524957311412
 21
9.859432858932336
 31
0.0
  0
LWPOLYLINE
  5
F0
330
2
100
AcDbEntity
  8
0
100
AcDbPolyline
 90
        9
 70
   128
 43
0.0
 10
26.91805727173551
 20
9.795169818754061
 10
26.93304974036982
 20
9.800541544288591
 10
26.94565818958029
 20
9.807272496430073
 10
26.95539808378476
 20
9.81510400840898
 10
26.96189512422149
 20
9.823735119612024
 10
26.96489963334631
 20
9.832834141302726
 10
26.96429614951239
 20
9.842051403141795
 10
26.96010786433038
 20
9.851032690969532
 10
26.9524957311412
 20
9.859432858932336
  0
LINE
  5
F1
330
2
100
AcDbEntity
  8
0
100
AcDbLine
 10
26.18471684273504
 20
9.583472671720471
 30
0.0
 11
26.91805727173551
 21
9.795169818754061
 31
0.0
  0
LINE
  5
F2
330
2
100
AcDbEntity
  8
0
100
AcDbLine
 10
23.62499054010198
 20
12.64704926471029
 30
0.0
 11
22.95038471403353
 21
12.45230733708257
 31
0.0
  0
LWPOLYLINE
  5
F3
330
2
100
AcDbEntity
  8
0
100
AcDbPolyline
 90
        9
 70
   128
 43
0.0
 10
24.97373061030038
 20
11.24378704854837
 10
25.04325643341531
 20
11.25558746691962
 10
25.11652156758152
 20
11.25318644162871
 10
25.18237206030943
 20
11.23694950698751
 10
25.23078277096642
 20
11.20934858909567
 10
25.25438360770886
 20
11.17458567756171
 10
25.24958155712705
 20
11.1379531104551
 10
25.21710768784465
 20
11.10502786409114
 10
25.16190585210802
 20
11.08082250878618
  0
LINE
  5
F4
330
2
100
AcDbEntity
  8
0
100
AcDbLine
 10
24.81076607053819
 20
11.19674323809647
 30
0.0
 11
24.97373061030038
 21
11.24378704854837
 31
0.0
  0
LWPOLYLINE
  5
F5
330
2
100
AcDbEntity
  8
0
100
AcDbPolyline
 90
        9
 70
   128
 43
0.0
 10
24.99894131234578
 20
11.03377869833429
 10
24.92941548918384
 20
11.02197827996303
 10
24.85615035501769
 20
11.024379305254
 10
24.79029986233678
 20
11.04061623989514
 10
24.74188915163273
 20
11.06821715773992
 10
24.71828831489029
 20
11.10298006932095
 10
24.72309036547211
 20
11.1396126364275
 10
24.7555642347545
 20
11.17253788274445
 10
24.81076607053819
 20
11.19674323809647
  0
LINE
  5
F6
330
2
100
AcDbEntity
  8
0
100
AcDbLine
 10
25.16190585210802
 20
11.08082250878618
 30
0.0
 11
24.99894131234578
 21
11.03377869833429
 31
0.0
  0
ARC
  5
F7
330
2
100
AcDbEntity
  8
0
100
AcDbCircle
 10
23.67098445468918
 20
12.54281817519455
 30
0.0
 40
0.1520933465006867
100
AcDbArc
 50
57.13635930490134
 51
107.602160270297
  0
LINE
  5
F8
330
2
100
AcDbEntity
  8
0
100
AcDbLine
 10
22.89165011110146
 20
13.25017481653481
 30
0.0
 11
22.86820339181622
 21
13.24340633168322
 31
0.0
  0
LINE
  5
F9
330
2
100
AcDbEntity
  8
0
100
AcDbLine
 10
22.89165011110146
 20
13.25017481653481
 30
0.0
 11
22.89165011110146
 21
12.85476466416838
 31
0.0
  0
ARC
  5
FA
330
2
100
AcDbEntity
  8
0
100
AcDbCircle
 10
22.88075803019387
 20
12.46316732511178
 30
0.0
 40
0.0298717792023026
100
AcDbArc
 50
177.7649448217996
 51
253.6312154821696
  0
LINE
  5
FB
330
2
100
AcDbEntity
  8
0
100
AcDbLine
 10
22.85090897619614
 20
12.46433230001605
 30
0.0
 11
22.85090897619614
 21
12.55469612926282
 31
0.0
  0
LINE
  5
FC
330
2
100
AcDbEntity
  8
0
100
AcDbLine
 10
23.62499054010198
 20
12.68779039966261
 30
0.0
 11
22.94316817693601
 21
12.49096523721704
 31
0.0
  0
LINE
  5
FD
330
2
100
AcDbEntity
  8
0
100
AcDbLine
 10
26.9524957311412
 20
9.900173993884607
 30
0.0
 11
23.75351662041146
 21
12.67057116993624
 31
0.0
  0
ARC
  5
FE
330
2
100
AcDbEntity
  8
0
100
AcDbCircle
 10
26.17394584379838
 20
9.613579516296624
 30
0.0
 40
0.0319755611085073
100
AcDbArc
 50
231.2220787148986
 51
289.6851342021999
  0
LWPOLYLINE
  5
FF
330
2
100
AcDbEntity
  8
0
100
AcDbPolyline
 90
       14
 70
   128
 43
0.0
 10
23.19716088610164
 20
12.56428661668292
 10
23.19743487903884
 20
12.57794608996278
 10
23.18848238696262
 20
12.66365396236386
 10
23.16298784636911
 20
12.7518197593094
 10
23.12483257005135
 20
12.82902103742924
 10
23.0798253529091
 20
12.88350460205805
 10
23.03481813581379
 20
12.90697582425849
 10
22.99666285949604
 20
12.89586142324111
 10
22.97116831890253
 20
12.8518534658877
 10
22.9622158267793
 20
12.78165176467729
 10
22.97116831890253
 20
12.6959438922762
 10
22.99666285949604
 20
12.60777809533067
 10
23.03481813581379
 20
12.53057681721083
 10
23.04210242209933
 20
12.51952509374411
  0
ARC
  5
100
330
2
100
AcDbEntity
  8
0
100
AcDbCircle
 10
22.9573115638753
 20
13.31053056543402
 30
0.0
 40
0.0891865618120468
100
AcDbArc
 50
179.5143498991009
 51
222.5890989716006
  0
LINE
  5
101
330
2
100
AcDbEntity
  8
0
100
AcDbLine
 10
22.86812820587545
 20
14.69648510696561
 30
0.0
 11
22.86812820587545
 21
14.24366652852791
 31
0.0
  0
LINE
  5
102
330
2
100
AcDbEntity
  8
0
100
AcDbLine
 10
22.86812820587545
 20
13.5964744635354
 30
0.0
 11
22.86812820587545
 21
13.31128651891623
 31
0.0
  0
LINE
  5
103
330
2
100
AcDbEntity
  8
0
100
AcDbLine
 10
2.928493989454693
 20
7.487308036176045
 30
0.0
 11
2.96923512440702
 21
7.499068988789076
 31
0.0
  0
ARC
  5
104
330
2
100
AcDbEntity
  8
0
100
AcDbCircle
 10
2.994155442228588
 20
7.547663785075314
 30
0.0
 40
0.0891865618121649
100
AcDbArc
 50
179.5143498991009
 51
222.5890989716006
  0
LINE
  5
105
330
2
100
AcDbEntity
  8
0
100
AcDbLine
 10
22.78873790355772
 20
13.22046662116003
 30
0.0
 11
2.96923512440702
 21
7.499068988789076
 31
0.0
  0
LINE
  5
106
330
2
100
AcDbEntity
  8
0
100
AcDbLine
 10
22.46071685649349
 20
14.25294650131138
 30
0.0
 11
22.46071685649349
 21
14.57887558083581
 31
0.0
  0
LINE
  5
107
330
2
100
AcDbEntity
  8
0
100
AcDbLine
 10
22.76514015571598
 20
14.74823728758963
 30
0.0
 11
22.78664593601786
 21
14.7544454716442
 31
0.0
  0
ARC
  5
108
330
2
100
AcDbEntity
  8
0
100
AcDbCircle
 10
22.80843009783291
 20
14.69881505667996
 30
0.0
 40
0.059743558404607
100
AcDbArc
 50
357.7649448217997
 51
111.3846782331983
  0
LINE
  5
109
330
2
100
AcDbEntity
  8
0
100
AcDbLine
 10
2.904972084228745
 20
8.933618326606847
 30
0.0
 11
2.904972084228745
 21
7.548419738557527
 31
0.0
  0
ARC
  5
10A
330
2
100
AcDbEntity
  8
0
100
AcDbCircle
 10
3.020749076162871
 20
8.927893282297418
 30
0.0
 40
0.1159184540797939
100
AcDbArc
 50
107.2086421099016
 51
177.1690928843994
  0
LINE
  5
10B
330
2
100
AcDbEntity
  8
0
100
AcDbLine
 10
2.986454354133343
 20
9.038622501737449
 30
0.0
 11
5.040730330957899
 21
9.631640895809141
 31
0.0
  0
LINE
  5
10C
330
2
100
AcDbEntity
  8
0
100
AcDbLine
 10
22.17552891187432
 20
14.49654891254499
 30
0.0
 11
22.17552891187432
 21
14.17061983302051
 31
0.0
  0
LINE
  5
10D
330
2
100
AcDbEntity
  8
0
100
AcDbLine
 10
22.17552891187432
 20
14.17061983302051
 30
0.0
 11
22.46071685649349
 21
14.25294650131138
 31
0.0
  0
LINE
  5
10E
330
2
100
AcDbEntity
  8
0
100
AcDbLine
 10
22.46071685649349
 20
13.68257061212011
 30
0.0
 11
22.46071685649349
 21
13.84553515188236
 31
0.0
  0
LINE
  5
10F
330
2
100
AcDbEntity
  8
0
100
AcDbLine
 10
22.46071685649349
 20
13.84553515188236
 30
0.0
 11
22.17552891187432
 21
13.76320848359148
 31
0.0
  0
LINE
  5
110
330
2
100
AcDbEntity
  8
0
100
AcDbLine
 10
22.17552891187432
 20
13.76320848359148
 30
0.0
 11
22.17552891187432
 21
13.6002439438293
 31
0.0
  0
LINE
  5
111
330
2
100
AcDbEntity
  8
0
100
AcDbLine
 10
22.17552891187432
 20
13.6002439438293
 30
0.0
 11
22.46071685649349
 21
13.68257061212011
 31
0.0
  0
LINE
  5
112
330
2
100
AcDbEntity
  8
0
100
AcDbLine
 10
2.96923512440702
 20
7.499068988789076
 30
0.0
 11
6.262301856040608
 21
4.647189542832791
 31
0.0
  0
ARC
  5
113
330
2
100
AcDbEntity
  8
0
100
AcDbCircle
 10
26.93384451252268
 20
9.875040289713979
 30
0.0
 40
0.031298099631567
100
AcDbArc
 50
2.95194104660141
 51
53.42162981749773
  0
LINE
  5
114
330
2
100
AcDbEntity
  8
0
100
AcDbLine
 10
2.195153560501239
 20
6.501529325236731
 30
0.0
 11
2.928493989454693
 21
6.713226472270321
 31
0.0
  0
LINE
  5
115
330
2
100
AcDbEntity
  8
0
100
AcDbLine
 10
2.928493989454693
 20
6.713226472270321
 30
0.0
 11
2.928493989454693
 21
7.487308036176045
 31
0.0
  0
LINE
  5
116
330
2
100
AcDbEntity
  8
0
100
AcDbLine
 10
2.96923512440702
 20
6.724987424883238
 30
0.0
 11
2.96923512440702
 21
7.499068988789076
 31
0.0
  0
ARC
  5
117
330
2
100
AcDbEntity
  8
0
100
AcDbCircle
 10
2.911346628416424
 20
6.727849947038009
 30
0.0
 40
0.0579592270398934
100
AcDbArc
 50
287.2086421099016
 51
357.1690928842982
  0
LINE
  5
118
330
2
100
AcDbEntity
  8
0
100
AcDbLine
 10
2.195153560501239
 20
6.460788190284404
 30
0.0
 11
2.928493989454693
 21
6.672485337317993
 31
0.0
  0
LINE
  5
119
330
2
100
AcDbEntity
  8
0
100
AcDbLine
 10
2.96923512440702
 20
6.724987424883238
 30
0.0
 11
6.262301856040608
 21
3.873107978927009
 31
0.0
  0
ARC
  5
11A
330
2
100
AcDbEntity
  8
0
100
AcDbCircle
 10
6.204413360050011
 20
3.875970501081724
 30
0.0
 40
0.0579592270398565
100
AcDbArc
 50
287.2086421097994
 51
357.1690928843994
  0
ARC
  5
11B
330
2
100
AcDbEntity
  8
0
100
AcDbCircle
 10
5.442226377547569
 20
3.753880968796238
 30
0.0
 40
0.1520933465003142
100
AcDbArc
 50
237.1363593048006
 51
287.6021602703005
  0
LINE
  5
11C
330
2
100
AcDbEntity
  8
0
100
AcDbLine
 10
5.359694211778219
 20
3.626127974054497
 30
0.0
 11
2.160715101048481
 21
6.396525150106185
 31
0.0
  0
LWPOLYLINE
  5
11D
330
2
100
AcDbEntity
  8
0
100
AcDbPolyline
 90
        9
 70
   128
 43
0.0
 10
2.195153560501239
 20
6.460788190284404
 10
2.180161091866921
 20
6.455416464749816
 10
2.167552642609393
 20
6.448685512608449
 10
2.157812748451931
 20
6.440854000629428
 10
2.151315707968194
 20
6.432222889426384
 10
2.148311198890439
 20
6.423123867735739
 10
2.148914682677286
 20
6.413906605896613
 10
2.153102967906306
 20
6.404925318068876
 10
2.160715101048481
 20
6.396525150106185
  0
LINE
  5
11E
330
2
100
AcDbEntity
  8
0
100
AcDbLine
 10
6.22156072108828
 20
3.820605891361765
 30
0.0
 11
5.488220292134769
 21
3.608908744328118
 31
0.0
  0
LINE
  5
11F
330
2
100
AcDbEntity
  8
0
100
AcDbLine
 10
3.951304980128725
 20
5.175135500252281
 30
0.0
 11
4.11426951989091
 21
5.222179310704177
 31
0.0
  0
LWPOLYLINE
  5
120
330
2
100
AcDbEntity
  8
0
100
AcDbPolyline
 90
        9
 70
   128
 43
0.0
 10
4.139480221936366
 20
5.012170960490038
 10
4.069954398821437
 20
5.000370542118844
 10
3.99668926465523
 20
5.002771567409752
 10
3.930838771927312
 20
5.019008502050951
 10
3.882428061270331
 20
5.04660941989573
 10
3.858827224480819
 20
5.0813723314767
 10
3.863629275109701
 20
5.118004898583308
 10
3.8961031443921
 20
5.150930144900257
 10
3.951304980128725
 20
5.175135500252281
  0
LINE
  5
121
330
2
100
AcDbEntity
  8
0
100
AcDbLine
 10
4.302444761698552
 20
5.059214770941935
 30
0.0
 11
4.139480221936366
 21
5.012170960490038
 31
0.0
  0
LWPOLYLINE
  5
122
330
2
100
AcDbEntity
  8
0
100
AcDbPolyline
 90
        9
 70
   128
 43
0.0
 10
4.11426951989091
 20
5.222179310704177
 10
4.18379534300584
 20
5.233979729075372
 10
4.257060477172046
 20
5.231578703784464
 10
4.322910969900021
 20
5.215341769143265
 10
4.371321680556945
 20
5.187740851251419
 10
4.394922517346458
 20
5.152977939717516
 10
4.390120466717576
 20
5.116345372610908
 10
4.357646597435177
 20
5.083420126246949
 10
4.302444761698552
 20
5.059214770941935
  0
LINE
  5
123
330
2
100
AcDbEntity
  8
0
100
AcDbLine
 10
6.262301856040608
 20
3.873107978927009
 30
0.0
 11
6.262301856040608
 21
4.647189542832791
 31
0.0
  0
LWPOLYLINE
  5
124
330
2
100
AcDbEntity
  8
0
100
AcDbPolyline
 90
       17
 70
   128
 43
0.0
 10
6.074126614232909
 20
4.40274273316595
 10
6.065174122109738
 20
4.488450605567095
 10
6.039679581563234
 20
4.576616402512627
 10
6.001524305245425
 20
4.653817680632414
 10
5.956517088103169
 20
4.708301245214215
 10
5.911509870960912
 20
4.731772467414657
 10
5.873354594643103
 20
4.720658066444286
 10
5.847860054096599
 20
4.676650109090871
 10
5.838907561973428
 20
4.60644840788052
 10
5.847860054096599
 20
4.520740535479376
 10
5.873354594643103
 20
4.432574738533844
 10
5.911509870960912
 20
4.355373460414057
 10
5.956517088103169
 20
4.300889895832256
 10
6.001524305245425
 20
4.277418673584747
 10
6.039679581563234
 20
4.288533074602185
 10
6.065174122109738
 20
4.332541031955543
 10
6.074126614232909
 20
4.40274273316595
  0
LWPOLYLINE
  5
125
330
2
100
AcDbEntity
  8
0
100
AcDbPolyline
 90
        7
 70
   128
 43
0.0
 10
2.148109750049343
 20
6.460788190284404
 10
2.148311198890439
 20
6.46386500268801
 10
2.151315707968194
 20
6.472964024378711
 10
2.157812748451931
 20
6.481595135581756
 10
2.167552642609393
 20
6.489426647560719
 10
2.180161091866921
 20
6.496157599655134
 10
2.195153560501239
 20
6.501529325236731
  0
LINE
  5
126
330
2
100
AcDbEntity
  8
0
100
AcDbLine
 10
23.40087973651725
 20
11.92777981357216
 30
0.0
 11
23.43991542932684
 21
11.93904844743986
 31
0.0
  0
ARC
  5
127
330
2
100
AcDbEntity
  8
0
100
AcDbCircle
 10
23.42787360183172
 20
12.03431430240476
 30
0.0
 40
0.1099011650158768
100
AcDbArc
 50
174.8060479850003
 51
255.7815548996993
  0
LINE
  5
128
330
2
100
AcDbEntity
  8
0
100
AcDbLine
 10
23.542011167873
 20
11.80555640876224
 30
0.0
 11
23.58104686068259
 21
11.81682504262994
 31
0.0
  0
LWPOLYLINE
  5
129
330
2
100
AcDbEntity
  8
0
100
AcDbPolyline
 90
        3
 70
   128
 43
0.0
 10
23.49623373412971
 20
11.82810341310801
 10
23.51414609244642
 20
11.81576910050654
 10
23.542011167873
 20
11.80555640876224
  0
LWPOLYLINE
  5
12A
330
2
100
AcDbEntity
  8
0
100
AcDbPolyline
 90
       11
 70
   128
 43
0.0
 10
8.536022315216428
 20
9.96100310135688
 10
8.613335008645947
 20
9.925958130482968
 10
8.655937278784108
 20
9.870114922486152
 10
8.671047191021102
 20
9.795547077747755
 10
8.656624067938764
 20
9.712325396917265
 10
8.614615832320566
 20
9.63168942912074
 10
8.550695929084213
 20
9.564529508670091
 10
8.473497095407822
 20
9.519915954980433
 10
8.393445461509429
 20
9.503874075644262
 10
8.321352444156559
 20
9.518570415346857
 10
8.273448092376042
 20
9.554103792672833
  0
LWPOLYLINE
  5
12B
330
2
100
AcDbEntity
  8
0
100
AcDbPolyline
 90
       11
 70
   128
 43
0.0
 10
20.08855654783827
 20
13.25227629083309
 10
20.12536861827186
 20
13.2193473259382
 10
20.15563290540342
 20
13.15363738209805
 10
20.1569603382037
 20
13.07366857197996
 10
20.12917163957945
 20
12.99024112655627
 10
20.07601982726652
 20
12.91462238462566
 10
20.00468334796221
 20
12.8570250762732
 10
19.92479658855342
 20
12.82522803711185
 10
19.84714869856071
 20
12.82352563357585
 10
19.78553365577545
 20
12.85410445098875
 10
19.765157463636
 20
12.87301758915595
  0
LINE
  5
12C
330
2
100
AcDbEntity
  8
0
100
AcDbLine
 10
23.10334725813504
 20
13.06683970929646
 30
0.0
 11
22.89165011110146
 21
13.25017481653481
 31
0.0
  0
POLYLINE
  5
12D
330
2
100
AcDbEntity
  8
0
100
AcDb2dPolyline
 66
     1
 10
0.0
 20
0.0
 30
0.0
 70
     2
  0
VERTEX
  5
12E
330
12D
100
AcDbEntity
  8
0
100
AcDbVertex
100
AcDb2dVertex
 10
23.2760808826722
 20
14.0512660596143
 30
0.0
 42
-0.1021715648489305
  0
VERTEX
  5
12F
330
12D
100
AcDbEntity
  8
0
100
AcDbVertex
100
AcDb2dVertex
 10
23.88526619989335
 20
15.34879220326877
 30
0.0
 42
-0.1402348851668386
 70
     1
  0
VERTEX
  5
130
330
12D
100
AcDbEntity
  8
0
100
AcDbVertex
100
AcDb2dVertex
 10
24.72453016185045
 20
15.98621917910771
 30
0.0
 42
-0.0151046782331631
  0
VERTEX
  5
131
330
12D
100
AcDbEntity
  8
0
100
AcDbVertex
100
AcDb2dVertex
 10
25.46320056259447
 20
16.24809464123677
 30
0.0
 42
-0.0240743899875017
 70
     1
  0
VERTEX
  5
132
330
12D
100
AcDbEntity
  8
0
100
AcDbVertex
100
AcDb2dVertex
 10
25.93825959276478
 20
16.37566761564324
 30
0.0
 42
-0.0304869064179696
  0
VERTEX
  5
133
330
12D
100
AcDbEntity
  8
0
100
AcDbVertex
100
AcDb2dVertex
 10
27.27915068900723
 20
16.5827932131653
 30
0.0
 42
-0.0473111164526355
 70
     1
  0
VERTEX
  5
134
330
12D
100
AcDbEntity
  8
0
100
AcDbVertex
100
AcDb2dVertex
 10
28.15459902206089
 20
16.58082405017137
 30
0.0
 42
-0.0610484988955406
  0
VERTEX
  5
135
330
12D
100
AcDbEntity
  8
0
100
AcDbVertex
100
AcDb2dVertex
 10
29.07087057574916
 20
16.37713338740269
 30
0.0
 42
-0.041177697889498
 70
     1
  0
VERTEX
  5
136
330
12D
100
AcDbEntity
  8
0
100
AcDbVertex
100
AcDb2dVertex
 10
30.33724008395097
 20
15.80704275009691
 30
0.0
 42
-0.0264921049778541
  0
VERTEX
  5
137
330
12D
100
AcDbEntity
  8
0
100
AcDbVertex
100
AcDb2dVertex
 10
30.52414805282342
 20
15.69030773881189
 30
0.0
 42
-0.0143331168127786
 70
     1
  0
VERTEX
  5
138
330
12D
100
AcDbEntity
  8
0
100
AcDbVertex
100
AcDb2dVertex
 10
30.85070564333648
 20
15.44721289375434
 30
0.0
  0
SEQEND
  5
139
330
12D
100
AcDbEntity
  8
0
  0
POLYLINE
  5
13A
330
2
100
AcDbEntity
  8
0
100
AcDb2dPolyline
 66
     1
 10
0.0
 20
0.0
 30
0.0
  0
VERTEX
  5
13B
330
13A
100
AcDbEntity
  8
0
100
AcDbVertex
100
AcDb2dVertex
 10
23.4032274336277
 20
13.77225848901463
 30
0.0
 42
-0.1203705154051686
  0
VERTEX
  5
13C
330
13A
100
AcDbEntity
  8
0
100
AcDbVertex
100
AcDb2dVertex
 10
24.02936499813137
 20
15.24092405993463
 30
0.0
 42
-0.1402348851668384
  0
VERTEX
  5
13D
330
13A
100
AcDbEntity
  8
0
100
AcDbVertex
100
AcDb2dVertex
 10
24.78977284933808
 20
15.81845925621371
 30
0.0
 42
-0.015104678233163
  0
VERTEX
  5
13E
330
13A
100
AcDbEntity
  8
0
100
AcDbVertex
100
AcDb2dVertex
 10
25.51819531902101
 20
16.07670159363681
 30
0.0
 42
-0.0240743899875017
  0
VERTEX
  5
13F
330
13A
100
AcDbEntity
  8
0
100
AcDbVertex
100
AcDb2dVertex
 10
25.97652359254539
 20
16.19978166873221
 30
0.0
 42
-0.0304869064179695
  0
VERTEX
  5
140
330
13A
100
AcDbEntity
  8
0
100
AcDbVertex
100
AcDb2dVertex
 10
27.29574154161503
 20
16.40355944511435
 30
0.0
 42
-0.0473111164526357
  0
VERTEX
  5
141
330
13A
100
AcDbEntity
  8
0
100
AcDbVertex
100
AcDb2dVertex
 10
28.13720203339864
 20
16.40166673163406
 30
0.0
 42
-0.0610484988955405
  0
VERTEX
  5
142
330
13A
100
AcDbEntity
  8
0
100
AcDbVertex
100
AcDb2dVertex
 10
29.01072542419092
 20
16.20747914859907
 30
0.0
 42
-0.0411776978894979
  0
VERTEX
  5
143
330
13A
100
AcDbEntity
  8
0
100
AcDbVertex
100
AcDb2dVertex
 10
30.25010589143938
 20
15.64953836128393
 30
0.0
 42
-0.0264921049778542
  0
VERTEX
  5
144
330
13A
100
AcDbEntity
  8
0
100
AcDbVertex
100
AcDb2dVertex
 10
30.42084701204505
 20
15.54290049687955
 30
0.0
 42
-0.0002129631067991
  0
VERTEX
  5
145
330
13A
100
AcDbEntity
  8
0
100
AcDbVertex
100
AcDb2dVertex
 10
30.42567457490901
 20
15.53951433793162
 30
0.0
 42
-0.0143331168127786
  0
SEQEND
  5
146
330
13A
100
AcDbEntity
  8
0
  0
POLYLINE
  5
147
330
2
100
AcDbEntity
  8
0
100
AcDb2dPolyline
 66
     1
 10
0.0
 20
0.0
 30
0.0
 70
     2
  0
VERTEX
  5
148
330
147
100
AcDbEntity
  8
0
100
AcDbVertex
100
AcDb2dVertex
 10
23.36438270691218
 20
12.0044617038987
 30
0.0
 42
-0.0414532600314437
  0
VERTEX
  5
149
330
147
100
AcDbEntity
  8
0
100
AcDbVertex
100
AcDb2dVertex
 10
23.26321346121677
 20
12.02027365526288
 30
0.0
 42
-0.0534921460435355
 70
     1
  0
VERTEX
  5
14A
330
147
100
AcDbEntity
  8
0
100
AcDbVertex
100
AcDb2dVertex
 10
23.18844612803287
 20
12.04712435273359
 30
0.0
 42
-0.0567098122655225
  0
VERTEX
  5
14B
330
147
100
AcDbEntity
  8
0
100
AcDbVertex
100
AcDb2dVertex
 10
23.05356851038118
 20
12.13262068172548
 30
0.0
 42
-0.0646886503568818
 70
     1
  0
VERTEX
  5
14C
330
147
100
AcDbEntity
  8
0
100
AcDbVertex
100
AcDb2dVertex
 10
22.95669076733111
 20
12.23386928864579
 30
0.0
 42
-0.1108320275586533
  0
VERTEX
  5
14D
330
147
100
AcDbEntity
  8
0
100
AcDbVertex
100
AcDb2dVertex
 10
22.87522437443818
 20
12.41958742341484
 30
0.0
 42
-0.0343477399619554
 70
     1
  0
VERTEX
  5
14E
330
147
100
AcDbEntity
  8
0
100
AcDbVertex
100
AcDb2dVertex
 10
22.79520860389857
 20
13.06183285795441
 30
0.0
 42
-0.0292339831702748
  0
VERTEX
  5
14F
330
147
100
AcDbEntity
  8
0
100
AcDbVertex
100
AcDb2dVertex
 10
22.79723515595583
 20
13.70092883624704
 30
0.0
 42
-0.0341450399889571
 70
     1
  0
VERTEX
  5
150
330
147
100
AcDbEntity
  8
0
100
AcDbVertex
100
AcDb2dVertex
 10
22.86812820587545
 20
14.24366652852791
 30
0.0
 42
-0.0663863561877781
  0
VERTEX
  5
151
330
147
100
AcDbEntity
  8
0
100
AcDbVertex
100
AcDb2dVertex
 10
23.05543173041036
 20
14.7892033579281
 30
0.0
 42
-0.0469898791063305
 70
     1
  0
VERTEX
  5
152
330
147
100
AcDbEntity
  8
0
100
AcDbVertex
100
AcDb2dVertex
 10
23.48542043301859
 20
15.47930684933942
 30
0.0
 42
-0.0601413285160817
  0
VERTEX
  5
153
330
147
100
AcDbEntity
  8
0
100
AcDbVertex
100
AcDb2dVertex
 10
24.01739066343186
 20
16.02653045791692
 30
0.0
 42
-0.0676351412523932
 70
     1
  0
VERTEX
  5
154
330
147
100
AcDbEntity
  8
0
100
AcDbVertex
100
AcDb2dVertex
 10
24.59848945903332
 20
16.37828646335765
 30
0.0
 42
-0.0579927214661317
  0
VERTEX
  5
155
330
147
100
AcDbEntity
  8
0
100
AcDbVertex
100
AcDb2dVertex
 10
25.51668248792589
 20
16.65569882279249
 30
0.0
 42
-0.0365328337670248
 70
     1
  0
VERTEX
  5
156
330
147
100
AcDbEntity
  8
0
100
AcDbVertex
100
AcDb2dVertex
 10
27.02793530365648
 20
16.81423209081311
 30
0.0
 42
-0.0156336342842372
  0
VERTEX
  5
157
330
147
100
AcDbEntity
  8
0
100
AcDbVertex
100
AcDb2dVertex
 10
28.1983612835607
 20
16.81449157588111
 30
0.0
 42
-0.0345283634814631
 70
     1
  0
VERTEX
  5
158
330
147
100
AcDbEntity
  8
0
100
AcDbVertex
100
AcDb2dVertex
 10
28.72615108167503
 20
16.76149740341952
 30
0.0
 42
-0.0416905057633737
  0
VERTEX
  5
159
330
147
100
AcDbEntity
  8
0
100
AcDbVertex
100
AcDb2dVertex
 10
29.02702674936063
 20
16.68389054463228
 30
0.0
 42
-0.0147734063815939
 70
     1
  0
VERTEX
  5
15A
330
147
100
AcDbEntity
  8
0
100
AcDbVertex
100
AcDb2dVertex
 10
29.84478253811244
 20
16.37111577953101
 30
0.0
 42
-0.0769052624500936
  0
VERTEX
  5
15B
330
147
100
AcDbEntity
  8
0
100
AcDbVertex
100
AcDb2dVertex
 10
30.50277823622292
 20
15.96917408717814
 30
0.0
 42
-0.0555888966559762
 70
     1
  0
VERTEX
  5
15C
330
147
100
AcDbEntity
  8
0
100
AcDbVertex
100
AcDb2dVertex
 10
31.23394780597732
 20
15.19658270792945
 30
0.0
  0
SEQEND
  5
15D
330
147
100
AcDbEntity
  8
0
  0
POLYLINE
  5
15E
330
2
100
AcDbEntity
  8
0
100
AcDb2dPolyline
 66
     1
 10
0.0
 20
0.0
 30
0.0
  0
VERTEX
  5
15F
330
15E
100
AcDbEntity
  8
0
100
AcDbVertex
100
AcDb2dVertex
 10
23.24112923685425
 20
12.11120234007365
 30
0.0
 42
-0.0166317819416726
  0
VERTEX
  5
160
330
15E
100
AcDbEntity
  8
0
100
AcDbVertex
100
AcDb2dVertex
 10
23.22336302773749
 20
12.11910219734579
 30
0.0
 42
-0.0567098122655217
  0
VERTEX
  5
161
330
15E
100
AcDbEntity
  8
0
100
AcDbVertex
100
AcDb2dVertex
 10
23.10376353158216
 20
12.19491401882209
 30
0.0
 42
-0.0646886503568804
  0
VERTEX
  5
162
330
15E
100
AcDbEntity
  8
0
100
AcDbVertex
100
AcDb2dVertex
 10
23.02113712576443
 20
12.2812683064065
 30
0.0
 42
-0.1108320275586528
  0
VERTEX
  5
163
330
15E
100
AcDbEntity
  8
0
100
AcDbVertex
100
AcDb2dVertex
 10
22.95374489970766
 20
12.43490170143912
 30
0.0
 42
-0.0343477399619553
  0
VERTEX
  5
164
330
15E
100
AcDbEntity
  8
0
100
AcDbVertex
100
AcDb2dVertex
 10
22.875086398284
 20
13.06625303488727
 30
0.0
 42
-0.0292339831702745
  0
VERTEX
  5
165
330
15E
100
AcDbEntity
  8
0
100
AcDbVertex
100
AcDb2dVertex
 10
22.87708331182449
 20
13.69600217364683
 30
0.0
 42
-0.0341450399889571
  0
VERTEX
  5
166
330
15E
100
AcDbEntity
  8
0
100
AcDbVertex
100
AcDb2dVertex
 10
22.94656281053438
 20
14.22791810663875
 30
0.0
 42
-0.066386356187778
  0
VERTEX
  5
167
330
15E
100
AcDbEntity
  8
0
100
AcDbVertex
100
AcDb2dVertex
 10
23.12699813234474
 20
14.75345073404992
 30
0.0
 42
-0.0469898791063304
  0
VERTEX
  5
168
330
15E
100
AcDbEntity
  8
0
100
AcDbVertex
100
AcDb2dVertex
 10
23.5490525277761
 20
15.43082018605179
 30
0.0
 42
-0.0601413285160817
  0
VERTEX
  5
169
330
15E
100
AcDbEntity
  8
0
100
AcDbVertex
100
AcDb2dVertex
 10
24.06765635706893
 20
15.96429413377109
 30
0.0
 42
-0.0676351412523929
  0
VERTEX
  5
16A
330
15E
100
AcDbEntity
  8
0
100
AcDbVertex
100
AcDb2dVertex
 10
24.63032420806815
 20
16.30489335227838
 30
0.0
 42
-0.057992721466132
  0
VERTEX
  5
16B
330
15E
100
AcDbEntity
  8
0
100
AcDbVertex
100
AcDb2dVertex
 10
25.53081219802522
 20
16.57695651337428
 30
0.0
 42
-0.0365328337670247
  0
VERTEX
  5
16C
330
15E
100
AcDbEntity
  8
0
100
AcDbVertex
100
AcDb2dVertex
 10
27.03045380130914
 20
16.73427174333028
 30
0.0
 42
-0.0156336342842372
  0
VERTEX
  5
16D
330
15E
100
AcDbEntity
  8
0
100
AcDbVertex
100
AcDb2dVertex
 10
28.19587824079446
 20
16.73453011954979
 30
0.0
 42
-0.0345283634814631
  0
VERTEX
  5
16E
330
15E
100
AcDbEntity
  8
0
100
AcDbVertex
100
AcDb2dVertex
 10
28.7126873330443
 20
16.6826384947737
 30
0.0
 42
-0.0416905057633739
  0
VERTEX
  5
16F
330
15E
100
AcDbEntity
  8
0
100
AcDbVertex
100
AcDb2dVertex
 10
29.00066726436478
 20
16.60835791889508
 30
0.0
 42
-0.014773406381594
  0
VERTEX
  5
170
330
15E
100
AcDbEntity
  8
0
100
AcDbVertex
100
AcDb2dVertex
 10
29.8140084821984
 20
16.29727163634686
 30
0.0
 42
-0.0769052624500935
  0
VERTEX
  5
171
330
15E
100
AcDbEntity
  8
0
100
AcDbVertex
100
AcDb2dVertex
 10
30.45112629631234
 20
15.9080833587206
 30
0.0
 42
-0.0428538263264495
  0
VERTEX
  5
172
330
15E
100
AcDbEntity
  8
0
100
AcDbVertex
100
AcDb2dVertex
 10
31.0208047036229
 20
15.33597263043248
 30
0.0
 42
-0.0555888966559763
  0
SEQEND
  5
173
330
15E
100
AcDbEntity
  8
0
  0
ELLIPSE
  5
174
330
2
100
AcDbEntity
  8
0
100
AcDbEllipse
 10
30.18247488735591
 20
15.92592123343746
 30
0.0
 11
-0.1334392043650503
 21
-0.2034698444577252
 31
0.0
210
0.0
220
0.0
230
1.0
 40
0.5092318330065251
 41
4.047530585850005
 42
4.895703548825608
  0
ELLIPSE
  5
175
330
2
100
AcDbEntity
  8
0
100
AcDbEllipse
 10
30.18247488735591
 20
15.92592123343746
 30
0.0
 11
-0.1334392043650503
 21
-0.2034698444577252
 31
0.0
210
0.0
220
0.0
230
1.0
 40
0.5092318330065251
 41
5.823529279524009
 42
9.753465158087076
  0
ELLIPSE
  5
176
330
2
100
AcDbEntity
  8
0
100
AcDbEllipse
 10
28.28271565563852
 20
16.5871972375084
 30
0.0
 11
-0.0025536674180557
 21
-0.2463209459053246
 31
0.0
210
0.0
220
0.0
230
1.0
 40
0.6140923423940882
 41
4.072550549257027
 42
4.735735162952433
  0
ELLIPSE
  5
177
330
2
100
AcDbEntity
  8
0
100
AcDbEllipse
 10
28.28271565563852
 20
16.5871972375084
 30
0.0
 11
-0.0025536674180557
 21
-0.2463209459053246
 31
0.0
210
0.0
220
0.0
230
1.0
 40
0.6140923423940882
 41
5.603247796619286
 42
9.836220615497042
  0
ELLIPSE
  5
178
330
2
100
AcDbEntity
  8
0
100
AcDbEllipse
 10
25.82093395748268
 20
16.43894284918508
 30
0.0
 11
0.1039623937621705
 21
-0.2506830558263111
 31
0.0
210
0.0
220
0.0
230
1.0
 40
0.5574525040044044
 41
3.818668700574481
 42
4.962192156899623
  0
ELLIPSE
  5
179
330
2
100
AcDbEntity
  8
0
100
AcDbEllipse
 10
25.82093395748268
 20
16.43894284918508
 30
0.0
 11
0.1039623937621705
 21
-0.2506830558263111
 31
0.0
210
0.0
220
0.0
230
1.0
 40
0.5574525040044044
 41
6.09770476821694
 42
9.424777960769379
  0
ELLIPSE
  5
17A
330
2
100
AcDbEntity
  8
0
100
AcDbEllipse
 10
23.65248479865556
 20
15.2339647332322
 30
0.0
 11
0.2335228428697746
 21
-0.2340161856832879
 31
0.0
210
0.0
220
0.0
230
1.0
 40
0.6276557829868592
 41
2.683156953405356
 42
6.777500008209736
  0
ELLIPSE
  5
17B
330
2
100
AcDbEntity
  8
0
100
AcDbEllipse
 10
23.65248479865556
 20
15.2339647332322
 30
0.0
 11
0.2335228428697746
 21
-0.2340161856832879
 31
0.0
210
0.0
220
0.0
230
1.0
 40
0.6276557829868592
 41
7.577772338869297
 42
8.594464733335058
  0
ARC
  5
17C
330
2
100
AcDbEntity
  8
0
100
AcDbCircle
 10
24.38321537044124
 20
22.6768223455598
 30
0.0
 40
10.24298160239089
100
AcDbArc
 50
264.922251413314
 51
304.2399334967955
  0
LINE
  5
17D
330
2
100
AcDbEntity
  8
0
100
AcDbLine
 10
30.50000293935142
 20
15.60388439699341
 30
0.0
 11
29.55912674924718
 21
14.78906179975382
 31
0.0
  0
LINE
  5
17E
330
2
100
AcDbEntity
  8
0
100
AcDbLine
 10
52.11014922771574
 20
14.7890618651918
 30
0.0
 11
51.1692730099968
 21
15.60388457152584
 31
0.0
  0
LINE
  5
17F
330
2
100
AcDbEntity
  8
0
100
AcDbLine
 10
42.11915914913265
 20
18.49513684118028
 30
0.0
 11
42.11915914913265
 21
24.45657417489969
 31
0.0
  0
LINE
  5
180
330
2
100
AcDbEntity
  8
0
100
AcDbLine
 10
36.89922736069224
 20
23.39786205820661
 30
0.0
 11
36.89922736069224
 21
17.90584328806983
 31
0.0
  0
SPLINE
  5
181
330
2
100
AcDbEntity
  8
0
100
AcDbSpline
210
0.0
220
0.0
230
1.0
 70
     8
 71
     3
 72
    12
 73
     8
 74
     0
 42
0.000000001
 43
0.0000000001
 40
0.0
 40
0.0
 40
0.0
 40
0.0
 40
0.1814296159515067
 40
0.4157921366805314
 40
0.651317690854961
 40
0.8893818789357052
 40
1.0
 40
1.0
 40
1.0
 40
1.0
 10
41.58105244625107
 20
25.17103962965894
 30
0.0
 10
41.55711325757255
 20
25.18917077770505
 30
0.0
 10
41.50225051447058
 20
25.23072291761923
 30
0.0
 10
41.39712457605651
 20
25.26661235864549
 30
0.0
 10
41.27484669771189
 20
25.28143072087534
 30
0.0
 10
41.16880378693742
 20
25.27186608114312
 30
0.0
 10
41.10552266891693
 20
25.25537388756311
 30
0.0
 10
41.08544697769116
 20
25.25014180260155
 30
0.0
  0
LINE
  5
182
330
2
100
AcDbEntity
  8
0
100
AcDbLine
 10
41.95584242607151
 20
24.85042187997493
 30
0.0
 11
41.90665797085898
 21
24.88965614373479
 31
0.0
  0
SPLINE
  5
183
330
2
100
AcDbEntity
  8
0
100
AcDbSpline
210
0.0
220
0.0
230
1.0
 70
     8
 71
     3
 72
    11
 73
     7
 74
     0
 42
0.000000001
 43
0.0000000001
 40
0.0
 40
0.0
 40
0.0
 40
0.0
 40
0.1545074155749009
 40
0.4388241032748181
 40
0.7213343801487503
 40
1.0
 40
1.0
 40
1.0
 40
1.0
 10
42.11915914914692
 20
24.45657417490071
 30
0.0
 10
42.11837448834813
 20
24.48050734371418
 30
0.0
 10
42.11614593465623
 20
24.54848111250754
 30
0.0
 10
42.0911047474778
 20
24.65359419925341
 30
0.0
 10
42.03827409320337
 20
24.76488514187224
 30
0.0
 10
41.98319386222141
 20
24.82204015833696
 30
0.0
 10
41.95584242607151
 20
24.85042187997493
 30
0.0
  0
LINE
  5
184
330
2
100
AcDbEntity
  8
0
100
AcDbLine
 10
41.08544697768633
 20
25.25014180260723
 30
0.0
 11
38.81209150552439
 21
24.59388060566374
 31
0.0
  0
LINE
  5
185
330
2
100
AcDbEntity
  8
0
100
AcDbLine
 10
38.81209150552439
 20
24.59388060566374
 30
0.0
 11
37.54096807603514
 21
24.22693887857383
 31
0.0
  0
SPLINE
  5
186
330
2
100
AcDbEntity
  8
0
100
AcDbSpline
210
0.0
220
0.0
230
1.0
 70
     8
 71
     3
 72
    16
 73
    12
 74
     0
 42
0.000000001
 43
0.0000000001
 40
0.0
 40
0.0
 40
0.0
 40
0.0
 40
0.0698494832221871
 40
0.1990379859354643
 40
0.328518459671637
 40
0.4581529724045595
 40
0.5879256396486147
 40
0.7178827435731071
 40
0.8480731566087108
 40
0.9707890926022678
 40
1.0
 40
1.0
 40
1.0
 40
1.0
 10
37.54096807601945
 20
24.22693887859293
 30
0.0
 10
37.51726386907029
 20
24.21931700644774
 30
0.0
 10
37.44971809218379
 20
24.1975982762458
 30
0.0
 10
37.34083960647343
 20
24.1419607441137
 30
0.0
 10
37.22100067206156
 20
24.05499953153901
 30
0.0
 10
37.11440826869773
 20
23.94837733305644
 30
0.0
 10
37.02531294441951
 20
23.82672194198966
 30
0.0
 10
36.95722656927296
 20
23.69454861614793
 30
0.0
 10
36.91413914023491
 20
23.55970652982637
 30
0.0
 10
36.90011468611283
 20
23.46014541767943
 30
0.0
 10
36.89937045390286
 20
23.40790609064692
 30
0.0
 10
36.8992273607031
 20
23.39786205820065
 30
0.0
  0
SPLINE
  5
187
330
2
100
AcDbEntity
  8
0
100
AcDbSpline
210
0.0
220
0.0
230
1.0
 70
     8
 71
     3
 72
    13
 73
     9
 74
     0
 42
0.000000001
 43
0.0000000001
 40
0.0
 40
0.0
 40
0.0
 40
0.0
 40
0.3055621760691899
 40
0.7002742233282154
 40
1.0
 40
1.0
 40
1.0
 40
1.050026227334905
 40
1.050026227334905
 40
1.050026227334905
 40
1.050026227334905
 10
44.96721414831955
 20
23.32406755187145
 30
0.0
 10
44.94040837731676
 20
23.34102382531921
 30
0.0
 10
44.88547888031718
 20
23.38232473994663
 30
0.0
 10
44.79020408331201
 20
23.41715231569219
 30
0.0
 10
44.71834567507033
 20
23.42294016236059
 30
0.0
 10
44.6873309225923
 20
23.42543825042287
 30
0.0
 10
44.68215435394529
 20
23.42585519794972
 30
0.0
 10
44.67697778529839
 20
23.4262721454765
 30
0.0
 10
44.67180121665143
 20
23.42668909300335
 30
0.0
  0
LINE
  5
188
330
2
100
AcDbEntity
  8
0
100
AcDbLine
 10
45.01638418032536
 20
23.2819936599243
 30
0.0
 11
44.98110133750827
 21
23.31254949813143
 31
0.0
  0
SPLINE
  5
189
330
2
100
AcDbEntity
  8
0
100
AcDbSpline
210
0.0
220
0.0
230
1.0
 70
     8
 71
     3
 72
    12
 73
     8
 74
     0
 42
0.000000001
 43
0.0000000001
 40
0.0
 40
0.0
 40
0.0
 40
0.0
 40
0.1814293237276059
 40
0.4157919136536111
 40
0.6513175581917157
 40
0.8893821301352209
 40
0.9912710196682134
 40
0.9912710196682134
 40
0.9912710196682134
 40
0.9912710196682134
 10
43.7440750126853
 20
24.38333711567253
 30
0.0
 10
43.71902238102939
 20
24.40213688626335
 30
0.0
 10
43.66243569682246
 20
24.44195553177775
 30
0.0
 10
43.55730993649348
 20
24.47784468200763
 30
0.0
 10
43.4350320336365
 20
24.49266308405351
 30
0.0
 10
43.33057338919519
 20
24.48324146939302
 30
0.0
 10
43.26887631192943
 20
24.46742526222909
 30
0.0
 10
43.25038489019397
 20
24.46261225899696
 30
0.0
  0
LINE
  5
18A
330
2
100
AcDbEntity
  8
0
100
AcDbLine
 10
43.79324504473806
 20
24.34126322372532
 30
0.0
 11
43.75796220187402
 21
24.37181906193234
 31
0.0
  0
LINE
  5
18B
330
2
100
AcDbEntity
  8
0
100
AcDbLine
 10
44.11079080542345
 20
24.06626052809838
 30
0.0
 11
44.07093233452224
 21
24.0974705237353
 31
0.0
  0
LINE
  5
18C
330
2
100
AcDbEntity
  8
0
100
AcDbLine
 10
35.84041044878023
 20
22.38602823445598
 30
0.0
 11
35.84041044878023
 21
17.41090690121137
 31
0.0
  0
SPLINE
  5
18D
330
2
100
AcDbEntity
  8
0
100
AcDbSpline
210
0.0
220
0.0
230
1.0
 70
     8
 71
     3
 72
    12
 73
     8
 74
     0
 42
0.000000001
 43
0.0000000001
 40
0.0
 40
0.0
 40
0.0
 40
0.0
 40
0.1814292237403452
 40
0.4157916637869901
 40
0.6513171953834375
 40
0.889381623458067
 40
1.0
 40
1.0
 40
1.0
 40
1.0
 10
42.86120440609653
 20
24.81912709374422
 30
0.0
 10
42.83135038189641
 20
24.84790240259389
 30
0.0
 10
42.76567818080565
 20
24.88926367429309
 30
0.0
 10
42.66055259176812
 20
24.92515266452477
 30
0.0
 10
42.53827447817298
 20
24.93997126883568
 30
0.0
 10
42.43223144192336
 20
24.93040658057748
 30
0.0
 10
42.3689503248467
 20
24.91391426431466
 30
0.0
 10
42.34887461608195
 20
24.90868213578341
 30
0.0
  0
LINE
  5
18E
330
2
100
AcDbEntity
  8
0
100
AcDbLine
 10
42.89648733655616
 20
24.78857117965549
 30
0.0
 11
42.86120440609653
 21
24.81912709374422
 31
0.0
  0
LINE
  5
18F
330
2
100
AcDbEntity
  8
0
100
AcDbLine
 10
42.3488746160645
 20
24.90868213576908
 30
0.0
 11
41.99401064143347
 21
24.80624173014547
 31
0.0
  0
LINE
  5
190
330
2
100
AcDbEntity
  8
0
100
AcDbLine
 10
36.89922740557205
 20
23.3355044938001
 30
0.0
 11
36.48215125171879
 21
23.2151049789415
 31
0.0
  0
SPLINE
  5
191
330
2
100
AcDbEntity
  8
0
100
AcDbSpline
210
0.0
220
0.0
230
1.0
 70
     8
 71
     3
 72
    16
 73
    12
 74
     0
 42
0.000000001
 43
0.0000000001
 40
0.0
 40
0.0
 40
0.0
 40
0.0
 40
0.0698494800267236
 40
0.1990381274832434
 40
0.3285184555009005
 40
0.4581530865404759
 40
0.5879256455953659
 40
0.7178827417891589
 40
0.8480731520472966
 40
0.9707891068995236
 40
1.0
 40
1.0
 40
1.0
 40
1.0
 10
36.48215125170947
 20
23.21510497894264
 30
0.0
 10
36.45844705111358
 20
23.2074830992737
 30
0.0
 10
36.39090124120497
 20
23.18576433119347
 30
0.0
 10
36.28202252831136
 20
23.13012704935693
 30
0.0
 10
36.16218393276466
 20
23.04316541041306
 30
0.0
 10
36.05559097117913
 20
22.9365437813471
 30
0.0
 10
35.9664962692184
 20
22.81488788105236
 30
0.0
 10
35.8984095312257
 20
22.68271485331348
 30
0.0
 10
35.85532246376494
 20
22.5478726485332
 30
0.0
 10
35.84129761618721
 20
22.44831135075663
 30
0.0
 10
35.84055351642672
 20
22.39607222329403
 30
0.0
 10
35.8404104487671
 20
22.38602823443671
 30
0.0
  0
LINE
  5
192
330
2
100
AcDbEntity
  8
0
100
AcDbLine
 10
44.29888740485767
 20
23.7810498656263
 30
0.0
 11
44.25716469347981
 21
23.81718279356221
 31
0.0
  0
LINE
  5
193
330
2
100
AcDbEntity
  8
0
100
AcDbLine
 10
32.84739832829138
 20
9.921794880333607
 30
0.0
 11
32.85726407732585
 21
9.824265615574176
 31
0.0
  0
LINE
  5
194
330
2
100
AcDbEntity
  8
0
100
AcDbLine
 10
48.81201157310579
 20
9.824265634909124
 30
0.0
 11
48.82187706970319
 21
9.921794896704852
 31
0.0
  0
SPLINE
  5
195
330
2
100
AcDbEntity
  8
0
100
AcDbSpline
210
0.0
220
0.0
230
1.0
 70
     8
 71
     3
 72
    12
 73
     8
 74
     0
 42
0.000000001
 43
0.0000000001
 40
-0.039674319747949
 40
-0.039674319747949
 40
-0.039674319747949
 40
-0.039674319747949
 40
0.0
 40
0.0
 40
0.0
 40
0.2500021964610007
 40
1.0
 40
1.0
 40
1.0
 40
1.0
 10
46.18018515082269
 20
13.96437756429679
 30
0.0
 10
46.17637918025571
 20
14.00774397888881
 30
0.0
 10
46.17257320968883
 20
14.05111039348077
 30
0.0
 10
46.16876723912196
 20
14.09447680807278
 30
0.0
 10
46.14478444603469
 20
14.36774422562439
 30
0.0
 10
46.0488541165148
 20
15.46080429237514
 30
0.0
 10
45.94961586123758
 20
16.55275196687097
 30
0.0
 10
45.8751873877527
 20
17.37171032432257
 30
0.0
  0
SPLINE
  5
196
330
2
100
AcDbEntity
  8
0
100
AcDbSpline
210
0.0
220
0.0
230
1.0
 70
     8
 71
     3
 72
    12
 73
     8
 74
     0
 42
0.000000001
 43
0.0000000001
 40
0.0
 40
0.0
 40
0.0
 40
0.0
 40
0.2424905281287908
 40
1.0
 40
1.0
 40
1.0
 40
1.0396887841169
 40
1.0396887841169
 40
1.0396887841169
 40
1.0396887841169
 10
35.79405860354683
 20
17.37171870298022
 30
0.0
 10
35.76985654909936
 20
17.1069789260639
 30
0.0
 10
35.67005036436228
 20
16.01522586272114
 30
0.0
 10
35.57359485952657
 20
14.92234242824895
 30
0.0
 10
35.50052890099948
 20
14.09447287498511
 30
0.0
 10
35.49670069929118
 20
14.05109766028937
 30
0.0
 10
35.49287249758288
 20
14.00772244559368
 30
0.0
 10
35.48904429587458
 20
13.96434723089794
 30
0.0
  0
LINE
  5
197
330
2
100
AcDbEntity
  8
0
100
AcDbLine
 10
34.24972779046431
 20
15.32878389361207
 30
0.0
 11
34.17275279539365
 21
13.33246644977083
 31
0.0
  0
LINE
  5
198
330
2
100
AcDbEntity
  8
0
100
AcDbLine
 10
47.53609868232479
 20
12.30606889633776
 30
0.0
 11
47.53435748137394
 21
12.35122267862715
 31
0.0
  0
LINE
  5
199
330
2
100
AcDbEntity
  8
0
100
AcDbLine
 10
47.49652259672052
 20
13.33246644318467
 30
0.0
 11
47.41954768877497
 21
15.32878381184986
 31
0.0
  0
LINE
  5
19A
330
2
100
AcDbEntity
  8
0
100
AcDbLine
 10
34.81668623273725
 20
13.25968096555277
 30
0.0
 11
34.70625748337915
 21
13.29155914354487
 31
0.0
  0
LINE
  5
19B
330
2
100
AcDbEntity
  8
0
100
AcDbLine
 10
46.96301110878721
 20
13.29155706815999
 30
0.0
 11
46.85258928663029
 21
13.2596810337663
 31
0.0
  0
LINE
  5
19C
330
2
100
AcDbEntity
  8
0
100
AcDbLine
 10
35.14570846904195
 20
16.23883825269291
 30
0.0
 11
34.64827928867686
 21
16.38243373465605
 31
0.0
  0
LINE
  5
19D
330
2
100
AcDbEntity
  8
0
100
AcDbLine
 10
47.0209959514234
 20
16.38243285870902
 30
0.0
 11
46.52356701278472
 21
16.23883829846653
 31
0.0
  0
LWPOLYLINE
  5
19E
330
2
100
AcDbEntity
  8
0
100
AcDbPolyline
 90
       17
 70
   128
 43
0.0
 10
31.31251940804868
 20
14.65438174748209
 10
31.34296176392656
 20
14.70288432785855
 10
31.33963991272305
 20
14.76305259985241
 10
31.30305967933623
 20
14.82572674916679
 10
31.23878988431892
 20
14.88136529538758
 10
31.15661498297555
 20
14.92149755006056
 10
31.0690459850901
 20
14.9400137440719
 10
30.98941331327899
 20
14.93409537863465
 10
30.92984142420403
 20
14.90464277074181
 10
30.89939902132937
 20
14.85614073329799
 10
30.90272056895918
 20
14.79597222194519
 10
30.93930115286941
 20
14.73329792086753
 10
31.00357059741043
 20
14.67765967817331
 10
31.08574549870662
 20
14.63752742345343
 10
31.17331484711554
 20
14.619010774152
 10
31.25294716845019
 20
14.62492959492624
 10
31.31251940804868
 20
14.65438174748209
  0
LWPOLYLINE
  5
19F
330
2
100
AcDbEntity
  8
0
100
AcDbPolyline
 90
        9
 70
   128
 43
0.0
 10
30.52399924128241
 20
14.66950734253311
 10
30.55444164415707
 20
14.71800953174033
 10
30.55112009652726
 20
14.77817789132973
 10
30.51453951261698
 20
14.84085234421775
 10
30.45027006812302
 20
14.89649073867531
 10
30.36809516677977
 20
14.93662284158489
 10
30.28052551484416
 20
14.95513925148026
 10
30.20089319350956
 20
14.94922073427983
 10
30.14396247239683
 20
14.93412050244598
  0
LWPOLYLINE
  5
1A0
330
2
100
AcDbEntity
  8
0
100
AcDbPolyline
 90
        9
 70
   128
 43
0.0
 10
30.12271301585548
 20
14.9157179135633
 10
30.11087920513353
 20
14.87126617658566
 10
30.11420075276334
 20
14.81109751342251
 10
30.15078098615021
 20
14.7484235159186
 10
30.21505078116758
 20
14.69278512146098
 10
30.29722568251088
 20
14.65265271497776
 10
30.38479437682259
 20
14.63413628160742
 10
30.4644270486807
 20
14.64005479880791
 10
30.52399924128241
 20
14.66950734253311
  0
LWPOLYLINE
  5
1A1
330
2
100
AcDbEntity
  8
0
100
AcDbPolyline
 90
       17
 70
   128
 43
0.0
 10
31.44242610833515
 20
14.06888066015585
 10
31.4728681606864
 20
14.11738300112637
 10
31.4695463094829
 20
14.17755142488357
 10
31.43296637966972
 20
14.2402255100302
 10
31.3686965846054
 20
14.29586405629805
 10
31.28652168330911
 20
14.33599631097098
 10
31.1989523818499
 20
14.35451256910312
 10
31.11932001356553
 20
14.34859413949823
 10
31.05974812449057
 20
14.31914168341563
 10
31.02930607213932
 20
14.27063919063471
 10
31.03262761976913
 20
14.21047083104531
 10
31.06920785315589
 20
14.14779668173094
 10
31.13347764822032
 20
14.09215813551009
 10
31.21565224598999
 20
14.05202579319456
 10
31.30322154740202
 20
14.03350968682582
 10
31.38285391568639
 20
14.03942796466736
 10
31.44242610833515
 20
14.06888066015585
  0
LINE
  5
1A2
330
2
100
AcDbEntity
  8
0
100
AcDbLine
 10
32.36862196436522
 20
13.24865347334599
 30
0.0
 11
31.79126943981265
 21
13.62622651680283
 31
0.0
  0
ARC
  5
1A3
330
2
100
AcDbEntity
  8
0
100
AcDbCircle
 10
31.38217779510586
 20
12.99714194050966
 30
0.0
 40
0.7504021441232526
100
AcDbArc
 50
56.9641821878983
 51
75.62978944179786
  0
LINE
  5
1A4
330
2
100
AcDbEntity
  8
0
100
AcDbLine
 10
31.56841729984149
 20
13.72406574999309
 30
0.0
 11
31.54136204051213
 21
13.73098772699154
 31
0.0
  0
ARC
  5
1A5
330
2
100
AcDbEntity
  8
0
100
AcDbCircle
 10
32.28631041664909
 20
16.63866564235911
 30
0.0
 40
3.001589402714977
100
AcDbArc
 50
236.9641499191003
 51
255.6298856825001
  0
LINE
  5
1A6
330
2
100
AcDbEntity
  8
0
100
AcDbLine
 10
30.64995287347961
 20
14.12234433270424
 30
0.0
 11
29.82759940466156
 21
14.66014175565391
 31
0.0
  0
ARC
  5
1A7
330
2
100
AcDbEntity
  8
0
100
AcDbCircle
 10
29.34479261100932
 20
15.75494329697034
 30
0.0
 40
1.147563231856292
100
AcDbArc
 50
315.6184583576037
 51
349.0308845141003
  0
LWPOLYLINE
  5
1A8
330
2
100
AcDbEntity
  8
0
100
AcDbPolyline
 90
        9
 70
   128
 43
0.0
 10
29.53051355062979
 20
14.72176255749798
 10
29.52113931270799
 20
14.65142922628479
 10
29.52116537662636
 20
14.59162708009614
 10
29.5305892036655
 20
14.54465433555191
 10
29.54904987266542
 20
14.51231590014475
 10
29.5758378675842
 20
14.4958546621184
 10
29.60992270124837
 20
14.49590346057039
 10
29.64999517857263
 20
14.51246000065669
 10
29.69451619360035
 20
14.54488819067035
  0
LINE
  5
1A9
330
2
100
AcDbEntity
  8
0
100
AcDbLine
 10
29.53490399369474
 20
14.74522528954901
 30
0.0
 11
29.53051355062979
 21
14.72176255749798
 31
0.0
  0
LINE
  5
1AA
330
2
100
AcDbEntity
  8
0
100
AcDbLine
 10
30.47578018384598
 20
15.56004788674147
 30
0.0
 11
30.47138974078109
 21
15.53658515473751
 31
0.0
  0
LINE
  5
1AB
330
2
100
AcDbEntity
  8
0
100
AcDbLine
 10
29.69451619360035
 20
14.54488819067035
 30
0.0
 11
30.16495380988761
 21
14.95229955343444
 31
0.0
  0
LWPOLYLINE
  5
1AC
330
2
100
AcDbEntity
  8
0
100
AcDbPolyline
 90
        9
 70
   128
 43
0.0
 10
30.61642212620745
 20
15.6004279517503
 10
30.59402549655351
 20
15.61240165228264
 10
30.5709677812859
 20
15.6195877277371
 10
30.54834174991595
 20
15.62164648194539
 10
30.52722043481737
 20
15.61847950569796
 10
30.50860455073451
 20
15.61023736502028
 10
30.49337708687199
 20
15.59731064163105
 10
30.4822599302417
 20
15.58031235201218
 10
30.47578018384598
 20
15.56004788674147
  0
LINE
  5
1AD
330
2
100
AcDbEntity
  8
0
100
AcDbLine
 10
31.5992162694069
 20
14.95770656406745
 30
0.0
 11
30.61642212620745
 21
15.6004279517503
 31
0.0
  0
ARC
  5
1AE
330
2
100
AcDbEntity
  8
0
100
AcDbCircle
 10
29.60861949629867
 20
14.73310293221743
 30
0.0
 40
0.0747056013232008
100
AcDbArc
 50
131.491109873101
 51
170.6614139642994
  0
ARC
  5
1AF
330
2
100
AcDbEntity
  8
0
100
AcDbCircle
 10
30.39807712340547
 20
13.05820235436391
 30
0.0
 40
2.247409951633925
100
AcDbArc
 50
35.02349907010117
 51
57.69305184270034
  0
ARC
  5
1B0
330
2
100
AcDbEntity
  8
0
100
AcDbCircle
 10
33.0887273832314
 20
13.95105919078901
 30
0.0
 40
0.1822200113458627
100
AcDbArc
 50
236.6602502329001
 51
249.1507928049004
  0
LINE
  5
1B1
330
2
100
AcDbEntity
  8
0
100
AcDbLine
 10
33.02387351633155
 20
13.78077088090407
 30
0.0
 11
33.95744163184037
 21
13.42849353716639
 31
0.0
  0
ARC
  5
1B2
330
2
100
AcDbEntity
  8
0
100
AcDbCircle
 10
33.11938521717417
 20
11.28662434454435
 30
0.0
 40
2.299987433120159
100
AcDbArc
 50
40.83880631449966
 51
68.63091609060119
  0
LINE
  5
1B3
330
2
100
AcDbEntity
  8
0
100
AcDbLine
 10
32.41122662830878
 20
14.17640054671489
 30
0.0
 11
32.98857880233788
 21
13.7988278067848
 31
0.0
  0
ARC
  5
1B4
330
2
100
AcDbEntity
  8
0
100
AcDbCircle
 10
32.71151397207546
 20
14.65127892492802
 30
0.0
 40
0.5618558204187428
100
AcDbArc
 50
215.0235430753004
 51
237.6929581913983
  0
LINE
  5
1B5
330
2
100
AcDbEntity
  8
0
100
AcDbLine
 10
32.23851873413224
 20
14.34801868552438
 30
0.0
 11
32.25140108800906
 21
14.32882257619042
 31
0.0
  0
LINE
  5
1B6
330
2
100
AcDbEntity
  8
0
100
AcDbLine
 10
33.34371339231012
 20
12.87513268021183
 30
0.0
 11
32.41014492627784
 21
13.22741032747626
 31
0.0
  0
ARC
  5
1B7
330
2
100
AcDbEntity
  8
0
100
AcDbCircle
 10
32.48644561995212
 20
13.42775469434156
 30
0.0
 40
0.2143820449168282
100
AcDbArc
 50
236.6606535199988
 51
249.1507792129983
  0
ARC
  5
1B8
330
2
100
AcDbEntity
  8
0
100
AcDbCircle
 10
32.52504328224001
 20
10.7784731667719
 30
0.0
 40
2.250822486205559
100
AcDbArc
 50
43.43812524439952
 51
68.67114336300075
  0
LWPOLYLINE
  5
1B9
330
2
100
AcDbEntity
  8
0
100
AcDbPolyline
 90
       17
 70
   128
 43
0.0
 10
50.68606296489702
 20
14.36919392543927
 10
50.74563488464446
 20
14.33974153757032
 10
50.82526716133464
 20
14.33382294585237
 10
50.9128366829118
 20
14.35233940754307
 10
50.99501155085397
 20
14.39247173249936
 10
51.05928081145373
 20
14.4481100672113
 10
51.09586124360055
 20
14.51078422395858
 10
51.09918299116646
 20
14.57095264080033
 10
51.06874047524559
 20
14.61945488914165
 10
51.00916854458387
 20
14.6489074382768
 10
50.92953626234259
 20
14.65482588293577
 10
50.84196674081261
 20
14.63630957300842
 10
50.75979249093188
 20
14.59617741383442
 10
50.69552261227068
 20
14.54053891334007
 10
50.65894218012374
 20
14.47786460487663
 10
50.65562043801481
 20
14.4176963350468
 10
50.68606296489702
 20
14.36919392543927
  0
LWPOLYLINE
  5
1BA
330
2
100
AcDbEntity
  8
0
100
AcDbPolyline
 90
       17
 70
   128
 43
0.0
 10
50.81596964787138
 20
14.95469517981797
 10
50.87554157853299
 20
14.92524278244622
 10
50.95517446782764
 20
14.91932436126222
 10
51.04274277520403
 20
14.93784047247646
 10
51.12491763218509
 20
14.977972958652
 10
51.18918751084629
 20
15.03361130738284
 10
51.22576794294616
 20
15.09628546408299
 10
51.22909029215555
 20
15.15645421272484
 10
51.19864715821996
 20
15.20495614352046
 10
51.13907584557273
 20
15.23440901020126
 10
51.05944296173527
 20
15.24032712310725
 10
50.97187344015811
 20
15.22181081317995
 10
50.889698572263
 20
15.1816786399869
 10
50.82542870456291
 20
15.12603997822646
 10
50.78884948661687
 20
15.06336602028637
 10
50.7855271319504
 20
15.0031975799227
 10
50.81596964787138
 20
14.95469517981797
  0
LWPOLYLINE
  5
1BB
330
2
100
AcDbEntity
  8
0
100
AcDbPolyline
 90
       17
 70
   128
 43
0.0
 10
49.89754289447637
 20
14.35406859585646
 10
49.95711482518515
 20
14.3246160467213
 10
50.03674710737937
 20
14.31869760206234
 10
50.12431662895654
 20
14.33721391198969
 10
50.20649148589052
 20
14.37734624640183
 10
50.2707607574514
 20
14.43298457165798
 10
50.30734118959833
 20
14.49565888012148
 10
50.31066293170716
 20
14.55582714995142
 10
50.28022040482517
 20
14.60432955955878
 10
50.22064848512446
 20
14.63378194742779
 10
50.14101620838733
 20
14.63970053914573
 10
50.05344668681027
 20
14.62118407745498
 10
49.9712724260155
 20
14.58105192773689
 10
49.90700255831541
 20
14.52541341778681
 10
49.87042212616859
 20
14.46273926103947
 10
49.86710037855539
 20
14.40257084419772
 10
49.89754289447637
 20
14.35406859585646
  0
LINE
  5
1BC
330
2
100
AcDbEntity
  8
0
100
AcDbLine
 10
51.01932280978861
 20
14.12234449429968
 30
0.0
 11
51.84167549912911
 21
14.66014161776371
 31
0.0
  0
ARC
  5
1BD
330
2
100
AcDbEntity
  8
0
100
AcDbCircle
 10
49.38296615711158
 20
16.63866294387895
 30
0.0
 40
3.001586519579078
100
AcDbArc
 50
284.3701114045988
 51
303.0358655944999
  0
LINE
  5
1BE
330
2
100
AcDbEntity
  8
0
100
AcDbLine
 10
50.12791366985346
 20
13.73098778358519
 30
0.0
 11
50.10085821039979
 21
13.72406576876364
 31
0.0
  0
ARC
  5
1BF
330
2
100
AcDbEntity
  8
0
100
AcDbCircle
 10
50.2870969689734
 20
12.99714264019229
 30
0.0
 40
0.7504012993682366
100
AcDbArc
 50
104.3701682714982
 51
123.0358183286011
  0
LINE
  5
1C0
330
2
100
AcDbEntity
  8
0
100
AcDbLine
 10
49.87800577913322
 20
13.62622650461844
 30
0.0
 11
49.30065385627097
 21
13.2486536316955
 31
0.0
  0
ARC
  5
1C1
330
2
100
AcDbEntity
  8
0
100
AcDbCircle
 10
52.32449601608152
 20
15.75494979447342
 30
0.0
 40
1.147577935079193
100
AcDbArc
 50
190.9693047306002
 51
224.381288959499
  0
LINE
  5
1C2
330
2
100
AcDbEntity
  8
0
100
AcDbLine
 10
51.19349469633732
 20
15.56004783635751
 30
0.0
 11
51.19788517294455
 21
15.53658513337962
 31
0.0
  0
LINE
  5
1C3
330
2
100
AcDbEntity
  8
0
100
AcDbLine
 10
52.13437091405626
 20
14.74522512997635
 30
0.0
 11
52.13876139066349
 21
14.72176242699845
 31
0.0
  0
LWPOLYLINE
  5
1C4
330
2
100
AcDbEntity
  8
0
100
AcDbPolyline
 90
        9
 70
   128
 43
0.0
 10
51.9747588778631
 20
14.54488803095665
 10
52.01927947213107
 20
14.51245976407335
 10
52.05935321187587
 20
14.49590341211524
 10
52.09343741270675
 20
14.495854539334
 10
52.12022548007303
 20
14.51231582581545
 10
52.13868635808854
 20
14.54465431518201
 10
52.14810992920945
 20
14.59162699104223
 10
52.14813560007678
 20
14.65142919810557
 10
52.13876139066349
 20
14.72176242699845
  0
LINE
  5
1C5
330
2
100
AcDbEntity
  8
0
100
AcDbLine
 10
51.50432076902735
 20
14.9522993841237
 30
0.0
 11
51.9747588778631
 21
14.54488803095665
 31
0.0
  0
LWPOLYLINE
  5
1C6
330
2
100
AcDbEntity
  8
0
100
AcDbPolyline
 90
        9
 70
   128
 43
0.0
 10
51.05285374340133
 20
15.60042805722259
 10
51.07524930229113
 20
15.61240153147412
 10
51.09830780370782
 20
15.61958793722323
 10
51.12093405688927
 20
15.62164653303495
 10
51.14205472626463
 20
15.61847934810129
 10
51.16067054133418
 20
15.61023714758374
 10
51.17589879285128
 20
15.59731075585347
 10
51.18701582933159
 20
15.58031236217357
 10
51.19349469633732
 20
15.56004783635751
  0
LINE
  5
1C7
330
2
100
AcDbEntity
  8
0
100
AcDbLine
 10
50.07005903337108
 20
14.95770652911386
 30
0.0
 11
51.05285374340133
 21
15.60042805722259
 31
0.0
  0
ARC
  5
1C8
330
2
100
AcDbEntity
  8
0
100
AcDbCircle
 10
52.06066373952433
 20
14.73310886862907
 30
0.0
 40
0.0746963946145827
100
AcDbArc
 50
9.335008694900153
 51
48.51007732249921
  0
ARC
  5
1C9
330
2
100
AcDbEntity
  8
0
100
AcDbCircle
 10
51.27119206927523
 20
13.05820961026029
 30
0.0
 40
2.24740052390812
100
AcDbArc
 50
122.3069158394991
 51
144.9765569611986
  0
ARC
  5
1CA
330
2
100
AcDbEntity
  8
0
100
AcDbCircle
 10
48.54988431497464
 20
11.28663354871315
 30
0.0
 40
2.299976776457992
100
AcDbArc
 50
111.369037279299
 51
139.4252524325408
  0
LINE
  5
1CB
330
2
100
AcDbEntity
  8
0
100
AcDbLine
 10
47.71183352646596
 20
13.42849349934317
 30
0.0
 11
48.64540232458058
 21
13.78077108366301
 31
0.0
  0
ARC
  5
1CC
330
2
100
AcDbEntity
  8
0
100
AcDbCircle
 10
48.58053659675954
 20
13.95108311938861
 30
0.0
 40
0.1822464050544086
100
AcDbArc
 50
290.8500371724984
 51
303.338638136103
  0
LINE
  5
1CD
330
2
100
AcDbEntity
  8
0
100
AcDbLine
 10
48.6806967297316
 20
13.79882774209949
 30
0.0
 11
49.25804865259386
 21
14.17640061497553
 31
0.0
  0
ARC
  5
1CE
330
2
100
AcDbEntity
  8
0
100
AcDbCircle
 10
48.95776323273082
 20
14.65127742230169
 30
0.0
 40
0.5618534644096942
100
AcDbArc
 50
302.3069616017985
 51
324.976483807098
  0
LINE
  5
1CF
330
2
100
AcDbEntity
  8
0
100
AcDbLine
 10
49.41787433872923
 20
14.32882264158127
 30
0.0
 11
49.4307569177107
 21
14.34801873087463
 31
0.0
  0
LINE
  5
1D0
330
2
100
AcDbEntity
  8
0
100
AcDbLine
 10
49.25913070524223
 20
13.22741032206625
 30
0.0
 11
48.3255619071748
 21
12.87513273774652
 31
0.0
  0
ARC
  5
1D1
330
2
100
AcDbEntity
  8
0
100
AcDbCircle
 10
49.18282051017627
 20
13.42777292889934
 30
0.0
 40
0.2144024721995267
100
AcDbArc
 50
290.8498587995001
 51
303.3388550687007
  0
ARC
  5
1D2
330
2
100
AcDbEntity
  8
0
100
AcDbCircle
 10
49.14422623734811
 20
10.77848300001068
 30
0.0
 40
2.250811277799878
100
AcDbArc
 50
111.3288100949987
 51
136.5619481809989
  0
LWPOLYLINE
  5
1D3
330
2
100
AcDbEntity
  8
0
100
AcDbPolyline
 90
       17
 70
   128
 43
0.0
 10
41.16394452234965
 20
6.025420177054286
 10
41.07392998379623
 20
6.022331828705205
 10
40.99761938617638
 20
6.013536310867721
 10
40.94663035771492
 20
6.000373473786737
 10
40.92872552264355
 20
5.984846720673886
 10
40.94663062200715
 20
5.969319569052913
 10
40.99761953511716
 20
5.956156461140722
 10
41.0739300243951
 20
5.947361406873028
 10
41.1639443886981
 20
5.944272460549996
 10
41.25395857672805
 20
5.947361415952514
 10
41.33026952487137
 20
5.956156326736504
 10
41.3812582028093
 20
5.969319619107523
 10
41.39916334140742
 20
5.984846763389668
 10
41.38125859256734
 20
6.000373307910308
 10
41.33026932893386
 20
6.013536567632854
 10
41.25395883970293
 20
6.022331925427181
 10
41.16394452234965
 20
6.025420177054286
  0
LINE
  5
1D4
330
2
100
AcDbEntity
  8
0
100
AcDbLine
 10
39.89376152100687
 20
6.060017047516737
 30
0.0
 11
39.89376173477393
 21
5.908567875839366
 31
0.0
  0
LINE
  5
1D5
330
2
100
AcDbEntity
  8
0
100
AcDbLine
 10
41.77551410411524
 20
6.060016786611754
 30
0.0
 11
41.77551396740591
 21
5.90856791846113
 31
0.0
  0
ARC
  5
1D6
330
2
100
AcDbEntity
  8
0
100
AcDbCircle
 10
41.31874478258317
 20
5.771090298229182
 30
0.0
 40
0.4570008298549882
100
AcDbArc
 50
268.2860224912004
 51
358.1766313322008
  0
LINE
  5
1D7
330
2
100
AcDbEntity
  8
0
100
AcDbLine
 10
41.30507584690309
 20
5.314293933655903
 30
0.0
 11
40.3641992517987
 21
5.314293976512828
 31
0.0
  0
ARC
  5
1D8
330
2
100
AcDbEntity
  8
0
100
AcDbCircle
 10
40.35052983090884
 20
5.771089040089464
 30
0.0
 40
0.4569995439721067
100
AcDbArc
 50
181.8231832530006
 51
271.714043195501
  0
LINE
  5
1D9
330
2
100
AcDbEntity
  8
0
100
AcDbLine
 10
39.89376166783063
 20
5.783814455103993
 30
0.0
 11
39.89376163428835
 21
5.756549516894665
 31
0.0
  0
LINE
  5
1DA
330
2
100
AcDbEntity
  8
0
100
AcDbLine
 10
41.77551390041554
 20
5.7838144977257
 30
0.0
 11
41.77551421739673
 21
5.756549255989682
 31
0.0
  0
LWPOLYLINE
  5
1DB
330
2
100
AcDbEntity
  8
0
100
AcDbPolyline
 90
        9
 70
   128
 43
0.0
 10
39.89376173477393
 20
5.908567875839366
 10
39.89376171064049
 20
5.902858185179184
 10
39.89376178134728
 20
5.893025772095484
 10
39.89376144898279
 20
5.87953613106174
 10
39.89376159905254
 20
5.863029795520105
 10
39.89376131608401
 20
5.844288231118071
 10
39.89376163362976
 20
5.824200313887615
 10
39.89376169187
 20
5.803718826150713
 10
39.89376166783063
 20
5.783814455103993
  0
LWPOLYLINE
  5
1DC
330
2
100
AcDbEntity
  8
0
100
AcDbPolyline
 90
        9
 70
   128
 43
0.0
 10
41.77551396740591
 20
5.90856791846113
 10
41.77551394322541
 20
5.902858227800948
 10
41.77551401397932
 20
5.893025814717248
 10
41.7755139851414
 20
5.879536261326052
 10
41.77551383163751
 20
5.863029838141699
 10
41.77551385224274
 20
5.844288361335316
 10
41.77551386621473
 20
5.824200356509322
 10
41.77551392445491
 20
5.803718868772421
 10
41.77551390041554
 20
5.7838144977257
  0
LWPOLYLINE
  5
1DD
330
2
100
AcDbEntity
  8
0
100
AcDbPolyline
 90
        9
 70
   128
 43
0.0
 10
39.89376173477393
 20
5.908567875839366
 10
39.89376171064049
 20
5.902858185179184
 10
39.89376178134728
 20
5.893025772095484
 10
39.89376144898279
 20
5.87953613106174
 10
39.89376159905254
 20
5.863029795520105
 10
39.89376131608401
 20
5.844288231118071
 10
39.89376163362976
 20
5.824200313887615
 10
39.89376169187
 20
5.803718826150713
 10
39.89376166783063
 20
5.783814455103993
  0
ARC
  5
1DE
330
2
100
AcDbEntity
  8
0
100
AcDbCircle
 10
41.61097252351874
 20
24.53176715319688
 30
0.0
 40
0.4642352995164537
100
AcDbArc
 50
50.43671432122806
 51
76.22010313429102
  0
LINE
  5
1DF
330
2
100
AcDbEntity
  8
0
100
AcDbLine
 10
45.17548371196357
 20
22.90118101172516
 30
0.0
 11
45.17548371196357
 21
17.74190961532633
 31
0.0
  0
LINE
  5
1E0
330
2
100
AcDbEntity
  8
0
100
AcDbLine
 10
45.45774662983194
 20
17.61073061905057
 30
0.0
 11
45.45774662983194
 21
22.65673415425817
 31
0.0
  0
ARC
  5
1E1
330
2
100
AcDbEntity
  8
0
100
AcDbCircle
 10
44.9942969180704
 20
22.68373004255625
 30
0.0
 40
0.4642352995162494
100
AcDbArc
 50
356.666295009
 51
73.03077850219901
  0
LINE
  5
1E2
330
2
100
AcDbEntity
  8
0
100
AcDbLine
 10
44.96721414831955
 20
23.32406755187145
 30
0.0
 11
44.98110133750827
 21
23.31254949813143
 31
0.0
  0
ARC
  5
1E3
330
2
100
AcDbEntity
  8
0
100
AcDbCircle
 10
44.68617924800497
 20
22.92039611918517
 30
0.0
 40
0.4896816096401013
100
AcDbArc
 50
357.751136103901
 51
47.59818514919873
  0
LINE
  5
1E4
330
2
100
AcDbEntity
  8
0
100
AcDbLine
 10
43.95234457632926
 20
23.96045057552612
 30
0.0
 11
43.95234457632926
 21
18.16604380031623
 31
0.0
  0
ARC
  5
1E5
330
2
100
AcDbEntity
  8
0
100
AcDbCircle
 10
43.77115778248316
 20
23.74299960635733
 30
0.0
 40
0.4642352995162769
100
AcDbArc
 50
49.77894044799803
 51
73.03077850219901
  0
LINE
  5
1E6
330
2
100
AcDbEntity
  8
0
100
AcDbLine
 10
43.7440750126853
 20
24.38333711567253
 30
0.0
 11
43.75796220187402
 21
24.37181906193234
 31
0.0
  0
ARC
  5
1E7
330
2
100
AcDbEntity
  8
0
100
AcDbCircle
 10
43.46304011237061
 20
23.97966568298614
 30
0.0
 40
0.4896816096401541
100
AcDbArc
 50
357.751136103901
 51
47.59818514919873
  0
LINE
  5
1E8
330
2
100
AcDbEntity
  8
0
100
AcDbLine
 10
43.05558717172118
 20
24.40775861905189
 30
0.0
 11
43.05558717172118
 21
18.3654914697866
 31
0.0
  0
LINE
  5
1E9
330
2
100
AcDbEntity
  8
0
100
AcDbLine
 10
43.33785000199384
 20
18.31125152362801
 30
0.0
 11
43.33785000199384
 21
24.16331183751379
 31
0.0
  0
ARC
  5
1EA
330
2
100
AcDbEntity
  8
0
100
AcDbCircle
 10
42.87439931821313
 20
24.19030704899251
 30
0.0
 40
0.4642362305264271
100
AcDbArc
 50
356.6663853723992
 51
73.03068813879891
  0
ARC
  5
1EB
330
2
100
AcDbEntity
  8
0
100
AcDbCircle
 10
42.56628493603966
 20
24.42697431107837
 30
0.0
 40
0.4896794060129945
100
AcDbArc
 50
357.7510575301993
 51
47.59835086869885
  0
LINE
  5
1EC
330
2
100
AcDbEntity
  8
0
100
AcDbLine
 10
44.45798724002258
 20
23.40023730502281
 30
0.0
 11
44.45798724002258
 21
18.01524004461737
 31
0.0
  0
LINE
  5
1ED
330
2
100
AcDbEntity
  8
0
100
AcDbLine
 10
44.74025011409316
 20
17.91688099170051
 30
0.0
 11
44.74025011409316
 21
23.15579048552024
 31
0.0
  0
ARC
  5
1EE
330
2
100
AcDbEntity
  8
0
100
AcDbCircle
 10
44.2767994303594
 20
23.18278569704592
 30
0.0
 40
0.4642362305264038
100
AcDbArc
 50
356.6663853723992
 51
73.03068813879891
  0
ARC
  5
1EF
330
2
100
AcDbEntity
  8
0
100
AcDbCircle
 10
43.96868500434112
 20
23.41945299704918
 30
0.0
 40
0.4896794060135412
100
AcDbArc
 50
357.7510575301993
 51
47.59835086869885
  0
LWPOLYLINE
  5
1F0
330
2
100
AcDbEntity
  8
0
100
AcDbPolyline
 90
       89
 70
   128
 43
0.0
 10
42.7472586315792
 20
6.806709605441483
 10
42.2993387765049
 20
6.746398848749549
 10
41.84395501397301
 20
6.70221900556038
 10
41.3834280271754
 20
6.674395204553661
 10
40.9201044932214
 20
6.663068812478172
 10
40.4563457857069
 20
6.668298017401639
 10
39.99451438342828
 20
6.690055929269306
 10
39.53696431832412
 20
6.728231667039551
 10
39.08602667219782
 20
6.782630826440481
 10
38.64399944070425
 20
6.852976196588542
 10
38.21313573862
 20
6.938909211713053
 10
37.79563004300923
 20
7.03999205081601
 10
37.39361074218954
 20
7.155709534196148
 10
37.0091261973563
 20
7.285472081046407
 10
36.64413554518791
 20
7.428618417201732
 10
36.30049853652378
 20
7.584419117490881
 10
35.97996650508128
 20
7.752080221100527
 10
35.68417272229834
 20
7.930747378440287
 10
35.41462429525984
 20
8.119510063633811
 10
35.17269551898386
 20
8.317406630740265
 10
34.95961892059677
 20
8.523428564539926
 10
34.7764792680689
 20
8.736525669230559
 10
34.62421100209247
 20
8.955612498564164
 10
34.50358948870849
 20
9.179572426077811
 10
34.41522980228319
 20
9.40726430734378
 10
34.35958220031671
 20
9.637527800766065
 10
34.33692941616584
 20
9.869189567719502
 10
34.34738782605985
 20
10.10106892152379
 10
34.39090364974811
 20
10.33198462263965
 10
34.46725512528855
 20
10.56075965516822
 10
34.57605344413759
 20
10.78622847823135
 10
34.7167441844336
 20
11.00724209400164
 10
34.88861021463566
 20
11.22267394502023
 10
35.09077589288853
 20
11.43142679284903
 10
35.32221085960185
 20
11.63243644323546
 10
35.58173595325536
 20
11.82467871565205
 10
35.86802862561308
 20
12.00717404178334
 10
36.17963002614431
 20
12.17899254606834
 10
36.51495223341067
 20
12.33925856181315
 10
36.87228654813726
 20
12.48715545318106
 10
37.24981191852407
 20
12.62192966670028
 10
37.64560505269009
 20
12.74289405486183
 10
38.05764892028935
 20
12.84943235403187
 10
38.48384312971757
 20
12.94100218029581
 10
38.92201678833777
 20
13.01713631328397
 10
39.36993664336501
 20
13.07744706997596
 10
39.825320405897
 20
13.12162691321214
 10
40.28584739274151
 20
13.14945071417185
 10
40.74917092664856
 20
13.1607771062944
 10
41.21292963421007
 20
13.15554790132387
 10
41.67476103648868
 20
13.1337899894562
 10
42.13231110159284
 20
13.09561425168596
 10
42.5832487476722
 20
13.04121509228497
 10
43.02527597916571
 20
12.97086972213691
 10
43.45613968129703
 20
12.8849367070124
 10
43.8736453769078
 20
12.78385386790944
 10
44.27566467768042
 20
12.66813638452936
 10
44.6601492225136
 20
12.53837383772611
 10
45.02513987472911
 20
12.39522750152372
 10
45.36877688334619
 20
12.23942680128164
 10
45.68930891478873
 20
12.07176569762492
 10
45.98510269757173
 20
11.89309854028511
 10
46.25465112461017
 20
11.70433585509164
 10
46.49657990088622
 20
11.50643928798524
 10
46.70965649927325
 20
11.30041735423259
 10
46.89279615180112
 20
11.08732024949495
 10
47.04506441777744
 20
10.86823342016129
 10
47.16568593116142
 20
10.64427349264775
 10
47.25404561758682
 20
10.41658161138173
 10
47.30969321960026
 20
10.1863181179595
 10
47.33234600375124
 20
9.954656351005951
 10
47.32188759385723
 20
9.722776997248729
 10
47.2783717701219
 20
9.491861296085801
 10
47.20202029462837
 20
9.263086263557283
 10
47.09322197577944
 20
9.037617440494102
 10
46.95253123548332
 20
8.816603824770936
 10
46.78066520528147
 20
8.601171973705277
 10
46.57849952702849
 20
8.392419125876358
 10
46.34706456031529
 20
8.19140947548999
 10
46.08753946661465
 20
7.999167203073398
 10
45.801246794304
 20
7.816671876989175
 10
45.48964539372571
 20
7.644853372657166
 10
45.15432318645935
 20
7.484587356959366
 10
44.79698887177977
 20
7.336690465544393
 10
44.41946350139289
 20
7.201916252025171
 10
44.02367036717982
 20
7.08095186391074
 10
43.61162649962767
 20
6.974413564693691
 10
43.18543229019939
 20
6.882843738429642
 10
42.7472586315792
 20
6.806709605441483
  0
LWPOLYLINE
  5
1F1
330
2
100
AcDbEntity
  8
0
100
AcDbPolyline
 90
       98
 70
   128
 43
0.0
 10
33.91719898679281
 20
8.029105582263468
 10
33.6731890446365
 20
8.257175664399085
 10
33.45921673334033
 20
8.49266484118624
 10
33.27617976211764
 20
8.734585371528794
 10
33.12484513365451
 20
8.981922507842568
 10
33.00584825846335
 20
9.233638768291939
 10
32.91968823878733
 20
9.488678722086376
 10
32.86672588415172
 20
9.745972109990589
 10
32.84718391793286
 20
10.00443997455699
 10
32.86114407282668
 20
10.26299857741594
 10
32.90854801718763
 20
10.52056280317873
 10
32.98919686031678
 20
10.77605289709907
 10
33.10275165277221
 20
11.02839683546926
 10
33.24873672234003
 20
11.2765365499406
 10
33.42653995211043
 20
11.51943084118147
 10
33.63541520572699
 20
11.75606134008075
 10
33.87448669258214
 20
11.98543538701779
 10
34.14275123010731
 20
12.20659073224487
 10
34.43908433655787
 20
12.41859972273892
 10
34.76224223672591
 20
12.6205735242429
 10
35.11086970710778
 20
12.81166479020231
 10
35.48350505939618
 20
12.99107193386084
 10
35.8785844115875
 20
13.15804278925685
 10
36.29445141979443
 20
13.31187661138494
 10
36.72936169222561
 20
13.45192818335602
 10
37.18149094700601
 20
13.57761017126972
 10
37.64894255391153
 20
13.68839570621361
 10
38.12975625026991
 20
13.78381968610671
 10
38.62191509554202
 20
13.86348199744805
 10
39.12335468061804
 20
13.92704895960872
 10
39.6319723352326
 20
13.97425314978136
 10
40.14563430092294
 20
14.00489709253333
 10
40.66218614196526
 20
14.01885221778485
 10
41.17946077829441
 20
14.01605996568139
 10
41.69528978876718
 20
13.99653181180804
 10
42.207508817296
 20
13.96035001800931
 10
42.71396936720333
 20
13.90766618085223
 10
43.21254727898685
 20
13.83870125030262
 10
43.70115178046694
 20
13.75374470208345
 10
44.17773280939093
 20
13.65315240216813
 10
44.64029183816768
 20
13.53734669578682
 10
45.08688885874431
 20
13.40681316262726
 10
45.51565009017008
 20
13.26209919916948
 10
45.92477756099777
 20
13.10381202934343
 10
46.31255531168108
 20
12.93261543592547
 10
46.67735689288747
 20
12.74922747308
 10
47.01765161164655
 20
12.55441715988508
 10
47.33201307478828
 20
12.34900198870389
 10
47.61912214320012
 20
12.13384326347261
 10
47.8777747805235
 20
11.90984350876187
 10
48.10688609012323
 20
11.67794227271656
 10
48.30549487170447
 20
11.43911218059747
 10
48.47276887257908
 20
11.19435508838484
 10
48.60800535115515
 20
10.94469738865257
 10
48.71063767370322
 20
10.69118640033281
 10
48.78023535867146
 20
10.43488542389303
 10
48.81650668018449
 20
10.17686938286834
 10
48.8192988814335
 20
9.918220433732756
 10
48.78860073423698
 20
9.660023645725289
 10
48.72454119415124
 20
9.403361856749597
 10
48.62738800129375
 20
9.149311627324209
 10
48.49754980907596
 20
8.898938593359673
 10
48.33557061680256
 20
8.653292823639844
 10
48.14212980768378
 20
8.41340458126865
 10
47.91803905720951
 20
8.180279990746498
 10
47.66423806152476
 20
7.954897376833002
 10
47.38179115502577
 20
7.738201431114134
 10
47.07188330641474
 20
7.531101246840933
 10
46.73581442343459
 20
7.334465437099765
 10
46.37499342271474
 20
7.149119208591969
 10
45.99093482939645
 20
6.975839332886664
 10
45.5852487997995
 20
6.815352885081324
 10
45.15963682105314
 20
6.668333169243567
 10
44.71588460498719
 20
6.535396453006001
 10
44.25585303050451
 20
6.417100566836325
 10
43.78147153053845
 20
6.313941781034657
 10
43.29472984945943
 20
6.226352830974747
 10
42.79766988530167
 20
6.154700562090965
 10
42.29237636854918
 20
6.099286072185861
 10
41.7809685324645
 20
6.060341497444142
 10
41.26559163598187
 20
6.038029993614941
 10
40.74840707298102
 20
6.032445713995116
 10
40.23158382630845
 20
6.04361174702899
 10
39.71729015278317
 20
6.071481358547202
 10
39.20768328464829
 20
6.115937447186865
 10
38.70490015700005
 20
6.176793915061125
 10
38.21105023854619
 20
6.253795216702087
 10
37.72820399349968
 20
6.346618290210244
 10
37.2583876960332
 20
6.454873893062426
 10
36.80357098173369
 20
6.578108270098312
 10
36.3656624912988
 20
6.715804122010524
 10
35.94649844829883
 20
6.867384188201981
 10
35.54783630017102
 20
7.032212548064251
 10
35.17134938556779
 20
7.209597836704688
 10
34.81861621311941
 20
7.398796221220266
 10
34.49111604877157
 20
7.599013819878223
 10
34.19022298558281
 20
7.80941113688948
 10
33.91719898679281
 20
8.029105582263468
  0
LWPOLYLINE
  5
1F2
330
2
100
AcDbEntity
  8
0
100
AcDbPolyline
 90
       52
 70
   128
 43
0.0
 10
32.84739832829138
 20
9.921794880333607
 10
32.8373060103782
 20
10.10219217415488
 10
32.85128340593514
 20
10.36107022670148
 10
32.89874598636192
 20
10.61895310306596
 10
32.97949461689615
 20
10.87475915682279
 10
33.09318970670063
 20
11.12741516723497
 10
33.23935559607515
 20
11.37586165308676
 10
33.41737869737904
 20
11.61905658566405
 10
33.62651250195131
 20
11.85597946481823
 10
33.8658793979302
 20
12.08563710521423
 10
34.13447573649597
 20
12.30706590816959
 10
34.43117495807275
 20
12.51933721632321
 10
34.75473266948529
 20
12.72156080268604
 10
35.10379121892248
 20
12.91288861979779
 10
35.476887389247
 20
13.09251742528914
 10
35.87245570508151
 20
13.25969459339234
 10
36.28883705250496
 20
13.41371857931006
 10
36.72428492449507
 20
13.55394355561879
 10
37.17697304673015
 20
13.6797812084954
 10
37.64500312786902
 20
13.79070338007403
 10
38.12641121733418
 20
13.88624552254407
 10
38.61917848634175
 20
13.96600657258989
 10
39.1212385238797
 20
14.0296518669312
 10
39.63048498095048
 20
14.07691453980698
 10
40.14478197440456
 20
14.10759650233274
 10
40.6619724414038
 20
14.12156883084776
 10
41.17988758539524
 20
14.1187728747027
 10
41.69635419730463
 20
14.09922075087814
 10
42.20920640322299
 20
14.06299428319352
 10
42.71629348783955
 20
14.01024523710339
 10
43.2154879400627
 20
13.94119501165352
 10
43.70469646536458
 20
13.85613316385883
 10
44.18186699248678
 20
13.75541659865496
 10
44.64499786438944
 20
13.63946756732611
 10
45.0921470639667
 20
13.5087726885223
 10
45.52143871978216
 20
13.36387976701672
 10
45.93107224418793
 20
13.20539689046382
 10
46.31932993146563
 20
13.03398865291058
 10
46.68458210898177
 20
12.85037379696041
 10
47.02529807115809
 20
12.65532275460521
 10
47.34004837680902
 20
12.44965355479002
 10
47.62751247386143
 20
12.23422872515442
 10
47.88648496770735
 20
12.00995196659977
 10
48.11587966927721
 20
11.77776394644331
 10
48.31473402007429
 20
11.5386384662761
 10
48.48221435444952
 20
11.29357860573503
 10
48.61761852525638
 20
11.04361234549918
 10
48.72037745789748
 20
10.78978771650861
 10
48.79006108998135
 20
10.53316975900509
 10
48.82637716375518
 20
10.27483455850591
 10
48.82917273437624
 20
10.01586583606837
 10
48.82187706970319
 20
9.921794896704852
  0
SPLINE
  5
1F3
330
2
100
AcDbEntity
  8
0
100
AcDbSpline
210
0.0
220
0.0
230
1.0
 70
     8
 71
     3
 72
     8
 73
     4
 74
     0
 42
0.000000001
 43
0.0000000001
 40
0.0
 40
0.0
 40
0.0
 40
0.0
 40
1.0
 40
1.0
 40
1.0
 40
1.0
 10
35.80824478051335
 20
17.39324921546216
 30
0.0
 10
35.80594112221803
 20
17.39188885208676
 30
0.0
 10
35.80367240623337
 20
17.39022129026847
 30
0.0
 10
35.80143711789657
 20
17.38825861213394
 30
0.0
  0
LWPOLYLINE
  5
1F4
330
2
100
AcDbEntity
  8
0
100
AcDbPolyline
 90
       25
 70
   128
 43
0.0
 10
35.80824468500328
 20
17.39324909887762
 10
36.12904536300357
 20
17.56935668332522
 10
36.47446812475488
 20
17.73340823591229
 10
36.84270487375869
 20
17.8845458808795
 10
37.23182931462162
 20
18.02197839837424
 10
37.63980519960063
 20
18.14498684284598
 10
38.06449793901561
 20
18.25292748982349
 10
38.50368515026014
 20
18.34523569087344
 10
38.95506903526314
 20
18.42142823228243
 10
39.41628762132564
 20
18.48110657995141
 10
39.88492793399962
 20
18.52395825401572
 10
40.35853697160996
 20
18.54975959177489
 10
40.83463766811303
 20
18.55837489243686
 10
41.31073810465198
 20
18.54975948056341
 10
41.78434769422733
 20
18.52395830745746
 10
42.2529876327149
 20
18.48110653982303
 10
42.71420645305551
 20
18.42142818123983
 10
43.16559028983857
 20
18.34523559509228
 10
43.6047777220009
 20
18.2529275161209
 10
44.02947040021195
 20
18.14498685677091
 10
44.43744619670155
 20
18.02197843229282
 10
44.82657079633731
 20
17.88454593239248
 10
45.1948071635806
 20
17.73340827971009
 10
45.54022995920343
 20
17.56935660749064
 10
45.86103080444456
 20
17.39324900027372
  0
SPLINE
  5
1F5
330
2
100
AcDbEntity
  8
0
100
AcDbSpline
210
0.0
220
0.0
230
1.0
 70
     8
 71
     3
 72
     8
 73
     4
 74
     0
 42
0.000000001
 43
0.0000000001
 40
0.0
 40
0.0
 40
0.0
 40
0.0
 40
1.0
 40
1.0
 40
1.0
 40
1.0
 10
45.86783830199851
 20
17.38825861213394
 30
0.0
 10
45.86561204850636
 20
17.3902133572908
 30
0.0
 10
45.86331685005461
 20
17.3918991553104
 30
0.0
 10
45.86103063938174
 20
17.39324921546216
 30
0.0
  0
ARC
  5
1F6
330
2
100
AcDbEntity
  8
0
100
AcDbCircle
 10
43.41481312522932
 20
9.760092342462712
 30
0.0
 40
5.032225816322892
100
AcDbArc
 50
55.77975900479949
 51
56.66504822874574
  0
SPLINE
  5
1F7
330
2
100
AcDbEntity
  8
0
100
AcDbSpline
210
0.0
220
0.0
230
1.0
 70
     8
 71
     3
 72
    12
 73
     8
 74
     0
 42
0.000000001
 43
0.0000000001
 40
0.0
 40
0.0
 40
0.0
 40
0.0
 40
0.2499999999999991
 40
0.2499999999999991
 40
0.4999999999999984
 40
0.4999999999999984
 40
1.0
 40
1.0
 40
1.0
 40
1.0
 10
46.30300739249423
 20
13.80285749833547
 30
0.0
 10
46.30258409065857
 20
13.81353562636832
 30
0.0
 10
46.30075044538648
 20
13.82498094891747
 30
0.0
 10
46.29449854891015
 20
13.84829252876488
 30
0.0
 10
46.29009164136232
 20
13.86001852338762
 30
0.0
 10
46.27406896324976
 20
13.8927001969804
 30
0.0
 10
46.25950835069239
 20
13.9111541162793
 30
0.0
 10
46.24481396150713
 20
13.92114916290154
 30
0.0
  0
LINE
  5
1F8
330
2
100
AcDbEntity
  8
0
100
AcDbLine
 10
46.33407649405341
 20
13.01886570482668
 30
0.0
 11
46.30300743551981
 21
13.80285744291183
 31
0.0
  0
LINE
  5
1F9
330
2
100
AcDbEntity
  8
0
100
AcDbLine
 10
35.36626792902666
 20
13.8028575852195
 30
0.0
 11
35.33541824966682
 21
13.02440648077163
 31
0.0
  0
SPLINE
  5
1FA
330
2
100
AcDbEntity
  8
0
100
AcDbSpline
210
0.0
220
0.0
230
1.0
 70
     8
 71
     3
 72
    12
 73
     8
 74
     0
 42
0.000000001
 43
0.0000000001
 40
0.0
 40
0.0
 40
0.0
 40
0.0
 40
0.2500000000000007
 40
0.2500000000000007
 40
0.5000000000000016
 40
0.5000000000000016
 40
1.0
 40
1.0
 40
1.0
 40
1.0
 10
35.42446145838795
 20
13.9211491629016
 30
0.0
 10
35.41711353505622
 20
13.91615114390589
 30
0.0
 10
35.40987149749367
 20
13.90918223006156
 30
0.0
 10
35.39621059087466
 20
13.8919937419522
 30
0.0
 10
35.38990013655018
 20
13.88186713490302
 30
0.0
 10
35.37385978991171
 20
13.84917841209295
 30
0.0
 10
35.36711470166483
 20
13.82421553516212
 30
0.0
 10
35.36626802740085
 20
13.80285749833547
 30
0.0
  0
ARC
  5
1FB
330
2
100
AcDbEntity
  8
0
100
AcDbCircle
 10
38.2560242374982
 20
9.757739218234348
 30
0.0
 40
5.035050046380225
100
AcDbArc
 50
123.3357132803982
 51
124.2198803784019
  0
LINE
  5
1FC
330
2
100
AcDbEntity
  8
0
100
AcDbLine
 10
46.76006790245378
 20
13.29165734510297
 30
0.0
 11
46.76618455439597
 21
12.80365851560077
 31
0.0
  0
LINE
  5
1FD
330
2
100
AcDbEntity
  8
0
100
AcDbLine
 10
46.76006790245378
 20
13.29165734510297
 30
0.0
 11
46.83486366731279
 21
15.80540554703168
 31
0.0
  0
LINE
  5
1FE
330
2
100
AcDbEntity
  8
0
100
AcDbLine
 10
34.90920737887211
 20
13.29165744422437
 30
0.0
 11
34.90308064502142
 21
12.80287407914943
 31
0.0
  0
LINE
  5
1FF
330
2
100
AcDbEntity
  8
0
100
AcDbLine
 10
34.83441200936937
 20
15.80540534102687
 30
0.0
 11
34.90920737887211
 21
13.29165744422437
 31
0.0
  0
SPLINE
  5
200
330
2
100
AcDbEntity
  8
0
100
AcDbSpline
210
0.0
220
0.0
230
1.0
 70
     8
 71
     3
 72
    10
 73
     6
 74
     0
 42
0.000000001
 43
0.0000000001
 40
0.0
 40
0.0
 40
0.0
 40
0.0
 40
0.4606780971495177
 40
0.9188600221323104
 40
1.0
 40
1.0
 40
1.0
 40
1.0
 10
45.86783816263767
 20
17.38825878363997
 30
0.0
 10
45.86961685671622
 20
17.38615553049294
 30
0.0
 10
45.87316460706597
 20
17.38196042062066
 30
0.0
 10
45.87519609797754
 20
17.37586097295906
 30
0.0
 10
45.87503499122511
 20
17.37225008974474
 30
0.0
 10
45.87501075301372
 20
17.37170683907658
 30
0.0
  0
SPLINE
  5
201
330
2
100
AcDbEntity
  8
0
100
AcDbSpline
210
0.0
220
0.0
230
1.0
 70
     8
 71
     3
 72
     9
 73
     5
 74
     0
 42
0.000000001
 43
0.0000000001
 40
0.0
 40
0.0
 40
0.0
 40
0.0
 40
0.5453994837890536
 40
1.0
 40
1.0
 40
1.0
 40
1.0
 10
35.79405860354683
 20
17.37171870298022
 30
0.0
 10
35.79411707496132
 20
17.37598280447656
 30
0.0
 10
35.79616842959047
 20
17.38205894009565
 30
0.0
 10
35.79967771638627
 20
17.38618867300511
 30
0.0
 10
35.80143695622008
 20
17.38825894855108
 30
0.0
  0
LINE
  5
202
330
2
100
AcDbEntity
  8
0
100
AcDbLine
 10
34.85944574101149
 20
12.7906625707476
 30
0.0
 11
34.85776284395013
 21
13.12320911219427
 31
0.0
  0
LINE
  5
203
330
2
100
AcDbEntity
  8
0
100
AcDbLine
 10
34.71242706171108
 20
12.94558783843604
 30
0.0
 11
34.72131637595004
 21
13.24431285927488
 31
0.0
  0
LINE
  5
204
330
2
100
AcDbEntity
  8
0
100
AcDbLine
 10
34.85776284395013
 20
13.12320911219427
 30
0.0
 11
34.84649352283986
 21
13.20817733160675
 31
0.0
  0
LINE
  5
205
330
2
100
AcDbEntity
  8
0
100
AcDbLine
 10
46.8098296232057
 20
12.79066262922299
 30
0.0
 11
46.81151247915079
 21
13.12320913195265
 31
0.0
  0
LINE
  5
206
330
2
100
AcDbEntity
  8
0
100
AcDbLine
 10
46.81151247915079
 20
13.12320913195265
 30
0.0
 11
46.8227820017496
 21
13.20817734134488
 31
0.0
  0
LINE
  5
207
330
2
100
AcDbEntity
  8
0
100
AcDbLine
 10
46.9479591521208
 20
13.24431287207074
 30
0.0
 11
46.95684824327088
 21
12.94558781164426
 31
0.0
  0
SPLINE
  5
208
330
2
100
AcDbEntity
  8
0
100
AcDbSpline
210
0.0
220
0.0
230
1.0
 70
     8
 71
     3
 72
     8
 73
     4
 74
     0
 42
0.000000001
 43
0.0000000001
 40
0.0
 40
0.0
 40
0.0
 40
0.0
 40
1.0
 40
1.0
 40
1.0
 40
1.0
 10
34.6392584244345
 20
16.38178233985894
 30
0.0
 10
34.63812105602074
 20
16.38082410299643
 30
0.0
 10
34.63693466082304
 20
16.37949475246995
 30
0.0
 10
34.63573939338341
 20
16.37782976413348
 30
0.0
  0
SPLINE
  5
209
330
2
100
AcDbEntity
  8
0
100
AcDbSpline
210
0.0
220
0.0
230
1.0
 70
     8
 71
     3
 72
     8
 73
     4
 74
     0
 42
0.000000001
 43
0.0000000001
 40
0.0
 40
0.0
 40
0.0
 40
0.0
 40
1.0
 40
1.0
 40
1.0
 40
1.0
 10
34.63913800892482
 20
13.35096349147295
 30
0.0
 10
34.63699226106479
 20
14.36196663492734
 30
0.0
 10
34.636974964508
 20
15.37226065323199
 30
0.0
 10
34.6392584244345
 20
16.38178233985894
 30
0.0
  0
LWPOLYLINE
  5
20A
330
2
100
AcDbEntity
  8
0
100
AcDbPolyline
 90
        3
 70
   128
 43
0.0
 10
34.6352592364334
 20
13.22242126738189
 10
34.63671215215192
 20
13.27057361335284
 10
34.63913789894775
 20
13.35096346505509
  0
ARC
  5
20B
330
2
100
AcDbEntity
  8
0
100
AcDbCircle
 10
36.91859187685265
 20
11.32195499568223
 30
0.0
 40
2.970754112491888
100
AcDbArc
 50
138.7393267519027
 51
140.2286685182987
  0
SPLINE
  5
20C
330
2
100
AcDbEntity
  8
0
100
AcDbSpline
210
0.0
220
0.0
230
1.0
 70
     8
 71
     3
 72
    12
 73
     8
 74
     0
 42
0.000000001
 43
0.0000000001
 40
0.0
 40
0.0
 40
0.0
 40
0.0
 40
0.2499999999999984
 40
0.2499999999999984
 40
0.4999999999999968
 40
0.4999999999999968
 40
1.0
 40
1.0
 40
1.0
 40
1.0
 10
34.72131631792138
 20
13.24431293371208
 30
0.0
 10
34.72163141528409
 20
13.25489735392267
 30
0.0
 10
34.72092496500954
 20
13.26414288920034
 30
0.0
 10
34.71760530855994
 20
13.27916526106025
 30
0.0
 10
34.71499353087893
 20
13.28481289597351
 30
0.0
 10
34.70500376070134
 20
13.29496712853256
 30
0.0
 10
34.69539044158347
 20
13.29248580889111
 30
0.0
 10
34.68542570760212
 20
13.28112542841626
 30
0.0
  0
ARC
  5
20D
330
2
100
AcDbEntity
  8
0
100
AcDbCircle
 10
36.17171739533228
 20
15.21710194645277
 30
0.0
 40
1.925231648066722
100
AcDbArc
 50
142.9219213280013
 51
176.6744269369009
  0
SPLINE
  5
20E
330
2
100
AcDbEntity
  8
0
100
AcDbSpline
210
0.0
220
0.0
230
1.0
 70
     8
 71
     3
 72
    12
 73
     8
 74
     0
 42
0.000000001
 43
0.0000000001
 40
0.0
 40
0.0
 40
0.0
 40
0.0
 40
0.25
 40
0.25
 40
0.5
 40
0.5
 40
1.0
 40
1.0
 40
1.0
 40
1.0
 10
46.9838497122928
 20
13.28112542841614
 30
0.0
 10
46.97886685112109
 20
13.28680618204919
 30
0.0
 10
46.97402150768664
 20
13.29030524721338
 30
0.0
 10
46.96503300580718
 20
13.29273172224441
 30
0.0
 10
46.96096376950731
 20
13.29159419095936
 30
0.0
 10
46.95096155180715
 20
13.28145899044625
 30
0.0
 10
46.94732885470034
 20
13.26548353926682
 30
0.0
 10
46.94795910197365
 20
13.24431293371208
 30
0.0
  0
ARC
  5
20F
330
2
100
AcDbEntity
  8
0
100
AcDbCircle
 10
44.75149320959542
 20
11.32262177439673
 30
0.0
 40
2.969705520919637
100
AcDbArc
 50
39.77143416120073
 51
41.26130833639762
  0
LWPOLYLINE
  5
210
330
2
100
AcDbEntity
  8
0
100
AcDbPolyline
 90
        3
 70
   128
 43
0.0
 10
47.03013737903813
 20
13.35096350104362
 10
47.0315907273715
 20
13.30281107199329
 10
47.03401649406692
 20
13.22242132618669
  0
SPLINE
  5
211
330
2
100
AcDbEntity
  8
0
100
AcDbSpline
210
0.0
220
0.0
230
1.0
 70
     8
 71
     3
 72
     8
 73
     4
 74
     0
 42
0.000000001
 43
0.0000000001
 40
0.0
 40
0.0
 40
0.0
 40
0.0
 40
1.0
 40
1.0
 40
1.0
 40
1.0
 10
47.03001699546052
 20
16.38178233985883
 30
0.0
 10
47.03230045531427
 20
15.37226068545021
 30
0.0
 10
47.03228315876765
 20
14.36196660544414
 30
0.0
 10
47.03013741097038
 20
13.35096349147284
 30
0.0
  0
SPLINE
  5
212
330
2
100
AcDbEntity
  8
0
100
AcDbSpline
210
0.0
220
0.0
230
1.0
 70
     8
 71
     3
 72
     8
 73
     4
 74
     0
 42
0.000000001
 43
0.0000000001
 40
0.0
 40
0.0
 40
0.0
 40
0.0
 40
1.0
 40
1.0
 40
1.0
 40
1.0
 10
47.03353602651168
 20
16.37782976413348
 30
0.0
 10
47.03233163717641
 20
16.37950745912377
 30
0.0
 10
47.03115897967712
 20
16.38082021416659
 30
0.0
 10
47.03001699546052
 20
16.38178233985883
 30
0.0
  0
ARC
  5
213
330
2
100
AcDbEntity
  8
0
100
AcDbCircle
 10
45.51740034296176
 20
15.22440338979947
 30
0.0
 40
1.905009133231965
100
AcDbArc
 50
3.140958273298199
 51
37.26268144350136
  0
ELLIPSE
  5
214
330
2
100
AcDbEntity
  8
0
100
AcDbEllipse
 10
34.79954525236838
 20
13.1666996810236
 30
0.0
 11
0.0141923175900148
 21
0.0936281657723642
 31
0.0
210
0.0
220
0.0
230
1.0
 40
0.4926395442000002
 41
5.244502075587099
 42
6.218569152574726
  0
ELLIPSE
  5
215
330
2
100
AcDbEntity
  8
0
100
AcDbEllipse
 10
46.86973016750164
 20
13.1666996810236
 30
0.0
 11
-0.0141923175899612
 21
0.0936281657723643
 31
0.0
210
0.0
220
0.0
230
1.0
 40
0.4926395442000002
 41
0.0646161546053534
 42
1.038683231592492
  0
LINE
  5
216
330
2
100
AcDbEntity
  8
0
100
AcDbLine
 10
35.16050157531896
 20
16.09710061930548
 30
0.0
 11
35.15584116625849
 21
16.21725062554651
 31
0.0
  0
LINE
  5
217
330
2
100
AcDbEntity
  8
0
100
AcDbLine
 10
34.83441200936937
 20
15.80540534102687
 30
0.0
 11
35.16050157531896
 21
16.09710061930548
 31
0.0
  0
SPLINE
  5
218
330
2
100
AcDbEntity
  8
0
100
AcDbSpline
210
0.0
220
0.0
230
1.0
 70
     8
 71
     3
 72
    10
 73
     6
 74
     0
 42
0.000000001
 43
0.0000000001
 40
0.0
 40
0.0
 40
0.0
 40
0.0
 40
0.2500000000000069
 40
0.2500000000000069
 40
0.2641505290929956
 40
0.2641505290929956
 40
0.2641505290929956
 40
0.2641505290929956
 10
47.03001699546052
 20
16.38178233985883
 30
0.0
 10
47.02818734517768
 20
16.38332382661445
 30
0.0
 10
47.02508906859702
 20
16.38352853604141
 30
0.0
 10
47.02139494542802
 20
16.38254801536942
 30
0.0
 10
47.02119595897795
 20
16.38249209847407
 30
0.0
 10
47.02099594680203
 20
16.38243285734029
 30
0.0
  0
SPLINE
  5
219
330
2
100
AcDbEntity
  8
0
100
AcDbSpline
210
0.0
220
0.0
230
1.0
 70
     8
 71
     2
 72
     6
 73
     3
 74
     0
 42
0.000000001
 43
0.0000000001
 40
0.0
 40
0.0
 40
0.0
 40
1.0
 40
1.0
 40
1.0
 10
34.6392584244345
 20
16.38178233985894
 30
0.0
 10
34.644186351298
 20
16.38352853604141
 30
0.0
 10
34.64827928867686
 20
16.38243373465605
 30
0.0
  0
LINE
  5
21A
330
2
100
AcDbEntity
  8
0
100
AcDbLine
 10
46.83486366731279
 20
15.80540554703168
 30
0.0
 11
46.50877355570196
 21
16.09710050771764
 31
0.0
  0
LINE
  5
21B
330
2
100
AcDbEntity
  8
0
100
AcDbLine
 10
46.50877355570196
 20
16.09710050771764
 30
0.0
 11
46.51343433057514
 21
16.21725058287768
 31
0.0
  0
LINE
  5
21C
330
2
100
AcDbEntity
  8
0
100
AcDbLine
 10
35.16050157531896
 20
16.09710061930548
 30
0.0
 11
35.7222069883178
 21
16.58355172985801
 31
0.0
  0
LINE
  5
21D
330
2
100
AcDbEntity
  8
0
100
AcDbLine
 10
45.94612800768675
 20
16.58436584560456
 30
0.0
 11
46.50877355570196
 21
16.09710050771764
 31
0.0
  0
ELLIPSE
  5
21E
330
2
100
AcDbEntity
  8
0
100
AcDbEllipse
 10
46.5369104862957
 20
16.19372518324741
 30
0.0
 11
-0.0134099428296821
 21
0.0450933456582233
 31
0.0
210
0.0
220
0.0
230
1.0
 40
0.428626773
 41
6.279748432445777
 42
7.183246669445687
  0
LINE
  5
21F
330
2
100
AcDbEntity
  8
0
100
AcDbLine
 10
45.93036277203793
 20
16.75934144891227
 30
0.0
 11
46.52943326515696
 21
16.24053118316431
 31
0.0
  0
ELLIPSE
  5
220
330
2
100
AcDbEntity
  8
0
100
AcDbEllipse
 10
35.13236493357437
 20
16.19372518324741
 30
0.0
 11
0.0134099428296821
 21
0.0450933456582233
 31
0.0
210
0.0
220
0.0
230
1.0
 40
0.428626773
 41
5.3831239449135
 42
6.286622181913805
  0
LINE
  5
221
330
2
100
AcDbEntity
  8
0
100
AcDbLine
 10
35.1398424089848
 20
16.24053121637718
 30
0.0
 11
35.73817422223868
 21
16.75870182750839
 31
0.0
  0
LINE
  5
222
330
2
100
AcDbEntity
  8
0
100
AcDbLine
 10
41.75687638695222
 20
24.77977403645446
 30
0.0
 11
41.75687638695222
 21
18.5259304753659
 31
0.0
  0
ARC
  5
223
330
2
100
AcDbEntity
  8
0
100
AcDbCircle
 10
41.28227040388196
 20
24.80163723422066
 30
0.0
 40
0.475109291213891
100
AcDbArc
 50
357.3624774134513
 51
51.03318801679158
  0
LINE
  5
224
330
2
100
AcDbEntity
  8
0
100
AcDbLine
 10
44.26989033706166
 20
18.0749433079593
 30
0.0
 11
44.26989033706166
 21
23.68544787985218
 31
0.0
  0
ARC
  5
225
330
2
100
AcDbEntity
  8
0
100
AcDbCircle
 10
43.78058587310306
 20
23.70466298735931
 30
0.0
 40
0.4896816096401003
100
AcDbArc
 50
357.751136103901
 51
47.59818514919873
  0
LINE
  5
226
330
2
100
AcDbEntity
  8
0
100
AcDbLine
 10
45.81941111603248
 20
17.41758578038235
 30
0.0
 11
45.81941111603248
 21
22.01421687170466
 31
0.0
  0
ARC
  5
227
330
2
100
AcDbEntity
  8
0
100
AcDbCircle
 10
45.33010888035096
 20
22.03343256373103
 30
0.0
 40
0.4896794060132307
100
AcDbArc
 50
357.7510575301993
 51
74.89102482874284
  0
POLYLINE
  5
228
330
2
100
AcDbEntity
  8
0
100
AcDb2dPolyline
 66
     1
 10
0.0
 20
0.0
 30
0.0
  0
VERTEX
  5
229
330
228
100
AcDbEntity
  8
0
100
AcDbVertex
100
AcDb2dVertex
 10
31.71953005972449
 20
14.87606198255219
 30
0.0
 42
-0.0015015087017912
  0
VERTEX
  5
22A
330
228
100
AcDbEntity
  8
0
100
AcDbVertex
100
AcDb2dVertex
 10
32.27245532230416
 20
16.80904983943156
 30
0.0
 42
-0.0018772801581776
  0
VERTEX
  5
22B
330
228
100
AcDbEntity
  8
0
100
AcDbVertex
100
AcDb2dVertex
 10
32.72514067383361
 20
18.35209350410031
 30
0.0
 42
-0.0010744958360915
  0
VERTEX
  5
22C
330
228
100
AcDbEntity
  8
0
100
AcDbVertex
100
AcDb2dVertex
 10
33.47901178820126
 20
20.86671930906141
 30
0.0
 42
-0.0032426344150331
  0
VERTEX
  5
22D
330
228
100
AcDbEntity
  8
0
100
AcDbVertex
100
AcDb2dVertex
 10
33.73600591780326
 20
21.69779836557757
 30
0.0
 42
-0.1565880789669473
  0
VERTEX
  5
22E
330
228
100
AcDbEntity
  8
0
100
AcDbVertex
100
AcDb2dVertex
 10
34.46624402799626
 20
22.72709759437606
 30
0.0
 42
-0.1426368247333273
  0
VERTEX
  5
22F
330
228
100
AcDbEntity
  8
0
100
AcDbVertex
100
AcDb2dVertex
 10
35.75773689528813
 20
23.21283481517941
 30
0.0
 42
-0.06410863077857
  0
VERTEX
  5
230
330
228
100
AcDbEntity
  8
0
100
AcDbVertex
100
AcDb2dVertex
 10
36.04151459431631
 20
23.19816037403587
 30
0.0
 42
-0.026611577302947
  0
VERTEX
  5
231
330
228
100
AcDbEntity
  8
0
100
AcDbVertex
100
AcDb2dVertex
 10
36.30041152957398
 20
23.13674404267357
 30
0.0
  0
SEQEND
  5
232
330
228
100
AcDbEntity
  8
0
  0
POLYLINE
  5
233
330
2
100
AcDbEntity
  8
0
100
AcDb2dPolyline
 66
     1
 10
0.0
 20
0.0
 30
0.0
  0
VERTEX
  5
234
330
233
100
AcDbEntity
  8
0
100
AcDbVertex
100
AcDb2dVertex
 10
31.86015255528798
 20
14.76500841311485
 30
0.0
 42
-0.0015527628339248
  0
VERTEX
  5
235
330
233
100
AcDbEntity
  8
0
100
AcDbVertex
100
AcDb2dVertex
 10
32.43146432168805
 20
16.76304877858729
 30
0.0
 42
-0.0018772801581775
  0
VERTEX
  5
236
330
233
100
AcDbEntity
  8
0
100
AcDbVertex
100
AcDb2dVertex
 10
32.88379976637435
 20
18.30489973504097
 30
0.0
 42
-0.0010744958360915
  0
VERTEX
  5
237
330
233
100
AcDbEntity
  8
0
100
AcDbVertex
100
AcDb2dVertex
 10
33.63746657798669
 20
20.81884406412286
 30
0.0
 42
-0.003242634415033
  0
VERTEX
  5
238
330
233
100
AcDbEntity
  8
0
100
AcDbVertex
100
AcDb2dVertex
 10
33.89382643098043
 20
21.64787196870788
 30
0.0
 42
-0.1565880789669471
  0
VERTEX
  5
239
330
233
100
AcDbEntity
  8
0
100
AcDbVertex
100
AcDb2dVertex
 10
34.56550870893682
 20
22.59463445761105
 30
0.0
 42
-0.1426368247333275
  0
VERTEX
  5
23A
330
233
100
AcDbEntity
  8
0
100
AcDbVertex
100
AcDb2dVertex
 10
35.77036724316855
 20
23.04778805272616
 30
0.0
 42
-0.0641086307785688
  0
VERTEX
  5
23B
330
233
100
AcDbEntity
  8
0
100
AcDbVertex
100
AcDb2dVertex
 10
36.01192765595056
 20
23.03529671153859
 30
0.0
 42
-0.0130670843054052
  0
VERTEX
  5
23C
330
233
100
AcDbEntity
  8
0
100
AcDbVertex
100
AcDb2dVertex
 10
36.13142459752072
 20
23.01034610626306
 30
0.0
 42
-0.0266115773029467
  0
SEQEND
  5
23D
330
233
100
AcDbEntity
  8
0
  0
ARC
  5
23E
330
2
100
AcDbEntity
  8
0
100
AcDbCircle
 10
39.50979951038664
 20
8.495761971513729
 30
0.0
 40
9.87553006313337
100
AcDbArc
 50
111.8120906510479
 51
140.6659339332763
  0
ARC
  5
23F
330
2
100
AcDbEntity
  8
0
100
AcDbCircle
 10
39.50979951038664
 20
8.495761971513729
 30
0.0
 40
9.801961471493827
100
AcDbArc
 50
111.9843008062285
 51
140.6659339332763
  0
ENDSEC
  0
SECTION
  2
OBJECTS
  0
DICTIONARY
  5
9
330
0
100
AcDbDictionary
281
     1
  3
ACAD_COLOR
350
3E
  3
ACAD_GROUP
350
35
  3
ACAD_LAYOUT
350
16
  3
ACAD_MATERIAL
350
B
  3
ACAD_MLEADERSTYLE
350
41
  3
ACAD_MLINESTYLE
350
36
  3
ACAD_PLOTSETTINGS
350
37
  3
ACAD_PLOTSTYLENAME
350
8
  3
ACAD_SCALELIST
350
3F
  3
ACAD_TABLESTYLE
350
40
  3
ACAD_VISUALSTYLE
350
2B
  3
ACDB_RECOMPOSE_DATA
350
24E
  3
AcDbVariableDictionary
350
240
  3
AcDsDecomposeData
350
254
  0
DICTIONARY
  5
1E
330
1D
100
AcDbDictionary
280
     1
281
     1
  3
ACAD_LAYERSTATES
360
1F
  0
DICTIONARY
  5
6
330
5
100
AcDbDictionary
280
     1
281
     1
  0
DICTIONARY
  5
3
330
2
100
AcDbDictionary
280
     1
281
     1
  0
DICTIONARY
  5
3E
102
{ACAD_REACTORS
330
9
102
}
330
9
100
AcDbDictionary
281
     1
  0
DICTIONARY
  5
35
102
{ACAD_REACTORS
330
9
102
}
330
9
100
AcDbDictionary
281
     1
  0
DICTIONARY
  5
16
102
{ACAD_REACTORS
330
9
102
}
330
9
100
AcDbDictionary
281
     1
  3
Model
350
15
  3
レイアウト1
350
1C
  0
DICTIONARY
  5
B
102
{ACAD_REACTORS
330
9
102
}
330
9
100
AcDbDictionary
281
     1
  3
ByBlock
350
3B
  3
ByLayer
350
38
  3
Global
350
A
  0
DICTIONARY
  5
41
102
{ACAD_REACTORS
330
9
102
}
330
9
100
AcDbDictionary
281
     1
  0
DICTIONARY
  5
36
102
{ACAD_REACTORS
330
9
102
}
330
9
100
AcDbDictionary
281
     1
  3
Standard
350
42
  0
DICTIONARY
  5
37
102
{ACAD_REACTORS
330
9
102
}
330
9
100
AcDbDictionary
281
     1
  0
ACDBDICTIONARYWDFLT
  5
8
102
{ACAD_REACTORS
330
9
102
}
330
9
100
AcDbDictionary
281
     1
  3
Normal
350
7
100
AcDbDictionaryWithDefault
340
7
  0
DICTIONARY
  5
3F
102
{ACAD_REACTORS
330
9
102
}
330
9
100
AcDbDictionary
281
     1
  3
A0
350
47
  3
A1
350
48
  3
A2
350
49
  3
A3
350
4A
  3
A4
350
4B
  3
A5
350
4C
  3
A6
350
4D
  3
A7
350
4E
  3
A8
350
4F
  3
A9
350
50
  3
B0
350
51
  3
B1
350
52
  3
B2
350
53
  3
B3
350
54
  3
B4
350
55
  3
B5
350
56
  3
B6
350
57
  0
DICTIONARY
  5
40
102
{ACAD_REACTORS
330
9
102
}
330
9
100
AcDbDictionary
281
     1
  3
Standard
350
43
  0
DICTIONARY
  5
2B
102
{ACAD_REACTORS
330
9
102
}
330
9
100
AcDbDictionary
281
     1
  3
2dWireframe
350
2A
  3
Realistic
350
45
  3
Wireframe
350
46
  0
XRECORD
  5
24E
102
{ACAD_REACTORS
330
9
102
}
330
9
100
AcDbXrecord
280
     1
 90
        1
330
43
  0
DICTIONARY
  5
240
102
{ACAD_REACTORS
330
9
102
}
330
9
100
AcDbDictionary
281
     1
  3
CANNOSCALE
350
246
  3
CMLEADERSTYLE
350
242
  3
CTABLESTYLE
350
241
  3
CVIEWDETAILSTYLE
350
243
  3
CVIEWSECTIONSTYLE
350
244
  3
LAYEREVAL
350
248
  3
LAYERNOTIFY
350
249
  3
LIGHTINGUNITS
350
247
  3
MSLTSCALE
350
245
  3
PSOLHEIGHT
350
24B
  3
PSOLWIDTH
350
24A
  3
XCLIPFRAME
350
24C
  0
DICTIONARY
  5
254
102
{ACAD_REACTORS
330
9
102
}
330
9
100
AcDbDictionary
281
     1
  3
AcDsRecords
350
256
  3
AcDsSchemas
350
255
1001
ACAD
1070
     2
  0
DICTIONARY
  5
1F
102
{ACAD_REACTORS
330
1E
102
}
330
1E
100
AcDbDictionary
281
     1
  0
LAYOUT
  5
15
102
{ACAD_XDICTIONARY
360
17
102
}
102
{ACAD_REACTORS
330
16
102
}
330
16
100
AcDbPlotSettings
  1

  2
none_device
  4
ISO_A4_(210.00_x_297.00_MM)
  6

 40
7.5
 41
20.0
 42
7.5
 43
20.0
 44
210.0
 45
297.0
 46
11.54999923706054
 47
-13.65000009536743
 48
0.0
 49
0.0
140
0.0
141
0.0
142
1.0
143
8.704084754739808
 70
 11952
 72
     1
 73
     0
 74
     0
  7

 75
     0
147
0.1148885871608098
 76
     0
 77
     2
 78
   300
148
0.0
149
0.0
100
AcDbLayout
  1
Model
 70
     1
 71
     0
 10
0.0
 20
0.0
 11
12.0
 21
9.0
 12
0.0
 22
0.0
 32
0.0
 14
0.0
 24
0.0
 34
0.0
 15
0.0
 25
0.0
 35
0.0
146
0.0
 13
0.0
 23
0.0
 33
0.0
 16
1.0
 26
0.0
 36
0.0
 17
0.0
 27
1.0
 37
0.0
 76
     0
330
2
331
29
1001
ACAD_PSEXT
1000
None
1000
None
1000
Not applicable
1000
The layout will not be plotted unless a new plotter configuration name is selected.
1070
     0
  0
LAYOUT
  5
1C
102
{ACAD_REACTORS
330
16
102
}
330
16
100
AcDbPlotSettings
  1

  2
C:\Documents and Settings\basas\Application Data\Autodesk\AutoCAD 2005\R16.1\enu\plotters\Default Windows System Printer.pc3
  4

  6

 40
0.0
 41
0.0
 42
0.0
 43
0.0
 44
0.0
 45
0.0
 46
0.0
 47
0.0
 48
0.0
 49
0.0
140
0.0
141
0.0
142
1.0
143
1.0
 70
   688
 72
     0
 73
     0
 74
     5
  7

 75
    16
147
1.0
 76
     0
 77
     2
 78
   300
148
0.0
149
0.0
100
AcDbLayout
  1
レイアウト1
 70
     1
 71
     1
 10
0.0
 20
0.0
 11
12.0
 21
9.0
 12
0.0
 22
0.0
 32
0.0
 14
0.0
 24
0.0
 34
0.0
 15
0.0
 25
0.0
 35
0.0
146
0.0
 13
0.0
 23
0.0
 33
0.0
 16
1.0
 26
0.0
 36
0.0
 17
0.0
 27
1.0
 37
0.0
 76
     0
330
19
  0
MATERIAL
  5
3B
102
{ACAD_XDICTIONARY
360
3C
102
}
102
{ACAD_REACTORS
330
B
102
}
330
B
100
AcDbMaterial
  1
ByBlock
  0
MATERIAL
  5
38
102
{ACAD_XDICTIONARY
360
39
102
}
102
{ACAD_REACTORS
330
B
102
}
330
B
100
AcDbMaterial
  1
ByLayer
  0
MATERIAL
  5
A
102
{ACAD_XDICTIONARY
360
C
102
}
102
{ACAD_REACTORS
330
B
102
}
330
B
100
AcDbMaterial
  1
Global
 43
0.0007999999797903
 43
0.0
 43
0.0
 43
0.0
 43
0.0
 43
0.0007999999797903
 43
0.0
 43
0.0
 43
0.0
 43
0.0
 43
1.0
 43
0.0
 43
0.0
 43
0.0
 43
0.0
 43
1.0
 49
0.0007999999797903
 49
0.0
 49
0.0
 49
0.0
 49
0.0
 49
0.0007999999797903
 49
0.0
 49
0.0
 49
0.0
 49
0.0
 49
1.0
 49
0.0
 49
0.0
 49
0.0
 49
0.0
 49
1.0
142
0.0007999999797903
142
0.0
142
0.0
142
0.0
142
0.0
142
0.0007999999797903
142
0.0
142
0.0
142
0.0
142
0.0
142
1.0
142
0.0
142
0.0
142
0.0
142
0.0
142
1.0
144
0.0007999999797903
144
0.0
144
0.0
144
0.0
144
0.0
144
0.0007999999797903
144
0.0
144
0.0
144
0.0
144
0.0
144
1.0
144
0.0
144
0.0
144
0.0
144
0.0
144
1.0
1001
ACAD
1070
    -1
1070
     3
1070
     0
1000

1071
        0
1070
     0
  0
MLINESTYLE
  5
42
102
{ACAD_REACTORS
330
36
102
}
330
36
100
AcDbMlineStyle
  2
STANDARD
 70
     0
  3

 62
   256
 51
90.0
 52
90.0
 71
     2
 49
0.5
 62
   256
  6
BYLAYER
 49
-0.5
 62
   256
  6
BYLAYER
  0
ACDBPLACEHOLDER
  5
7
102
{ACAD_REACTORS
330
8
102
}
330
8
  0
SCALE
  5
47
102
{ACAD_REACTORS
330
3F
102
}
330
3F
100
AcDbScale
 70
     0
300
1:1
140
1.0
141
1.0
290
     1
  0
SCALE
  5
48
102
{ACAD_REACTORS
330
3F
102
}
330
3F
100
AcDbScale
 70
     0
300
1:2
140
1.0
141
2.0
290
     0
  0
SCALE
  5
49
102
{ACAD_REACTORS
330
3F
102
}
330
3F
100
AcDbScale
 70
     0
300
1:4
140
1.0
141
4.0
290
     0
  0
SCALE
  5
4A
102
{ACAD_REACTORS
330
3F
102
}
330
3F
100
AcDbScale
 70
     0
300
1:5
140
1.0
141
5.0
290
     0
  0
SCALE
  5
4B
102
{ACAD_REACTORS
330
3F
102
}
330
3F
100
AcDbScale
 70
     0
300
1:8
140
1.0
141
8.0
290
     0
  0
SCALE
  5
4C
102
{ACAD_REACTORS
330
3F
102
}
330
3F
100
AcDbScale
 70
     0
300
1:10
140
1.0
141
10.0
290
     0
  0
SCALE
  5
4D
102
{ACAD_REACTORS
330
3F
102
}
330
3F
100
AcDbScale
 70
     0
300
1:16
140
1.0
141
16.0
290
     0
  0
SCALE
  5
4E
102
{ACAD_REACTORS
330
3F
102
}
330
3F
100
AcDbScale
 70
     0
300
1:20
140
1.0
141
20.0
290
     0
  0
SCALE
  5
4F
102
{ACAD_REACTORS
330
3F
102
}
330
3F
100
AcDbScale
 70
     0
300
1:30
140
1.0
141
30.0
290
     0
  0
SCALE
  5
50
102
{ACAD_REACTORS
330
3F
102
}
330
3F
100
AcDbScale
 70
     0
300
1:40
140
1.0
141
40.0
290
     0
  0
SCALE
  5
51
102
{ACAD_REACTORS
330
3F
102
}
330
3F
100
AcDbScale
 70
     0
300
1:50
140
1.0
141
50.0
290
     0
  0
SCALE
  5
52
102
{ACAD_REACTORS
330
3F
102
}
330
3F
100
AcDbScale
 70
     0
300
1:100
140
1.0
141
100.0
290
     0
  0
SCALE
  5
53
102
{ACAD_REACTORS
330
3F
102
}
330
3F
100
AcDbScale
 70
     0
300
2:1
140
2.0
141
1.0
290
     0
  0
SCALE
  5
54
102
{ACAD_REACTORS
330
3F
102
}
330
3F
100
AcDbScale
 70
     0
300
4:1
140
4.0
141
1.0
290
     0
  0
SCALE
  5
55
102
{ACAD_REACTORS
330
3F
102
}
330
3F
100
AcDbScale
 70
     0
300
8:1
140
8.0
141
1.0
290
     0
  0
SCALE
  5
56
102
{ACAD_REACTORS
330
3F
102
}
330
3F
100
AcDbScale
 70
     0
300
10:1
140
10.0
141
1.0
290
     0
  0
SCALE
  5
57
102
{ACAD_REACTORS
330
3F
102
}
330
3F
100
AcDbScale
 70
     0
300
100:1
140
100.0
141
1.0
290
     0
  0
TABLESTYLE
  5
43
102
{ACAD_XDICTIONARY
360
44
102
}
102
{ACAD_REACTORS
330
40
102
}
330
40
100
AcDbTableStyle
  3
Standard
 70
     0
 71
     0
 40
1.5
 41
1.5
280
     0
281
     0
  7
Standard
140
4.5
170
     2
 62
     0
 63
     7
283
     0
274
    -2
284
     1
 64
     0
275
    -2
285
     1
 65
     0
276
    -2
286
     1
 66
     0
277
    -2
287
     1
 67
     0
278
    -2
288
     1
 68
     0
279
    -2
289
     1
 69
     0
  7
Standard
140
6.0
170
     5
 62
     0
 63
     7
283
     0
274
    -2
284
     1
 64
     0
275
    -2
285
     1
 65
     0
276
    -2
286
     1
 66
     0
277
    -2
287
     1
 67
     0
278
    -2
288
     1
 68
     0
279
    -2
289
     1
 69
     0
  7
Standard
140
4.5
170
     5
 62
     0
 63
     7
283
     0
274
    -2
284
     1
 64
     0
275
    -2
285
     1
 65
     0
276
    -2
286
     1
 66
     0
277
    -2
287
     1
 67
     0
278
    -2
288
     1
 68
     0
279
    -2
289
     1
 69
     0
  0
VISUALSTYLE
  5
2A
102
{ACAD_XDICTIONARY
360
258
102
}
102
{ACAD_REACTORS
330
2B
102
}
330
2B
100
AcDbVisualStyle
  2
2dWireframe
 70
     4
 71
     0
 72
     2
 73
     1
 90
        0
 40
-0.6
 41
-30.0
 62
     5
 63
     7
421
 16777215
 74
     1
 91
        4
 64
     7
 65
   257
 75
     1
175
     1
 42
1.0
 92
        0
 66
   257
 43
1.0
 76
     1
 77
     6
 78
     2
 67
     7
 79
     5
170
     0
171
     0
290
     0
174
     0
 93
        1
 44
0.0
173
     0
291
     0
 45
0.0
1001
ACAD
1000
AcDbSavedByObjectVersion
1070
     0
  0
VISUALSTYLE
  5
45
102
{ACAD_XDICTIONARY
360
25D
102
}
102
{ACAD_REACTORS
330
2B
102
}
330
2B
100
AcDbVisualStyle
  2
Realistic
 70
     8
 71
     2
 72
     3
 73
     0
 90
        2
 40
-0.6
 41
30.0
 62
     5
 63
     7
421
 16777215
 74
     0
 91
        0
 64
     7
 65
   257
 75
     1
175
     1
 42
1.0
 92
        8
 66
   257
 43
1.0
 76
     1
 77
     6
 78
     2
 67
     7
 79
     3
170
     0
171
     0
290
     0
174
     0
 93
       13
 44
0.0
173
     0
291
     0
 45
0.0
1001
ACAD
1000
AcDbSavedByObjectVersion
1070
     0
  0
VISUALSTYLE
  5
46
102
{ACAD_XDICTIONARY
360
25F
102
}
102
{ACAD_REACTORS
330
2B
102
}
330
2B
100
AcDbVisualStyle
  2
Wireframe
 70
     5
 71
     0
 72
     2
 73
     0
 90
        0
 40
-0.6
 41
-30.0
 62
     5
 63
     7
421
 16777215
 74
     1
 91
        4
 64
     7
 65
   257
 75
     1
175
     1
 42
1.0
 92
        0
 66
   257
 43
1.0
 76
     1
 77
     6
 78
     2
 67
     7
 79
     3
170
     0
171
     0
290
     0
174
     0
 93
        1
 44
0.0
173
     0
291
     0
 45
0.0
1001
ACAD
1000
AcDbSavedByObjectVersion
1070
     0
  0
DICTIONARYVAR
  5
246
102
{ACAD_REACTORS
330
240
102
}
330
240
100
DictionaryVariables
280
     0
  1
1:1
  0
DICTIONARYVAR
  5
242
102
{ACAD_REACTORS
330
240
102
}
330
240
100
DictionaryVariables
280
     0
  1
STANDARD
  0
DICTIONARYVAR
  5
241
102
{ACAD_REACTORS
330
240
102
}
330
240
100
DictionaryVariables
280
     0
  1
STANDARD
  0
DICTIONARYVAR
  5
243
102
{ACAD_REACTORS
330
240
102
}
330
240
100
DictionaryVariables
280
     0
  1

  0
DICTIONARYVAR
  5
244
102
{ACAD_REACTORS
330
240
102
}
330
240
100
DictionaryVariables
280
     0
  1

  0
DICTIONARYVAR
  5
248
102
{ACAD_REACTORS
330
240
102
}
330
240
100
DictionaryVariables
280
     0
  1
0
  0
DICTIONARYVAR
  5
249
102
{ACAD_REACTORS
330
240
102
}
330
240
100
DictionaryVariables
280
     0
  1
0
  0
DICTIONARYVAR
  5
247
102
{ACAD_REACTORS
330
240
102
}
330
240
100
DictionaryVariables
280
     0
  1
2
  0
DICTIONARYVAR
  5
245
102
{ACAD_REACTORS
330
240
102
}
330
240
100
DictionaryVariables
280
     0
  1
1
  0
DICTIONARYVAR
  5
24B
102
{ACAD_REACTORS
330
240
102
}
330
240
100
DictionaryVariables
280
     0
  1
80.000000
  0
DICTIONARYVAR
  5
24A
102
{ACAD_REACTORS
330
240
102
}
330
240
100
DictionaryVariables
280
     0
  1
5.000000
  0
DICTIONARYVAR
  5
24C
102
{ACAD_REACTORS
330
240
102
}
330
240
100
DictionaryVariables
280
     0
  1
2
  0
DICTIONARY
  5
256
102
{ACAD_REACTORS
330
254
102
}
330
254
100
AcDbDictionary
281
     1
  0
DICTIONARY
  5
255
102
{ACAD_REACTORS
330
254
102
}
330
254
100
AcDbDictionary
281
     1
  3
850013936
350
24F
  3
850013952
350
250
  3
850013968
350
251
  3
850013984
350
252
  3
850014000
350
253
  0
DICTIONARY
  5
17
330
15
100
AcDbDictionary
280
     1
281
     1
  0
DICTIONARY
  5
3C
330
3B
100
AcDbDictionary
280
     1
281
     1
  3
ACAD_XREC_ROUNDTRIP
360
25B
  3
FBXASSET
360
3D
  0
DICTIONARY
  5
39
330
38
100
AcDbDictionary
280
     1
281
     1
  3
ACAD_XREC_ROUNDTRIP
360
25A
  3
FBXASSET
360
3A
  0
DICTIONARY
  5
C
330
A
100
AcDbDictionary
280
     1
281
     1
  3
ACAD_XREC_ROUNDTRIP
360
257
  3
BUMPTILE
360
D
  3
DIFFUSETILE
360
E
  3
FBXASSET
360
F
  3
OPACITYTILE
360
10
  3
REFLECTIONTILE
360
11
  0
DICTIONARY
  5
44
330
43
100
AcDbDictionary
280
     1
281
     1
  3
ACAD_ROUNDTRIP_2008_TABLESTYLE_CELLSTYLEMAP
360
24D
  3
ACAD_XREC_ROUNDTRIP
360
25C
  0
DICTIONARY
  5
258
330
2A
100
AcDbDictionary
280
     1
281
     1
  3
ACAD_XREC_ROUNDTRIP
360
259
  0
DICTIONARY
  5
25D
330
45
100
AcDbDictionary
280
     1
281
     1
  3
ACAD_XREC_ROUNDTRIP
360
25E
  0
DICTIONARY
  5
25F
330
46
100
AcDbDictionary
280
     1
281
     1
  3
ACAD_XREC_ROUNDTRIP
360
260
  0
XRECORD
  5
24F
102
{ACAD_REACTORS
330
255
102
}
330
255
100
AcDbXrecord
280
     1
  1
AcDb_Thumbnail_Schema
102
{ATTRRECORD
341
250
  2
AcDbDs::TreatedAsObjectData
280
     1
291
     1
102
ATTRRECORD}
102
{ATTRRECORD
341
251
  2
AcDbDs::Legacy
280
     1
291
     1
102
ATTRRECORD}
  2
AcDbDs::ID
280
    10
 91
        8
102
{ATTRRECORD
341
252
  2
AcDs:Indexable
280
     1
291
     1
102
ATTRRECORD}
102
{ATTRRECORD
341
253
  2
AcDbDs::HandleAttribute
280
     7
282
     1
102
ATTRRECORD}
  2
Thumbnail_Data
280
    15
 91
        0
  0
XRECORD
  5
250
102
{ACAD_REACTORS
330
255
102
}
330
255
100
AcDbXrecord
280
     1
  1
AcDbDs::TreatedAsObjectDataSchema
  2
AcDbDs::TreatedAsObjectData
280
     1
 91
        0
  0
XRECORD
  5
251
102
{ACAD_REACTORS
330
255
102
}
330
255
100
AcDbXrecord
280
     1
  1
AcDbDs::LegacySchema
  2
AcDbDs::Legacy
280
     1
 91
        0
  0
XRECORD
  5
252
102
{ACAD_REACTORS
330
255
102
}
330
255
100
AcDbXrecord
280
     1
  1
AcDbDs::IndexedPropertySchema
  2
AcDs:Indexable
280
     1
 91
        0
  0
XRECORD
  5
253
102
{ACAD_REACTORS
330
255
102
}
330
255
100
AcDbXrecord
280
     1
  1
AcDbDs::HandleAttributeSchema
  2
AcDbDs::HandleAttribute
280
     7
 91
        1
284
     1
  0
XRECORD
  5
25B
102
{ACAD_REACTORS
330
3C
102
}
330
3C
100
AcDbXrecord
280
     1
102
MATERIAL
148
0.0
149
0.0
149
0.0
 93
        0
 94
       63
282
     0
 72
     1
 77
     1
171
     1
175
     1
179
     1
273
     0
  0
XRECORD
  5
3D
102
{ACAD_REACTORS
330
3C
102
}
330
3C
100
AcDbXrecord
280
     1
 70
     1
 90
429727718
  1
D62C5603-E3A1-4AEA-B7FB-FE5D8D0755AF
310
504B03040A0000080000CC70623B3DEE336E79000000790000001B0000006175746F6465736B2D64657369676E2D7061636B6167652E786D6C3C3F786D6C2076657273696F6E3D22312E302220656E636F64696E673D227574662D3822203F3E3C666F726D6174733E3C666F726D61743E687474703A2F2F736368656D612E
310
6175746F6465736B2E636F6D2F64657369676E2D7061636B6167652F323030393C2F666F726D61743E3C2F666F726D6174733E504B0304140006080800CC70623BD486FD9CA0000000F4000000130000005B436F6E74656E745F54797065735D2E786D6C7D8EC10E82300C865F65E91D8A1E8C310C0EEA1BF002731658846E
310
D98AC1B77784ABF1D8FE5FBFBF75BBCE937A534CCEB38643598122B6FEE978D0B0485F9C41B54DDD7D022595594E1A469170414C76A4D9A4D207E29CF43ECE46F218070CC6BECC4078ACAA135ACF422C856C0E68EA1BF5669944DDD7BCDE7B1F8E415D77AECB980613C2E4AC91FC167A2B244592486606FC29C8FD7F045B9A
310
EF7053A7E60B504B0304140006080800CC70623B853B8169EB0000007C01000008000000636F72652E786D6C8D90416EC3201045AF62CDB6C206821CC7C244919D9CA01740401C94182C03558F5F9C3852BBEB6A467FFE9B197D7EFC9E1EC5975982F5AE035262288C535E5B377690E21535501C055FBC8FBF6C503839990E
310
5619041F179FE64D52DE45E362569DD7661365082642A11EB9E920A89B99642953CC8E702F67A9EE7234257977194EC9EAE275C4EABCCF5EAD5940D4AC6F0E35A568B8F43562CD7046CD199FD07E60174276A7BE677B5EADB0E0D14EEFFB6A31321A0D82627C4084204C3F096B71DD52F6819B16635EADF63F509AF53FA164
310
5DDCD1EDDD17164090FCC8732078B56691CB33A85CD7DCC40F504B0304140006080800CC70623B55019EA25F0000007C00000007000000636E782E786D6C4DCB3B0E80201045D1AD90E915ED2CF8AC45050C11660C8261F98AB1B07AC9C97D42D718D865D3E909258CFD00CCE24AC6E326A164D74DC0B4128928FF32603847
310
2BA13128B1252AC747C6BAB984FC68F0B87FE8960A5C09FE86CFB69FBA01504B0304140006080800CC70623BDBABAAF470010000D40300000C0000006662782F636F72652E786D6CC553D16E823014FD95A6AF4B694182CC941A83FA05FB810A9511A125A5257EFE2E82712ECEB8A7F100CD39F7F69E734AF9FADC366850B6
310
AF8DCE7018308C942E4C59EB2AC3DE1D498AD15A706B8CFB56869196ADCAF00863C12B6B7C374385D14E6907A836A59A41D9F7CA615434B0C8705F7CAA5606D23BA8E84F41278B93AC54100640439DE0BDB320004D43C63716C7C399D30917DCFBBA9CD9BA8469F5B156168B24CED3F7248AC8769F27244EB73B92EED8862C
310
B7F13E0C179B3C8F979C8ECD82BBBABDAA2BAC924E9558448CBD9330242CFA08E3154B5651FCC6D215639C8EE5774DBE2B5F6CF2B5768B68963BB5F5588420E442FC700B1139D4CB01F450C1E918227C2E09DF070D8140C84E1E9AAB8F1340832A9CB13130A5F1376A908D57309505ECF2A0DF179C4E9D30F5B239B87E3823
310
7A79C6F31DE1A8A5AEC08474B03C7837EAE4938639B44E5932B833D2C6B6B279CDC613877FA26EE21F4A2A4C63EC7F29A2F301D1F9F7A0E37D145F504B0304140006080800CC70623B9C113CC27E0000009D0000000B0000006662782F636E782E786D6C4DCCDF0A83201C86E15B91DFB94BFB330DD428C8FB886521330DA7
310
6397BF1A1DECE883878F57749FCDA1B7892F1BBC047A23808C7F84D9FA55424E0BE6803A256208E9EF06C84F9B91703228B1C690F78B66B34CD9A5439DF5CF0BFBF65E35BCA1B8D6A5C6F540381E886698B5741C695F9503EBA150A2F8958E3DC3EA0B504B0304140006080800CC70623B7DF2F77C2A010000120200003100
310
00006662782F41393633353835312D344632462D344230382D423046372D3739314545314133324237412F636F72652E786D6C8D51DB8EC22014FC15C2939B0D2DB4B45643319AE817EC0F6041255A68B86CFCFC856D4D76DF7CE190393373060EDB3DC707F856CE6B6B7A480A0C81328395DA5C7B18C3057510EC3873D686
310
3F34088C18550F330C39BB3A1BA7051AAC09CA84841A2BD5020AEF55806078A44B0FFD7053A328440C89E1EFC52486BBB8AA8214A99D789CF9E05200300FC927E4FB4D5B375D43103D5527440FB843077C5AA3F5861C8F645F5787F59E95B390B318B55CE45AA638FAA2957BD7248B390B7A7CC51F9C124149C82B8C378810
310
84AB2F42B7B8DD56F413775B8C5999E9FF4471926F8AA236A1AE96B8B3CC434E5839373893369E1FAF30EA395917409EB7F26AF8801C171837A4A6AC9C89E9F9C9B1A58BA30FD6A5EF5DDDCF894B9AD9B6A59C957943A9FCAE2FD5BC4DFE03504B0304140006080800CC70623BAD7543B64E01000033030000300000006662
310
782F41393633353835312D344632462D344230382D423046372D3739314545314133324237412F636E782E786D6CD593CD6EC32010845F0571AD6CE3D48AD20813A9873E410FBD12D82434182C7EAAE6EDBB2424CD25871E7B41D6EC30B3FA84F9E67BB2E40B4234DE8DB46F1925E094D7C6ED479AD3AE5951B2113C789FEE
310
6C943839C1488B4C05DF079FE72A69D8C96C13AAD6B8631503449F83828872B949AC57D26200B826A308D316B4064D6E46FCDA41C05550DC9E483A00797BFD207EFB092A45DE9514C1BBD22178396BD39D891265658C238DEA00936C654E5E433CB65A26D9F6EDB5EBC14EBF49A45CB856E66048291F6939A9A81BB5C89177
310
38143CA680F4AA299D66A042CEB3354A2684DC9D8D178FE0D9B8B41CAAD720F880EE7EF93C0C18769E099ECC04D5A102C8049A8A05632F4DDF376CF1DE0F6BB65C2F8627B65A33C6BB62177CEBBDAD973006829F89F22E814B54F4BC2BE347F8AA8F681390B50FA73F804400B5F542E796F19FF974E7F78DB802FE05E20750
310
4B0304140006080800CC70623BE75B7789680500003C100000340000006662782F41393633353835312D344632462D344230382D423046372D3739314545314133324237412F6F626A656374732E786D6CAD575B8F9B3818FD2B887D06C22499CB8AA1CA655245D5B455A356FB305264C061D8018C6C3393D95FBFC7600890
310
A4CD5EF210B0B1BFEBF98E3F7B1FF6596ABC522E1296DF9BAE3D320D9A872C4AF2F8DE2CE5CEBA358D0FBEC719939D65A691938CDE9B6ADAF4BD98B3B2D05311DD91329583D9D5FC0F438434A7A611A644887B5384CF34233629258BA878B12322891DEFF6B66BD70BFB62634E8AE781D082709A4B588AF91C528CDA28B73F
310
1C998EEF39EABBEFA97FBD6A7C7E9553F9D3D79FE442923C3C523610337627CB87ABE99D359D4CC6D6E4FACAB5E6ABF9D2726FC6A3C5F56271377BB88362213924694B38DD99FE47C48627A1E7D49F5A8BB5E1A74C0A599ED3B0F21F1E56366B89112D681E218F0915D0D6F17AD41FBA2A369DCF6335D62ABBD39779D5DDD1
310
11D4D8DE3CBB96B2E04FB8202E41051754A1AA8E8F76B4C6DFE810B580B1547F4B84911149794252234D024EF8BBE963A95AE27B3D310A9D5C215C7960FAEE415ED75694C6AFB17BCACA5D99A60A9AA65F217B0BFC53292ACB92BF283FAD0D3621576592CB5BED907C2FA8E9DF794E35E97BEA31BED21FEB401ABB94C44839
310
DCACBF0E1C5DA8DA5B2F4DFFD32AD86F543D9E565E7056502E157C00AD2671CD534549AB752FCA9CDA00677A313F04E51B22FF19E57B300579E3C97EB29F682D92935CEC18CF901B7B54FD8C51F362B56FC72FE0B3C1EAE335EDCCBF5AEC39ADB17DC238973F804BA5E6F6BFE7AF1FB32E523BE9F3BD571418E3631DCA4D48
310
5250CF639223210A9446CA30052EDF057BD35F8329C1ECD84552BF0DC8D18BE7BCE23BFE6BD960AB4A7DE79923A103BEBD80F911CBAA2C60DB19B01CF164A5583B772EE6D3FFA56666CBCDA74DC97724A48F9A58967497E489C4D979006FD7A05E227A1EBDD0F737C623387A9C844D3709995625106D157315F8B8392CD4E0
310
A0B9A720C4BE9829CEF37EA1E13111214D53925356365ADA634861B52519DD27A00AEB808EAF0628E6F435519D446F45CF2C9CF5214F0A15B2F6D06B79DA3EE3CBF7F56780D2F4E7EF73A0F5E5B02A38D07DC852C6B7C1FBB6664213E0C39E3EBA7FF4E1AD23EA2829407C85E586727488B751B2DB9502BC7B228A3FD68B6E
310
A65A22397E690AA8D158D7E404EC8CDA235CC3B7D1898680131CEC2CDF2638C65196279577750F15884AEE19F94199155B92B13297978469D4F8D358DF0AEF7631E28DC8F0D9F437D5D39A83B2231A1D52D543813A824EF8D44BCFF2FA6A31BD1E8DAD87F1CCB526B3879935BF59CDADD5C37479BB1CDD4CA7B3556B516589
310
EF352754B706114D9C885EC9131DE6EFEB43D99AFE2391C2F958179413D7CFEF6B1B6DB1E7600F00DE6E5C67454A339A4BA2E0FBA85ED26F045D454F463DBFCE484C2F90F2E5E3666003662ED8F755951A7D1BECD5B30B550B2785C8E7320B7292A4838DDA71BBC863ED7613CAF659337A3354231D4FF4A182A54904C2898C
310
98B28C4AD0CE056CCF332A80986E571EE9DBC305BB5FEB7E509220A58D25CF042D712A806AC0AD0C657FDEF80D2D9CEAA2EE4D1C76F60BFE74219A06527D6F82DF6412526107381E55E353090704D085B52408A8913C4ED159D79BDA71BB4BC506F4831350EB6F975CD22D69BF7AC49B91A2C0A9DDA3D5CA36AD20FC478E37
310
E61844E2352865EBCB61A275A65283CAAA9DD27703B4102F5AF51EF5F573B75CBB5AD38BC845F7A49F82A0966A49C2E3EA5EA0ECD326CD965F1DB402C6FA8B51A4658C5C5E2EC9E214602E55810345408596591009A82E7E7FFACA19EEA299B14A0081A705CB3296EBC14CDF658DCD336EA6D1136881AAEB87B81AB9EE53D5
310
F5EB8BC8362082DA24122F98680A4E7930C01A0079749CEA14382A0783E5EBA5A10F8C098456A03D6A4AEB6BB881E2513747552A5DB22C7EDAF83BD5528081A365F7FF06504B0304140006080000CC70623B000000000000000000000000350000006662782F41393633353835312D344632462D344230382D423046372D37
310
39314545314133324237412F76657274696365732E62696E504B0304140006080800CC70623BF270F1330600000004000000360000006662782F41393633353835312D344632462D344230382D423046372D3739314545314133324237412F747269616E676C65732E62696E636660600000504B0304140006080000CC7062
310
3B000000000000000000000000370000006662782F41393633353835312D344632462D344230382D423046372D3739314545314133324237412F617474726962757465732E62696E504B0304140006080800CC70623B08DA0BD19000000041010000360000006662782F41393633353835312D344632462D344230382D4230
310
46372D3739314545314133324237412F6469726563746F72792E786D6C858F410AC3201045AF22B36F53E9A60B35CBEEBAE80D244E44489C6234F4F835464A48035D0DF398FF9F8AF63D0E6CC63039F212F8F9020C7D47C6792B21C5FE7403D62A1188E2E60C98D7234A5830286103A55745067B9D86B8A3CF9C7F90C11DE6
310
07FB144396D7B6A82D282E9A152AD114D5EF2CB866EEE831B8EEA07A7BB5A8D7D61A2BAAEB7FD5F70921FF497D00504B0304140006080800CC70623BEDD1DC58FD000000A00100003B0000006662782F41393633353835312D344632462D344230382D423046372D3739314545314133324237412F7265736F75726365732F
310
636F72652E786D6C8D504B6E833010BD0A9A6D65B00922041947112427E8052C33A156828DFCA97AFC9A40A576D7CDCCE87D344F8F9FBFE667F689CE6B6B3A6039850C8DB2A336530731DC4903D95970676DF82583CCC8193B5861107C72362E3BA4AC096842428D1D7107A5F7182053CF7474E0D507CE32973124857FE48B
310
540F3961CEF244279DE03EB81420DB9EAC1384436FA353E879B1B182C7A8C75DA3C7F453DF353A1075D537A7BA6464B8F535A99AE14A9A2BBD90E350DD183B5CFABE3AF262350B1EF4FC9351399401471025A527C218A1E53BAB5A5AB765F5469B96525EACF23FA6B88CFF34456DC2A1DCE36E360F82A5202F42F062ED2BAD
310
579969AFDD8A6F504B010214000A0000080000CC70623B3DEE336E79000000790000001B00000000000000000000000000000000006175746F6465736B2D64657369676E2D7061636B6167652E786D6C504B01021400140006080800CC70623BD486FD9CA0000000F40000001300000000000000000000000000B20000005B
310
436F6E74656E745F54797065735D2E786D6C504B01021400140006080800CC70623B853B8169EB0000007C010000080000000000000000000000000083010000636F72652E786D6C504B01021400140006080800CC70623B55019EA25F0000007C000000070000000000000000000000000094020000636E782E786D6C504B
310
01021400140006080800CC70623BDBABAAF470010000D40300000C00000000000000000000000000180300006662782F636F72652E786D6C504B01021400140006080800CC70623B9C113CC27E0000009D0000000B00000000000000000000000000B20400006662782F636E782E786D6C504B01021400140006080800CC70
310
623B7DF2F77C2A010000120200003100000000000000000000000000590500006662782F41393633353835312D344632462D344230382D423046372D3739314545314133324237412F636F72652E786D6C504B01021400140006080800CC70623BAD7543B64E010000330300003000000000000000000000000000D2060000
310
6662782F41393633353835312D344632462D344230382D423046372D3739314545314133324237412F636E782E786D6C504B01021400140006080800CC70623BE75B7789680500003C10000034000000000000000000000000006E0800006662782F41393633353835312D344632462D344230382D423046372D3739314545
310
314133324237412F6F626A656374732E786D6C504B01021400140006080000CC70623B0000000000000000000000003500000000000000000000000000280E00006662782F41393633353835312D344632462D344230382D423046372D3739314545314133324237412F76657274696365732E62696E504B01021400140006
310
080800CC70623BF270F133060000000400000036000000000000000000000000007B0E00006662782F41393633353835312D344632462D344230382D423046372D3739314545314133324237412F747269616E676C65732E62696E504B01021400140006080000CC70623B0000000000000000000000003700000000000000
310
000000000000D50E00006662782F41393633353835312D344632462D344230382D423046372D3739314545314133324237412F617474726962757465732E62696E504B01021400140006080800CC70623B08DA0BD1900000004101000036000000000000000000000000002A0F00006662782F41393633353835312D344632
310
462D344230382D423046372D3739314545314133324237412F6469726563746F72792E786D6C504B01021400140006080800CC70623BEDD1DC58FD000000A00100003B000000000000000000000000000E1000006662782F41393633353835312D344632462D344230382D423046372D3739314545314133324237412F7265
310
736F75726365732F636F72652E786D6C504B0506000000000E000E0080040000641100000000
  0
XRECORD
  5
25A
102
{ACAD_REACTORS
330
39
102
}
330
39
100
AcDbXrecord
280
     1
102
MATERIAL
148
0.0
149
0.0
149
0.0
 93
        0
 94
       63
282
     0
 72
     1
 77
     1
171
     1
175
     1
179
     1
273
     0
  0
XRECORD
  5
3A
102
{ACAD_REACTORS
330
39
102
}
330
39
100
AcDbXrecord
280
     1
 70
     1
 90
429727718
  1
30362254-06B7-45E0-A893-8CFA70E3D6BC
310
504B03040A0000080000CC70623B3DEE336E79000000790000001B0000006175746F6465736B2D64657369676E2D7061636B6167652E786D6C3C3F786D6C2076657273696F6E3D22312E302220656E636F64696E673D227574662D3822203F3E3C666F726D6174733E3C666F726D61743E687474703A2F2F736368656D612E
310
6175746F6465736B2E636F6D2F64657369676E2D7061636B6167652F323030393C2F666F726D61743E3C2F666F726D6174733E504B0304140006080800CC70623BD486FD9CA0000000F4000000130000005B436F6E74656E745F54797065735D2E786D6C7D8EC10E82300C865F65E91D8A1E8C310C0EEA1BF002731658846E
310
D98AC1B77784ABF1D8FE5FBFBF75BBCE937A534CCEB38643598122B6FEE978D0B0485F9C41B54DDD7D022595594E1A469170414C76A4D9A4D207E29CF43ECE46F218070CC6BECC4078ACAA135ACF422C856C0E68EA1BF5669944DDD7BCDE7B1F8E415D77AECB980613C2E4AC91FC167A2B244592486606FC29C8FD7F045B9A
310
EF7053A7E60B504B0304140006080800CC70623B1EC5D7A3EB0000007C01000008000000636F72652E786D6C8D90416EC3201045AF82665B6103C6756C6122AB4D4ED00B204C5C94182C03558F5F9C3852BBEB6A467FFE9B197D71FC9E6FE8CBACC17AD7032D0820E3B41FAD9B7A48F1820F808E52ACDEC75F36404ECDA687
310
4D0629A6D5A76597B477D1B89855E747B38B2A041301E95B6E7A08FAD3CCAA50296647B8168BD2573599823EBB0CA76447F43862C7BCCF5EAC59410E4DDD9C7973C2755553CCCFA4C603E3040F1565ED3B1FDE4E432BCA0D9622DAF9795FAF464533826484B498524CD807E51D79ED187F21878E10516EF63F505AC67F42C9
310
BA58B1FDDD071640D2FCC87D2045B96591CB3DA85CB7DCE40F504B0304140006080800CC70623B55019EA25F0000007C00000007000000636E782E786D6C4DCB3B0E80201045D1AD90E915ED2CF8AC45050C11660C8261F98AB1B07AC9C97D42D718D865D3E909258CFD00CCE24AC6E326A164D74DC0B4128928FF32603847
310
2BA13128B1252AC747C6BAB984FC68F0B87FE8960A5C09FE86CFB69FBA01504B0304140006080800CC70623B8C9102E971010000D40300000C0000006662782F636F72652E786D6CC5535B6E833010BC8AE5DF0A6C08340F1947A84D4ED00B38C6A128602363A31CBFCB234A53A551FA553EC09AD9F5CE8C31DB9E9B1AF5CA
310
7695D1198E428A91D2D214952E33ECDD315861B4E5CC1AE3BE9561A445A3323CC098B3D21ADFCE9034DA29ED00D5A6503328BA4E398C640D8B0C77F253352214DE4145770A5B214FA2546114020D759C75CE8200340D19DE981F0F6746269C33EFAB6266AB02A655C74A59CCF365BADC27CB5D902ED22848F6340DF238A141
310
BE88E2F57B92BFEDF23523433367AE6A2EEAA455C2A902F398D2751045018D3FA264435F3771F242571B4A1919CA6F9A7C5B3CD9E42BED16F12C776AEB308F40C848FC700B1139D4891EF410CEC810227CC6846F8386402064270EF5C5C709A05E49676C024C61FC95EA45ED154CA5211D1FF4FB8291A913A68E9B83EBBB33
310
E2A7673CDE118E5AE8124C0807CB8377834E366998436B950D7A7746DAD846D4CFD978E0F04FD455FC5D49D2D4C6FE9722321F10997F0F32DC47FE05504B0304140006080800CC70623BFFEA85907E0000009D0000000B0000006662782F636E782E786D6C4DCCD10A83201886E15B91FFDC95D95A811AB6F23E625948A6C3
310
E9D8E5AF46073BFAE0E1E365ED67B3E8ADC3CB78C7815C7240DA3DFC64DCC221C519D7805AC182F7F1EF06C88D9BE6703008B6049F9E274D7A1E938DBB5AE3D6131B2589BA0D3D965551E0B2EA732C9B9A624AAEB41E3A557677029960D9AFB4EF11165F504B0304140006080800CC70623B4FEEA4082C0100001202000031
310
0000006662782F39464131463745442D413632322D343644302D413938332D3331353338454246344243312F636F72652E786D6C8D515B6EC32010BC0AE2AB55850DD871ED0813254D72825EC00192A2C460F1A872FC42ED48ED5F7E00CDCECCCEB26C731F6FE05B39AFADE921293004CA082BB5B9F43086336A21D870E6AC
310
0D7F68109861543DCC30E4ECE26C9C164858139409093556AA051CBC570102714B8F1E7AF1A5C6A11862480C7F2DA6415C878B2A4891CA89C7990F2E050073937C42DE1DB7E4F87ED8A36D4329AA9B3D46DBAEAD504556557BD81DEBDD0761E52CE42C462D17B996298E3E6BE59E35C962CE821E1FF18553435012728A7187
310
0841987E927A8D9B35ADDF70BBC6989599FE4F1427F9A4286A132ABAC49D651EF234CD5CE04CDA78BA3DC2A8FB645D00B9DF8B57E215725C60BCA2A463E54C4CE327C7A65E1C7DB02E7DEFCBF594B864C5CA6CDBD49C957943E9FA5D5FBAF336F90F504B0304140006080800CC70623BAD7543B64E01000033030000300000
310
006662782F39464131463745442D413632322D343644302D413938332D3331353338454246344243312F636E782E786D6CD593CD6EC32010845F0571AD6CE3D48AD20813A9873E410FBD12D82434182C7EAAE6EDBB2424CD25871E7B41D6EC30B3FA84F9E67BB2E40B4234DE8DB46F1925E094D7C6ED479AD3AE5951B2113C
310
789FEE6C943839C1488B4C05DF079FE72A69D8C96C13AAD6B8631503449F83828872B949AC57D26200B826A308D316B4064D6E46FCDA41C05550DC9E483A00797BFD207EFB092A45DE9514C1BBD22178396BD39D891265658C238DEA00936C654E5E433CB65A26D9F6EDB5EBC14EBF49A45CB856E66048291F6939A9A81BB5
310
C8917738143CA680F4AA299D66A042CEB3354A2684DC9D8D178FE0D9B8B41CAAD720F880EE7EF93C0C18769E099ECC04D5A102C8049A8A05632F4DDF376CF1DE0F6BB65C2F8627B65A33C6BB62177CEBBDAD973006829F89F22E814B54F4BC2BE347F8AA8F681390B50FA73F804400B5F542E796F19FF974E7F78DB802FE05
310
E207504B0304140006080800CC70623B16AB87BA640500003C100000340000006662782F39464131463745442D413632322D343644302D413938332D3331353338454246344243312F6F626A656374732E786D6CAD575B6FA33818FD2B887DE6924B3BED8A326A92B68A663B534DD4D13E548A0C38942D60649B369D5FBFC7
310
600890A493BDE42160637FD7F31D7FF63E6FB3D478A55C242CBF3247B66B1A340F5994E4F19559CA8D75611A9F7D8F33263BCB4C232719BD32D5B4E97B316765A1A722BA21652A07B3B7B33F0D11D29C9A46981221AE4C113ED38CD8A4942CA2E2C58E882476BCD9DA23BB5ED8171B73523C0F841684D35CC252CCE79062D4
310
468DFA43D7747CCF51DF7D4FFDEB5593E3AB9CCA9FBEFE241792E4E19EB28198C968BAB8199F5D5A67D3E9C49A9E8F47D6EC76B6B0469F26EEFC7C3EBFBCBEB98462213924694B38DD98FE1D62C393D073EA4FADC5DAF04326852CCF6958F90F0F2B9BB5C48816348F90C7840A68EB78EDF68723159BCEE7891A6B95DDE9D3
310
BCEAEEE8086A6C6F9E5D4B59F0175C10A7A0820BAA5055C7473B5AE3CFDD452D602CD5DF12616444529E90D448938013FE6EFA58AA96F85E4F8C42275708571E98FE6827AF6B2B4AE3D7D83D64E5A64C53054DD3AF90BD06FEA9149565C94FCA0F6B834DC85599E4F2423B24DF0B6AFA979E534DFA9E7A4CC6FA631D486393
310
921829879BF5D781A373557BCB85E97FB90DB62B558F8795179C15944B051F40AB495CF35451D26A4727654E6D8033BD98EF82F21D91FF8AF2DD9982BCF1643BDD4EB516C9492E368C67C88DED563FC36D5EACF66DFF057C3658BDBFA69DF9578B3DA735B64F18C7F20770A9D45CFCF7FCF563D6456A277DBEF78A02637CA2
310
43B90A490AEAB94F72244481D24819A6C0E59B606BFA4B3025981DBB48EAB701D97BF19C577CC77F2D1B6C55A9EF3C732474C0B727303F625995056C3B02963D9EAC146BE78EC5FCEC7FA999EBC5EACBAAE41B12D27B4D2C0BBA49F244E2ECDC81B76B502F113D8F5EE8FB1BE3111CDD4FC2AA9B844CAB1288B68AB90A7CDC
310
1C166AB0D3DC5310625FCC14E779BFD0709F8890A629C9292B1B2DED31A4B0DA928CEE135085754027E3018A397D4D5427D15BD1330B677DC8934285AC3DF45A9EB68FF8F2B8FC0A509AFEECFD0FF2DE25CC6047F7214B195F07EFEB9A094D800F7BFAE8FED187B78EA8A3A400F115961BCAD1215E47C966530AF0EE8128FE
310
58CEBB996A8964FFA529A046635D9353B0336A8F700DDF46271A024E70B0B37C9DE01847591E54DED53D54202AB947E4076556AC49C6CA5C9E1226B7F1A7B1BE15DEED62C41B91E1B3E9AFAAA735036547343A925075041DF0A9979E893B391F8FCFA6967B3EFB644DCF6E5CEBFAE272625DCC6FAF3FB93793C5F90CE1EF57
310
407342756B10D1C489E8953CD1617E5CEECAD6F4EF8914CE5D5D504E5C3F1F9736DA62CFC11E00BCDDB8CC8A9466349744C1F75EBDA4DF09BA8A9E8C7A7E9991989E20E5DBDD6A6003664ED8F7A04A8DBE0DF6EAD9B9AA858342E47399053949D2C146EDB85DE4B176BB0965FBAC19BD19AA918E27FA50C1D22402E144464C
310
59462568E704B6E71915404CB72B8FF4EDE184DDAF753F284990D2C6926782963815403548A70C657FDEF80D2D9CEAA2AE4C1C76F60BFE74219A06527D6582DF6412526107381E55E353090704D085B52408D0933C4ED159D79BDA71BB4BC506F4831350EB6F979CD22D69BF7AC49B91A2C0A9DDA3D5CA36AD20FC478E37E6
310
1844E2352865EBCB6EA275A652E3836BE04EFB400BF1A2556F515F1FBB35B2AB35BD889C744FFA1004B5544B121E57F70215746DD2F5E2C1412B602CBF19455AC6C8E5E9922C4E01E65215385004546899059180EAFCF7A707CE7017CD8CDB0410789AB32C63B91E5CEBBBACB17AC6CD347A022D5075FD106377347AAABA7E
310
7D11590744509B44E205134DC1290F06580320F78E537D3D73540E06CB970B431F185308AD40BBD794D6D77003C5A36E8EAA54BA64597CD8F83BD552A080A365F7FF06504B0304140006080000CC70623B000000000000000000000000350000006662782F39464131463745442D413632322D343644302D413938332D3331
310
353338454246344243312F76657274696365732E62696E504B0304140006080800CC70623BF270F1330600000004000000360000006662782F39464131463745442D413632322D343644302D413938332D3331353338454246344243312F747269616E676C65732E62696E636660600000504B0304140006080000CC70623B
310
000000000000000000000000370000006662782F39464131463745442D413632322D343644302D413938332D3331353338454246344243312F617474726962757465732E62696E504B0304140006080800CC70623B08DA0BD19000000041010000360000006662782F39464131463745442D413632322D343644302D413938
310
332D3331353338454246344243312F6469726563746F72792E786D6C858F410AC3201045AF22B36F53E9A60B35CBEEBAE80D244E44489C6234F4F835464A48035D0DF398FF9F8AF63D0E6CC63039F212F8F9020C7D47C6792B21C5FE7403D62A1188E2E60C98D7234A5830286103A55745067B9D86B8A3CF9C7F90C11DE607
310
FB144396D7B6A82D282E9A152AD114D5EF2CB866EEE831B8EEA07A7BB5A8D7D61A2BAAEB7FD5F70921FF497D00504B0304140006080800CC70623B0D6EF93BFE000000A00100003B0000006662782F39464131463745442D413632322D343644302D413938332D3331353338454246344243312F7265736F75726365732F63
310
6F72652E786D6C8D50596E833010BD0A9ADFCA60B334011947A8694ED00B586642AC041B79A97AFC9A40A5F6AF3F33A3B7689E1E3F7DCD8FEC139DD7D6F4C0720A191A65476DA61E62B892236427C19DB5E1970C322367EC618541F0C9D9B8EC90B226A009093576C41D94DE63804C3DD2D18357379C652E63480A7FCF17A9
310
EE72C29CE5894E3AC17D702940B63D59270887DE46A7D0F36263058F518FBB468FE9A7BE6A7420864373B8D4873369AA8691FA421B3294352543C5CAF65C0F6FEF43CB8BD52C78D0F34F46E550061C419494B6843142CB0F5677F4B52BEB177AEC28E5C52AFF638ACBF84F53D42654E51E77B379102C05791282176B5F693D
310
CB4C7BED567C03504B010214000A0000080000CC70623B3DEE336E79000000790000001B00000000000000000000000000000000006175746F6465736B2D64657369676E2D7061636B6167652E786D6C504B01021400140006080800CC70623BD486FD9CA0000000F40000001300000000000000000000000000B20000005B
310
436F6E74656E745F54797065735D2E786D6C504B01021400140006080800CC70623B1EC5D7A3EB0000007C010000080000000000000000000000000083010000636F72652E786D6C504B01021400140006080800CC70623B55019EA25F0000007C000000070000000000000000000000000094020000636E782E786D6C504B
310
01021400140006080800CC70623B8C9102E971010000D40300000C00000000000000000000000000180300006662782F636F72652E786D6C504B01021400140006080800CC70623BFFEA85907E0000009D0000000B00000000000000000000000000B30400006662782F636E782E786D6C504B01021400140006080800CC70
310
623B4FEEA4082C0100001202000031000000000000000000000000005A0500006662782F39464131463745442D413632322D343644302D413938332D3331353338454246344243312F636F72652E786D6C504B01021400140006080800CC70623BAD7543B64E010000330300003000000000000000000000000000D5060000
310
6662782F39464131463745442D413632322D343644302D413938332D3331353338454246344243312F636E782E786D6C504B01021400140006080800CC70623B16AB87BA640500003C1000003400000000000000000000000000710800006662782F39464131463745442D413632322D343644302D413938332D3331353338
310
454246344243312F6F626A656374732E786D6C504B01021400140006080000CC70623B0000000000000000000000003500000000000000000000000000270E00006662782F39464131463745442D413632322D343644302D413938332D3331353338454246344243312F76657274696365732E62696E504B01021400140006
310
080800CC70623BF270F133060000000400000036000000000000000000000000007A0E00006662782F39464131463745442D413632322D343644302D413938332D3331353338454246344243312F747269616E676C65732E62696E504B01021400140006080000CC70623B0000000000000000000000003700000000000000
310
000000000000D40E00006662782F39464131463745442D413632322D343644302D413938332D3331353338454246344243312F617474726962757465732E62696E504B01021400140006080800CC70623B08DA0BD190000000410100003600000000000000000000000000290F00006662782F39464131463745442D413632
310
322D343644302D413938332D3331353338454246344243312F6469726563746F72792E786D6C504B01021400140006080800CC70623B0D6EF93BFE000000A00100003B000000000000000000000000000D1000006662782F39464131463745442D413632322D343644302D413938332D3331353338454246344243312F7265
310
736F75726365732F636F72652E786D6C504B0506000000000E000E0080040000641100000000
  0
XRECORD
  5
257
102
{ACAD_REACTORS
330
C
102
}
330
C
100
AcDbXrecord
280
     1
102
MATERIAL
148
0.0
149
0.0
149
0.0
 93
        0
 94
       63
282
     0
 72
     1
 77
     1
171
     1
175
     1
179
     1
273
     0
  0
XRECORD
  5
D
102
{ACAD_REACTORS
330
C
102
}
330
C
100
AcDbXrecord
280
     1
270
     1
271
     1
  0
XRECORD
  5
E
102
{ACAD_REACTORS
330
C
102
}
330
C
100
AcDbXrecord
280
     1
270
     1
271
     1
  0
XRECORD
  5
F
102
{ACAD_REACTORS
330
C
102
}
330
C
100
AcDbXrecord
280
     1
 70
     0
 90
1673772943
  1
ECE7A1D2-D628-4531-984C-D00F80459256
310
504B03040A0000080000CC70623B3DEE336E79000000790000001B0000006175746F6465736B2D64657369676E2D7061636B6167652E786D6C3C3F786D6C2076657273696F6E3D22312E302220656E636F64696E673D227574662D3822203F3E3C666F726D6174733E3C666F726D61743E687474703A2F2F736368656D612E
310
6175746F6465736B2E636F6D2F64657369676E2D7061636B6167652F323030393C2F666F726D61743E3C2F666F726D6174733E504B0304140006080800CC70623BD486FD9CA0000000F4000000130000005B436F6E74656E745F54797065735D2E786D6C7D8EC10E82300C865F65E91D8A1E8C310C0EEA1BF002731658846E
310
D98AC1B77784ABF1D8FE5FBFBF75BBCE937A534CCEB38643598122B6FEE978D0B0485F9C41B54DDD7D022595594E1A469170414C76A4D9A4D207E29CF43ECE46F218070CC6BECC4078ACAA135ACF422C856C0E68EA1BF5669944DDD7BCDE7B1F8E415D77AECB980613C2E4AC91FC167A2B244592486606FC29C8FD7F045B9A
310
EF7053A7E60B504B0304140006080800CC70623BD9DDAED0EC0000007C01000008000000636F72652E786D6C8D90416EC3201045AF82665B61836D9CD8C2444DD39CA01740405C94182C03558F5F9C3852BBEB6A467FFE9B197D7EF89E6EE8CB2CC17A37002D0820E394D7D68D03A478C17B4007C117EFE32F1B20272733C0
310
2A83E0E3E2D3BC49CABB685CCCAAF3DA6CA20CC14440EA969B0182FA34932C648AD911AEC52CD5558EA6A0CF2EC329598D1E47ACCEFBECC59A050463A7EA5833865FEBDD0E37353BE3EE8DBDE3F6786A48D375FBF6CC78B9C282473B3DEFABC5C86834888A900E538A49F5419B9EB47DD5BC907D4F082F57FB1F28CDFA9F50
310
B22ED6D5F6EE030B20687EE43E10BC5CB3C8E51E54AE6B6EE207504B0304140006080800CC70623B55019EA25F0000007C00000007000000636E782E786D6C4DCB3B0E80201045D1AD90E915ED2CF8AC45050C11660C8261F98AB1B07AC9C97D42D718D865D3E909258CFD00CCE24AC6E326A164D74DC0B4128928FF326038
310
472BA13128B1252AC747C6BAB984FC68F0B87FE8960A5C09FE86CFB69FBA01504B0304140006080800CC70623BA24EB22D72010000D40300000C0000006662782F636F72652E786D6CC5535B6E833010BC8AE5DF0A6C5E49888CA3A6694ED00B38E05014B091B1518EDFE511A5A9D228FD2A1F60CDEC7A67C6986DCE4D8D7A
310
69BA4AAB0C073EC548AA5C17952A33ECECD15B61B4E1CC686DBF9561A44423333CC098B3D268D7CE50AE9595CA02AA74216750749DB418E5352C32DCE59FB211BE70162ABA93DF8AFC244AE9073ED050C759670D0840D390E18DF9F1706664C23973AE2A66B62A605A75ACA4C13C4976E1364A12EF355A2EBD384AF65EFA96
310
BC7B8BED2EA6719AAE16FB8491A199335B351775B991C2CA02F390D2D40B028F861F41BCA68B7518BFD0D59A524686F29B26D7164F36B94AD9289CE54E6D1DE6010819891F6E21228B3AD1831EC219194284CF98F06DD01008846CC5A1BEF83801D4CBDC6A1303536877A57A513B0953A94FC707FDBE6064EA84A9E3E6E0FA
310
EE8CF0E9198F7784A316AA0413C2C2F2E0ECA0934D1AE6D05A69BCDE9E91D2A611F573361E38FC1375157F5752AE6B6DFE4B11990F88CCBF0719EE23FF02504B0304140006080800CC70623B408A7D3B7C0000009D0000000B0000006662782F636E782E786D6C4DCCD10A83201886E15B91FFDC552A92A0064DBC8F581632
310
D3703A76F9ABD1C18E3E78F878E5F0D9027ABBFCF2292AE86E2D20171F69F6715550CB827B40839639A5F2770314A7CD293819B45C73AAFB45B35BA61ACAA1C1C7E7855C58C15BC331339661262CC762340413D68D77DA5B42298546CBE6573AF60CEB2F504B0304140006080800CC70623B449FB9BD290100001202000031
310
0000006662782F36394639363044362D344446342D343946362D394244322D3234314243333846323333332F636F72652E786D6C8D515B6EC32010BC0AE22B55850D98B871848994463E412FE002495162B07854397EA176A4F62F3F2C9A9D991D587EB84F37F0AD7D30CEF6905418026DA553C65E7A98E219ED203808EE9D
310
8B7F6810D871D23D2C3014FCE25D9A57483A1BB58D19B54EE9151C43D0110279CB971E06F9A5A7B11A53CC8C70ADE6515EC78BAE4895DB992778883E0700CB907242D17643D7E2538BD869608875438BBAE38922CAC8F1BDD90DB4691A5E2F42C153326A951B95E398B3D1FE599322163C9AE9115F7A3D46ADA0A018778810
310
84E907617BDCEE297BC5BB3DC6BC2EF47FA234AB2745C9D8D8D035EE220B50105E2F0DC1954B9FB747187D9F9D8FA0CCDB042D5FA0C015C65B42DF78BD10F3F3B363CB56C7109DCFDFBBB97E662ED92EB62D13BC2E1BCAE5777DB9966D8A1F504B0304140006080800CC70623BAD7543B64E01000033030000300000006662
310
782F36394639363044362D344446342D343946362D394244322D3234314243333846323333332F636E782E786D6CD593CD6EC32010845F0571AD6CE3D48AD20813A9873E410FBD12D82434182C7EAAE6EDBB2424CD25871E7B41D6EC30B3FA84F9E67BB2E40B4234DE8DB46F1925E094D7C6ED479AD3AE5951B2113C789FEE
310
6C943839C1488B4C05DF079FE72A69D8C96C13AAD6B8631503449F83828872B949AC57D26200B826A308D316B4064D6E46FCDA41C05550DC9E483A00797BFD207EFB092A45DE9514C1BBD22178396BD39D891265658C238DEA00936C654E5E433CB65A26D9F6EDB5EBC14EBF49A45CB856E66048291F6939A9A81BB5C89177
310
38143CA680F4AA299D66A042CEB3354A2684DC9D8D178FE0D9B8B41CAAD720F880EE7EF93C0C18769E099ECC04D5A102C8049A8A05632F4DDF376CF1DE0F6BB65C2F8627B65A33C6BB62177CEBBDAD973006829F89F22E814B54F4BC2BE347F8AA8F681390B50FA73F804400B5F542E796F19FF974E7F78DB802FE05E20750
310
4B0304140006080800CC70623B8D05915C650500003B100000340000006662782F36394639363044362D344446342D343946362D394244322D3234314243333846323333332F6F626A656374732E786D6CAD575B6FA33814FE2B887D06429276DA1565D4266D158D3A339A6846FB502932E050B66023DB74D2FDF5FB190C01
310
9276B2973C046C8ECFF53B17071F77456EBD502133CEAE6CDF9DD81665314F32965ED995DA3A17B6F5310C04E7AA47665B8C14F4CAD6DB7618A48257A5D94AE89654B91AEDDEDDFC61C998326A5B714EA4BCB265FC440BE2924AF184CA6737218AB8E976E7FA6E4338649B0A523E8D98964450A6A029F619B8588D52FE7039
310
B1BD30F0F4F730D0FF866AF6369557DB33949F31A9088B0F848DD8CCFCF9F2767A76E99CCDE733677E3EF59D9BBB9BA5E37F984D16E78BC5E5F5ED25044B25C0C96822E8D60EEFE11B91C581D77CEA34368A1F5329E68CD1B8B61F16D63A1B8E092D294B10C78C4A48EB593D192E7DED9BDEE7995E1B91FDEDD3ACEA9FE831
310
6A756F9F7D4D79F4274C90A7A04248AA51D5F8C718DAE06FB2F75AC4796EBE65D22A88A22223B995679120E2D50E41AA49C260C046A35368846B0BECD0DFF3EBEB8AD4F835768F69B9ADF25C43D30E6B646F807FAA64AD59F61715C7A54127C4AACA98BA3006A9D792DAE165E0D59B61A01FB3A9F9D838D2DAE62445C86166
310
F37564E842E7DE6A69879FEEA2DD5AE7E371E1A5E025154AC307D06A03D73EB5978C58FFA4C8E9033066E0F3BD53BEC1F39F91BE7B55103791EDE6BBB991A2046172CB4581D8B893FA674DDA17A77B3B7C413D1B511FD2743BFF8A38F03A658705E3ADF8015C3A3417FF3D7E439FF591DA0B5F18BC20C1B8981957AE6392A3
310
F43C640C01D1A0B4728E2DD4F26DB4B3C3152A252A3B4E913CEC1C72F012782FF88EFF8637AA552DBEF76408E8A8DE9E50F9E1CB3A2DA0DB1B6039A893B56063DC5B3E3FFB5F72E67AB9FEB4AEC496C4F4C1149625DD662C53E89D7BF0F6151A046260D1337DFDC94502430F83B0EE07A130A224BCAD7DAE1D9FB6CD422FF6
310
920702629C4BB9AE79C12F243C6432A6794E18E5552BA56B431AAB5D91317302B2B071E86C3A42B1A02F999E24061403B5D0EB639195DA655DD3EBEAB4FB862DDF579F014AD0E73C22F99E28DA57FB98E75C6CA2D74D53086D600F4786E0FE3144B771A8A7B900F03594DB8A633CBC49B2EDB69228BB479CF863B5E807AAAB
310
23872F6DFEB4129B949CA33823F58830E86D65621E10047D9DB34D862E8EAC3C2ABC2F7B2C40D67CDFE01F5545B92105AF983AC54D93D69E56FB8E797F88913F898A9FEC705D3F9D1B54EC8426FB500D40A03BD0119B06E1B95DDC7EB8F6975367793EBD70E66733DFB9BC982F9CE564727731999F5D4ECFCE3B8D6A4DC2A0
310
6D50FD148437D110834A64C6CDDF57FBACB5C307A2A477DFE4939736CFEF2B175371E0E10CF0DD1D5C15654E0BCA14D1E87DD02FF93782A162C0A3D95F1524A52770F972BF1EE9809D13CE7DD599467F8ECE9ADD85CE85A34CD45355448C64F9E8A031DC2D596ACC6E5DD93D9B82DE2EF5CAF81363A8E47996A0DE24564A79
310
4115AACE09C55E14540231FDA13C319787134EBF34E3A022514E5B4D9E0826E25C02D5805B15ABE1BEF51B26383D445DD9E875EE33FE4C22DA16427D65A3BCA92CA6D28DD01DF5DC53330704308475351050232CCD31583787BA75774AFB06E5070DD0C8EF484E19968C5D83BA5B90B244D31E54D55A372320FE4786B7EA58
310
44E135AA5467CB7EA333A61683CC6A8C3257034C10CF46F40EF9F5BE59BE5BD30C3C72D235E95D10345C1D45445A5F0BB47E46A5EBE5570F9380B5FA629579952296A773720405982B9DE04011506178964401AA8BDF1FBF0A8EAB6861DD6580C0E38217056766716DAEB2D6FA0917D3E4116581EADB879C4E7CFFB11EFACD
310
3D641311495D92C8676CB409A72D18610D803CE8A626049E8EC1887CB5B44CC39883690DDA8399B4B9855B481E7D71D4A9D22F96E5BB73BF5793020C02137BF837504B0304140006080000CC70623B000000000000000000000000350000006662782F36394639363044362D344446342D343946362D394244322D32343142
310
43333846323333332F76657274696365732E62696E504B0304140006080800CC70623BF270F1330600000004000000360000006662782F36394639363044362D344446342D343946362D394244322D3234314243333846323333332F747269616E676C65732E62696E636660600000504B0304140006080000CC70623B0000
310
00000000000000000000370000006662782F36394639363044362D344446342D343946362D394244322D3234314243333846323333332F617474726962757465732E62696E504B0304140006080800CC70623B08DA0BD19000000041010000360000006662782F36394639363044362D344446342D343946362D394244322D
310
3234314243333846323333332F6469726563746F72792E786D6C858F410AC3201045AF22B36F53E9A60B35CBEEBAE80D244E44489C6234F4F835464A48035D0DF398FF9F8AF63D0E6CC63039F212F8F9020C7D47C6792B21C5FE7403D62A1188E2E60C98D7234A5830286103A55745067B9D86B8A3CF9C7F90C11DE607FB14
310
4396D7B6A82D282E9A152AD114D5EF2CB866EEE831B8EEA07A7BB5A8D7D61A2BAAEB7FD5F70921FF497D00504B0304140006080800CC70623BCA768048FE000000A00100003B0000006662782F36394639363044362D344446342D343946362D394244322D3234314243333846323333332F7265736F75726365732F636F72
310
652E786D6C8D50596E833010BD0A9ADFCA60D600328E9AA639412F609909B1126CE4A5EAF16B0295DABFFECC8CDEA2797AECF8353F924FB44E193D409E5248504B332A3D0D10FC95B4901C39B3C6F85F3248B49871801506CE266BC2B243D2688FDA47549B11775038871E12F988C7004EDE7016A9083E2ADC3D5D84BC8B09
310
D33C8D74D471E6BC8D0192EDC93A815B742658898E651BCB59086ADC356A8C3FD555A1055ED7E7E254D615792D0F075295F585746FF53B694EE78A565DD736979A65AB9933AFE69F8CD2A2F038022F28ED489E135A7CE4554F9BBEA85E68DB53CAB255FEC71496F19FA6A0B42F8B3DEE6673C0F318E4497096AD7DC5F52C33
310
EEB55BFE0D504B010214000A0000080000CC70623B3DEE336E79000000790000001B00000000000000000000000000000000006175746F6465736B2D64657369676E2D7061636B6167652E786D6C504B01021400140006080800CC70623BD486FD9CA0000000F40000001300000000000000000000000000B20000005B436F
310
6E74656E745F54797065735D2E786D6C504B01021400140006080800CC70623BD9DDAED0EC0000007C010000080000000000000000000000000083010000636F72652E786D6C504B01021400140006080800CC70623B55019EA25F0000007C000000070000000000000000000000000095020000636E782E786D6C504B0102
310
1400140006080800CC70623BA24EB22D72010000D40300000C00000000000000000000000000190300006662782F636F72652E786D6C504B01021400140006080800CC70623B408A7D3B7C0000009D0000000B00000000000000000000000000B50400006662782F636E782E786D6C504B01021400140006080800CC70623B
310
449FB9BD290100001202000031000000000000000000000000005A0500006662782F36394639363044362D344446342D343946362D394244322D3234314243333846323333332F636F72652E786D6C504B01021400140006080800CC70623BAD7543B64E010000330300003000000000000000000000000000D20600006662
310
782F36394639363044362D344446342D343946362D394244322D3234314243333846323333332F636E782E786D6C504B01021400140006080800CC70623B8D05915C650500003B10000034000000000000000000000000006E0800006662782F36394639363044362D344446342D343946362D394244322D32343142433338
310
46323333332F6F626A656374732E786D6C504B01021400140006080000CC70623B0000000000000000000000003500000000000000000000000000250E00006662782F36394639363044362D344446342D343946362D394244322D3234314243333846323333332F76657274696365732E62696E504B010214001400060808
310
00CC70623BF270F13306000000040000003600000000000000000000000000780E00006662782F36394639363044362D344446342D343946362D394244322D3234314243333846323333332F747269616E676C65732E62696E504B01021400140006080000CC70623B00000000000000000000000037000000000000000000
310
00000000D20E00006662782F36394639363044362D344446342D343946362D394244322D3234314243333846323333332F617474726962757465732E62696E504B01021400140006080800CC70623B08DA0BD190000000410100003600000000000000000000000000270F00006662782F36394639363044362D344446342D
310
343946362D394244322D3234314243333846323333332F6469726563746F72792E786D6C504B01021400140006080800CC70623BCA768048FE000000A00100003B000000000000000000000000000B1000006662782F36394639363044362D344446342D343946362D394244322D3234314243333846323333332F7265736F
310
75726365732F636F72652E786D6C504B0506000000000E000E0080040000621100000000
  0
XRECORD
  5
10
102
{ACAD_REACTORS
330
C
102
}
330
C
100
AcDbXrecord
280
     1
270
     1
271
     1
  0
XRECORD
  5
11
102
{ACAD_REACTORS
330
C
102
}
330
C
100
AcDbXrecord
280
     1
270
     1
271
     1
  0
CELLSTYLEMAP
  5
24D
102
{ACAD_REACTORS
330
44
102
}
330
44
100
AcDbCellStyleMap
 90
        3
300
CELLSTYLE
  1
TABLEFORMAT_BEGIN
 90
        5
170
     1
 91
        0
 92
    32768
 62
   257
 93
        1
300
CONTENTFORMAT
  1
CONTENTFORMAT_BEGIN
 90
        0
 91
        0
 92
      512
 93
        0
300

 40
0.0
140
1.0
 94
        5
 62
     0
340
21
144
6.0
309
CONTENTFORMAT_END
171
     1
301
MARGIN
  1
CELLMARGIN_BEGIN
 40
1.5
 40
1.5
 40
1.5
 40
1.5
 40
4.5
 40
4.5
309
CELLMARGIN_END
 94
        6
 95
        1
302
GRIDFORMAT
  1
GRIDFORMAT_BEGIN
 90
        0
 91
        1
 62
     0
 92
       -2
340
24
 93
        0
 40
1.125
309
GRIDFORMAT_END
 95
        2
302
GRIDFORMAT
  1
GRIDFORMAT_BEGIN
 90
        0
 91
        1
 62
     0
 92
       -2
340
24
 93
        0
 40
1.125
309
GRIDFORMAT_END
 95
        4
302
GRIDFORMAT
  1
GRIDFORMAT_BEGIN
 90
        0
 91
        1
 62
     0
 92
       -2
340
24
 93
        0
 40
1.125
309
GRIDFORMAT_END
 95
        8
302
GRIDFORMAT
  1
GRIDFORMAT_BEGIN
 90
        0
 91
        1
 62
     0
 92
       -2
340
24
 93
        0
 40
1.125
309
GRIDFORMAT_END
 95
       16
302
GRIDFORMAT
  1
GRIDFORMAT_BEGIN
 90
        0
 91
        1
 62
     0
 92
       -2
340
24
 93
        0
 40
1.125
309
GRIDFORMAT_END
 95
       32
302
GRIDFORMAT
  1
GRIDFORMAT_BEGIN
 90
        0
 91
        1
 62
     0
 92
       -2
340
24
 93
        0
 40
1.125
309
GRIDFORMAT_END
309
TABLEFORMAT_END
  1
CELLSTYLE_BEGIN
 90
        1
 91
        1
300
_TITLE
309
CELLSTYLE_END
300
CELLSTYLE
  1
TABLEFORMAT_BEGIN
 90
        5
170
     1
 91
        0
 92
        0
 62
   257
 93
        1
300
CONTENTFORMAT
  1
CONTENTFORMAT_BEGIN
 90
        0
 91
        0
 92
      512
 93
        0
300

 40
0.0
140
1.0
 94
        5
 62
     0
340
21
144
4.5
309
CONTENTFORMAT_END
171
     1
301
MARGIN
  1
CELLMARGIN_BEGIN
 40
1.5
 40
1.5
 40
1.5
 40
1.5
 40
4.5
 40
4.5
309
CELLMARGIN_END
 94
        6
 95
        1
302
GRIDFORMAT
  1
GRIDFORMAT_BEGIN
 90
        0
 91
        1
 62
     0
 92
       -2
340
24
 93
        0
 40
1.125
309
GRIDFORMAT_END
 95
        2
302
GRIDFORMAT
  1
GRIDFORMAT_BEGIN
 90
        0
 91
        1
 62
     0
 92
       -2
340
24
 93
        0
 40
1.125
309
GRIDFORMAT_END
 95
        4
302
GRIDFORMAT
  1
GRIDFORMAT_BEGIN
 90
        0
 91
        1
 62
     0
 92
       -2
340
24
 93
        0
 40
1.125
309
GRIDFORMAT_END
 95
        8
302
GRIDFORMAT
  1
GRIDFORMAT_BEGIN
 90
        0
 91
        1
 62
     0
 92
       -2
340
24
 93
        0
 40
1.125
309
GRIDFORMAT_END
 95
       16
302
GRIDFORMAT
  1
GRIDFORMAT_BEGIN
 90
        0
 91
        1
 62
     0
 92
       -2
340
24
 93
        0
 40
1.125
309
GRIDFORMAT_END
 95
       32
302
GRIDFORMAT
  1
GRIDFORMAT_BEGIN
 90
        0
 91
        1
 62
     0
 92
       -2
340
24
 93
        0
 40
1.125
309
GRIDFORMAT_END
309
TABLEFORMAT_END
  1
CELLSTYLE_BEGIN
 90
        2
 91
        1
300
_HEADER
309
CELLSTYLE_END
300
CELLSTYLE
  1
TABLEFORMAT_BEGIN
 90
        5
170
     1
 91
        0
 92
        0
 62
   257
 93
        1
300
CONTENTFORMAT
  1
CONTENTFORMAT_BEGIN
 90
        0
 91
        0
 92
      512
 93
        0
300

 40
0.0
140
1.0
 94
        2
 62
     0
340
21
144
4.5
309
CONTENTFORMAT_END
171
     1
301
MARGIN
  1
CELLMARGIN_BEGIN
 40
1.5
 40
1.5
 40
1.5
 40
1.5
 40
4.5
 40
4.5
309
CELLMARGIN_END
 94
        6
 95
        1
302
GRIDFORMAT
  1
GRIDFORMAT_BEGIN
 90
        0
 91
        1
 62
     0
 92
       -2
340
24
 93
        0
 40
1.125
309
GRIDFORMAT_END
 95
        2
302
GRIDFORMAT
  1
GRIDFORMAT_BEGIN
 90
        0
 91
        1
 62
     0
 92
       -2
340
24
 93
        0
 40
1.125
309
GRIDFORMAT_END
 95
        4
302
GRIDFORMAT
  1
GRIDFORMAT_BEGIN
 90
        0
 91
        1
 62
     0
 92
       -2
340
24
 93
        0
 40
1.125
309
GRIDFORMAT_END
 95
        8
302
GRIDFORMAT
  1
GRIDFORMAT_BEGIN
 90
        0
 91
        1
 62
     0
 92
       -2
340
24
 93
        0
 40
1.125
309
GRIDFORMAT_END
 95
       16
302
GRIDFORMAT
  1
GRIDFORMAT_BEGIN
 90
        0
 91
        1
 62
     0
 92
       -2
340
24
 93
        0
 40
1.125
309
GRIDFORMAT_END
 95
       32
302
GRIDFORMAT
  1
GRIDFORMAT_BEGIN
 90
        0
 91
        1
 62
     0
 92
       -2
340
24
 93
        0
 40
1.125
309
GRIDFORMAT_END
309
TABLEFORMAT_END
  1
CELLSTYLE_BEGIN
 90
        3
 91
        2
300
_DATA
309
CELLSTYLE_END
  0
XRECORD
  5
25C
102
{ACAD_REACTORS
330
44
102
}
330
44
100
AcDbXrecord
280
     1
102
ACAD_ROUNDTRIP_PRE2007_TABLESTYLE
 90
      512
 91
        0
  1

 92
      512
 93
        0
  2

 94
      512
 95
        0
  3

  0
XRECORD
  5
259
102
{ACAD_REACTORS
330
258
102
}
330
258
100
AcDbXrecord
280
     1
102
RTVSPost2010Prop28
280
     1
102
RTVSPost2010PropOp28
 70
     1
102
RTVSPost2010Prop29
280
     1
102
RTVSPost2010PropOp29
 70
     1
102
RTVSPost2010Prop30
280
     0
102
RTVSPost2010PropOp30
 70
     1
102
RTVSPost2010Prop31
280
     0
102
RTVSPost2010PropOp31
 70
     1
102
RTVSPost2010Prop32
280
     0
102
RTVSPost2010PropOp32
 70
     1
102
RTVSPost2010Prop33
280
     0
102
RTVSPost2010PropOp33
 70
     1
102
RTVSPost2010Prop34
280
     0
102
RTVSPost2010PropOp34
 70
     1
102
RTVSPost2010Prop35
280
     0
102
RTVSPost2010PropOp35
 70
     1
102
RTVSPost2010Prop36
280
     0
102
RTVSPost2010PropOp36
 70
     1
102
RTVSPost2010Prop37
 90
       50
102
RTVSPost2010PropOp37
 70
     1
102
RTVSPost2010Prop38
140
0.0
102
RTVSPost2010PropOp38
 70
     1
102
RTVSPost2010Prop39
140
1.0
102
RTVSPost2010PropOp39
 70
     1
102
RTVSPost2010Prop40
 90
        0
102
RTVSPost2010PropOp40
 70
     1
102
RTVSPost2010Prop41ColorIndex
 90
       18
102
RTVSPost2010Prop41ColorRGB
 90
        0
102
RTVSPost2010PropOp41
 70
     1
102
RTVSPost2010Prop42
 90
       50
102
RTVSPost2010PropOp42
 70
     1
102
RTVSPost2010Prop43
 90
        3
102
RTVSPost2010PropOp43
 70
     1
102
RTVSPost2010Prop44ColorIndex
 90
        5
102
RTVSPost2010Prop44ColorRGB
 90
      255
102
RTVSPost2010PropOp44
 70
     1
102
RTVSPost2010Prop45
280
     0
102
RTVSPost2010PropOp45
 70
     1
102
RTVSPost2010Prop46
 90
       50
102
RTVSPost2010PropOp46
 70
     1
102
RTVSPost2010Prop47
 90
       50
102
RTVSPost2010PropOp47
 70
     1
102
RTVSPost2010Prop48
 90
       50
102
RTVSPost2010PropOp48
 70
     1
102
RTVSPost2010Prop49
280
     0
102
RTVSPost2010PropOp49
 70
     1
102
RTVSPost2010Prop50
 90
       50
102
RTVSPost2010PropOp50
 70
     1
102
RTVSPost2010Prop51ColorIndex
 90
      256
102
RTVSPost2010Prop51ColorRGB
 90
-16777216
102
RTVSPost2010PropOp51
 70
     0
102
RTVSPost2010Prop52
140
1.0
102
RTVSPost2010PropOp52
 70
     0
102
RTVSPost2010Prop53
 90
        2
102
RTVSPost2010PropOp53
 70
     1
102
RTVSPost2010Prop54
  1
strokes_ogs.tif
102
RTVSPost2010PropOp54
 70
     1
102
RTVSPost2010Prop55
280
     0
102
RTVSPost2010PropOp55
 70
     1
102
RTVSPost2010Prop56
140
1.0
102
RTVSPost2010PropOp56
 70
     1
102
RTVSPost2010Prop57
140
1.0
102
RTVSPost2010PropOp57
 70
     1
102
RTVSPropertyOp0
 70
     1
102
RTVSPropertyOp1
 70
     1
102
RTVSPropertyOp2
 70
     1
102
RTVSPropertyOp3
 70
     1
102
RTVSPropertyOp4
 70
     1
102
RTVSPropertyOp5
 70
     1
102
RTVSPropertyOp6
 70
     1
102
RTVSPropertyOp7
 70
     1
102
RTVSPropertyOp8
 70
     1
102
RTVSPropertyOp9
 70
     1
102
RTVSPropertyOp10
 70
     1
102
RTVSPropertyOp11
 70
     1
102
RTVSPropertyOp12
 70
     1
102
RTVSPropertyOp13
 70
     1
102
RTVSPropertyOp14
 70
     1
102
RTVSPropertyOp15
 70
     1
102
RTVSPropertyOp16
 70
     1
102
RTVSPropertyOp17
 70
     1
102
RTVSPropertyOp18
 70
     1
102
RTVSPropertyOp19
 70
     1
102
RTVSPropertyOp20
 70
     1
102
RTVSPropertyOp21
 70
     1
102
RTVSPropertyOp22
 70
     1
102
RTVSPropertyOp23
 70
     1
102
RTVSPropertyOp24
 70
     1
102
RTVSPropertyOp25
 70
     1
102
RTVSPropertyOp26
 70
     1
102
RTVSPropertyOp27
 70
     1
102
RTVSPropertyOp28
 70
     1
102
RTVSPropertyOp29
 70
     1
102
RTVSPropertyOp30
 70
     1
102
RTVSPropertyOp31
 70
     1
102
RTVSPropertyOp32
 70
     1
102
RTVSPropertyOp33
 70
     1
102
RTVSPropertyOp34
 70
     1
102
RTVSPropertyOp35
 70
     1
102
RTVSPropertyOp36
 70
     1
102
RTVSPropertyOp37
 70
     1
102
RTVSPropertyOp38
 70
     1
102
RTVSPropertyOp39
 70
     1
102
RTVSPropertyOp40
 70
     1
102
RTVSPropertyOp41
 70
     1
102
RTVSPropertyOp42
 70
     1
102
RTVSPropertyOp43
 70
     1
102
RTVSPropertyOp44
 70
     1
102
RTVSPropertyOp45
 70
     1
102
RTVSPropertyOp46
 70
     1
102
RTVSPropertyOp47
 70
     1
102
RTVSPropertyOp48
 70
     1
102
RTVSPropertyOp49
 70
     1
102
RTVSPropertyOp50
 70
     1
102
RTVSPropertyOp51
 70
     0
102
RTVSPropertyOp52
 70
     0
102
RTVSPropertyOp53
 70
     1
102
RTVSPropertyOp54
 70
     1
102
RTVSPropertyOp55
 70
     1
102
RTVSPropertyOp56
 70
     1
102
RTVSPropertyOp57
 70
     1
102
RTVSPropertyOp58
 70
     1
102
RTVSPropertyOp59
 70
     1
102
RTVSPropertyOp60
 70
     1
102
RTVSPropertyOp61
 70
     1
102
RTVSPropertyOp62
 70
     1
  0
XRECORD
  5
25E
102
{ACAD_REACTORS
330
25D
102
}
330
25D
100
AcDbXrecord
280
     1
102
RTVSPost2010Prop28
280
     0
102
RTVSPost2010PropOp28
 70
     1
102
RTVSPost2010Prop29
280
     1
102
RTVSPost2010PropOp29
 70
     1
102
RTVSPost2010Prop30
280
     1
102
RTVSPost2010PropOp30
 70
     1
102
RTVSPost2010Prop31
280
     0
102
RTVSPost2010PropOp31
 70
     1
102
RTVSPost2010Prop32
280
     0
102
RTVSPost2010PropOp32
 70
     1
102
RTVSPost2010Prop33
280
     0
102
RTVSPost2010PropOp33
 70
     1
102
RTVSPost2010Prop34
280
     0
102
RTVSPost2010PropOp34
 70
     1
102
RTVSPost2010Prop35
280
     0
102
RTVSPost2010PropOp35
 70
     1
102
RTVSPost2010Prop36
280
     0
102
RTVSPost2010PropOp36
 70
     1
102
RTVSPost2010Prop37
 90
       50
102
RTVSPost2010PropOp37
 70
     1
102
RTVSPost2010Prop38
140
0.0
102
RTVSPost2010PropOp38
 70
     1
102
RTVSPost2010Prop39
140
1.0
102
RTVSPost2010PropOp39
 70
     1
102
RTVSPost2010Prop40
 90
        0
102
RTVSPost2010PropOp40
 70
     1
102
RTVSPost2010Prop41ColorIndex
 90
       18
102
RTVSPost2010Prop41ColorRGB
 90
        0
102
RTVSPost2010PropOp41
 70
     1
102
RTVSPost2010Prop42
 90
       50
102
RTVSPost2010PropOp42
 70
     1
102
RTVSPost2010Prop43
 90
        3
102
RTVSPost2010PropOp43
 70
     1
102
RTVSPost2010Prop44ColorIndex
 90
        5
102
RTVSPost2010Prop44ColorRGB
 90
      255
102
RTVSPost2010PropOp44
 70
     1
102
RTVSPost2010Prop45
280
     0
102
RTVSPost2010PropOp45
 70
     1
102
RTVSPost2010Prop46
 90
       50
102
RTVSPost2010PropOp46
 70
     1
102
RTVSPost2010Prop47
 90
       50
102
RTVSPost2010PropOp47
 70
     1
102
RTVSPost2010Prop48
 90
       50
102
RTVSPost2010PropOp48
 70
     1
102
RTVSPost2010Prop49
280
     0
102
RTVSPost2010PropOp49
 70
     1
102
RTVSPost2010Prop50
 90
       50
102
RTVSPost2010PropOp50
 70
     1
102
RTVSPost2010Prop51ColorIndex
 90
      256
102
RTVSPost2010Prop51ColorRGB
 90
-16777216
102
RTVSPost2010PropOp51
 70
     0
102
RTVSPost2010Prop52
140
1.0
102
RTVSPost2010PropOp52
 70
     0
102
RTVSPost2010Prop53
 90
        2
102
RTVSPost2010PropOp53
 70
     1
102
RTVSPost2010Prop54
  1
strokes_ogs.tif
102
RTVSPost2010PropOp54
 70
     1
102
RTVSPost2010Prop55
280
     0
102
RTVSPost2010PropOp55
 70
     1
102
RTVSPost2010Prop56
140
1.0
102
RTVSPost2010PropOp56
 70
     1
102
RTVSPost2010Prop57
140
1.0
102
RTVSPost2010PropOp57
 70
     1
102
RTVSPropertyOp0
 70
     1
102
RTVSPropertyOp1
 70
     1
102
RTVSPropertyOp2
 70
     1
102
RTVSPropertyOp3
 70
     1
102
RTVSPropertyOp4
 70
     1
102
RTVSPropertyOp5
 70
     1
102
RTVSPropertyOp6
 70
     1
102
RTVSPropertyOp7
 70
     1
102
RTVSPropertyOp8
 70
     1
102
RTVSPropertyOp9
 70
     1
102
RTVSPropertyOp10
 70
     1
102
RTVSPropertyOp11
 70
     1
102
RTVSPropertyOp12
 70
     1
102
RTVSPropertyOp13
 70
     1
102
RTVSPropertyOp14
 70
     1
102
RTVSPropertyOp15
 70
     1
102
RTVSPropertyOp16
 70
     1
102
RTVSPropertyOp17
 70
     1
102
RTVSPropertyOp18
 70
     1
102
RTVSPropertyOp19
 70
     1
102
RTVSPropertyOp20
 70
     1
102
RTVSPropertyOp21
 70
     1
102
RTVSPropertyOp22
 70
     1
102
RTVSPropertyOp23
 70
     1
102
RTVSPropertyOp24
 70
     1
102
RTVSPropertyOp25
 70
     1
102
RTVSPropertyOp26
 70
     1
102
RTVSPropertyOp27
 70
     1
102
RTVSPropertyOp28
 70
     1
102
RTVSPropertyOp29
 70
     1
102
RTVSPropertyOp30
 70
     1
102
RTVSPropertyOp31
 70
     1
102
RTVSPropertyOp32
 70
     1
102
RTVSPropertyOp33
 70
     1
102
RTVSPropertyOp34
 70
     1
102
RTVSPropertyOp35
 70
     1
102
RTVSPropertyOp36
 70
     1
102
RTVSPropertyOp37
 70
     1
102
RTVSPropertyOp38
 70
     1
102
RTVSPropertyOp39
 70
     1
102
RTVSPropertyOp40
 70
     1
102
RTVSPropertyOp41
 70
     1
102
RTVSPropertyOp42
 70
     1
102
RTVSPropertyOp43
 70
     1
102
RTVSPropertyOp44
 70
     1
102
RTVSPropertyOp45
 70
     1
102
RTVSPropertyOp46
 70
     1
102
RTVSPropertyOp47
 70
     1
102
RTVSPropertyOp48
 70
     1
102
RTVSPropertyOp49
 70
     1
102
RTVSPropertyOp50
 70
     1
102
RTVSPropertyOp51
 70
     0
102
RTVSPropertyOp52
 70
     0
102
RTVSPropertyOp53
 70
     1
102
RTVSPropertyOp54
 70
     1
102
RTVSPropertyOp55
 70
     1
102
RTVSPropertyOp56
 70
     1
102
RTVSPropertyOp57
 70
     1
102
RTVSPropertyOp58
 70
     1
102
RTVSPropertyOp59
 70
     1
102
RTVSPropertyOp60
 70
     1
102
RTVSPropertyOp61
 70
     1
102
RTVSPropertyOp62
 70
     1
  0
XRECORD
  5
260
102
{ACAD_REACTORS
330
25F
102
}
330
25F
100
AcDbXrecord
280
     1
102
RTVSPost2010Prop28
280
     0
102
RTVSPost2010PropOp28
 70
     1
102
RTVSPost2010Prop29
280
     1
102
RTVSPost2010PropOp29
 70
     1
102
RTVSPost2010Prop30
280
     1
102
RTVSPost2010PropOp30
 70
     1
102
RTVSPost2010Prop31
280
     0
102
RTVSPost2010PropOp31
 70
     1
102
RTVSPost2010Prop32
280
     0
102
RTVSPost2010PropOp32
 70
     1
102
RTVSPost2010Prop33
280
     0
102
RTVSPost2010PropOp33
 70
     1
102
RTVSPost2010Prop34
280
     0
102
RTVSPost2010PropOp34
 70
     1
102
RTVSPost2010Prop35
280
     0
102
RTVSPost2010PropOp35
 70
     1
102
RTVSPost2010Prop36
280
     0
102
RTVSPost2010PropOp36
 70
     1
102
RTVSPost2010Prop37
 90
       50
102
RTVSPost2010PropOp37
 70
     1
102
RTVSPost2010Prop38
140
0.0
102
RTVSPost2010PropOp38
 70
     1
102
RTVSPost2010Prop39
140
1.0
102
RTVSPost2010PropOp39
 70
     1
102
RTVSPost2010Prop40
 90
        0
102
RTVSPost2010PropOp40
 70
     1
102
RTVSPost2010Prop41ColorIndex
 90
       18
102
RTVSPost2010Prop41ColorRGB
 90
        0
102
RTVSPost2010PropOp41
 70
     1
102
RTVSPost2010Prop42
 90
       50
102
RTVSPost2010PropOp42
 70
     1
102
RTVSPost2010Prop43
 90
        3
102
RTVSPost2010PropOp43
 70
     1
102
RTVSPost2010Prop44ColorIndex
 90
        5
102
RTVSPost2010Prop44ColorRGB
 90
      255
102
RTVSPost2010PropOp44
 70
     1
102
RTVSPost2010Prop45
280
     0
102
RTVSPost2010PropOp45
 70
     1
102
RTVSPost2010Prop46
 90
       50
102
RTVSPost2010PropOp46
 70
     1
102
RTVSPost2010Prop47
 90
       50
102
RTVSPost2010PropOp47
 70
     1
102
RTVSPost2010Prop48
 90
       50
102
RTVSPost2010PropOp48
 70
     1
102
RTVSPost2010Prop49
280
     0
102
RTVSPost2010PropOp49
 70
     1
102
RTVSPost2010Prop50
 90
       50
102
RTVSPost2010PropOp50
 70
     1
102
RTVSPost2010Prop51ColorIndex
 90
      256
102
RTVSPost2010Prop51ColorRGB
 90
-16777216
102
RTVSPost2010PropOp51
 70
     0
102
RTVSPost2010Prop52
140
1.0
102
RTVSPost2010PropOp52
 70
     0
102
RTVSPost2010Prop53
 90
        2
102
RTVSPost2010PropOp53
 70
     1
102
RTVSPost2010Prop54
  1
strokes_ogs.tif
102
RTVSPost2010PropOp54
 70
     1
102
RTVSPost2010Prop55
280
     0
102
RTVSPost2010PropOp55
 70
     1
102
RTVSPost2010Prop56
140
1.0
102
RTVSPost2010PropOp56
 70
     1
102
RTVSPost2010Prop57
140
1.0
102
RTVSPost2010PropOp57
 70
     1
102
RTVSPropertyOp0
 70
     1
102
RTVSPropertyOp1
 70
     1
102
RTVSPropertyOp2
 70
     1
102
RTVSPropertyOp3
 70
     1
102
RTVSPropertyOp4
 70
     1
102
RTVSPropertyOp5
 70
     1
102
RTVSPropertyOp6
 70
     1
102
RTVSPropertyOp7
 70
     1
102
RTVSPropertyOp8
 70
     1
102
RTVSPropertyOp9
 70
     1
102
RTVSPropertyOp10
 70
     1
102
RTVSPropertyOp11
 70
     1
102
RTVSPropertyOp12
 70
     1
102
RTVSPropertyOp13
 70
     1
102
RTVSPropertyOp14
 70
     1
102
RTVSPropertyOp15
 70
     1
102
RTVSPropertyOp16
 70
     1
102
RTVSPropertyOp17
 70
     1
102
RTVSPropertyOp18
 70
     1
102
RTVSPropertyOp19
 70
     1
102
RTVSPropertyOp20
 70
     1
102
RTVSPropertyOp21
 70
     1
102
RTVSPropertyOp22
 70
     1
102
RTVSPropertyOp23
 70
     1
102
RTVSPropertyOp24
 70
     1
102
RTVSPropertyOp25
 70
     1
102
RTVSPropertyOp26
 70
     1
102
RTVSPropertyOp27
 70
     1
102
RTVSPropertyOp28
 70
     1
102
RTVSPropertyOp29
 70
     1
102
RTVSPropertyOp30
 70
     1
102
RTVSPropertyOp31
 70
     1
102
RTVSPropertyOp32
 70
     1
102
RTVSPropertyOp33
 70
     1
102
RTVSPropertyOp34
 70
     1
102
RTVSPropertyOp35
 70
     1
102
RTVSPropertyOp36
 70
     1
102
RTVSPropertyOp37
 70
     1
102
RTVSPropertyOp38
 70
     1
102
RTVSPropertyOp39
 70
     1
102
RTVSPropertyOp40
 70
     1
102
RTVSPropertyOp41
 70
     1
102
RTVSPropertyOp42
 70
     1
102
RTVSPropertyOp43
 70
     1
102
RTVSPropertyOp44
 70
     1
102
RTVSPropertyOp45
 70
     1
102
RTVSPropertyOp46
 70
     1
102
RTVSPropertyOp47
 70
     1
102
RTVSPropertyOp48
 70
     1
102
RTVSPropertyOp49
 70
     1
102
RTVSPropertyOp50
 70
     1
102
RTVSPropertyOp51
 70
     0
102
RTVSPropertyOp52
 70
     0
102
RTVSPropertyOp53
 70
     1
102
RTVSPropertyOp54
 70
     1
102
RTVSPropertyOp55
 70
     1
102
RTVSPropertyOp56
 70
     1
102
RTVSPropertyOp57
 70
     1
102
RTVSPropertyOp58
 70
     1
102
RTVSPropertyOp59
 70
     1
102
RTVSPropertyOp60
 70
     1
102
RTVSPropertyOp61
 70
     1
102
RTVSPropertyOp62
 70
     1
  0
ENDSEC
  0
EOF
