  0
SECTION
  2
HEADER
  9
$ACADVER
  1
AC1018
  9
$ACADMAINTVER
 70
   104
  9
$DWGCODEPAGE
  3
ANSI_932
  9
$INSBASE
 10
0.0
 20
0.0
 30
0.0
  9
$EXTMIN
 10
1.697551456694867
 20
3.163108557184202
 30
-0.0000000349181948
  9
$EXTMAX
 10
51.69410032203774
 20
26.16402238869131
 30
0.0000000814935746
  9
$LIMMIN
 10
-1.460537214044961
 20
-1.019220405396481
  9
$LIMMAX
 10
55.50849394254147
 20
30.02893385774678
  9
$ORTHOMODE
 70
     0
  9
$REGENMODE
 70
     1
  9
$FILLMODE
 70
     1
  9
$QTEXTMODE
 70
     0
  9
$MIRRTEXT
 70
     0
  9
$LTSCALE
 40
1.0
  9
$ATTMODE
 70
     1
  9
$TEXTSIZE
 40
2.5
  9
$TRACEWID
 40
1.0
  9
$TEXTSTYLE
  7
Standard
  9
$CLAYER
  8
0
  9
$CELTYPE
  6
ByLayer
  9
$CECOLOR
 62
   256
  9
$CELTSCALE
 40
1.0
  9
$DISPSILH
 70
     0
  9
$DIMSCALE
 40
1.0
  9
$DIMASZ
 40
2.5
  9
$DIMEXO
 40
0.625
  9
$DIMDLI
 40
3.75
  9
$DIMRND
 40
0.0
  9
$DIMDLE
 40
0.0
  9
$DIMEXE
 40
1.25
  9
$DIMTP
 40
0.0
  9
$DIMTM
 40
0.0
  9
$DIMTXT
 40
2.5
  9
$DIMCEN
 40
2.5
  9
$DIMTSZ
 40
0.0
  9
$DIMTOL
 70
     0
  9
$DIMLIM
 70
     0
  9
$DIMTIH
 70
     0
  9
$DIMTOH
 70
     0
  9
$DIMSE1
 70
     0
  9
$DIMSE2
 70
     0
  9
$DIMTAD
 70
     1
  9
$DIMZIN
 70
     8
  9
$DIMBLK
  1

  9
$DIMASO
 70
     1
  9
$DIMSHO
 70
     1
  9
$DIMPOST
  1

  9
$DIMAPOST
  1

  9
$DIMALT
 70
     0
  9
$DIMALTD
 70
     3
  9
$DIMALTF
 40
0.03937007874016
  9
$DIMLFAC
 40
1.0
  9
$DIMTOFL
 70
     1
  9
$DIMTVP
 40
0.0
  9
$DIMTIX
 70
     0
  9
$DIMSOXD
 70
     0
  9
$DIMSAH
 70
     0
  9
$DIMBLK1
  1

  9
$DIMBLK2
  1

  9
$DIMSTYLE
  2
ISO-25
  9
$DIMCLRD
 70
     0
  9
$DIMCLRE
 70
     0
  9
$DIMCLRT
 70
     0
  9
$DIMTFAC
 40
1.0
  9
$DIMGAP
 40
0.625
  9
$DIMJUST
 70
     0
  9
$DIMSD1
 70
     0
  9
$DIMSD2
 70
     0
  9
$DIMTOLJ
 70
     0
  9
$DIMTZIN
 70
     8
  9
$DIMALTZ
 70
     0
  9
$DIMALTTZ
 70
     0
  9
$DIMUPT
 70
     0
  9
$DIMDEC
 70
     2
  9
$DIMTDEC
 70
     2
  9
$DIMALTU
 70
     2
  9
$DIMALTTD
 70
     3
  9
$DIMTXSTY
  7
Standard
  9
$DIMAUNIT
 70
     0
  9
$DIMADEC
 70
     0
  9
$DIMALTRND
 40
0.0
  9
$DIMAZIN
 70
     0
  9
$DIMDSEP
 70
    44
  9
$DIMATFIT
 70
     3
  9
$DIMFRAC
 70
     0
  9
$DIMLDRBLK
  1

  9
$DIMLUNIT
 70
     2
  9
$DIMLWD
 70
    -2
  9
$DIMLWE
 70
    -2
  9
$DIMTMOVE
 70
     0
  9
$LUNITS
 70
     2
  9
$LUPREC
 70
     4
  9
$SKETCHINC
 40
1.0
  9
$FILLETRAD
 40
0.0
  9
$AUNITS
 70
     0
  9
$AUPREC
 70
     0
  9
$MENU
  1
.
  9
$ELEVATION
 40
0.0
  9
$PELEVATION
 40
0.0
  9
$THICKNESS
 40
0.0
  9
$LIMCHECK
 70
     0
  9
$CHAMFERA
 40
0.0
  9
$CHAMFERB
 40
0.0
  9
$CHAMFERC
 40
0.0
  9
$CHAMFERD
 40
0.0
  9
$SKPOLY
 70
     0
  9
$TDCREATE
 40
2458241.736041666
  9
$TDUCREATE
 40
2458241.402708334
  9
$TDUPDATE
 40
2458242.434629630
  9
$TDUUPDATE
 40
2458242.101296296
  9
$TDINDWG
 40
0.0013657407
  9
$TDUSRTIMER
 40
0.0013657407
  9
$USRTIMER
 70
     1
  9
$ANGBASE
 50
0.0
  9
$ANGDIR
 70
     0
  9
$PDMODE
 70
     0
  9
$PDSIZE
 40
0.0
  9
$PLINEWID
 40
0.0
  9
$SPLFRAME
 70
     0
  9
$SPLINETYPE
 70
     6
  9
$SPLINESEGS
 70
     8
  9
$HANDSEED
  5
25B
  9
$SURFTAB1
 70
     6
  9
$SURFTAB2
 70
     6
  9
$SURFTYPE
 70
     6
  9
$SURFU
 70
     6
  9
$SURFV
 70
     6
  9
$UCSBASE
  2

  9
$UCSNAME
  2

  9
$UCSORG
 10
0.0
 20
0.0
 30
0.0
  9
$UCSXDIR
 10
1.0
 20
0.0
 30
0.0
  9
$UCSYDIR
 10
0.0
 20
1.0
 30
0.0
  9
$UCSORTHOREF
  2

  9
$UCSORTHOVIEW
 70
     0
  9
$UCSORGTOP
 10
0.0
 20
0.0
 30
0.0
  9
$UCSORGBOTTOM
 10
0.0
 20
0.0
 30
0.0
  9
$UCSORGLEFT
 10
0.0
 20
0.0
 30
0.0
  9
$UCSORGRIGHT
 10
0.0
 20
0.0
 30
0.0
  9
$UCSORGFRONT
 10
0.0
 20
0.0
 30
0.0
  9
$UCSORGBACK
 10
0.0
 20
0.0
 30
0.0
  9
$PUCSBASE
  2

  9
$PUCSNAME
  2

  9
$PUCSORG
 10
0.0
 20
0.0
 30
0.0
  9
$PUCSXDIR
 10
1.0
 20
0.0
 30
0.0
  9
$PUCSYDIR
 10
0.0
 20
1.0
 30
0.0
  9
$PUCSORTHOREF
  2

  9
$PUCSORTHOVIEW
 70
     0
  9
$PUCSORGTOP
 10
0.0
 20
0.0
 30
0.0
  9
$PUCSORGBOTTOM
 10
0.0
 20
0.0
 30
0.0
  9
$PUCSORGLEFT
 10
0.0
 20
0.0
 30
0.0
  9
$PUCSORGRIGHT
 10
0.0
 20
0.0
 30
0.0
  9
$PUCSORGFRONT
 10
0.0
 20
0.0
 30
0.0
  9
$PUCSORGBACK
 10
0.0
 20
0.0
 30
0.0
  9
$USERI1
 70
     0
  9
$USERI2
 70
     0
  9
$USERI3
 70
     0
  9
$USERI4
 70
     0
  9
$USERI5
 70
     0
  9
$USERR1
 40
0.0
  9
$USERR2
 40
0.0
  9
$USERR3
 40
0.0
  9
$USERR4
 40
0.0
  9
$USERR5
 40
0.0
  9
$WORLDVIEW
 70
     1
  9
$SHADEDGE
 70
     3
  9
$SHADEDIF
 70
    70
  9
$TILEMODE
 70
     1
  9
$MAXACTVP
 70
    64
  9
$PINSBASE
 10
0.0
 20
0.0
 30
0.0
  9
$PLIMCHECK
 70
     0
  9
$PEXTMIN
 10
0.0
 20
0.0
 30
0.0
  9
$PEXTMAX
 10
0.0
 20
0.0
 30
0.0
  9
$PLIMMIN
 10
0.0
 20
0.0
  9
$PLIMMAX
 10
12.0
 20
9.0
  9
$UNITMODE
 70
     0
  9
$VISRETAIN
 70
     1
  9
$PLINEGEN
 70
     0
  9
$PSLTSCALE
 70
     1
  9
$TREEDEPTH
 70
  3020
  9
$CMLSTYLE
  2
Standard
  9
$CMLJUST
 70
     0
  9
$CMLSCALE
 40
20.0
  9
$PROXYGRAPHICS
 70
     1
  9
$MEASUREMENT
 70
     1
  9
$CELWEIGHT
370
    -1
  9
$ENDCAPS
280
     0
  9
$JOINSTYLE
280
     0
  9
$LWDISPLAY
290
     0
  9
$INSUNITS
 70
     4
  9
$HYPERLINKBASE
  1

  9
$STYLESHEET
  1

  9
$XEDIT
290
     1
  9
$CEPSNTYPE
380
     0
  9
$PSTYLEMODE
290
     1
  9
$FINGERPRINTGUID
  2
{62D02AAC-D73D-404A-BB09-1A65E05AEAD6}
  9
$VERSIONGUID
  2
{92B543B3-E003-1847-A6B0-4FE313674889}
  9
$EXTNAMES
290
     1
  9
$PSVPSCALE
 40
0.0
  9
$OLESTARTUP
290
     0
  9
$SORTENTS
280
   127
  9
$INDEXCTL
280
     0
  9
$HIDETEXT
280
     1
  9
$XCLIPFRAME
290
     0
  9
$HALOGAP
280
     0
  9
$OBSCOLOR
 70
   257
  9
$OBSLTYPE
280
     0
  9
$INTERSECTIONDISPLAY
280
     0
  9
$INTERSECTIONCOLOR
 70
   257
  9
$DIMASSOC
280
     2
  9
$PROJECTNAME
  1

  0
ENDSEC
  0
SECTION
  2
CLASSES
  0
CLASS
  1
ACDBDICTIONARYWDFLT
  2
AcDbDictionaryWithDefault
  3
ObjectDBX Classes
 90
        0
 91
        1
280
     0
281
     0
  0
CLASS
  1
DICTIONARYVAR
  2
AcDbDictionaryVar
  3
ObjectDBX Classes
 90
        0
 91
       12
280
     0
281
     0
  0
CLASS
  1
TABLESTYLE
  2
AcDbTableStyle
  3
ObjectDBX Classes
 90
     4095
 91
        1
280
     0
281
     0
  0
CLASS
  1
MATERIAL
  2
AcDbMaterial
  3
ObjectDBX Classes
 90
     1153
 91
        3
280
     0
281
     0
  0
CLASS
  1
VISUALSTYLE
  2
AcDbVisualStyle
  3
ObjectDBX Classes
 90
     4095
 91
        3
280
     0
281
     0
  0
CLASS
  1
SCALE
  2
AcDbScale
  3
ObjectDBX Classes
 90
     1153
 91
       17
280
     0
281
     0
  0
CLASS
  1
MLEADERSTYLE
  2
AcDbMLeaderStyle
  3
ACDB_MLEADERSTYLE_CLASS
 90
     4095
 91
        0
280
     0
281
     0
  0
CLASS
  1
CELLSTYLEMAP
  2
AcDbCellStyleMap
  3
ObjectDBX Classes
 90
     1152
 91
        1
280
     0
281
     0
  0
CLASS
  1
EXACXREFPANELOBJECT
  2
ExAcXREFPanelObject
  3
EXAC_ESW
 90
     1025
 91
        0
280
     1
281
     0
  0
CLASS
  1
NPOCOLLECTION
  2
AcDbImpNonPersistentObjectsCollection
  3
ObjectDBX Classes
 90
     1153
 91
        0
280
     0
281
     0
  0
CLASS
  1
LAYER_INDEX
  2
AcDbLayerIndex
  3
ObjectDBX Classes
 90
        0
 91
        0
280
     0
281
     0
  0
CLASS
  1
SPATIAL_INDEX
  2
AcDbSpatialIndex
  3
ObjectDBX Classes
 90
        0
 91
        0
280
     0
281
     0
  0
CLASS
  1
IDBUFFER
  2
AcDbIdBuffer
  3
ObjectDBX Classes
 90
        0
 91
        0
280
     0
281
     0
  0
CLASS
  1
ACDBSECTIONVIEWSTYLE
  2
AcDbSectionViewStyle
  3
ObjectDBX Classes
 90
     1025
 91
        0
280
     0
281
     0
  0
CLASS
  1
ACDBDETAILVIEWSTYLE
  2
AcDbDetailViewStyle
  3
ObjectDBX Classes
 90
     1025
 91
        0
280
     0
281
     0
  0
CLASS
  1
SOLID_BACKGROUND
  2
AcDbSolidBackground
  3
SCENEOE
 90
     4095
 91
        0
280
     0
281
     0
  0
ENDSEC
  0
SECTION
  2
TABLES
  0
TABLE
  2
VPORT
  5
28
330
0
100
AcDbSymbolTable
 70
     1
  0
VPORT
  5
29
330
28
100
AcDbSymbolTableRecord
100
AcDbViewportTableRecord
  2
*Active
 70
     0
 10
0.0
 20
0.0
 11
1.0
 21
1.0
 12
27.02397836424825
 22
14.50485672617515
 13
0.0
 23
0.0
 14
10.0
 24
10.0
 15
10.0
 25
10.0
 16
0.0
 26
0.0
 36
1.0
 17
0.0
 27
0.0
 37
0.0
 40
31.32010889902481
 41
2.326023391812865
 42
50.0
 43
0.0
 44
0.0
 50
0.0
 51
0.0
 71
     0
 72
  1000
 73
     1
 74
     3
 75
     0
 76
     1
 77
     0
 78
     0
281
     0
 65
     1
110
0.0
120
0.0
130
0.0
111
1.0
121
0.0
131
0.0
112
0.0
122
1.0
132
0.0
 79
     0
146
0.0
1001
ACAD_NAV_VCDISPLAY
1070
     3
  0
ENDTAB
  0
TABLE
  2
LTYPE
  5
23
330
0
100
AcDbSymbolTable
 70
     1
  0
LTYPE
  5
24
330
23
100
AcDbSymbolTableRecord
100
AcDbLinetypeTableRecord
  2
ByBlock
 70
     0
  3

 72
    65
 73
     0
 40
0.0
  0
LTYPE
  5
25
330
23
100
AcDbSymbolTableRecord
100
AcDbLinetypeTableRecord
  2
ByLayer
 70
     0
  3

 72
    65
 73
     0
 40
0.0
  0
LTYPE
  5
13
330
23
100
AcDbSymbolTableRecord
100
AcDbLinetypeTableRecord
  2
Continuous
 70
     0
  3
Solid line
 72
    65
 73
     0
 40
0.0
  0
ENDTAB
  0
TABLE
  2
LAYER
  5
1D
102
{ACAD_XDICTIONARY
360
1E
102
}
330
0
100
AcDbSymbolTable
 70
     1
  0
LAYER
  5
5
102
{ACAD_XDICTIONARY
360
6
102
}
330
1D
100
AcDbSymbolTableRecord
100
AcDbLayerTableRecord
  2
0
 70
     0
 62
     7
  6
Continuous
370
    -3
390
7
  0
ENDTAB
  0
TABLE
  2
STYLE
  5
20
330
0
100
AcDbSymbolTable
 70
     1
  0
STYLE
  5
21
330
20
100
AcDbSymbolTableRecord
100
AcDbTextStyleTableRecord
  2
Standard
 70
     0
 40
0.0
 41
1.0
 50
0.0
 71
     0
 42
2.5
  3
arial.ttf
  4

1001
ACAD
1000
Arial
1071
       34
  0
ENDTAB
  0
TABLE
  2
VIEW
  5
26
330
0
100
AcDbSymbolTable
 70
     0
  0
ENDTAB
  0
TABLE
  2
UCS
  5
27
330
0
100
AcDbSymbolTable
 70
     0
  0
ENDTAB
  0
TABLE
  2
APPID
  5
2D
330
0
100
AcDbSymbolTable
 70
     6
  0
APPID
  5
12
330
2D
100
AcDbSymbolTableRecord
100
AcDbRegAppTableRecord
  2
ACAD
 70
     0
  0
APPID
  5
18
330
2D
100
AcDbSymbolTableRecord
100
AcDbRegAppTableRecord
  2
ACAD_PSEXT
 70
     0
  0
APPID
  5
31
330
2D
100
AcDbSymbolTableRecord
100
AcDbRegAppTableRecord
  2
AcadAnnotative
 70
     0
  0
APPID
  5
32
330
2D
100
AcDbSymbolTableRecord
100
AcDbRegAppTableRecord
  2
ACAD_DSTYLE_DIMJAG
 70
     0
  0
APPID
  5
33
330
2D
100
AcDbSymbolTableRecord
100
AcDbRegAppTableRecord
  2
ACAD_DSTYLE_DIMTALN
 70
     0
  0
APPID
  5
2C
330
2D
100
AcDbSymbolTableRecord
100
AcDbRegAppTableRecord
  2
ACAD_NAV_VCDISPLAY
 70
     0
  0
ENDTAB
  0
TABLE
  2
DIMSTYLE
  5
2E
330
0
100
AcDbSymbolTable
 70
     2
100
AcDbDimStyleTable
 71
     2
340
2F
340
30
  0
DIMSTYLE
105
30
330
2E
100
AcDbSymbolTableRecord
100
AcDbDimStyleTableRecord
  2
Annotative
 70
     0
 40
0.0
 41
2.5
 42
0.625
 43
3.75
 44
1.25
 73
     0
 74
     0
 77
     1
 78
     8
140
2.5
141
2.5
143
0.03937007874016
147
0.625
171
     3
172
     1
271
     2
272
     2
274
     3
278
    44
283
     0
284
     8
340
21
1001
AcadAnnotative
1000
AnnotativeData
1002
{
1070
     1
1070
     1
1002
}
1001
ACAD_DSTYLE_DIMJAG
1070
   388
1040
1.5
1001
ACAD_DSTYLE_DIMTALN
1070
   392
1070
     0
  0
DIMSTYLE
105
2F
330
2E
100
AcDbSymbolTableRecord
100
AcDbDimStyleTableRecord
  2
ISO-25
 70
     0
 41
2.5
 42
0.625
 43
3.75
 44
1.25
 73
     0
 74
     0
 77
     1
 78
     8
140
2.5
141
2.5
143
0.03937007874016
147
0.625
171
     3
172
     1
271
     2
272
     2
274
     3
278
    44
283
     0
284
     8
340
21
  0
ENDTAB
  0
TABLE
  2
BLOCK_RECORD
  5
1
330
0
100
AcDbSymbolTable
 70
     0
  0
BLOCK_RECORD
  5
2
102
{ACAD_XDICTIONARY
360
3
102
}
330
1
100
AcDbSymbolTableRecord
100
AcDbBlockTableRecord
  2
*Model_Space
340
15
  0
BLOCK_RECORD
  5
19
330
1
100
AcDbSymbolTableRecord
100
AcDbBlockTableRecord
  2
*Paper_Space
340
1C
  0
ENDTAB
  0
ENDSEC
  0
SECTION
  2
BLOCKS
  0
BLOCK
  5
4
330
2
100
AcDbEntity
  8
0
100
AcDbBlockBegin
  2
*Model_Space
 70
     0
 10
0.0
 20
0.0
 30
0.0
  3
*Model_Space
  1

  0
ENDBLK
  5
14
330
2
100
AcDbEntity
  8
0
100
AcDbBlockEnd
  0
BLOCK
  5
1A
330
19
100
AcDbEntity
 67
     1
  8
0
100
AcDbBlockBegin
  2
*Paper_Space
 70
     0
 10
0.0
 20
0.0
 30
0.0
  3
*Paper_Space
  1

  0
ENDBLK
  5
1B
330
19
100
AcDbEntity
 67
     1
  8
0
100
AcDbBlockEnd
  0
ENDSEC
  0
SECTION
  2
ENTITIES
  0
LINE
  5
58
330
2
100
AcDbEntity
  8
0
100
AcDbLine
 10
45.13072046918372
 20
18.11240895349039
 30
0.0
 11
45.13072046918372
 21
18.49773161741319
 31
0.0
  0
LINE
  5
59
330
2
100
AcDbEntity
  8
0
100
AcDbLine
 10
45.13068332016119
 20
18.49891257909328
 30
0.0
 11
44.76160537084168
 21
24.29761371385609
 31
0.0
  0
SPLINE
  5
5A
330
2
100
AcDbEntity
  8
0
100
AcDbSpline
210
0.0
220
0.0
230
1.0
 70
     8
 71
     3
 72
    13
 73
     9
 74
     0
 42
0.000000001
 43
0.0000000001
 40
0.0
 40
0.0
 40
0.0
 40
0.0
 40
0.0158249653391887
 40
0.2513806411196172
 40
0.4866674527685502
 40
0.7237063619977908
 40
0.954324911278554
 40
1.0
 40
1.0
 40
1.0
 40
1.0
 10
44.22462361966981
 20
24.97328177780543
 30
0.0
 10
44.22278440147134
 20
24.9751232236618
 30
0.0
 10
44.1935682964129
 20
25.00437471521514
 30
0.0
 10
44.1188954220485
 20
25.03976323571044
 30
0.0
 10
44.00485614961564
 20
25.07458495876665
 30
0.0
 10
43.88078604834674
 20
25.08002430920527
 30
0.0
 10
43.78768770934104
 20
25.06603387767834
 30
0.0
 10
43.73777254639355
 20
25.05222106002248
 30
0.0
 10
43.7295208924189
 20
25.04993761377131
 30
0.0
  0
LINE
  5
5B
330
2
100
AcDbEntity
  8
0
100
AcDbLine
 10
44.27695602417657
 20
24.92986560916643
 30
0.0
 11
44.24168462344099
 21
24.96041153823223
 31
0.0
  0
SPLINE
  5
5C
330
2
100
AcDbEntity
  8
0
100
AcDbSpline
210
0.0
220
0.0
230
1.0
 70
     8
 71
     3
 72
    11
 73
     7
 74
     0
 42
0.000000001
 43
0.0000000001
 40
0.0
 40
0.0
 40
0.0
 40
0.0
 40
0.1679645486246712
 40
0.4756750681458947
 40
0.7810118654932859
 40
1.0
 40
1.0
 40
1.0
 40
1.0
 10
44.76160537083782
 20
24.29761371386519
 30
0.0
 10
44.75930938112653
 20
24.32115964673835
 30
0.0
 10
44.75280714555764
 20
24.38784165383868
 30
0.0
 10
44.72053803109759
 20
24.48919202114047
 30
0.0
 10
44.66643801975137
 20
24.58621483134368
 30
0.0
 10
44.61572481841366
 20
24.63180400229035
 30
0.0
 10
44.59454407975115
 20
24.65084465226289
 30
0.0
  0
LINE
  5
5D
330
2
100
AcDbEntity
  8
0
100
AcDbLine
 10
43.72952089241044
 20
25.04993761377608
 30
0.0
 11
43.66113887950552
 21
25.03019742698669
 31
0.0
  0
SPLINE
  5
5E
330
2
100
AcDbEntity
  8
0
100
AcDbSpline
210
0.0
220
0.0
230
1.0
 70
     8
 71
     3
 72
    13
 73
     9
 74
     0
 42
0.000000001
 43
0.0000000001
 40
0.0
 40
0.0
 40
0.0
 40
0.0
 40
0.0507376434526389
 40
0.805971479138947
 40
1.0
 40
1.0
 40
1.0
 40
1.141400873805401
 40
1.141400873805401
 40
1.141400873805401
 40
1.141400873805401
 10
45.44907907004235
 20
23.91415836565744
 30
0.0
 10
45.44625494400761
 20
23.91723805039825
 30
0.0
 10
45.41629264764078
 20
23.94539625941749
 30
0.0
 10
45.36943312969135
 20
23.97092171420764
 30
0.0
 10
45.3210937268571
 20
23.98383701063224
 30
0.0
 10
45.31121318880918
 20
23.98647688763194
 30
0.0
 10
45.30401261485527
 20
23.9884007332235
 30
0.0
 10
45.29681204090125
 20
23.99032457881503
 30
0.0
 10
45.28961146694734
 20
23.9922484244066
 30
0.0
  0
LINE
  5
5F
330
2
100
AcDbEntity
  8
0
100
AcDbLine
 10
45.49969850044828
 20
23.87093956241628
 30
0.0
 11
45.4644270997125
 21
23.90148549148208
 31
0.0
  0
LINE
  5
60
330
2
100
AcDbEntity
  8
0
100
AcDbLine
 10
46.23173184217126
 20
18.69715882849769
 30
0.0
 11
46.23173184217126
 21
22.56279109825062
 31
0.0
  0
LINE
  5
61
330
2
100
AcDbEntity
  8
0
100
AcDbLine
 10
46.06805483303433
 20
22.95693986541335
 30
0.0
 11
45.95433541404037
 21
23.05542377121884
 31
0.0
  0
SPLINE
  5
62
330
2
100
AcDbEntity
  8
0
100
AcDbSpline
210
0.0
220
0.0
230
1.0
 70
     8
 71
     3
 72
    14
 73
    10
 74
     0
 42
0.000000001
 43
0.0000000001
 40
0.0
 40
0.0
 40
0.0
 40
0.0
 40
0.1545074389506016
 40
0.4388240767074725
 40
0.7213343652154052
 40
1.0
 40
1.0
 40
1.0
 40
1.001403299241419
 40
1.001403299241419
 40
1.001403299241419
 40
1.001403299241419
 10
46.23173184217493
 20
22.56279109825735
 30
0.0
 10
46.23094735808499
 20
22.58671657175253
 30
0.0
 10
46.22871930674437
 20
22.65466847029953
 30
0.0
 10
46.20368665608647
 20
22.75974714303101
 30
0.0
 10
46.15087289979063
 20
22.87100218036463
 30
0.0
 10
46.0958104924482
 20
22.92813869665327
 30
0.0
 10
46.06846790689186
 20
22.95651123175338
 30
0.0
 10
46.06833021560597
 20
22.95665410964006
 30
0.0
 10
46.0681925243202
 20
22.9567969875267
 30
0.0
 10
46.06805483303433
 20
22.95693986541335
 30
0.0
  0
SPLINE
  5
63
330
2
100
AcDbEntity
  8
0
100
AcDbSpline
210
0.0
220
0.0
230
1.0
 70
     8
 71
     3
 72
    12
 73
     8
 74
     0
 42
0.000000001
 43
0.0000000001
 40
0.0
 40
0.0
 40
0.0
 40
0.0
 40
0.1814293267268181
 40
0.4157918998069433
 40
0.6513175650970883
 40
0.8893821283065946
 40
1.0
 40
1.0
 40
1.0
 40
1.0
 10
43.24831447682428
 20
25.39487678462581
 30
0.0
 10
43.22438307707039
 20
25.413002168498
 30
0.0
 10
43.16953812808558
 20
25.45454114089512
 30
0.0
 10
43.06444663124585
 20
25.49041849236264
 30
0.0
 10
42.94220817048059
 20
25.50523229146683
 30
0.0
 10
42.83619963120759
 20
25.49567071302221
 30
0.0
 10
42.77293913212984
 20
25.47918379140765
 30
0.0
 10
42.75287003466538
 20
25.47395339263443
 30
0.0
  0
LINE
  5
64
330
2
100
AcDbEntity
  8
0
100
AcDbLine
 10
43.30030516642033
 20
25.35388138802287
 30
0.0
 11
43.26503367807979
 21
25.38442739295516
 31
0.0
  0
LINE
  5
65
330
2
100
AcDbEntity
  8
0
100
AcDbLine
 10
42.7528700346729
 20
25.4739533926325
 30
0.0
 11
42.61397884761398
 21
25.43385896052252
 31
0.0
  0
SPLINE
  5
66
330
2
100
AcDbEntity
  8
0
100
AcDbSpline
210
0.0
220
0.0
230
1.0
 70
     8
 71
     3
 72
    10
 73
     6
 74
     0
 42
0.000000001
 43
0.0000000001
 40
0.0
 40
0.0
 40
0.0
 40
0.0
 40
0.0507376531260718
 40
0.8059714936761309
 40
1.0
 40
1.0
 40
1.0
 40
1.0
 10
44.83599482495756
 20
24.44381878288397
 30
0.0
 10
44.83415453344222
 20
24.44565712460107
 30
0.0
 10
44.80492136221829
 20
24.47485932313294
 30
0.0
 10
44.75806187310707
 20
24.50038475566493
 30
0.0
 10
44.70972250324133
 20
24.51330002146665
 30
0.0
 10
44.69984197257185
 20
24.51593989203619
 30
0.0
  0
LINE
  5
67
330
2
100
AcDbEntity
  8
0
100
AcDbLine
 10
44.88832728419956
 20
24.40040256682946
 30
0.0
 11
44.85305587251556
 21
24.43094850537619
 31
0.0
  0
LINE
  5
68
330
2
100
AcDbEntity
  8
0
100
AcDbLine
 10
45.3974153628609
 20
17.72064560217339
 30
0.0
 11
45.3974153628609
 21
17.93011666645583
 31
0.0
  0
LINE
  5
69
330
2
100
AcDbEntity
  8
0
100
AcDbLine
 10
35.37025985697647
 20
17.93011673067801
 30
0.0
 11
35.37025985697647
 21
17.72064566641444
 31
0.0
  0
LINE
  5
6A
330
2
100
AcDbEntity
  8
0
100
AcDbLine
 10
46.96783548275065
 20
15.61853742574192
 30
0.0
 11
46.96783548275065
 21
15.8311746526866
 31
0.0
  0
LINE
  5
6B
330
2
100
AcDbEntity
  8
0
100
AcDbLine
 10
33.79983965521944
 20
15.83117461088764
 30
0.0
 11
33.79983965521944
 21
15.6185373839429
 31
0.0
  0
LINE
  5
6C
330
2
100
AcDbEntity
  8
0
100
AcDbLine
 10
51.65569248158984
 20
15.11071489573197
 30
0.0
 11
50.71512138641334
 21
15.92527335820372
 31
0.0
  0
LINE
  5
6D
330
2
100
AcDbEntity
  8
0
100
AcDbLine
 10
30.05255428085358
 20
15.92527318370901
 30
0.0
 11
29.11198321325464
 21
15.11071483032466
 31
0.0
  0
LINE
  5
6E
330
2
100
AcDbEntity
  8
0
100
AcDbLine
 10
35.97273436867693
 20
24.28498486954536
 30
0.0
 11
35.97273436867693
 21
18.27510562369235
 31
0.0
  0
SPLINE
  5
6F
330
2
100
AcDbEntity
  8
0
100
AcDbSpline
210
0.0
220
0.0
230
1.0
 70
     8
 71
     3
 72
    12
 73
     8
 74
     0
 42
0.000000001
 43
0.0000000001
 40
0.0
 40
0.0
 40
0.0
 40
0.0
 40
0.181429278214482
 40
0.4157923093951482
 40
0.6513173646910837
 40
0.8893818642445738
 40
1.0
 40
1.0
 40
1.0
 40
1.0
 10
40.65304117976761
 20
26.05758721079113
 30
0.0
 10
40.62910979882334
 20
26.07571259589028
 30
0.0
 10
40.57426482425382
 20
26.11725162312581
 30
0.0
 10
40.46917291090019
 20
26.15312891070548
 30
0.0
 10
40.34693473704853
 20
26.16794282906059
 30
0.0
 10
40.24092623610257
 20
26.15838115942731
 30
0.0
 10
40.17766559088921
 20
26.14189431157598
 30
0.0
 10
40.15759641069044
 20
26.13666392672425
 30
0.0
  0
LINE
  5
70
330
2
100
AcDbEntity
  8
0
100
AcDbLine
 10
40.70503147831064
 20
26.01659180245392
 30
0.0
 11
40.66975998998901
 21
26.04713780738624
 31
0.0
  0
LINE
  5
71
330
2
100
AcDbEntity
  8
0
100
AcDbLine
 10
41.02247417257428
 20
25.74167836499504
 30
0.0
 11
40.98720285942463
 21
25.77222421819442
 31
0.0
  0
LINE
  5
72
330
2
100
AcDbEntity
  8
0
100
AcDbLine
 10
40.15759641069148
 20
26.13666392672303
 30
0.0
 11
37.88497818430214
 21
25.48061555433225
 31
0.0
  0
LINE
  5
73
330
2
100
AcDbEntity
  8
0
100
AcDbLine
 10
37.88497818430214
 20
25.48061555433225
 30
0.0
 11
36.61426696993686
 21
25.11379282349571
 31
0.0
  0
SPLINE
  5
74
330
2
100
AcDbEntity
  8
0
100
AcDbSpline
210
0.0
220
0.0
230
1.0
 70
     8
 71
     3
 72
    16
 73
    12
 74
     0
 42
0.000000001
 43
0.0000000001
 40
0.0
 40
0.0
 40
0.0
 40
0.0
 40
0.0698494761629598
 40
0.1990379879035958
 40
0.328518464534342
 40
0.4581529801652816
 40
0.5879256515009553
 40
0.7178827547599695
 40
0.8480731707060177
 40
0.9707890849704453
 40
1.0
 40
1.0
 40
1.0
 40
1.0
 10
36.61426696994345
 20
25.11379282350288
 30
0.0
 10
36.59057052685909
 20
25.10617335554568
 30
0.0
 10
36.52304686582315
 20
25.08446147373357
 30
0.0
 10
36.41420330222791
 20
25.02884234102356
 30
0.0
 10
36.29440337684556
 20
24.94190919346539
 30
0.0
 10
36.18784540842287
 20
24.83532169047726
 30
0.0
 10
36.09877935974032
 20
24.71370541235126
 30
0.0
 10
36.03071472558455
 20
24.5815752895881
 30
0.0
 10
35.98764118755768
 20
24.44677681798419
 30
0.0
 10
35.97362176190082
 20
24.3472481129233
 30
0.0
 10
35.97287747285923
 20
24.29502566098128
 30
0.0
 10
35.97273436868175
 20
24.28498486954629
 30
0.0
  0
LINE
  5
75
330
2
100
AcDbEntity
  8
0
100
AcDbLine
 10
46.2388151700025
 20
22.30585141973464
 30
0.0
 11
46.23173168483254
 21
22.31198589782485
 31
0.0
  0
SPLINE
  5
76
330
2
100
AcDbEntity
  8
0
100
AcDbSpline
210
0.0
220
0.0
230
1.0
 70
     8
 71
     3
 72
    12
 73
     8
 74
     0
 42
0.000000001
 43
0.0000000001
 40
0.0
 40
0.0
 40
0.0
 40
0.0
 40
0.1814291943193731
 40
0.4157921767212148
 40
0.6513177131548717
 40
0.8893816034481181
 40
1.0
 40
1.0
 40
1.0
 40
1.0
 10
42.20115457318001
 20
25.79853855747411
 30
0.0
 10
42.17722326214184
 20
25.81666387821696
 30
0.0
 10
42.12237843991979
 20
25.85820276391667
 30
0.0
 10
42.01728638592096
 20
25.89408019222481
 30
0.0
 10
41.89504818819475
 20
25.90889386051677
 30
0.0
 10
41.78903965107862
 20
25.89933234070145
 30
0.0
 10
41.72577905846005
 20
25.88284548331908
 30
0.0
 10
41.70570982757449
 20
25.87761507788514
 30
0.0
  0
LINE
  5
77
330
2
100
AcDbEntity
  8
0
100
AcDbLine
 10
42.25314504692395
 20
25.75754299740637
 30
0.0
 11
42.21787355858341
 21
25.7880890023387
 31
0.0
  0
LINE
  5
78
330
2
100
AcDbEntity
  8
0
100
AcDbLine
 10
34.4662535133406
 20
23.14415060804384
 30
0.0
 11
34.4662535133406
 21
16.94209068976028
 31
0.0
  0
LINE
  5
79
330
2
100
AcDbEntity
  8
0
100
AcDbLine
 10
41.70570982757177
 20
25.87761507788247
 30
0.0
 11
41.06586519141464
 21
25.69290784141776
 31
0.0
  0
LINE
  5
7A
330
2
100
AcDbEntity
  8
0
100
AcDbLine
 10
35.97273432595617
 20
24.22264760332445
 30
0.0
 11
35.10778611460064
 21
23.97295856199426
 31
0.0
  0
SPLINE
  5
7B
330
2
100
AcDbEntity
  8
0
100
AcDbSpline
210
0.0
220
0.0
230
1.0
 70
     8
 71
     3
 72
    16
 73
    12
 74
     0
 42
0.000000001
 43
0.0000000001
 40
0.0
 40
0.0
 40
0.0
 40
0.0
 40
0.0698494864863571
 40
0.1990378476530254
 40
0.3285184655327605
 40
0.4581528611339571
 40
0.5879256378854443
 40
0.7178827478830251
 40
0.8480731670026198
 40
0.9707890842583942
 40
1.0
 40
1.0
 40
1.0
 40
1.0
 10
35.10778611460179
 20
23.97295856199645
 30
0.0
 10
35.08408959392582
 20
23.96533916418244
 30
0.0
 10
35.01656576934994
 20
23.94362750075297
 30
0.0
 10
34.90772262604416
 20
23.88800793607913
 30
0.0
 10
34.7879225133184
 20
23.80107508565226
 30
0.0
 10
34.68136478757864
 20
23.69448728598078
 30
0.0
 10
34.59229818187537
 20
23.57287147198718
 30
0.0
 10
34.52423396287839
 20
23.44074095266049
 30
0.0
 10
34.48116030814758
 20
23.30594257648698
 30
0.0
 10
34.46714090766607
 20
23.20641385049663
 30
0.0
 10
34.46639661769617
 20
23.15419139932644
 30
0.0
 10
34.46625351334009
 20
23.14415060803992
 30
0.0
  0
LINE
  5
7C
330
2
100
AcDbEntity
  8
0
100
AcDbLine
 10
32.39918841846464
 20
10.2450263469143
 30
0.0
 11
32.40905096806508
 21
10.14752871052167
 31
0.0
  0
LINE
  5
7D
330
2
100
AcDbEntity
  8
0
100
AcDbLine
 10
48.35862440034482
 20
10.14752872985983
 30
0.0
 11
48.36848669760902
 21
10.24502636328029
 31
0.0
  0
SPLINE
  5
7E
330
2
100
AcDbEntity
  8
0
100
AcDbSpline
210
0.0
220
0.0
230
1.0
 70
     8
 71
     3
 72
    12
 73
     8
 74
     0
 42
0.000000001
 43
0.0000000001
 40
-0.0396743197556294
 40
-0.0396743197556294
 40
-0.0396743197556294
 40
-0.0396743197556294
 40
0.0
 40
0.0
 40
0.0
 40
0.2500021964610007
 40
1.0
 40
1.0
 40
1.0
 40
1.0
 10
45.72765146931017
 20
14.28629803678601
 30
0.0
 10
45.72384673300422
 20
14.3296503878243
 30
0.0
 10
45.72004199669826
 20
14.37300273886265
 30
0.0
 10
45.71623726039231
 20
14.41635508990095
 30
0.0
 10
45.69226224483293
 20
14.68953388787611
 30
0.0
 10
45.59636302515131
 20
15.78223947943604
 30
0.0
 10
45.49715695246003
 20
16.87383303948559
 30
0.0
 10
45.42275261584388
 20
17.69252581188013
 30
0.0
  0
SPLINE
  5
7F
330
2
100
AcDbEntity
  8
0
100
AcDbSpline
210
0.0
220
0.0
230
1.0
 70
     8
 71
     3
 72
    12
 73
     8
 74
     0
 42
0.000000001
 43
0.0000000001
 40
0.0
 40
0.0
 40
0.0
 40
0.0
 40
0.2424905281287908
 40
1.0
 40
1.0
 40
1.0
 40
1.0396887841194
 40
1.0396887841194
 40
1.0396887841194
 40
1.0396887841194
 10
35.3448931030703
 20
17.69253418782063
 30
0.0
 10
35.32069889725641
 20
17.42788026499954
 30
0.0
 10
35.22092507928253
 20
16.3364812529914
 30
0.0
 10
35.12450085459741
 20
15.24395223642892
 30
0.0
 10
35.05145859108065
 20
14.41635115808873
 30
0.0
 10
35.04763163084321
 20
14.37299000980621
 30
0.0
 10
35.04380467060586
 20
14.32962886152364
 30
0.0
 10
35.03997771036841
 20
14.28626771324113
 30
0.0
  0
LINE
  5
80
330
2
100
AcDbEntity
  8
0
100
AcDbLine
 10
33.80106311052925
 20
15.65026189440434
 30
0.0
 11
33.7241130781733
 21
13.65459184865057
 31
0.0
  0
LINE
  5
81
330
2
100
AcDbEntity
  8
0
100
AcDbLine
 10
47.04356203203108
 20
13.65459184206656
 30
0.0
 11
46.9666120867155
 21
15.65026181263107
 31
0.0
  0
LINE
  5
82
330
2
100
AcDbEntity
  8
0
100
AcDbLine
 10
34.3678376903897
 20
13.58182996846727
 30
0.0
 11
34.25744475262356
 21
13.61369780849779
 31
0.0
  0
LINE
  5
83
330
2
100
AcDbEntity
  8
0
100
AcDbLine
 10
46.51022355981004
 20
13.61369573376726
 30
0.0
 11
46.39983754703634
 21
13.5818300366775
 31
0.0
  0
LINE
  5
84
330
2
100
AcDbEntity
  8
0
100
AcDbLine
 10
44.80382715771387
 20
18.79053645264881
 30
0.0
 11
44.80382715771387
 21
18.31867140232034
 31
0.0
  0
ARC
  5
85
330
2
100
AcDbEntity
  8
0
100
AcDbCircle
 10
44.7731107599152
 20
18.31548003519262
 30
0.0
 40
0.0308817408632373
100
AcDbArc
 50
320.5003157475961
 51
5.931624854005823
  0
LINE
  5
86
330
2
100
AcDbEntity
  8
0
100
AcDbLine
 10
44.78050230558367
 20
18.2816012179037
 30
0.0
 11
44.79693997857718
 21
18.29583696374422
 31
0.0
  0
LINE
  5
87
330
2
100
AcDbEntity
  8
0
100
AcDbLine
 10
44.43473524984893
 20
24.58945871536125
 30
0.0
 11
44.80382715771387
 21
18.79053645264881
 31
0.0
  0
ARC
  5
88
330
2
100
AcDbEntity
  8
0
100
AcDbCircle
 10
44.17436239203038
 20
24.19289980655407
 30
0.0
 40
0.6215031234090854
100
AcDbArc
 50
47.46244381111234
 51
69.66669780138336
  0
LINE
  5
89
330
2
100
AcDbEntity
  8
0
100
AcDbLine
 10
44.22633659377075
 20
24.97308441240759
 30
0.0
 11
44.24168462344099
 21
24.96041153823223
 31
0.0
  0
ARC
  5
8A
330
2
100
AcDbEntity
  8
0
100
AcDbCircle
 10
43.95736195629404
 20
24.57496423829025
 30
0.0
 40
0.4775932906406303
100
AcDbArc
 50
1.739136453406283
 51
47.99648394990113
  0
LINE
  5
8B
330
2
100
AcDbEntity
  8
0
100
AcDbLine
 10
46.02656963398557
 20
17.73161040589866
 30
0.0
 11
46.02656963398557
 21
17.01110869660033
 31
0.0
  0
LINE
  5
8C
330
2
100
AcDbEntity
  8
0
100
AcDbLine
 10
45.65747772613934
 20
23.53053266862989
 30
0.0
 11
46.02656963398557
 21
17.73161040589866
 31
0.0
  0
LINE
  5
8D
330
2
100
AcDbEntity
  8
0
100
AcDbLine
 10
46.30874101509948
 20
16.94420404896056
 30
0.0
 11
46.30874101509948
 21
17.48724282163911
 31
0.0
  0
ARC
  5
8E
330
2
100
AcDbEntity
  8
0
100
AcDbCircle
 10
45.48259403422354
 20
23.27864751131475
 30
0.0
 40
0.4571168927968094
100
AcDbArc
 50
0.942307389191273
 51
73.41592843849778
  0
LINE
  5
8F
330
2
100
AcDbEntity
  8
0
100
AcDbLine
 10
46.30874101509948
 20
17.48724282163911
 30
0.0
 11
45.93964910723443
 21
23.28616508437037
 31
0.0
  0
LINE
  5
90
330
2
100
AcDbEntity
  8
0
100
AcDbLine
 10
45.44907907004235
 20
23.91415836565744
 30
0.0
 11
45.4644270997125
 21
23.90148549148208
 31
0.0
  0
ARC
  5
91
330
2
100
AcDbEntity
  8
0
100
AcDbCircle
 10
45.18010443258455
 20
23.51603819154011
 30
0.0
 40
0.4775932906405995
100
AcDbArc
 50
1.739136453406283
 51
47.99648394990113
  0
LINE
  5
92
330
2
100
AcDbEntity
  8
0
100
AcDbLine
 10
43.45935310268068
 20
24.97319223588738
 30
0.0
 11
43.45935310268068
 21
18.74194014005468
 31
0.0
  0
LINE
  5
93
330
2
100
AcDbEntity
  8
0
100
AcDbLine
 10
43.74152439618994
 20
18.6629128382732
 30
0.0
 11
43.74152439618994
 21
24.72882472747548
 31
0.0
  0
ARC
  5
94
330
2
100
AcDbEntity
  8
0
100
AcDbCircle
 10
43.27822497938442
 20
24.75581186111984
 30
0.0
 40
0.4640847497878048
100
AcDbArc
 50
356.6662950089936
 51
73.030778502202
  0
LINE
  5
95
330
2
100
AcDbEntity
  8
0
100
AcDbLine
 10
43.25115099244396
 20
25.39594171141576
 30
0.0
 11
43.26503367807979
 21
25.38442739295516
 31
0.0
  0
ARC
  5
96
330
2
100
AcDbEntity
  8
0
100
AcDbCircle
 10
42.9702073182658
 20
24.99240111198048
 30
0.0
 40
0.4895228077707169
100
AcDbArc
 50
357.7511361039043
 51
47.59818514919754
  0
LINE
  5
97
330
2
100
AcDbEntity
  8
0
100
AcDbLine
 10
45.41519841775566
 20
18.26107341031178
 30
0.0
 11
45.41519841775566
 21
17.70924997058924
 31
0.0
  0
LINE
  5
98
330
2
100
AcDbEntity
  8
0
100
AcDbLine
 10
45.04610650989063
 20
24.05999567302422
 30
0.0
 11
45.41519841775566
 21
18.26107341031178
 31
0.0
  0
LINE
  5
99
330
2
100
AcDbEntity
  8
0
100
AcDbLine
 10
45.69736975505779
 20
17.29620415467801
 30
0.0
 11
45.69736975505779
 21
18.01670586397608
 31
0.0
  0
ARC
  5
9A
330
2
100
AcDbEntity
  8
0
100
AcDbCircle
 10
44.87122277418185
 20
23.80811055365172
 30
0.0
 40
0.4571168927967275
100
AcDbArc
 50
0.942307389191273
 51
73.41592843849778
  0
LINE
  5
9B
330
2
100
AcDbEntity
  8
0
100
AcDbLine
 10
45.69736975505779
 20
18.01670586397608
 30
0.0
 11
45.32827784721155
 21
23.81562812670734
 31
0.0
  0
LINE
  5
9C
330
2
100
AcDbEntity
  8
0
100
AcDbLine
 10
44.83770784286423
 20
24.44362137955156
 30
0.0
 11
44.85305587251556
 21
24.43094850537619
 31
0.0
  0
ARC
  5
9D
330
2
100
AcDbEntity
  8
0
100
AcDbCircle
 10
44.56873321633583
 20
24.04550119595328
 30
0.0
 40
0.4775932906405779
100
AcDbArc
 50
1.739136453406283
 51
47.99648395000477
  0
ARC
  5
9E
330
2
100
AcDbEntity
  8
0
100
AcDbCircle
 10
34.32029184602561
 20
16.2497081959448
 30
0.0
 40
0.4714385270749575
100
AcDbArc
 50
76.58224089960419
 51
105.9846209057023
  0
LINE
  5
9F
330
2
100
AcDbEntity
  8
0
100
AcDbLine
 10
34.61262115764924
 20
16.65547030436829
 30
0.0
 11
34.42968887754666
 21
16.70827833704433
 31
0.0
  0
LINE
  5
A0
330
2
100
AcDbEntity
  8
0
100
AcDbLine
 10
35.30501553248586
 20
17.25510132486818
 30
0.0
 11
34.61262115764924
 21
16.65547030436829
 31
0.0
  0
LWPOLYLINE
  5
A1
330
2
100
AcDbEntity
  8
0
100
AcDbPolyline
 90
       25
 70
   128
 43
0.0
 10
35.37025985697647
 20
17.7227701104687
 10
35.73662473839217
 20
17.91878194325892
 10
36.08037321835183
 20
18.0782530077951
 10
36.44595110231908
 20
18.22508615508337
 10
36.83150375613975
 20
18.35853682240665
 10
37.23507582781822
 20
18.47792766610996
 10
37.65461979448758
 20
18.58265345638924
 10
38.08800738741403
 20
18.67218316170988
 10
38.53304082779553
 20
18.74606197838949
 10
38.98746239660358
 20
18.80391571166569
 10
39.44896698546909
 20
18.84545075737358
 10
39.91521373055107
 20
18.87045624665489
 10
40.38383752717662
 20
18.87880554923509
 10
40.85246143849541
 20
18.87045621409228
 10
41.31870807638993
 20
18.84545062501638
 10
41.7802128156904
 20
18.80391576926627
 10
42.23463414903583
 20
18.74606197850238
 10
42.67966763633307
 20
18.6721831119537
 10
43.11305536178597
 20
18.58265362217435
 10
43.53259937031084
 20
18.47792778087847
 10
43.93617112469704
 20
18.35853674464025
 10
44.32172395651134
 20
18.22508618145701
 10
44.6873020040439
 20
18.07825308535459
 10
45.03105063300881
 20
17.9187820076128
 10
45.3974153628609
 20
17.72277012633424
  0
LINE
  5
A2
330
2
100
AcDbEntity
  8
0
100
AcDbLine
 10
46.15505360375382
 20
16.65547027536107
 30
0.0
 11
45.46212290693326
 21
17.25556586188136
 31
0.0
  0
LINE
  5
A3
330
2
100
AcDbEntity
  8
0
100
AcDbLine
 10
46.15505360375382
 20
16.65547027536107
 30
0.0
 11
46.33798643514392
 21
16.70827843508945
 31
0.0
  0
ARC
  5
A4
330
2
100
AcDbEntity
  8
0
100
AcDbCircle
 10
46.44738292580205
 20
16.24969667667062
 30
0.0
 40
0.4714497017992481
100
AcDbArc
 50
74.01572183472937
 51
103.4173675399252
  0
LWPOLYLINE
  5
A5
330
2
100
AcDbEntity
  8
0
100
AcDbPolyline
 90
       25
 70
   128
 43
0.0
 10
35.41644882597472
 20
17.99185008306674
 10
35.73662473839217
 20
18.16314998267967
 10
36.08037321835183
 20
18.3226210472346
 10
36.44595110231908
 20
18.46945419450412
 10
36.83150375613975
 20
18.60290486182734
 10
37.23507582781822
 20
18.72229570553065
 10
37.65461979448758
 20
18.8270214958288
 10
38.08800738741403
 20
18.91655120114939
 10
38.53304082779553
 20
18.99043001782905
 10
38.98746239660358
 20
19.04828375108641
 10
39.44896698546909
 20
19.08981879681309
 10
39.91521373055107
 20
19.1148242860944
 10
40.38383752717662
 20
19.12317358867466
 10
40.85246143849541
 20
19.11482425351303
 10
41.31870807638993
 20
19.08981866445595
 10
41.7802128156904
 20
19.04828380868699
 10
42.23463414903583
 20
18.9904300179231
 10
42.67966763633307
 20
18.91655115139318
 10
43.11305536178597
 20
18.82702166161388
 10
43.53259937031084
 20
18.72229582029914
 10
43.93617112469704
 20
18.60290478407972
 10
44.32172395651134
 20
18.46945422089658
 10
44.6873020040439
 20
18.32262112477534
 10
45.03105063300881
 20
18.16315004703355
 10
45.3512262847187
 20
17.99185017368137
  0
ARC
  5
A6
330
2
100
AcDbEntity
  8
0
100
AcDbCircle
 10
45.32358660873735
 20
17.9230240244498
 30
0.0
 40
0.0741686625600464
100
AcDbArc
 50
5.487498052201398
 51
68.12025463560063
  0
ARC
  5
A7
330
2
100
AcDbEntity
  8
0
100
AcDbCircle
 10
35.44408677324288
 20
17.92302534000777
 30
0.0
 40
0.0741667134787409
100
AcDbArc
 50
111.8789109045041
 51
174.5133284244962
  0
LINE
  5
A8
330
2
100
AcDbEntity
  8
0
100
AcDbLine
 10
46.15505360375382
 20
16.89983831480055
 30
0.0
 11
45.43824152590897
 21
17.52061578396135
 31
0.0
  0
LINE
  5
A9
330
2
100
AcDbEntity
  8
0
100
AcDbLine
 10
35.32920225558863
 20
17.520415681482
 30
0.0
 11
34.61262115764924
 21
16.89983834378898
 31
0.0
  0
ARC
  5
AA
330
2
100
AcDbEntity
  8
0
100
AcDbCircle
 10
46.43030197189037
 20
16.69381399621051
 30
0.0
 40
0.2748024929954961
100
AcDbArc
 50
49.1812237939029
 51
109.6293519902027
  0
ARC
  5
AB
330
2
100
AcDbEntity
  8
0
100
AcDbCircle
 10
34.33737299534726
 20
16.69381422745934
 30
0.0
 40
0.2748022988888986
100
AcDbArc
 50
70.37055710389978
 51
130.8187654018034
  0
LINE
  5
AC
330
2
100
AcDbEntity
  8
0
100
AcDbLine
 10
34.61262115764924
 20
16.89983834378898
 30
0.0
 11
34.42968887754666
 21
16.95264637648384
 31
0.0
  0
LINE
  5
AD
330
2
100
AcDbEntity
  8
0
100
AcDbLine
 10
46.33798643514392
 20
16.95264647452896
 30
0.0
 11
46.15505360375382
 21
16.89983831480055
 31
0.0
  0
ARC
  5
AE
330
2
100
AcDbEntity
  8
0
100
AcDbCircle
 10
45.09803903645441
 20
15.80122664780202
 30
0.0
 40
1.870036265311972
100
AcDbArc
 50
0.9176119582014415
 51
36.05201063529987
  0
ARC
  5
AF
330
2
100
AcDbEntity
  8
0
100
AcDbCircle
 10
35.68249829089192
 20
15.79692694045246
 30
0.0
 40
1.882970111667032
100
AcDbArc
 50
144.072542497001
 51
178.9578405066007
  0
LWPOLYLINE
  5
B0
330
2
100
AcDbEntity
  8
0
100
AcDbPolyline
 90
       17
 70
   128
 43
0.0
 10
50.23206804447951
 20
14.69098311755269
 10
50.29162064526306
 20
14.66154028098029
 10
50.37122709753918
 20
14.65562360864837
 10
50.45876822065606
 20
14.67413406554033
 10
50.54091643956589
 20
14.71425337571867
 10
50.60516485790003
 20
14.76987366714124
 10
50.64173342714355
 20
14.83252749886199
 10
50.64505409751722
 20
14.89267640333554
 10
50.61462145397807
 20
14.94116292259298
 10
50.55506884224641
 20
14.97060592037931
 10
50.47546238447725
 20
14.97652244571873
 10
50.38792126137918
 20
14.95801214055976
 10
50.30577366031165
 20
14.91789299609121
 10
50.24152462411642
 20
14.86227253894003
 10
50.20495605489169
 20
14.79961855550519
 10
50.20163538999224
 20
14.73946979800519
 10
50.23206804447951
 20
14.69098311755269
  0
LWPOLYLINE
  5
B1
330
2
100
AcDbEntity
  8
0
100
AcDbPolyline
 90
       17
 70
   128
 43
0.0
 10
50.36193259918622
 20
15.27629449610901
 10
50.42148521091799
 20
15.24685165005567
 10
50.5010922755811
 20
15.24093514817406
 10
50.58863218490984
 20
15.25944525468438
 10
50.67078039287134
 20
15.29956472607665
 10
50.73502942904788
 20
15.35518503149489
 10
50.7715979982914
 20
15.4178388632157
 10
50.77491927006622
 20
15.47798809935344
 10
50.74448600870359
 20
15.52647430116812
 10
50.68493401479541
 20
15.55591761637836
 10
50.60532695562521
 20
15.56183381007244
 10
50.51778583250823
 20
15.5433235048946
 10
50.43563761359841
 20
15.50320434643038
 10
50.3713885883702
 20
15.4475837281029
 10
50.33482123291481
 20
15.38493009503082
 10
50.33149995566598
 20
15.32478116709939
 10
50.36193259918622
 20
15.27629449610901
  0
LWPOLYLINE
  5
B2
330
2
100
AcDbEntity
  8
0
100
AcDbPolyline
 90
       17
 70
   128
 43
0.0
 10
49.44380368810542
 20
14.67586269305633
 10
49.50335629983719
 20
14.64641969528887
 10
49.58296275760624
 20
14.64050316993058
 10
49.67050388070441
 20
14.65901347510839
 10
49.75265208868472
 20
14.69913279476773
 10
49.81690051796707
 20
14.75475307670928
 10
49.85346908721072
 20
14.81740706016302
 10
49.85678975209136
 20
14.87755581764412
 10
49.82635709760398
 20
14.92604249811543
 10
49.76680449682055
 20
14.95548533466905
 10
49.6871980445444
 20
14.96140200701975
 10
49.59965692142755
 20
14.94289155010898
 10
49.51750930941178
 20
14.90277241512143
 10
49.45326028418357
 20
14.8471519485081
 10
49.41669171494005
 20
14.78449811678735
 10
49.41337104456636
 20
14.72434921231377
 10
49.44380368810542
 20
14.67586269305633
  0
LINE
  5
B3
330
2
100
AcDbEntity
  8
0
100
AcDbLine
 10
50.56521981448071
 20
14.44421373872834
 30
0.0
 11
51.38730581798903
 21
14.98183645667393
 31
0.0
  0
ARC
  5
B4
330
2
100
AcDbEntity
  8
0
100
AcDbCircle
 10
48.92939382597639
 20
16.95971615587726
 30
0.0
 40
3.000613116573989
100
AcDbArc
 50
284.3701114045988
 51
303.0358655943989
  0
LINE
  5
B5
330
2
100
AcDbEntity
  8
0
100
AcDbLine
 10
49.67409975511345
 20
14.05298394349535
 30
0.0
 11
49.64705306964159
 21
14.04606417349424
 31
0.0
  0
ARC
  5
B6
330
2
100
AcDbEntity
  8
0
100
AcDbCircle
 10
49.83323143168074
 20
13.31937678327017
 30
0.0
 40
0.7501579471011165
100
AcDbArc
 50
104.3701682715015
 51
123.0358183286002
  0
LINE
  5
B7
330
2
100
AcDbEntity
  8
0
100
AcDbLine
 10
49.42427290854577
 20
13.94825663821933
 30
0.0
 11
48.84710821870902
 21
13.57080621074149
 31
0.0
  0
ARC
  5
B8
330
2
100
AcDbEntity
  8
0
100
AcDbCircle
 10
51.86996975808551
 20
16.07628959127842
 30
0.0
 40
1.147205779952549
100
AcDbArc
 50
190.969304730606
 51
224.3812889594948
  0
LINE
  5
B9
330
2
100
AcDbEntity
  8
0
100
AcDbLine
 10
50.73933521773522
 20
15.88145083912064
 30
0.0
 11
50.7437242705371
 21
15.85799574499799
 31
0.0
  0
LINE
  5
BA
330
2
100
AcDbEntity
  8
0
100
AcDbLine
 10
51.67990631291173
 20
15.06689237662999
 30
0.0
 11
51.6842953656948
 21
15.04343728252618
 31
0.0
  0
LWPOLYLINE
  5
BB
330
2
100
AcDbEntity
  8
0
100
AcDbPolyline
 90
        9
 70
   128
 43
0.0
 10
51.52034603830909
 20
14.86662024615435
 10
51.56485219469054
 20
14.83420249561493
 10
51.60491293870353
 20
14.81765151282784
 10
51.63898608613039
 20
14.81760265589582
 10
51.6657654662572
 20
14.83405860405457
 10
51.68422035746196
 20
14.8663866061822
 10
51.69364087257364
 20
14.91334404898376
 10
51.69366653511604
 20
14.97312686239223
 10
51.6842953656948
 20
15.04343728252618
  0
LINE
  5
BC
330
2
100
AcDbEntity
  8
0
100
AcDbLine
 10
51.05006049073024
 20
15.27389947738086
 30
0.0
 11
51.52034603830909
 21
14.86662024615435
 31
0.0
  0
LWPOLYLINE
  5
BD
330
2
100
AcDbEntity
  8
0
100
AcDbPolyline
 90
        9
 70
   128
 43
0.0
 10
50.5987398741307
 20
15.92181796480653
 10
50.62112817021713
 20
15.93378755610627
 10
50.64417919385962
 20
15.94097163136914
 10
50.66679810944339
 20
15.94302955958622
 10
50.68791192946643
 20
15.93986340173961
 10
50.70652170748905
 20
15.93162387415498
 10
50.72174502057076
 20
15.91870167438512
 10
50.73285845180121
 20
15.90170879322866
 10
50.73933521773522
 20
15.88145083912064
  0
LINE
  5
BE
330
2
100
AcDbEntity
  8
0
100
AcDbLine
 10
49.61626388064919
 20
15.27930486887345
 30
0.0
 11
50.5987398741307
 21
15.92181796480653
 31
0.0
  0
ARC
  5
BF
330
2
100
AcDbEntity
  8
0
100
AcDbCircle
 10
51.60622304132452
 20
15.05478004450219
 30
0.0
 40
0.0746721708601005
100
AcDbArc
 50
9.335008694893414
 51
48.51007732250423
  0
ARC
  5
C0
330
2
100
AcDbEntity
  8
0
100
AcDbCircle
 10
50.81700739373143
 20
13.38042394954445
 30
0.0
 40
2.246671700529065
100
AcDbArc
 50
122.3069158394947
 51
144.9765569611986
  0
ARC
  5
C1
330
2
100
AcDbEntity
  8
0
100
AcDbCircle
 10
48.09658214910712
 20
11.60942240333452
 30
0.0
 40
2.299230902803049
100
AcDbArc
 50
111.3690372792953
 51
139.425252432652
  0
LINE
  5
C2
330
2
100
AcDbEntity
  8
0
100
AcDbLine
 10
47.25880313725775
 20
13.75058775699054
 30
0.0
 11
48.19206918256988
 21
14.10275109904907
 31
0.0
  0
ARC
  5
C3
330
2
100
AcDbEntity
  8
0
100
AcDbCircle
 10
48.1272244904558
 20
14.27300790322488
 30
0.0
 40
0.1821873032477679
100
AcDbArc
 50
290.8500371727001
 51
303.3386381360013
  0
LINE
  5
C4
330
2
100
AcDbEntity
  8
0
100
AcDbLine
 10
48.22735214190876
 20
14.1208019017711
 30
0.0
 11
48.80451683172669
 21
14.49825232923013
 31
0.0
  0
ARC
  5
C5
330
2
100
AcDbEntity
  8
0
100
AcDbCircle
 10
48.50432879331229
 20
14.97297513579926
 30
0.0
 40
0.5616712574831696
100
AcDbArc
 50
302.3069616017026
 51
324.9764838071061
  0
LINE
  5
C6
330
2
100
AcDbEntity
  8
0
100
AcDbLine
 10
48.9642906870422
 20
14.65062492593802
 30
0.0
 11
48.97716908821507
 21
14.66981479004141
 31
0.0
  0
LINE
  5
C7
330
2
100
AcDbEntity
  8
0
100
AcDbLine
 10
48.80559853348837
 20
13.54956979024558
 30
0.0
 11
47.87233248819514
 21
13.19740644820589
 31
0.0
  0
ARC
  5
C8
330
2
100
AcDbEntity
  8
0
100
AcDbCircle
 10
48.72931308550755
 20
13.74986742024376
 30
0.0
 40
0.2143329422998563
100
AcDbArc
 50
290.8498587994961
 51
303.3388550685998
  0
ARC
  5
C9
330
2
100
AcDbEntity
  8
0
100
AcDbCircle
 10
48.69073132868219
 20
11.10143664593593
 30
0.0
 40
2.250081348328785
100
AcDbArc
 50
111.328810095006
 51
136.561948180999
  0
LWPOLYLINE
  5
CA
330
2
100
AcDbEntity
  8
0
100
AcDbPolyline
 90
       17
 70
   128
 43
0.0
 10
40.71303758842471
 20
6.349915223010327
 10
40.62305224127893
 20
6.346827876219535
 10
40.54676639086521
 20
6.338035210725479
 10
40.49579389797846
 20
6.324876642330266
 10
40.47789486938587
 20
6.309354924465196
 10
40.49579416218493
 20
6.293832808230547
 10
40.54676653977647
 20
6.280673969063755
 10
40.62305228183637
 20
6.271881766989082
 10
40.71303745484476
 20
6.268793822408923
 10
40.80302245160906
 20
6.271881776093778
 10
40.87930865240426
 20
6.280673834693772
 10
40.93028079490952
 20
6.293832858268942
 10
40.94818012694914
 20
6.309354967167081
 10
40.93028118455048
 20
6.324876476507597
 10
40.87930845655855
 20
6.338035467407337
 10
40.80302271449865
 20
6.346827972910219
 10
40.71303758842471
 20
6.349915223010327
  0
LINE
  5
CB
330
2
100
AcDbEntity
  8
0
100
AcDbLine
 10
39.44326650259947
 20
6.384500873868461
 30
0.0
 11
39.44326694439761
 21
6.07149675415809
 31
0.0
  0
LINE
  5
CC
330
2
100
AcDbEntity
  8
0
100
AcDbLine
 10
41.32440884054679
 20
6.38450061302926
 30
0.0
 11
41.32440858422136
 21
6.100577970235576
 31
0.0
  0
ARC
  5
CD
330
2
100
AcDbEntity
  8
0
100
AcDbCircle
 10
40.86778798315104
 20
6.086047118022236
 30
0.0
 40
0.4568517472745125
100
AcDbArc
 50
268.2859575993984
 51
1.822685258072351
  0
ARC
  5
CE
330
2
100
AcDbEntity
  8
0
100
AcDbCircle
 10
39.89988728785334
 20
6.086047723750041
 30
0.0
 40
0.4568521300964618
100
AcDbArc
 50
181.8233017427042
 51
271.7140211650947
  0
LINE
  5
CF
330
2
100
AcDbEntity
  8
0
100
AcDbLine
 10
40.8541229893704
 20
5.629399784809947
 30
0.0
 11
39.91355212384378
 21
5.629400002815501
 31
0.0
  0
LWPOLYLINE
  5
D0
330
2
100
AcDbEntity
  8
0
100
AcDbPolyline
 90
       17
 70
   128
 43
0.0
 10
30.86480725353619
 20
14.97607845427768
 10
30.89523973710299
 20
15.0245653054815
 10
30.89191896317247
 20
15.08471406510708
 10
30.85535059261509
 20
15.14736788943494
 10
30.79110164003658
 20
15.2029883922979
 10
30.70895338771773
 20
15.2431076322344
 10
30.62141278812266
 20
15.26161782149623
 10
30.54180594086317
 20
15.25570137535285
 10
30.48225337072342
 20
15.22625831885614
 10
30.45182084020336
 20
15.17777201043714
 10
30.45514131068686
 20
15.11762301149258
 10
30.49171003164451
 20
15.05496903543178
 10
30.55595863382275
 20
14.99934883601588
 10
30.63810688614158
 20
14.95922959606057
 10
30.72564783613694
 20
14.94071895163759
 10
30.80525433299616
 20
14.94663585296092
 10
30.86480725353619
 20
14.97607845427768
  0
LWPOLYLINE
  5
D1
330
2
100
AcDbEntity
  8
0
100
AcDbPolyline
 90
        9
 70
   128
 43
0.0
 10
30.10379355947321
 20
15.0346162638931
 10
30.10697533138649
 20
15.03968560431752
 10
30.10365486090309
 20
15.09983445152915
 10
30.06708613994544
 20
15.16248857930406
 10
30.00283753776731
 20
15.2181089304529
 10
29.92068928544837
 20
15.25822801867525
 10
29.83314803200587
 20
15.27673842377933
 10
29.75354153514676
 20
15.27082182592193
 10
29.69662927713015
 20
15.25572649166804
  0
LWPOLYLINE
  5
D2
330
2
100
AcDbEntity
  8
0
100
AcDbPolyline
 90
       17
 70
   128
 43
0.0
 10
30.99467182558704
 20
14.39076724271041
 10
31.0251040057067
 20
14.43925385457643
 10
31.02178323179508
 20
14.499402765935
 10
30.98521516466596
 20
14.56205652613474
 10
30.92096621208743
 20
14.61767702899769
 10
30.83881795976858
 20
14.65779626893419
 10
30.75127705672649
 20
14.67630652232412
 10
30.67167051291401
 20
14.67039001205265
 10
30.61211794277427
 20
14.64094710727002
 10
30.58168576265461
 20
14.59246034368982
 10
30.5850062331193
 20
14.53231149645938
 10
30.62157460369536
 20
14.46965767213157
 10
30.68582355627388
 20
14.41403716926856
 10
30.76797150514569
 20
14.37391784172729
 10
30.8555124081878
 20
14.35540774007026
 10
30.93511895200036
 20
14.3613240986088
 10
30.99467182558704
 20
14.39076724271041
  0
LINE
  5
D3
330
2
100
AcDbEntity
  8
0
100
AcDbLine
 10
31.92056731985025
 20
13.57080605242453
 30
0.0
 11
31.34340202853719
 21
13.94825665040912
 31
0.0
  0
ARC
  5
D4
330
2
100
AcDbEntity
  8
0
100
AcDbCircle
 10
30.93444305067356
 20
13.31937608382389
 30
0.0
 40
0.7501587915852528
100
AcDbArc
 50
56.964182188006
 51
75.62978944179786
  0
LINE
  5
D5
330
2
100
AcDbEntity
  8
0
100
AcDbLine
 10
31.12062215864214
 20
14.04606415470167
 30
0.0
 11
31.09357567324846
 21
14.05298388694825
 31
0.0
  0
ARC
  5
D6
330
2
100
AcDbEntity
  8
0
100
AcDbCircle
 10
31.83828246549121
 20
16.95971885347285
 30
0.0
 40
3.000615998774594
100
AcDbArc
 50
236.9641499191075
 51
255.6298856825037
  0
LINE
  5
D7
330
2
100
AcDbEntity
  8
0
100
AcDbLine
 10
30.20245558679286
 20
14.44421357719463
 30
0.0
 11
29.38036880404213
 21
14.98183659453093
 31
0.0
  0
ARC
  5
D8
330
2
100
AcDbEntity
  8
0
100
AcDbCircle
 10
28.8977185827753
 20
16.07628309586354
 30
0.0
 40
1.147191081497685
100
AcDbArc
 50
315.6184583576038
 51
349.0308845141038
  0
LWPOLYLINE
  5
D9
330
2
100
AcDbEntity
  8
0
100
AcDbPolyline
 90
        9
 70
   128
 43
0.0
 10
29.0833792938256
 20
15.04343741296458
 10
29.0740080959427
 20
14.97312689059057
 10
29.0740341513992
 20
14.91334413799939
 10
29.0834549222897
 20
14.86638662651734
 10
29.10190960461245
 20
14.83405867835967
 10
29.12868891227769
 20
14.81760277864035
 10
29.16276269233268
 20
14.81765156128602
 10
29.20282217434376
 20
14.83420273213093
 10
29.24732875134868
 20
14.8666204058257
  0
LINE
  5
DA
330
2
100
AcDbEntity
  8
0
100
AcDbLine
 10
29.08776831308666
 20
15.06689253611321
 30
0.0
 11
29.0833792938256
 21
15.04343741296458
 31
0.0
  0
LINE
  5
DB
330
2
100
AcDbEntity
  8
0
100
AcDbLine
 10
30.02833938066677
 20
15.88145088949761
 30
0.0
 11
30.02395036142453
 21
15.85799576634895
 31
0.0
  0
LINE
  5
DC
330
2
100
AcDbEntity
  8
0
100
AcDbLine
 10
29.24732875134868
 20
14.8666204058257
 30
0.0
 11
29.71761380650092
 21
15.27389964664604
 31
0.0
  0
LWPOLYLINE
  5
DD
330
2
100
AcDbEntity
  8
0
100
AcDbPolyline
 90
        9
 70
   128
 43
0.0
 10
30.16893571341365
 20
15.9218178593685
 10
30.1465463469007
 20
15.93378767689441
 10
30.12349610916198
 20
15.94097142194158
 10
30.10087741532718
 20
15.94302950851318
 10
30.07976294979012
 20
15.93986355928527
 10
30.06115310272959
 20
15.9316240915021
 10
30.04593057707516
 20
15.91870156019979
 10
30.03481702573382
 20
15.90170878305164
 10
30.02833938066677
 20
15.88145088949761
  0
LINE
  5
DE
330
2
100
AcDbEntity
  8
0
100
AcDbLine
 10
31.15141114023862
 20
15.27930490376866
 30
0.0
 11
30.16893571341365
 21
15.9218178593685
 31
0.0
  0
ARC
  5
DF
330
2
100
AcDbEntity
  8
0
100
AcDbCircle
 10
29.16145991000735
 20
15.05477411002519
 30
0.0
 40
0.0746813745831134
100
AcDbArc
 50
131.4911098731021
 51
170.6614139641971
  0
ARC
  5
E0
330
2
100
AcDbEntity
  8
0
100
AcDbCircle
 10
29.95066151903101
 20
13.38041669602933
 30
0.0
 40
2.24668112519912
100
AcDbArc
 50
35.0234990701055
 51
57.69305184269725
  0
ARC
  5
E1
330
2
100
AcDbEntity
  8
0
100
AcDbCircle
 10
32.64043921131691
 20
14.27298398237567
 30
0.0
 40
0.182160918095281
100
AcDbArc
 50
236.6602502328972
 51
249.1507928048062
  0
LINE
  5
E2
330
2
100
AcDbEntity
  8
0
100
AcDbLine
 10
32.57560637624933
 20
14.10275089635601
 30
0.0
 11
33.50887173921466
 21
13.7505877948391
 31
0.0
  0
ARC
  5
E3
330
2
100
AcDbEntity
  8
0
100
AcDbCircle
 10
32.67108710303225
 20
11.60941320217881
 30
0.0
 40
2.299241556009204
100
AcDbArc
 50
40.83880631449722
 51
68.63091609059789
  0
LINE
  5
E4
330
2
100
AcDbEntity
  8
0
100
AcDbLine
 10
31.96315816726457
 20
14.49825226098227
 30
0.0
 11
32.54032310819616
 21
14.12080196644473
 31
0.0
  0
LINE
  5
E5
330
2
100
AcDbEntity
  8
0
100
AcDbLine
 10
30.87319208976448
 20
14.99661112405789
 30
0.0
 11
30.89477946469565
 21
15.02279726325759
 31
0.0
  0
ARC
  5
E6
330
2
100
AcDbEntity
  8
0
100
AcDbCircle
 10
32.26334812899646
 20
14.97297663796661
 30
0.0
 40
0.56167361272969
100
AcDbArc
 50
215.0235430753004
 51
237.6929581913981
  0
LINE
  5
E7
330
2
100
AcDbEntity
  8
0
100
AcDbLine
 10
31.79050628160575
 20
14.66981474470586
 30
0.0
 11
31.80338445777509
 21
14.65062486058713
 31
0.0
  0
LINE
  5
E8
330
2
100
AcDbEntity
  8
0
100
AcDbLine
 10
30.08492763711365
 20
15.01173196565992
 30
0.0
 11
30.10379355947321
 21
15.0346162638931
 31
0.0
  0
LWPOLYLINE
  5
E9
330
2
100
AcDbEntity
  8
0
100
AcDbPolyline
 90
        8
 70
   128
 43
0.0
 10
29.6661826012097
 20
15.22935886863064
 10
29.6752620446458
 20
15.15327621940898
 10
29.71183041522186
 20
15.09062254681402
 10
29.77607936778157
 20
15.03500189221816
 10
29.85822762011933
 20
14.99488280399578
 10
29.94576791626736
 20
14.97637237541502
 10
30.02537476352686
 20
14.9822889732913
 10
30.08492763711365
 20
15.01173196565992
  0
LINE
  5
EA
330
2
100
AcDbEntity
  8
0
100
AcDbLine
 10
32.89534252938189
 20
13.19740639068055
 30
0.0
 11
31.96207681603488
 21
13.54956979564446
 31
0.0
  0
ARC
  5
EB
330
2
100
AcDbEntity
  8
0
100
AcDbCircle
 10
32.0383527656961
 20
13.74984919158049
 30
0.0
 40
0.2143125216424629
100
AcDbArc
 50
236.6606535201044
 51
249.1507792129043
  0
LINE
  5
EC
330
2
100
AcDbEntity
  8
0
100
AcDbLine
 10
31.00305635836831
 20
14.41129982488576
 30
0.0
 11
31.0246443871468
 21
14.43748574824323
 31
0.0
  0
ARC
  5
ED
330
2
100
AcDbEntity
  8
0
100
AcDbCircle
 10
32.07693791091
 20
11.10142681587666
 30
0.0
 40
2.250092553097055
100
AcDbArc
 50
43.43812524440352
 51
68.67114336299412
  0
LWPOLYLINE
  5
EE
330
2
100
AcDbEntity
  8
0
100
AcDbPolyline
 90
       17
 70
   128
 43
0.0
 10
30.86480725353619
 20
14.97607845427768
 10
30.89523973710299
 20
15.0245653054815
 10
30.89191896317247
 20
15.08471406510708
 10
30.85535059261509
 20
15.14736788943494
 10
30.79110164003658
 20
15.2029883922979
 10
30.70895338771773
 20
15.2431076322344
 10
30.62141278812266
 20
15.26161782149623
 10
30.54180594086317
 20
15.25570137535285
 10
30.48225337072342
 20
15.22625831885614
 10
30.45182084020336
 20
15.17777201043714
 10
30.45514131068686
 20
15.11762301149258
 10
30.49171003164451
 20
15.05496903543178
 10
30.55595863382275
 20
14.99934883601588
 10
30.63810688614158
 20
14.95922959606057
 10
30.72564783613694
 20
14.94071895163759
 10
30.80525433299616
 20
14.94663585296092
 10
30.86480725353619
 20
14.97607845427768
  0
LWPOLYLINE
  5
EF
330
2
100
AcDbEntity
  8
0
100
AcDbPolyline
 90
       17
 70
   128
 43
0.0
 10
30.99467182558704
 20
14.39076724271041
 10
31.0251040057067
 20
14.43925385457643
 10
31.02178323179508
 20
14.499402765935
 10
30.98521516466596
 20
14.56205652613474
 10
30.92096621208743
 20
14.61767702899769
 10
30.83881795976858
 20
14.65779626893419
 10
30.75127705672649
 20
14.67630652232412
 10
30.67167051291401
 20
14.67039001205265
 10
30.61211794277427
 20
14.64094710727002
 10
30.58168576265461
 20
14.59246034368982
 10
30.5850062331193
 20
14.53231149645938
 10
30.62157460369536
 20
14.46965767213157
 10
30.68582355627388
 20
14.41403716926856
 10
30.76797150514569
 20
14.37391784172729
 10
30.8555124081878
 20
14.35540774007026
 10
30.93511895200036
 20
14.3613240986088
 10
30.99467182558704
 20
14.39076724271041
  0
LINE
  5
F0
330
2
100
AcDbEntity
  8
0
100
AcDbLine
 10
40.86407971801822
 20
25.63590273790442
 30
0.0
 11
40.86407971801822
 21
19.11420114569907
 31
0.0
  0
LINE
  5
F1
330
2
100
AcDbEntity
  8
0
100
AcDbLine
 10
41.14625109913212
 20
19.10102720381098
 30
0.0
 11
41.14625109913212
 21
25.39153515364487
 31
0.0
  0
ARC
  5
F2
330
2
100
AcDbEntity
  8
0
100
AcDbCircle
 10
40.68295071064157
 20
25.41852161071759
 30
0.0
 40
0.4640856804958548
100
AcDbArc
 50
356.6663853723928
 51
73.03068813879146
  0
LINE
  5
F3
330
2
100
AcDbEntity
  8
0
100
AcDbLine
 10
40.65587760780011
 20
26.05865221343279
 30
0.0
 11
40.66975998998901
 21
26.04713780738624
 31
0.0
  0
ARC
  5
F4
330
2
100
AcDbEntity
  8
0
100
AcDbCircle
 10
40.37493512037829
 20
25.65511176352953
 30
0.0
 40
0.4895216277801062
100
AcDbArc
 50
357.7511131658068
 51
47.59829523310292
  0
LINE
  5
F5
330
2
100
AcDbEntity
  8
0
100
AcDbLine
 10
46.36259192136956
 20
16.96014416576514
 30
0.0
 11
46.36259192136956
 21
21.9557083601174
 31
0.0
  0
ARC
  5
F6
330
2
100
AcDbEntity
  8
0
100
AcDbCircle
 10
45.86711013209706
 20
21.97365673972391
 30
0.0
 40
0.4958067645922748
100
AcDbArc
 50
357.9254193094949
 51
42.65806509039869
  0
LINE
  5
F7
330
2
100
AcDbEntity
  8
0
100
AcDbLine
 10
42.41219328663144
 20
25.37685393287569
 30
0.0
 11
42.41219328663144
 21
18.96095388140298
 31
0.0
  0
LINE
  5
F8
330
2
100
AcDbEntity
  8
0
100
AcDbLine
 10
42.69436466774534
 20
18.91380665564128
 30
0.0
 11
42.69436466774534
 21
25.13248634861614
 31
0.0
  0
ARC
  5
F9
330
2
100
AcDbEntity
  8
0
100
AcDbCircle
 10
42.23106430818675
 20
25.1594726559687
 30
0.0
 40
0.4640856428942708
100
AcDbArc
 50
356.6664036167036
 51
73.03072962710071
  0
LINE
  5
FA
330
2
100
AcDbEntity
  8
0
100
AcDbLine
 10
42.20399117639462
 20
25.79960340840407
 30
0.0
 11
42.21787355858341
 21
25.7880890023387
 31
0.0
  0
ARC
  5
FB
330
2
100
AcDbEntity
  8
0
100
AcDbCircle
 10
41.92304571033452
 20
25.39606171403113
 30
0.0
 40
0.4895245553157722
100
AcDbArc
 50
357.751272389906
 51
47.5981360090053
  0
LWPOLYLINE
  5
FC
330
2
100
AcDbEntity
  8
0
100
AcDbPolyline
 90
       89
 70
   128
 43
0.0
 10
42.29583823496559
 20
7.130951282248759
 10
41.84806363859326
 20
7.070660084113455
 10
41.39282755528915
 20
7.026494568259352
 10
40.93244991560042
 20
6.998679790404594
 10
40.46927663572116
 20
6.987357071434701
 10
40.00566832334075
 20
6.992584580575282
 10
39.54398669122548
 20
7.0143354364167
 10
39.0865850078634
 20
7.052498793932073
 10
38.63579359910646
 20
7.106880311922338
 10
38.19390971535945
 20
7.17720286933644
 10
37.76318574069453
 20
7.26310801668518
 10
37.34581544057153
 20
7.364158075038972
 10
36.94392651307985
 20
7.479838031654537
 10
36.55956665512991
 20
7.609558496998772
 10
36.19469436799374
 20
7.752658411355213
 10
35.85116879953221
 20
7.908408586074301
 10
35.53074071538978
 20
8.076015317849396
 10
35.23504285740644
 20
8.254624534114725
 10
34.96558184388991
 20
8.443326004302093
 10
34.72373152417952
 20
8.641158394300902
 10
34.51072402572626
 20
8.847113515958085
 10
34.32764376466704
 20
9.060141514102411
 10
34.17542487872459
 20
9.279157294388653
 10
34.05484248243517
 20
9.503044592584274
 10
33.96651145070816
 20
9.730662634226888
 10
33.91088189503639
 20
9.960851454080653
 10
33.88823645707769
 20
10.19243809401092
 10
33.89869147535892
 20
10.42424225021054
 10
33.94219318706049
 20
10.65508306626819
 10
34.01851990209121
 20
10.8837839079398
 10
34.12728293805296
 20
11.10917961231828
 10
34.26792805288114
 20
11.33012155420113
 10
34.43973834757875
 20
11.5454835415336
 10
34.64183846428634
 20
11.75416869158573
 10
34.87319837753615
 20
11.95511315533153
 10
35.1326393082058
 20
12.14729308431592
 10
35.41883913691869
 20
12.329729227884
 10
35.73033948635688
 20
12.50149201211476
 10
36.06555294990705
 20
12.66170605418597
 10
36.42277138245651
 20
12.80955498317769
 10
36.80017432281245
 20
12.94428548992655
 10
37.19583910281008
 20
13.0652106497817
 10
37.60774934612442
 20
13.17171439900838
 10
38.03380534241309
 20
13.26325452954734
 10
38.4718369029857
 20
13.33936397251858
 10
38.91961149935802
 20
13.39965517065389
 10
39.37484758268085
 20
13.44382068652683
 10
39.83522522236956
 20
13.47163546436272
 10
40.29839850224892
 20
13.48295818333261
 10
40.76200681462934
 20
13.47773067419206
 10
41.22368844674462
 20
13.45597981835061
 10
41.68109013008787
 20
13.41781646083527
 10
42.13188153884481
 20
13.36343494284497
 10
42.57376542261054
 20
13.29311238543093
 10
43.00448939727547
 20
13.20720723808213
 10
43.42185969739855
 20
13.10615717972834
 10
43.82374862487131
 20
12.99047722311277
 10
44.20810848284008
 20
12.8607567577686
 10
44.57298076995744
 20
12.7176568434121
 10
44.91650633843778
 20
12.56190666869301
 10
45.23693442256139
 20
12.39429993691792
 10
45.53263228056366
 20
12.21569072065262
 10
45.80209329408017
 20
12.02698925046522
 10
46.04394361379046
 20
11.82915686046647
 10
46.25695111224384
 20
11.62320173880925
 10
46.44003137328424
 20
11.4101737406649
 10
46.5922502592454
 20
11.19115796037866
 10
46.71283265553482
 20
10.96727066220185
 10
46.80116368724312
 20
10.73965262054042
 10
46.85679324293371
 20
10.50946380068666
 10
46.8794386808923
 20
10.27787716075645
 10
46.86898366261128
 20
10.04607300455677
 10
46.8254819509095
 20
9.815232188499152
 10
46.74915523587888
 20
9.58653134682757
 10
46.64039219991702
 20
9.361135642449028
 10
46.49974708508895
 20
9.140193700566243
 10
46.32793679037264
 20
8.924831713233714
 10
46.12583667368375
 20
8.716146563181581
 10
45.89447676043383
 20
8.515202099435782
 10
45.63503582974548
 20
8.323022170451423
 10
45.34883600103248
 20
8.140586026902155
 10
45.03733565161311
 20
7.968823242652575
 10
44.70212218806303
 20
7.808609200600159
 10
44.34490375551358
 20
7.66076027158968
 10
43.96750081515754
 20
7.526029764840814
 10
43.57183603516002
 20
7.405104604985638
 10
43.15992579184558
 20
7.298600855758991
 10
42.73386979555689
 20
7.20706072523879
 10
42.29583823496559
 20
7.130951282248759
  0
LWPOLYLINE
  5
FD
330
2
100
AcDbEntity
  8
0
100
AcDbPolyline
 90
       98
 70
   128
 43
0.0
 10
33.46864214468395
 20
8.352950840749201
 10
33.22471133403557
 20
8.580946960603085
 10
33.01080841315875
 20
8.816359769152597
 10
32.82783080008687
 20
9.058201845603605
 10
32.67654524884494
 20
9.305458771422507
 10
32.55758696392199
 20
9.557093401243776
 10
32.4714548856008
 20
9.812050646596162
 10
32.41850970646326
 20
10.06926059525017
 10
32.39897407760098
 20
10.32764463967851
 10
32.41292970527938
 20
10.58611939295457
 10
32.46031827676044
 20
10.84360009164481
 10
32.54094096575063
 20
11.09900733110672
 10
32.65445893284083
 20
11.35126943527658
 10
32.80039665998192
 20
11.59932867901767
 10
32.97814222887442
 20
11.84214420054238
 10
33.18694974504664
 20
12.07869796107766
 10
33.42594370191602
 20
12.30799762291855
 10
33.69412124227964
 20
12.52908124827701
 10
33.99035824902058
 20
12.74102148510553
 10
34.31341135032937
 20
12.94292978725144
 10
34.66192576218685
 20
13.13395908308325
 10
35.03444027024896
 20
13.31330804564564
 10
35.42939149972043
 20
13.48022475306129
 10
35.84512364386907
 20
13.63400868748914
 10
36.27989287654683
 20
13.77401484124394
 10
36.73187550756134
 20
13.89965607097059
 10
37.19917552167386
 20
14.01040567860883
 10
37.67983329197419
 20
14.10579871286154
 10
38.17183253203764
 20
14.18543519001122
 10
38.67310950219656
 20
14.24898153765898
 10
39.18156221402668
 20
14.29617041970314
 10
39.69505760110983
 20
14.32680442471363
 10
40.21144192637911
 20
14.34075502436218
 10
40.72854881250719
 20
14.33796367780357
 10
41.24421054164613
 20
14.31844185680745
 10
41.75626345947875
 20
14.28227179663517
 10
42.26255976616111
 20
14.22960504464461
 10
42.76097599107618
 20
14.16066247913892
 10
43.24942203996053
 20
14.07573348204042
 10
43.7258485154833
 20
13.97517380381291
 10
44.18825753817719
 20
13.85940565277843
 10
44.63470972903262
 20
13.72891445116238
 10
45.06333191484348
 20
13.58424741787894
 10
45.47232670717209
 20
13.42601157997546
 10
45.85997870304505
 20
13.25487050493788
 10
46.2246619804967
 20
13.07154201410597
 10
46.56484634298251
 20
12.87679487716789
 10
46.87910585987813
 20
12.67144632132078
 10
47.16612181992882
 20
12.45635737123012
 10
47.4246905771931
 20
12.23243025880961
 10
47.65372758686356
 20
12.0006042274278
 10
47.85227196039705
 20
11.76185158698288
 10
48.01949171495423
 20
11.51717386858547
 10
48.15468433683956
 20
11.26759713186032
 10
48.25728337612818
 20
11.01416835622024
 10
48.32685849081507
 20
10.75795049716728
 10
48.36311804971504
 20
10.50001812977476
 10
48.36590934544527
 20
10.24145305953052
 10
48.33522115356842
 20
9.98334000372364
 10
48.2711823877084
 20
9.726761449191883
 10
48.17406070127791
 20
9.472793607263554
 10
48.04426461506935
 20
9.222501768314515
 10
47.88233795202726
 20
8.976935660595302
 10
47.68895987505934
 20
8.737125213052394
 10
47.46494179631913
 20
8.504076223960367
 10
47.21122310731519
 20
8.278766700746018
 10
46.92886779727498
 20
8.062141028673067
 10
46.6190604506198
 20
7.855108006196104
 10
46.28310055346238
 20
7.65853596469438
 10
45.92239656563863
 20
7.473249843258287
 10
45.53846252105034
 20
7.300026161580831
 10
45.13290805385002
 20
7.139591758896699
 10
44.70743409944673
 20
6.992619721008225
 10
44.26382579054267
 20
6.859726115619395
 10
43.80394340251788
 20
6.741468592352333
 10
43.32971574264493
 20
6.638343260559011
 10
42.84313191002788
 20
6.55078271526932
 10
42.34623314054925
 20
6.479153682941728
 10
41.84110348851976
 20
6.423757163715194
 10
41.32986150006464
 20
6.384825218549863
 10
40.81465173833456
 20
6.362520950265192
 10
40.29763489629626
 20
6.356938481605865
 10
39.78097925341258
 20
6.368100893528648
 10
39.2668523633454
 20
6.39596146703856
 10
38.75741075874613
 20
6.440403138767351
 10
38.25479068175819
 20
6.501239871103408
 10
37.7611009169592
 20
6.578216201545615
 10
37.27841125708085
 20
6.67100917288667
 10
36.80874731925798
 20
6.779229668842873
 10
36.3540781002572
 20
6.902424081442518
 10
35.91631162187705
 20
7.040075279098857
 10
35.49728351216988
 20
7.191606188493352
 10
35.09875064863019
 20
7.356381095121946
 10
34.72238582730002
 20
7.533708858393111
 10
34.36976704486781
 20
7.722845886616426
 10
34.04237308759635
 20
7.922998555455563
 10
33.74157760284678
 20
8.133327641442008
 10
33.46864214468395
 20
8.352950840749201
  0
LWPOLYLINE
  5
FE
330
2
100
AcDbEntity
  8
0
100
AcDbPolyline
 90
       52
 70
   128
 43
0.0
 10
32.39918841846464
 20
10.2450263469143
 10
32.3890993734514
 20
10.42536513858442
 10
32.40307223619258
 20
10.68415923797073
 10
32.45051942468637
 20
10.94195848392536
 10
32.53124186874913
 20
11.1976815807499
 10
32.64490008765291
 20
11.45025565578612
 10
32.79101857597087
 20
11.69862157138521
 10
32.96898394508404
 20
11.94173763677781
 10
33.17804992839306
 20
12.17858368275966
 10
33.41733919857672
 20
12.40816684603473
 10
33.6858484323792
 20
12.62952384050609
 10
33.98245143556358
 20
12.84172630989738
 10
34.30590421844081
 20
13.0438843159167
 10
34.65484956949037
 20
13.23515008613168
 10
35.02782474618494
 20
13.41472063872749
 10
35.42326478070222
 20
13.58184359186862
 10
35.83951109728802
 20
13.73581762843557
 10
36.27481775520189
 20
13.87599713031244
 10
36.7273590723855
 20
14.00179397450165
 10
37.19523737319085
 20
14.11268017445451
 10
37.6764893438386
 20
14.20819133296442
 10
38.16909681032805
 20
14.28792651680737
 10
38.67099403170089
 20
14.35155117125191
 10
39.1800753421066
 20
14.39879851701454
 10
39.6942055510166
 20
14.42947052950683
 10
40.21122829511993
 20
14.44343832682108
 10
40.72897548122432
 20
14.44064327740327
 10
41.24527460497183
 20
14.42109749424807
 10
41.75796049488521
 20
14.38488277466817
 10
42.26488313310351
 20
14.33215083491029
 10
42.76391569848817
 20
14.26312300215573
 10
43.2529655753493
 20
14.17808873962994
 10
43.72998135787934
 20
14.07740483639409
 10
44.19296203823392
 20
13.96149340690107
 10
44.63996622902048
 20
13.83084091193629
 10
45.06911866719691
 20
13.68599497867811
 10
45.47861934902996
 20
13.5275634975053
 10
45.86675112584632
 20
13.35621084697715
 10
46.23188485347156
 20
13.1726555366117
 10
46.57249032275772
 20
12.9776677485527
 10
46.88713855608131
 20
12.77206524648025
 10
47.17450942961923
 20
12.55671027831022
 10
47.43339793969663
 20
12.3325062518395
 10
47.66271824946262
 20
12.10039352935877
 10
47.86150811256521
 20
11.86134559666843
 10
48.02893413369098
 20
11.61636520811038
 10
48.16429439341592
 20
11.36648001097487
 10
48.26702000172904
 20
11.11273769632939
 10
48.33668103570627
 20
10.85620295909317
 10
48.37298533230704
 20
10.59795153568132
 10
48.37577999633517
 20
10.33906679578919
 10
48.36848669760902
 20
10.24502636328029
  0
SPLINE
  5
FF
330
2
100
AcDbEntity
  8
0
100
AcDbSpline
210
0.0
220
0.0
230
1.0
 70
     8
 71
     3
 72
    14
 73
    10
 74
     0
 42
0.000000001
 43
0.0000000001
 40
-1.618941457152389
 40
-1.618941457152389
 40
-1.618941457152389
 40
-1.618941457152389
 40
-0.0020172432356349
 40
-0.0020172432356349
 40
-0.0020172432356349
 40
0.0
 40
0.0
 40
0.0
 40
1.0
 40
1.0
 40
1.0
 40
1.0
 10
35.37025985697647
 20
17.7206596138802
 30
0.0
 10
35.36653611011588
 20
17.71846172439422
 30
0.0
 10
35.3628123632552
 20
17.71626383490823
 30
0.0
 10
35.35908861639461
 20
17.71406594542225
 30
0.0
 10
35.35908397072038
 20
17.71406320337803
 30
0.0
 10
35.35907932504617
 20
17.71406046133381
 30
0.0
 10
35.35907467951409
 20
17.71405771803992
 30
0.0
 10
35.35677176828627
 20
17.71269779582519
 30
0.0
 10
35.3545037880375
 20
17.71103077479074
 30
0.0
 10
35.35226922459611
 20
17.70906873314527
 30
0.0
  0
SPLINE
  5
100
330
2
100
AcDbEntity
  8
0
100
AcDbSpline
210
0.0
220
0.0
230
1.0
 70
     8
 71
     3
 72
    14
 73
    10
 74
     0
 42
0.000000001
 43
0.0000000001
 40
0.0
 40
0.0
 40
0.0
 40
0.0
 40
1.0
 40
1.0
 40
1.0
 40
1.002191309531116
 40
1.002191309531116
 40
1.002191309531116
 40
2.631348696006614
 40
2.631348696006614
 40
2.631348696006614
 40
2.631348696006614
 10
45.41540591337001
 20
17.70906873314527
 30
0.0
 10
45.41318038184341
 20
17.71102284438578
 30
0.0
 10
45.4108859277156
 20
17.71270809570743
 30
0.0
 10
45.40860045845203
 20
17.71405771803987
 30
0.0
 10
45.40859545028144
 20
17.71406067548014
 30
0.0
 10
45.40859044215401
 20
17.71406363130879
 30
0.0
 10
45.40858543402658
 20
17.71406658713743
 30
0.0
 10
45.40486207697136
 20
17.71626413613691
 30
0.0
 10
45.40113871991612
 20
17.71846168513636
 30
0.0
 10
45.3974153628609
 20
17.72065923413584
 30
0.0
  0
ARC
  5
101
330
2
100
AcDbEntity
  8
0
100
AcDbCircle
 10
42.96317624324222
 20
10.08337624855676
 30
0.0
 40
5.030593884773057
100
AcDbArc
 50
55.77975900479504
 51
56.66504822838621
  0
SPLINE
  5
102
330
2
100
AcDbEntity
  8
0
100
AcDbSpline
210
0.0
220
0.0
230
1.0
 70
     8
 71
     3
 72
    12
 73
     8
 74
     0
 42
0.000000001
 43
0.0000000001
 40
0.0
 40
0.0
 40
0.0
 40
0.0
 40
0.2499999999999991
 40
0.2499999999999991
 40
0.4999999999999983
 40
0.4999999999999983
 40
1.0
 40
1.0
 40
1.0
 40
1.0
 10
45.85043388019725
 20
14.12483035118819
 30
0.0
 10
45.85001071563691
 20
14.13550501634509
 30
0.0
 10
45.84817766500884
 20
14.14694662721993
 30
0.0
 10
45.8419277959986
 20
14.17025064721133
 30
0.0
 10
45.83752231759396
 20
14.18197283913892
 30
0.0
 10
45.82150483557461
 20
14.21464391419027
 30
0.0
 10
45.80694894496802
 20
14.23309184895379
 30
0.0
 10
45.79225932111688
 20
14.24308365422075
 30
0.0
  0
LINE
  5
103
330
2
100
AcDbEntity
  8
0
100
AcDbLine
 10
45.88149290615216
 20
13.34109280321675
 30
0.0
 11
45.85043392319529
 21
14.12483029575753
 31
0.0
  0
LINE
  5
104
330
2
100
AcDbEntity
  8
0
100
AcDbLine
 10
34.91724115941282
 20
14.12483043804715
 30
0.0
 11
34.88607337647523
 21
13.33835240750841
 31
0.0
  0
SPLINE
  5
105
330
2
100
AcDbEntity
  8
0
100
AcDbSpline
210
0.0
220
0.0
230
1.0
 70
     8
 71
     3
 72
    12
 73
     8
 74
     0
 42
0.000000001
 43
0.0000000001
 40
0.0
 40
0.0
 40
0.0
 40
0.0
 40
0.2500000000000007
 40
0.2500000000000007
 40
0.5000000000000015
 40
0.5000000000000015
 40
1.0
 40
1.0
 40
1.0
 40
1.0
 10
34.97541581684914
 20
14.24308365422075
 30
0.0
 10
34.96807027642084
 20
14.23808725606349
 30
0.0
 10
34.96083058742339
 20
14.23112060221126
 30
0.0
 10
34.94717411098407
 20
14.21393768826263
 30
0.0
 10
34.94086570311566
 20
14.20381436523342
 30
0.0
 10
34.92483055830018
 20
14.17113624325085
 30
0.0
 10
34.91808765745952
 20
14.14618146168538
 30
0.0
 10
34.91724125776877
 20
14.12483035118819
 30
0.0
  0
ARC
  5
106
330
2
100
AcDbEntity
  8
0
100
AcDbCircle
 10
37.80606033113797
 20
10.08102388723068
 30
0.0
 40
5.033417199192074
100
AcDbArc
 50
123.3357132804229
 51
124.2198803784022
  0
LINE
  5
107
330
2
100
AcDbEntity
  8
0
100
AcDbLine
 10
46.29317615347001
 20
13.13756785866275
 30
0.0
 11
46.38211767607868
 21
16.12672898122946
 31
0.0
  0
SPLINE
  5
108
330
2
100
AcDbEntity
  8
0
100
AcDbSpline
210
0.0
220
0.0
230
1.0
 70
     8
 71
     3
 72
    10
 73
     6
 74
     0
 42
0.000000001
 43
0.0000000001
 40
0.0
 40
0.0
 40
0.0
 40
0.0
 40
0.4606780971495177
 40
0.9188600221323104
 40
1.0
 40
1.0
 40
1.0
 40
1.0
 10
45.41540577405445
 20
17.70906890459571
 30
0.0
 10
45.41718389130916
 20
17.7069663335256
 30
0.0
 10
45.42073049113713
 20
17.70277258411136
 30
0.0
 10
45.42276132324399
 20
17.69667511447727
 30
0.0
 10
45.42260026873786
 20
17.69306540225855
 30
0.0
 10
45.42257603838678
 20
17.69252232776443
 30
0.0
  0
SPLINE
  5
109
330
2
100
AcDbEntity
  8
0
100
AcDbSpline
210
0.0
220
0.0
230
1.0
 70
     8
 71
     3
 72
    10
 73
     6
 74
     0
 42
0.000000001
 43
0.0000000001
 40
0.0
 40
0.0
 40
0.0
 40
0.0
 40
0.0931744732952883
 40
0.5453994837890536
 40
1.0
 40
1.0
 40
1.0
 40
1.0
 10
35.34512736493176
 20
17.69252797470275
 30
0.0
 10
35.34510171254035
 20
17.6931508555233
 30
0.0
 10
35.34495155552284
 20
17.69679690648525
 30
0.0
 10
35.34700224490546
 20
17.70287107163685
 30
0.0
 10
35.35051039365299
 20
17.70699946528967
 30
0.0
 10
35.35226906297202
 20
17.70906906945336
 30
0.0
  0
LINE
  5
10A
330
2
100
AcDbEntity
  8
0
100
AcDbLine
 10
34.41058333190038
 20
13.11296367453013
 30
0.0
 11
34.40890098059618
 21
13.44540237241725
 31
0.0
  0
LINE
  5
10B
330
2
100
AcDbEntity
  8
0
100
AcDbLine
 10
34.2633801730961
 20
13.26003707129669
 30
0.0
 11
34.27249876168148
 21
13.56646684601674
 31
0.0
  0
LINE
  5
10C
330
2
100
AcDbEntity
  8
0
100
AcDbLine
 10
34.40890098059618
 20
13.44540237241725
 30
0.0
 11
34.39763531407417
 21
13.53034303694301
 31
0.0
  0
LINE
  5
10D
330
2
100
AcDbEntity
  8
0
100
AcDbLine
 10
46.35709175038791
 20
13.11296373299609
 30
0.0
 11
46.35877406060803
 21
13.44540239216928
 31
0.0
  0
LINE
  5
10E
330
2
100
AcDbEntity
  8
0
100
AcDbLine
 10
46.35877406060803
 20
13.44540239216928
 30
0.0
 11
46.37003992852499
 21
13.53034304668733
 31
0.0
  0
LINE
  5
10F
330
2
100
AcDbEntity
  8
0
100
AcDbLine
 10
46.49517648445423
 20
13.56646685880852
 30
0.0
 11
46.50406269289795
 21
13.26783867375633
 31
0.0
  0
SPLINE
  5
110
330
2
100
AcDbEntity
  8
0
100
AcDbSpline
210
0.0
220
0.0
230
1.0
 70
     8
 71
     3
 72
     8
 73
     4
 74
     0
 42
0.000000001
 43
0.0000000001
 40
0.0
 40
0.0
 40
0.0
 40
0.0
 40
1.0
 40
1.0
 40
1.0
 40
1.0
 10
34.1904674212307
 20
16.70291885726828
 30
0.0
 10
34.18933042166116
 20
16.70196093115848
 30
0.0
 10
34.18814441120689
 20
16.70063201173522
 30
0.0
 10
34.1869495313879
 20
16.69896756334807
 30
0.0
  0
SPLINE
  5
111
330
2
100
AcDbEntity
  8
0
100
AcDbSpline
210
0.0
220
0.0
230
1.0
 70
     8
 71
     3
 72
     8
 73
     4
 74
     0
 42
0.000000001
 43
0.0000000001
 40
0.0
 40
0.0
 40
0.0
 40
0.0
 40
1.0
 40
1.0
 40
1.0
 40
1.0
 10
34.19034704477122
 20
13.67308289182031
 30
0.0
 10
34.18820199276916
 20
14.68375817082966
 30
0.0
 10
34.18818470182149
 20
15.69372455465574
 30
0.0
 10
34.1904674212307
 20
16.70291885726828
 30
0.0
  0
LWPOLYLINE
  5
112
330
2
100
AcDbEntity
  8
0
100
AcDbPolyline
 90
        3
 70
   128
 43
0.0
 10
34.18646953014667
 20
13.5445823534925
 10
34.18792197469957
 20
13.59271908381401
 10
34.19034693481614
 20
13.67308286540481
  0
ARC
  5
113
330
2
100
AcDbEntity
  8
0
100
AcDbCircle
 10
36.46906169451247
 20
11.64473239574076
 30
0.0
 40
2.969790708246284
100
AcDbArc
 50
138.7393267519037
 51
140.2286685182946
  0
SPLINE
  5
114
330
2
100
AcDbEntity
  8
0
100
AcDbSpline
210
0.0
220
0.0
230
1.0
 70
     8
 71
     3
 72
    12
 73
     8
 74
     0
 42
0.000000001
 43
0.0000000001
 40
0.0
 40
0.0
 40
0.0
 40
0.0
 40
0.2499999999999984
 40
0.2499999999999984
 40
0.4999999999999968
 40
0.4999999999999968
 40
1.0
 40
1.0
 40
1.0
 40
1.0
 10
34.27249870365721
 20
13.5664669204267
 30
0.0
 10
34.272813698835
 20
13.57704790815037
 30
0.0
 10
34.27210747765964
 20
13.58629044513634
 30
0.0
 10
34.26878889776185
 20
13.6013079452986
 30
0.0
 10
34.26617796707037
 20
13.60695374870559
 30
0.0
 10
34.25619143653692
 20
13.6171046882859
 30
0.0
 10
34.24658123498151
 20
13.61462417332689
 30
0.0
 10
34.23661973252529
 20
13.60326747697979
 30
0.0
  0
ARC
  5
115
330
2
100
AcDbEntity
  8
0
100
AcDbCircle
 10
35.72242942157137
 20
15.53861616523494
 30
0.0
 40
1.924607302821116
100
AcDbArc
 50
142.9219213279918
 51
176.6744269369073
  0
SPLINE
  5
116
330
2
100
AcDbEntity
  8
0
100
AcDbSpline
210
0.0
220
0.0
230
1.0
 70
     8
 71
     3
 72
    12
 73
     8
 74
     0
 42
0.000000001
 43
0.0000000001
 40
0.0
 40
0.0
 40
0.0
 40
0.0
 40
0.25
 40
0.25
 40
0.5
 40
0.5
 40
1.0
 40
1.0
 40
1.0
 40
1.0
 10
46.53105540544073
 20
13.60326747697979
 30
0.0
 10
46.52607416019164
 20
13.60894638836618
 30
0.0
 10
46.52123038808372
 20
13.61244431879695
 30
0.0
 10
46.51224480114093
 20
13.61487000693137
 30
0.0
 10
46.50817688447861
 20
13.6137328445435
 30
0.0
 10
46.49817791045932
 20
13.60360093083704
 30
0.0
 10
46.49454639142239
 20
13.58763066043508
 30
0.0
 10
46.49517643430881
 20
13.5664669204267
 30
0.0
  0
ARC
  5
117
330
2
100
AcDbEntity
  8
0
100
AcDbCircle
 10
44.29942284743566
 20
11.64539895819331
 30
0.0
 40
2.968742456773799
100
AcDbArc
 50
39.77143416119393
 51
41.26130833640345
  0
LWPOLYLINE
  5
118
330
2
100
AcDbEntity
  8
0
100
AcDbPolyline
 90
        3
 70
   128
 43
0.0
 10
46.57732806125931
 20
13.67308290139104
 10
46.57878093830571
 20
13.62494608797951
 10
46.581205918306
 20
13.54458241225941
  0
SPLINE
  5
119
330
2
100
AcDbEntity
  8
0
100
AcDbSpline
210
0.0
220
0.0
230
1.0
 70
     8
 71
     3
 72
     8
 73
     4
 74
     0
 42
0.000000001
 43
0.0000000001
 40
0.0
 40
0.0
 40
0.0
 40
0.0
 40
1.0
 40
1.0
 40
1.0
 40
1.0
 10
46.57720771673532
 20
16.70291885726828
 30
0.0
 10
46.57949043607178
 20
15.69372458686342
 30
0.0
 10
46.57947314513436
 20
14.68375814135601
 30
0.0
 10
46.5773280931948
 20
13.67308289182026
 30
0.0
  0
SPLINE
  5
11A
330
2
100
AcDbEntity
  8
0
100
AcDbSpline
210
0.0
220
0.0
230
1.0
 70
     8
 71
     3
 72
     8
 73
     4
 74
     0
 42
0.000000001
 43
0.0000000001
 40
0.0
 40
0.0
 40
0.0
 40
0.0
 40
1.0
 40
1.0
 40
1.0
 40
1.0
 10
46.5807256065781
 20
16.69896756334807
 30
0.0
 10
46.57952160782183
 20
16.70064471426835
 30
0.0
 10
46.57834933061089
 20
16.70195704358969
 30
0.0
 10
46.57720771673532
 20
16.70291885726828
 30
0.0
  0
ARC
  5
11B
330
2
100
AcDbEntity
  8
0
100
AcDbCircle
 10
45.06508159999736
 20
15.54591524077975
 30
0.0
 40
1.904391346070217
100
AcDbArc
 50
3.140958273294976
 51
37.26268144350315
  0
ELLIPSE
  5
11C
330
2
100
AcDbEntity
  8
0
100
AcDbEllipse
 10
34.35070226876565
 20
13.48887883740303
 30
0.0
 11
0.0141877150757913
 21
0.0935978025170177
 31
0.0
210
0.0
220
0.0
230
1.0
 40
0.4926395442000001
 41
5.244502075586909
 42
6.218569152574259
  0
ELLIPSE
  5
11D
330
2
100
AcDbEntity
  8
0
100
AcDbEllipse
 10
46.41697286920443
 20
13.48887883740303
 30
0.0
 11
-0.0141877150757806
 21
0.0935978025170069
 31
0.0
210
0.0
220
0.0
230
1.0
 40
0.4926395442000001
 41
0.064616154605539
 42
1.038683231592516
  0
LINE
  5
11E
330
2
100
AcDbEntity
  8
0
100
AcDbLine
 10
46.38211767607868
 20
16.12672898122946
 30
0.0
 11
46.05613331421319
 21
16.41832934635738
 31
0.0
  0
LINE
  5
11F
330
2
100
AcDbEntity
  8
0
100
AcDbLine
 10
45.49367022999299
 20
16.90543666596255
 30
0.0
 11
46.05613331421319
 21
16.41832934635738
 31
0.0
  0
POLYLINE
  5
120
330
2
100
AcDbEntity
  8
0
100
AcDb2dPolyline
 66
     1
 10
0.0
 20
0.0
 30
0.0
 70
     2
  0
VERTEX
  5
121
330
120
100
AcDbEntity
  8
0
100
AcDbVertex
100
AcDb2dVertex
 10
31.15141114023862
 20
15.27930490376866
 30
0.0
 42
-0.0075046357953008
  0
VERTEX
  5
122
330
120
100
AcDbEntity
  8
0
100
AcDbVertex
100
AcDb2dVertex
 10
31.54581645974914
 20
17.23316475182241
 30
0.0
 42
-0.0093038450729515
 70
     1
  0
VERTEX
  5
123
330
120
100
AcDbEntity
  8
0
100
AcDbVertex
100
AcDb2dVertex
 10
31.91675140895996
 20
18.79764501016277
 30
0.0
 42
-0.0060571474132937
  0
VERTEX
  5
124
330
120
100
AcDbEntity
  8
0
100
AcDbVertex
100
AcDb2dVertex
 10
32.62500441001701
 20
21.42280097826429
 30
0.0
 42
-0.0156737875273936
 70
     1
  0
VERTEX
  5
125
330
120
100
AcDbEntity
  8
0
100
AcDbVertex
100
AcDb2dVertex
 10
32.94259241135394
 20
22.42465473786953
 30
0.0
 42
-0.1533351900742647
  0
VERTEX
  5
126
330
120
100
AcDbEntity
  8
0
100
AcDbVertex
100
AcDb2dVertex
 10
33.30806067619083
 20
22.91283635739734
 30
0.0
 42
-0.0594876533096156
 70
     1
  0
VERTEX
  5
127
330
120
100
AcDbEntity
  8
0
100
AcDbVertex
100
AcDb2dVertex
 10
34.656864092754
 20
23.65853508969238
 30
0.0
  0
SEQEND
  5
128
330
120
100
AcDbEntity
  8
0
  0
POLYLINE
  5
129
330
2
100
AcDbEntity
  8
0
100
AcDb2dPolyline
 66
     1
 10
0.0
 20
0.0
 30
0.0
  0
VERTEX
  5
12A
330
129
100
AcDbEntity
  8
0
100
AcDbVertex
100
AcDb2dVertex
 10
31.30059113406601
 20
15.17631928603177
 30
0.0
 42
-0.007783654312041
  0
VERTEX
  5
12B
330
129
100
AcDbEntity
  8
0
100
AcDbVertex
100
AcDb2dVertex
 10
31.70751109464632
 20
17.19799151342565
 30
0.0
 42
-0.0093038450729515
  0
VERTEX
  5
12C
330
129
100
AcDbEntity
  8
0
100
AcDbVertex
100
AcDb2dVertex
 10
32.07702544538692
 20
18.75648015985024
 30
0.0
 42
-0.0060571474132938
  0
VERTEX
  5
12D
330
129
100
AcDbEntity
  8
0
100
AcDbVertex
100
AcDb2dVertex
 10
32.7842341510023
 20
21.37776542298153
 30
0.0
 42
-0.0156737875273936
  0
VERTEX
  5
12E
330
129
100
AcDbEntity
  8
0
100
AcDbVertex
100
AcDb2dVertex
 10
33.09868793450025
 20
22.3697320712597
 30
0.0
 42
-0.1533351900742649
  0
VERTEX
  5
12F
330
129
100
AcDbEntity
  8
0
100
AcDbVertex
100
AcDb2dVertex
 10
33.40472869872769
 20
22.77853220603688
 30
0.0
 42
-0.0509345128744376
  0
VERTEX
  5
130
330
129
100
AcDbEntity
  8
0
100
AcDbVertex
100
AcDb2dVertex
 10
34.52047555637746
 20
23.42046653168438
 30
0.0
 42
-0.0594876533096158
  0
SEQEND
  5
131
330
129
100
AcDbEntity
  8
0
  0
ARC
  5
132
330
2
100
AcDbEntity
  8
0
100
AcDbCircle
 10
35.3787429342985
 20
12.79724936344735
 30
0.0
 40
4.72136588311959
100
AcDbArc
 50
101.1435686342385
 51
149.742011042541
  0
ARC
  5
133
330
2
100
AcDbEntity
  8
0
100
AcDbCircle
 10
35.3787429342985
 20
12.79724936344735
 30
0.0
 40
4.647820987411513
100
AcDbArc
 50
101.3222118042196
 51
149.742011042541
  0
ELLIPSE
  5
134
330
2
100
AcDbEntity
  8
0
100
AcDbEllipse
 10
22.60719467886716
 20
11.96377135956649
 30
0.0
 11
0.0
 21
0.3466022707582251
 31
0.0
210
0.0
220
0.0
230
1.0
 40
0.4578919007023706
 41
1.544051192368964
 42
6.835944686399921
  0
ELLIPSE
  5
135
330
2
100
AcDbEntity
  8
0
100
AcDbEllipse
 10
22.86539696521336
 20
11.973844252573
 30
0.0
 11
-0.1836789319900153
 21
-0.0293294921394201
 31
0.0
210
0.0
220
0.0
230
1.0
 40
0.6407620893900635
 41
0.0
 42
6.283185307179585
  0
SPLINE
  5
136
330
2
100
AcDbEntity
  8
0
100
AcDbSpline
210
0.0
220
0.0
230
1.0
 70
     8
 71
     3
 72
    18
 73
    14
 74
     0
 42
0.000000001
 43
0.0000000001
 40
0.0
 40
0.0
 40
0.0
 40
0.0
 40
0.017240850539708
 40
0.0869954013194637
 40
0.156458455881764
 40
0.2319526734019552
 40
0.3152269825211567
 40
0.4012950271655964
 40
0.4863045222327322
 40
0.5703556669964252
 40
0.653958151200616
 40
0.737581728815174
 40
0.8167648045512748
 40
0.8167648045512748
 40
0.8167648045512748
 40
0.8167648045512748
 10
23.1088130356799
 20
12.9153989659338
 30
0.0
 10
23.12878517890991
 20
12.92190815252101
 30
0.0
 10
23.14535677798804
 20
12.92351152234968
 30
0.0
 10
23.19495577459079
 20
12.95987524238998
 30
0.0
 10
23.24710328417669
 20
13.02138486498902
 30
0.0
 10
23.28463026821546
 20
13.1045201013022
 30
0.0
 10
23.30821369271681
 20
13.20866067106644
 30
0.0
 10
23.31572997378422
 20
13.33222971261293
 30
0.0
 10
23.30672242651727
 20
13.46752561604384
 30
0.0
 10
23.28226540948677
 20
13.60743549472076
 30
0.0
 10
23.24377199122356
 20
13.7465058831568
 30
0.0
 10
23.19381100666206
 20
13.87688461219054
 30
0.0
 10
23.15426921380063
 20
13.95559883485779
 30
0.0
 10
23.13380178560183
 20
13.99140861376449
 30
0.0
  0
SPLINE
  5
137
330
2
100
AcDbEntity
  8
0
100
AcDbSpline
210
0.0
220
0.0
230
1.0
 70
     8
 71
     3
 72
    12
 73
     8
 74
     0
 42
0.000000001
 43
0.0000000001
 40
0.943717923561317
 40
0.943717923561317
 40
0.943717923561317
 40
0.943717923561317
 40
0.9638797392329683
 40
0.9638797392329683
 40
0.9638797392329683
 40
0.9888533531979323
 40
1.0
 40
1.0
 40
1.0
 40
1.0
 10
23.02687591372623
 20
14.14258951368114
 30
0.0
 10
23.02081069224775
 20
14.14938001461379
 30
0.0
 10
23.01468545406945
 20
14.15594331087831
 30
0.0
 10
23.00849985033543
 20
14.1622780818146
 30
0.0
 10
23.00083799674499
 20
14.1701247026991
 30
0.0
 10
22.98962241874929
 20
14.1809664444298
 30
0.0
 10
22.97821428863395
 20
14.19102629202538
 30
0.0
 10
22.97469376042128
 20
14.19413074270355
 30
0.0
  0
LINE
  5
138
330
2
100
AcDbEntity
  8
0
100
AcDbLine
 10
23.0273307658226
 20
12.89187706070785
 30
0.0
 11
23.10881303568018
 21
12.91539896593369
 31
0.0
  0
LINE
  5
139
330
2
100
AcDbEntity
  8
0
100
AcDbLine
 10
22.97469376041951
 20
14.19413074270548
 30
0.0
 11
22.71948471028819
 21
14.41405360039025
 31
0.0
  0
SPLINE
  5
13A
330
2
100
AcDbEntity
  8
0
100
AcDbSpline
210
0.0
220
0.0
230
1.0
 70
     8
 71
     3
 72
    12
 73
     8
 74
     0
 42
0.000000001
 43
0.0000000001
 40
0.0
 40
0.0
 40
0.0
 40
0.0
 40
0.0400550096553744
 40
0.2991015524225178
 40
0.5650594950903657
 40
0.7950481104558082
 40
1.0
 40
1.0
 40
1.0
 40
1.0
 10
7.840687078244542
 20
9.418839418031751
 30
0.0
 10
7.837451973273488
 20
9.415595555102157
 30
0.0
 10
7.813294572554838
 20
9.391372756345475
 30
0.0
 10
7.787012426295092
 20
9.330007037003355
 30
0.0
 10
7.772937909910211
 20
9.248247518534384
 30
0.0
 10
7.786477965904083
 20
9.172102116160516
 30
0.0
 10
7.813947387750346
 20
9.135059435715078
 30
0.0
 10
7.826891479754664
 20
9.117604249855133
 30
0.0
  0
SPLINE
  5
13B
330
2
100
AcDbEntity
  8
0
100
AcDbSpline
210
0.0
220
0.0
230
1.0
 70
     8
 71
     3
 72
    11
 73
     7
 74
     0
 42
0.000000001
 43
0.0000000001
 40
0.0
 40
0.0
 40
0.0
 40
0.0
 40
0.1913946887443772
 40
0.4660174995096198
 40
0.7508366158090582
 40
1.0
 40
1.0
 40
1.0
 40
1.0
 10
8.088721850414373
 20
9.523816477781878
 30
0.0
 10
8.071451140847244
 20
9.525982830638525
 30
0.0
 10
8.029399540878927
 20
9.531257576494539
 30
0.0
 10
7.960382876910585
 20
9.514618974368517
 30
0.0
 10
7.890910221135214
 20
9.477121818324434
 30
0.0
 10
7.85666592521548
 20
9.437382374560996
 30
0.0
 10
7.840687078244542
 20
9.418839418031751
 30
0.0
  0
LINE
  5
13C
330
2
100
AcDbEntity
  8
0
100
AcDbLine
 10
8.210100616204186
 20
9.459007721227948
 30
0.0
 11
8.166034543844062
 21
9.488771506907909
 31
0.0
  0
LINE
  5
13D
330
2
100
AcDbEntity
  8
0
100
AcDbLine
 10
7.826384322155462
 20
9.116649291950096
 30
0.0
 11
7.871329181033473
 21
9.067828162669883
 31
0.0
  0
SPLINE
  5
13E
330
2
100
AcDbEntity
  8
0
100
AcDbSpline
210
0.0
220
0.0
230
1.0
 70
     8
 71
     3
 72
     9
 73
     5
 74
     0
 42
0.000000001
 43
0.0000000001
 40
0.0
 40
0.0
 40
0.0
 40
0.0
 40
0.7787715758955957
 40
1.0
 40
1.0
 40
1.0
 40
1.0
 10
19.40114892660759
 20
12.80004450833311
 30
0.0
 10
19.35698663398435
 20
12.76543753106952
 30
0.0
 10
19.33674333820514
 20
12.74876423541954
 30
0.0
 10
19.30532061072714
 20
12.70264626865341
 30
0.0
 10
19.286762743178
 20
12.65897142876733
 30
0.0
  0
SPLINE
  5
13F
330
2
100
AcDbEntity
  8
0
100
AcDbSpline
210
0.0
220
0.0
230
1.0
 70
     8
 71
     3
 72
    11
 73
     7
 74
     0
 42
0.000000001
 43
0.0000000001
 40
0.0
 40
0.0
 40
0.0
 40
0.0
 40
0.1816716358079484
 40
0.4720495812117186
 40
0.7674114883819828
 40
1.0
 40
1.0
 40
1.0
 40
1.0
 10
19.64125608303621
 20
12.81508966725832
 30
0.0
 10
19.63122205321329
 20
12.82128493764602
 30
0.0
 10
19.59370835090331
 20
12.84211075054904
 30
0.0
 10
19.52794881929949
 20
12.84747801319858
 30
0.0
 10
19.45842524661148
 20
12.83582484862776
 30
0.0
 10
19.41866520813906
 20
12.81098687533299
 30
0.0
 10
19.40114892660759
 20
12.80004450833311
 30
0.0
  0
SPLINE
  5
140
330
2
100
AcDbEntity
  8
0
100
AcDbSpline
210
0.0
220
0.0
230
1.0
 70
     8
 71
     3
 72
    11
 73
     7
 74
     0
 42
0.000000001
 43
0.0000000001
 40
0.0
 40
0.0
 40
0.0
 40
0.0
 40
0.2697517538920862
 40
0.5854360404777701
 40
0.8895270626030809
 40
1.0
 40
1.0
 40
1.0
 40
1.0
 10
19.286762743178
 20
12.65897142876733
 30
0.0
 10
19.27908243503307
 20
12.63767145657388
 30
0.0
 10
19.26241403853501
 20
12.59144461577156
 30
0.0
 10
19.26885147371209
 20
12.51987297288096
 30
0.0
 10
19.28745800484321
 20
12.46281841855816
 30
0.0
 10
19.31176665891522
 20
12.44123780395998
 30
0.0
 10
19.31824442515099
 20
12.43548700524533
 30
0.0
  0
LINE
  5
141
330
2
100
AcDbEntity
  8
0
100
AcDbLine
 10
19.69910066988674
 20
12.77559635808742
 30
0.0
 11
19.64125608303638
 21
12.81508966725798
 31
0.0
  0
LINE
  5
142
330
2
100
AcDbEntity
  8
0
100
AcDbLine
 10
19.31776183734681
 20
12.43591545964577
 30
0.0
 11
19.36032923471609
 21
12.38441679952936
 31
0.0
  0
LINE
  5
143
330
2
100
AcDbEntity
  8
0
100
AcDbLine
 10
19.36032923471609
 20
12.38441679952936
 30
0.0
 11
19.39325990203238
 21
12.35589800510044
 31
0.0
  0
LINE
  5
144
330
2
100
AcDbEntity
  8
0
100
AcDbLine
 10
19.7320313372031
 20
12.74707756365851
 30
0.0
 11
19.69910066988674
 21
12.77559635808742
 31
0.0
  0
LINE
  5
145
330
2
100
AcDbEntity
  8
0
100
AcDbLine
 10
7.871329181033473
 20
9.067828162669883
 30
0.0
 11
7.904259848349823
 21
9.03930936824085
 31
0.0
  0
LINE
  5
146
330
2
100
AcDbEntity
  8
0
100
AcDbLine
 10
8.24303128352048
 20
9.430488926798915
 30
0.0
 11
8.210100616204186
 21
9.459007721227948
 31
0.0
  0
LINE
  5
147
330
2
100
AcDbEntity
  8
0
100
AcDbLine
 10
19.34706379724068
 20
12.30255533802423
 30
0.0
 11
19.37058570246662
 21
12.28218477054813
 31
0.0
  0
LINE
  5
148
330
2
100
AcDbEntity
  8
0
100
AcDbLine
 10
25.79173568636921
 20
13.11336734810638
 30
0.0
 11
25.38537157290077
 21
13.4652889935721
 31
0.0
  0
LINE
  5
149
330
2
100
AcDbEntity
  8
0
100
AcDbLine
 10
25.32322591954264
 20
13.5191087081258
 30
0.0
 11
25.21018469252116
 21
13.61700528237358
 31
0.0
  0
LINE
  5
14A
330
2
100
AcDbEntity
  8
0
100
AcDbLine
 10
24.48819828397424
 20
14.24226385338815
 30
0.0
 11
23.73449032542803
 21
14.89499409251991
 31
0.0
  0
LINE
  5
14B
330
2
100
AcDbEntity
  8
0
100
AcDbLine
 10
23.59837270112789
 20
15.01287541306598
 30
0.0
 11
23.27892478782215
 21
15.2895254211729
 31
0.0
  0
LINE
  5
14C
330
2
100
AcDbEntity
  8
0
100
AcDbLine
 10
23.21760082897995
 20
15.34263352739069
 30
0.0
 11
22.45162514428372
 21
16.00598792901493
 31
0.0
  0
LINE
  5
14D
330
2
100
AcDbEntity
  8
0
100
AcDbLine
 10
22.36703900072919
 20
16.00386342945305
 30
0.0
 11
4.603904165942793
 21
10.87608809019499
 31
0.0
  0
LINE
  5
14E
330
2
100
AcDbEntity
  8
0
100
AcDbLine
 10
22.42573704857895
 20
11.99279249994978
 30
0.0
 11
22.57858865641813
 21
11.86041912455172
 31
0.0
  0
LINE
  5
14F
330
2
100
AcDbEntity
  8
0
100
AcDbLine
 10
22.87112323059623
 20
11.60707675182774
 30
0.0
 11
25.70661897476995
 21
9.151465405046991
 31
0.0
  0
LINE
  5
150
330
2
100
AcDbEntity
  8
0
100
AcDbLine
 10
26.51780061738552
 20
9.398724330131329
 30
0.0
 11
26.51780061738552
 21
9.439465465083657
 31
0.0
  0
LINE
  5
151
330
2
100
AcDbEntity
  8
0
100
AcDbLine
 10
5.815001391238723
 20
4.201779303845995
 30
0.0
 11
25.02026848329618
 21
9.745862366565205
 31
0.0
  0
LINE
  5
152
330
2
100
AcDbEntity
  8
0
100
AcDbLine
 10
1.700809285247459
 20
6.023601566709402
 30
0.0
 11
1.700809285247459
 21
5.982860431756961
 31
0.0
  0
LINE
  5
153
330
2
100
AcDbEntity
  8
0
100
AcDbLine
 10
22.90780183797213
 20
11.51314019438993
 30
0.0
 11
23.04893326932782
 21
11.39091678953295
 31
0.0
  0
ARC
  5
154
330
2
100
AcDbEntity
  8
0
100
AcDbCircle
 10
22.62006327448418
 20
13.31706086985227
 30
0.0
 40
0.1159184540799964
100
AcDbArc
 50
287.2086421099032
 51
357.1690928843015
  0
LINE
  5
155
330
2
100
AcDbEntity
  8
0
100
AcDbLine
 10
22.65435799656072
 20
13.20633165041224
 30
0.0
 11
22.57287572665607
 21
13.18280974518629
 31
0.0
  0
LINE
  5
156
330
2
100
AcDbEntity
  8
0
100
AcDbLine
 10
22.57287572665607
 20
13.30398448743196
 30
0.0
 11
22.57287572665607
 21
13.18280974518629
 31
0.0
  0
ELLIPSE
  5
157
330
2
100
AcDbEntity
  8
0
100
AcDbEllipse
 10
22.53213459170357
 20
13.29222353481904
 30
0.0
 11
0.0307973294529781
 21
0.0355618836394096
 31
0.0
210
0.0
220
0.0
230
1.0
 40
0.7500001676000001
 41
5.569458163343826
 42
7.14025449013853
  0
LINE
  5
158
330
2
100
AcDbEntity
  8
0
100
AcDbLine
 10
22.49139345675141
 20
13.32120378090278
 30
0.0
 11
22.53213459170374
 21
13.33296473351569
 31
0.0
  0
ELLIPSE
  5
159
330
2
100
AcDbEntity
  8
0
100
AcDbEllipse
 10
22.49139345675136
 20
13.28046258220601
 30
0.0
 11
0.0307973294529781
 21
0.0355618836394096
 31
0.0
210
0.0
220
0.0
230
1.0
 40
0.7500001676000001
 41
0.8570691829591911
 42
2.003944435669186
  0
LINE
  5
15A
330
2
100
AcDbEntity
  8
0
100
AcDbLine
 10
22.73584026641831
 20
14.37526523372841
 30
0.0
 11
22.73584026641831
 21
13.31133582549577
 31
0.0
  0
LINE
  5
15B
330
2
100
AcDbEntity
  8
0
100
AcDbLine
 10
22.57287572665607
 20
13.18280974518629
 30
0.0
 11
22.83161668414161
 21
12.95873350299561
 31
0.0
  0
LWPOLYLINE
  5
15C
330
2
100
AcDbEntity
  8
0
100
AcDbPolyline
 90
        6
 70
   128
 43
0.0
 10
22.80642068385143
 20
13.77577203175176
 10
22.81540487305918
 20
13.87165110386806
 10
22.84018416111107
 20
13.93692413970311
 10
22.87857415649947
 20
13.97398529187077
 10
22.92719063038541
 20
13.97956747424231
 10
22.93598688577342
 20
13.97531279779079
  0
LWPOLYLINE
  5
15D
330
2
100
AcDbEntity
  8
0
100
AcDbPolyline
 90
       16
 70
   128
 43
0.0
 10
23.07796600316001
 20
13.83410752805886
 10
23.08934706267402
 20
13.81640609155735
 10
23.13290376314276
 20
13.7180794995763
 10
23.1642667886226
 20
13.61083303823759
 10
23.18067136529359
 20
13.50412090426161
 10
23.18067136529359
 20
13.40735019123573
 10
23.1642667886226
 20
13.32905161750725
 10
23.13290376314276
 20
13.27612750979765
 10
23.08934706267402
 20
13.2532433360644
 10
23.03743638143223
 20
13.26241642597651
 10
22.98174784976763
 20
13.30283813571393
 10
22.92719063038541
 20
13.37094513284202
 10
22.87857415649947
 20
13.46073351808897
 10
22.84018416111107
 20
13.56428809281837
 10
22.81540487305918
 20
13.67248011451826
 10
22.80642068385143
 20
13.77577203175176
  0
ARC
  5
15E
330
2
100
AcDbEntity
  8
0
100
AcDbCircle
 10
22.40243888018776
 20
14.23838087698479
 30
0.0
 40
0.1128724775239949
100
AcDbArc
 50
107.1423691898988
 51
134.6372710726979
  0
LINE
  5
15F
330
2
100
AcDbEntity
  8
0
100
AcDbLine
 10
22.40057735912447
 20
14.35530553899318
 30
0.0
 11
22.36917005194161
 21
14.34623903036149
 31
0.0
  0
ELLIPSE
  5
160
330
2
100
AcDbEntity
  8
0
100
AcDbEllipse
 10
22.49139345675136
 20
14.25825135045588
 30
0.0
 11
0.0307973294529781
 21
0.0355618836394096
 31
0.0
210
0.0
220
0.0
230
1.0
 40
0.7500001676000001
 41
2.800948330241953
 42
3.998661836548997
  0
LINE
  5
161
330
2
100
AcDbEntity
  8
0
100
AcDbLine
 10
22.49139345675141
 20
14.21751015180618
 30
0.0
 11
22.53213459170374
 21
14.22927110441921
 31
0.0
  0
ELLIPSE
  5
162
330
2
100
AcDbEntity
  8
0
100
AcDbEllipse
 10
22.53213459170357
 20
14.27001230306891
 30
0.0
 11
0.0307973294529781
 21
0.0355618836394096
 31
0.0
210
0.0
220
0.0
230
1.0
 40
0.7500001676000001
 41
3.998661836549243
 42
5.56945816334399
  0
LINE
  5
163
330
2
100
AcDbEntity
  8
0
100
AcDbLine
 10
22.66492730921161
 20
14.43161679640363
 30
0.0
 11
22.57287572665607
 21
14.4050437934263
 31
0.0
  0
ARC
  5
164
330
2
100
AcDbEntity
  8
0
100
AcDbCircle
 10
22.67614215837571
 20
14.37293528373513
 30
0.0
 40
0.059743558404542
100
AcDbArc
 50
357.7649448217996
 51
100.8195485964816
  0
LINE
  5
165
330
2
100
AcDbEntity
  8
0
100
AcDbLine
 10
22.57287572665607
 20
14.4050437934263
 30
0.0
 11
22.57287572665607
 21
14.28177325568183
 31
0.0
  0
ARC
  5
166
330
2
100
AcDbEntity
  8
0
100
AcDbCircle
 10
22.9889206043521
 20
13.09932877171556
 30
0.0
 40
0.2109776122978122
100
AcDbArc
 50
221.7897421463986
 51
280.4896553037028
  0
LINE
  5
167
330
2
100
AcDbEntity
  8
0
100
AcDbLine
 10
23.87993976115095
 20
13.45148360478762
 30
0.0
 11
24.91493346828767
 21
13.75026055256396
 31
0.0
  0
LINE
  5
168
330
2
100
AcDbEntity
  8
0
100
AcDbLine
 10
25.38537157294783
 20
13.3428492030408
 30
0.0
 11
24.91493346828767
 21
13.75026055256396
 31
0.0
  0
LINE
  5
169
330
2
100
AcDbEntity
  8
0
100
AcDbLine
 10
25.38537157294783
 20
13.3428492030408
 30
0.0
 11
24.33156034153635
 21
13.03864010397828
 31
0.0
  0
LINE
  5
16A
330
2
100
AcDbEntity
  8
0
100
AcDbLine
 10
23.96994114341257
 20
14.01388970927982
 30
0.0
 11
24.65419020457401
 21
14.0375865567
 31
0.0
  0
LINE
  5
16B
330
2
100
AcDbEntity
  8
0
100
AcDbLine
 10
24.65419020457401
 20
14.0375865567
 30
0.0
 11
24.65419020466808
 21
13.75647272560442
 31
0.0
  0
LINE
  5
16C
330
2
100
AcDbEntity
  8
0
100
AcDbLine
 10
23.96994114350659
 20
13.73277587823119
 30
0.0
 11
24.65419020466808
 21
13.75647272560442
 31
0.0
  0
LINE
  5
16D
330
2
100
AcDbEntity
  8
0
100
AcDbLine
 10
23.78820433076973
 20
13.60319733115975
 30
0.0
 11
23.87196041395063
 21
13.5306624354823
 31
0.0
  0
LINE
  5
16E
330
2
100
AcDbEntity
  8
0
100
AcDbLine
 10
23.78419689507322
 20
13.63489415853698
 30
0.0
 11
23.92512589526607
 21
13.71983883040397
 31
0.0
  0
LINE
  5
16F
330
2
100
AcDbEntity
  8
0
100
AcDbLine
 10
23.92512589526607
 20
13.71983883040397
 30
0.0
 11
23.96994114350659
 21
13.73277587823119
 31
0.0
  0
LINE
  5
170
330
2
100
AcDbEntity
  8
0
100
AcDbLine
 10
24.65419020466808
 20
13.75647272560442
 30
0.0
 11
23.87196041395063
 21
13.5306624354823
 31
0.0
  0
LINE
  5
171
330
2
100
AcDbEntity
  8
0
100
AcDbLine
 10
24.88641467390565
 20
14.3572190233078
 30
0.0
 11
23.89640509480912
 21
14.07142787476536
 31
0.0
  0
LINE
  5
172
330
2
100
AcDbEntity
  8
0
100
AcDbLine
 10
24.88641467390565
 20
14.08017930564139
 30
0.0
 11
24.88641467390565
 21
14.3572190233078
 31
0.0
  0
LINE
  5
173
330
2
100
AcDbEntity
  8
0
100
AcDbLine
 10
24.73974658800208
 20
14.03783987618769
 30
0.0
 11
24.88641467390565
 21
14.08017930564139
 31
0.0
  0
LINE
  5
174
330
2
100
AcDbEntity
  8
0
100
AcDbLine
 10
24.73974658800208
 20
13.85043065556701
 30
0.0
 11
24.73974658800208
 21
14.03783987618769
 31
0.0
  0
LINE
  5
175
330
2
100
AcDbEntity
  8
0
100
AcDbLine
 10
24.91493346838169
 20
13.90100275184986
 30
0.0
 11
24.73974658800208
 21
13.85043065556701
 31
0.0
  0
LINE
  5
176
330
2
100
AcDbEntity
  8
0
100
AcDbLine
 10
24.91493346828767
 20
13.75026055256396
 30
0.0
 11
24.91493346838169
 21
13.90100275184986
 31
0.0
  0
LINE
  5
177
330
2
100
AcDbEntity
  8
0
100
AcDbLine
 10
24.91493346838169
 20
13.90100275184986
 30
0.0
 11
24.95256851674324
 21
13.86840984380327
 31
0.0
  0
LINE
  5
178
330
2
100
AcDbEntity
  8
0
100
AcDbLine
 10
24.95256851674324
 20
13.77063111994593
 30
0.0
 11
24.95256851674324
 21
13.86840984380327
 31
0.0
  0
LINE
  5
179
330
2
100
AcDbEntity
  8
0
100
AcDbLine
 10
24.95256851674324
 20
13.77063111994593
 30
0.0
 11
25.34773652453927
 21
13.4284055864218
 31
0.0
  0
LINE
  5
17A
330
2
100
AcDbEntity
  8
0
100
AcDbLine
 10
25.34773652453927
 20
13.52618431027915
 30
0.0
 11
25.34773652453927
 21
13.4284055864218
 31
0.0
  0
LINE
  5
17B
330
2
100
AcDbEntity
  8
0
100
AcDbLine
 10
25.34773652453927
 20
13.52618431027915
 30
0.0
 11
25.38537157290077
 21
13.49359140242083
 31
0.0
  0
LINE
  5
17C
330
2
100
AcDbEntity
  8
0
100
AcDbLine
 10
25.38537157290077
 20
13.49359140242083
 30
0.0
 11
25.38537157294783
 21
13.3428492030408
 31
0.0
  0
LINE
  5
17D
330
2
100
AcDbEntity
  8
0
100
AcDbLine
 10
24.77738163636363
 20
14.0052469682823
 30
0.0
 11
24.73974658800208
 21
14.03783987618769
 31
0.0
  0
LINE
  5
17E
330
2
100
AcDbEntity
  8
0
100
AcDbLine
 10
24.77738163636363
 20
14.0052469682823
 30
0.0
 11
24.77738163636363
 21
13.86129495823351
 31
0.0
  0
LINE
  5
17F
330
2
100
AcDbEntity
  8
0
100
AcDbLine
 10
25.35685277847185
 20
13.9498076738316
 30
0.0
 11
25.35685277842478
 21
13.67276795621237
 31
0.0
  0
LINE
  5
180
330
2
100
AcDbEntity
  8
0
100
AcDbLine
 10
25.31921772996915
 20
13.70536086416481
 30
0.0
 11
25.35685277842478
 21
13.67276795621237
 31
0.0
  0
LINE
  5
181
330
2
100
AcDbEntity
  8
0
100
AcDbLine
 10
25.31921772996915
 20
13.8275842690218
 30
0.0
 11
25.31921772996915
 21
13.70536086416481
 31
0.0
  0
LINE
  5
182
330
2
100
AcDbEntity
  8
0
100
AcDbLine
 10
25.31921772996915
 20
13.8275842690218
 30
0.0
 11
24.92404972217312
 21
14.16980980254592
 31
0.0
  0
LINE
  5
183
330
2
100
AcDbEntity
  8
0
100
AcDbLine
 10
24.92404972217312
 20
14.04758639768894
 30
0.0
 11
24.88641467390565
 21
14.08017930564139
 31
0.0
  0
LINE
  5
184
330
2
100
AcDbEntity
  8
0
100
AcDbLine
 10
25.35685277847185
 20
13.9498076738316
 30
0.0
 11
24.88641467390565
 21
14.3572190233078
 31
0.0
  0
LINE
  5
185
330
2
100
AcDbEntity
  8
0
100
AcDbLine
 10
24.92404972217312
 20
14.04758639768894
 30
0.0
 11
24.92404972217312
 21
14.16980980254592
 31
0.0
  0
LINE
  5
186
330
2
100
AcDbEntity
  8
0
100
AcDbLine
 10
24.92404972217312
 20
14.04758639768894
 30
0.0
 11
24.77738163636363
 21
14.0052469682823
 31
0.0
  0
LINE
  5
187
330
2
100
AcDbEntity
  8
0
100
AcDbLine
 10
23.96994114341257
 20
14.01388970927982
 30
0.0
 11
23.92512589526607
 21
14.00095266149967
 31
0.0
  0
LINE
  5
188
330
2
100
AcDbEntity
  8
0
100
AcDbLine
 10
23.78419689512029
 20
13.91600798963267
 30
0.0
 11
23.92512589526607
 21
14.00095266149967
 31
0.0
  0
LINE
  5
189
330
2
100
AcDbEntity
  8
0
100
AcDbLine
 10
25.31921772996915
 20
13.8275842690218
 30
0.0
 11
24.99490794610293
 21
13.73396409851713
 31
0.0
  0
LINE
  5
18A
330
2
100
AcDbEntity
  8
0
100
AcDbLine
 10
25.26305766572582
 20
13.50173962932658
 30
0.0
 11
25.34773652453927
 21
13.52618431027915
 31
0.0
  0
LINE
  5
18B
330
2
100
AcDbEntity
  8
0
100
AcDbLine
 10
25.1725496441596
 20
13.66302143475806
 30
0.0
 11
25.31921772996915
 21
13.70536086416481
 31
0.0
  0
LINE
  5
18C
330
2
100
AcDbEntity
  8
0
100
AcDbLine
 10
25.17254964420667
 20
13.58012187522328
 30
0.0
 11
25.1725496441596
 21
13.66302143475806
 31
0.0
  0
LINE
  5
18D
330
2
100
AcDbEntity
  8
0
100
AcDbLine
 10
25.1725496441596
 20
13.66302143475806
 30
0.0
 11
25.21018469252116
 21
13.63042852680562
 31
0.0
  0
LINE
  5
18E
330
2
100
AcDbEntity
  8
0
100
AcDbLine
 10
25.21018469252116
 20
13.54752896727083
 30
0.0
 11
25.21018469252116
 21
13.63042852680562
 31
0.0
  0
LINE
  5
18F
330
2
100
AcDbEntity
  8
0
100
AcDbLine
 10
25.21018469252116
 20
13.63042852680562
 30
0.0
 11
25.35685277842478
 21
13.67276795621237
 31
0.0
  0
LINE
  5
190
330
2
100
AcDbEntity
  8
0
100
AcDbLine
 10
24.44937962806645
 20
13.03060272734396
 30
0.0
 11
24.41296423410049
 21
13.06213938362472
 31
0.0
  0
LINE
  5
191
330
2
100
AcDbEntity
  8
0
100
AcDbLine
 10
24.74145963496497
 20
13.06462126518258
 30
0.0
 11
24.69664438653623
 21
13.05168421730829
 31
0.0
  0
LINE
  5
192
330
2
100
AcDbEntity
  8
0
100
AcDbLine
 10
24.69664438653623
 20
13.05168421730829
 30
0.0
 11
24.47905139906399
 21
13.03313250613402
 31
0.0
  0
LINE
  5
193
330
2
100
AcDbEntity
  8
0
100
AcDbLine
 10
24.45630304132905
 20
13.0311930090381
 30
0.0
 11
24.44937962806645
 21
13.03060272734396
 31
0.0
  0
LINE
  5
194
330
2
100
AcDbEntity
  8
0
100
AcDbLine
 10
24.94501799306906
 20
13.21573007410776
 30
0.0
 11
24.74145963496497
 21
13.06462126518258
 31
0.0
  0
LINE
  5
195
330
2
100
AcDbEntity
  8
0
100
AcDbLine
 10
24.43430282841527
 20
13.02484209458006
 30
0.0
 11
24.39666778000671
 21
13.05743500253251
 31
0.0
  0
LWPOLYLINE
  5
196
330
2
100
AcDbEntity
  8
0
100
AcDbPolyline
 90
       11
 70
   128
 43
0.0
 10
19.39325990203238
 20
12.35589800510044
 10
19.41444230863831
 20
12.34063988594889
 10
19.48516233238953
 20
12.31886686152072
 10
19.56634690341636
 20
12.32851058171147
 10
19.64703159556936
 20
12.36826860866151
 10
19.71631949404846
 20
12.43277140056315
 10
19.76485288428418
 20
12.51330749792552
 10
19.78607706292408
 20
12.59900005455549
 10
19.7771255870883
 20
12.67827581577555
 10
19.73920740320133
 20
12.74042815086008
 10
19.7320313372031
 20
12.74707756365851
  0
LWPOLYLINE
  5
197
330
2
100
AcDbEntity
  8
0
100
AcDbPolyline
 90
       10
 70
   128
 43
0.0
 10
7.904259848349823
 20
9.03930936824085
 10
7.956513913513475
 20
9.010061707685252
 10
8.033429541380968
 20
9.002851958506965
 10
8.115776566234245
 20
9.026981467992953
 10
8.192433566049459
 20
9.079191412225185
 10
8.253047588196608
 20
9.152430548899673
 10
8.289432373154312
 20
9.236807526781802
 10
8.296673954056558
 20
9.320926767480131
 10
8.273794315346691
 20
9.39342750140085
 10
8.24303128352048
 20
9.430488926798915
  0
LWPOLYLINE
  5
198
330
2
100
AcDbEntity
  8
0
100
AcDbPolyline
 90
       13
 70
   128
 43
0.0
 10
19.3740232238043
 20
12.28313591364539
 10
19.45369693604991
 20
12.25647990253512
 10
19.54517692860779
 20
12.26179257293947
 10
19.6385499249578
 20
12.2984982146082
 10
19.72369751202134
 20
12.3626192016728
 10
19.79139262755771
 20
12.4472070302896
 10
19.83429945542011
 20
12.54309529664803
 10
19.84776837501718
 20
12.63989301931312
 10
19.8303398199516
 20
12.72711066303074
 10
19.78390244457998
 20
12.79529684274811
 10
19.71348845906877
 20
12.83706252791248
 10
19.62672831132707
 20
12.84788175846867
 10
19.58523854794313
 20
12.84230141767418
  0
ARC
  5
199
330
2
100
AcDbEntity
  8
0
100
AcDbCircle
 10
19.49171485610807
 20
12.46329192187576
 30
0.0
 40
0.2151917926137846
100
AcDbArc
 50
172.7842900930994
 51
236.8443704358005
  0
LWPOLYLINE
  5
19A
330
2
100
AcDbEntity
  8
0
100
AcDbPolyline
 90
       16
 70
   128
 43
0.0
 10
7.789551557431963
 20
9.177843392647531
 10
7.79435602263149
 20
9.096573253633749
 10
7.828224492126167
 20
9.018791522824329
 10
7.888688143061216
 20
8.964428406392215
 10
7.969194800689109
 20
8.939374991563425
 10
8.061020319449852
 20
8.946346204536411
 10
8.154213979572631
 20
8.984586606252804
 10
8.238676801917875
 20
9.049952255826354
 10
8.305255929128719
 20
9.135359770809799
 10
8.346736479688019
 20
9.231553921810217
 10
8.358623392291605
 20
9.328110579900311
 10
8.339628535573552
 20
9.414566333018655
 10
8.291810296876491
 20
9.481552358705556
 10
8.220350524448093
 20
9.521809681750681
 10
8.132992993372653
 20
9.530975796571141
 10
8.087639450188618
 20
9.523783238706499
  0
LINE
  5
19B
330
2
100
AcDbEntity
  8
0
100
AcDbLine
 10
25.80167941811138
 20
13.08956652266872
 30
0.0
 11
25.80167941811138
 21
10.07224996682086
 31
0.0
  0
ARC
  5
19C
330
2
100
AcDbEntity
  8
0
100
AcDbCircle
 10
23.06090475574146
 20
14.52510625802117
 30
0.0
 40
0.5994127600644533
100
AcDbArc
 50
196.0818783648455
 51
209.326275222597
  0
LINE
  5
19D
330
2
100
AcDbEntity
  8
0
100
AcDbLine
 10
22.46156887602589
 20
15.98218710357727
 30
0.0
 11
22.46156887602589
 21
14.52984238036944
 31
0.0
  0
LINE
  5
19E
330
2
100
AcDbEntity
  8
0
100
AcDbLine
 10
23.78820433076973
 20
13.63142361743095
 30
0.0
 11
23.78820433076973
 21
13.5499413475263
 31
0.0
  0
LINE
  5
19F
330
2
100
AcDbEntity
  8
0
100
AcDbLine
 10
23.78820433076973
 20
13.5499413475263
 30
0.0
 11
23.87993976115095
 21
13.47049613440694
 31
0.0
  0
LINE
  5
1A0
330
2
100
AcDbEntity
  8
0
100
AcDbLine
 10
23.87993976115095
 20
13.47049613440694
 30
0.0
 11
23.87993976115095
 21
13.42975499945461
 31
0.0
  0
LINE
  5
1A1
330
2
100
AcDbEntity
  8
0
100
AcDbLine
 10
23.87993976115095
 20
13.42975499945461
 30
0.0
 11
24.38330853298632
 21
12.99382485554949
 31
0.0
  0
LINE
  5
1A2
330
2
100
AcDbEntity
  8
0
100
AcDbLine
 10
24.38330853298632
 20
12.99382485554949
 30
0.0
 11
24.38330853298632
 21
13.03456599050193
 31
0.0
  0
LINE
  5
1A3
330
2
100
AcDbEntity
  8
0
100
AcDbLine
 10
24.38330853298632
 20
13.03456599050193
 30
0.0
 11
24.4750439633676
 21
12.95512077738246
 31
0.0
  0
LINE
  5
1A4
330
2
100
AcDbEntity
  8
0
100
AcDbLine
 10
24.4750439633676
 20
12.95512077738246
 30
0.0
 11
24.4750439633676
 21
13.03660304724005
 31
0.0
  0
ARC
  5
1A5
330
2
100
AcDbEntity
  8
0
100
AcDbCircle
 10
22.95592788902539
 20
13.07326984916253
 30
0.0
 40
0.5351193708734171
100
AcDbArc
 50
179.5143498990977
 51
222.5890989715979
  0
LINE
  5
1A6
330
2
100
AcDbEntity
  8
0
100
AcDbLine
 10
4.593429866156014
 20
7.795675305898697
 30
0.0
 11
4.593429866156014
 21
10.85126042656949
 31
0.0
  0
LINE
  5
1A7
330
2
100
AcDbEntity
  8
0
100
AcDbLine
 10
19.91209660441515
 20
13.64373321133266
 30
0.0
 11
19.26023844531923
 21
13.45555796952496
 31
0.0
  0
LINE
  5
1A8
330
2
100
AcDbEntity
  8
0
100
AcDbLine
 10
19.91209660441515
 20
13.88818002099944
 30
0.0
 11
19.91209660441515
 21
13.64373321133266
 31
0.0
  0
LINE
  5
1A9
330
2
100
AcDbEntity
  8
0
100
AcDbLine
 10
19.91209660441515
 20
13.88818002099944
 30
0.0
 11
19.26023844531923
 21
13.70000477919186
 31
0.0
  0
LINE
  5
1AA
330
2
100
AcDbEntity
  8
0
100
AcDbLine
 10
19.26023844531923
 20
13.70000477919186
 30
0.0
 11
19.26023844531923
 21
13.45555796952496
 31
0.0
  0
LINE
  5
1AB
330
2
100
AcDbEntity
  8
0
100
AcDbLine
 10
8.423096550732537
 20
10.32714457447307
 30
0.0
 11
7.771238391636728
 21
10.13896933266548
 31
0.0
  0
LINE
  5
1AC
330
2
100
AcDbEntity
  8
0
100
AcDbLine
 10
8.423096550732537
 20
10.57159138413996
 30
0.0
 11
8.423096550732537
 21
10.32714457447307
 31
0.0
  0
LINE
  5
1AD
330
2
100
AcDbEntity
  8
0
100
AcDbLine
 10
8.423096550732537
 20
10.57159138413996
 30
0.0
 11
7.771238391636728
 21
10.38341614233238
 31
0.0
  0
LINE
  5
1AE
330
2
100
AcDbEntity
  8
0
100
AcDbLine
 10
7.771238391636728
 20
10.38341614233238
 30
0.0
 11
7.771238391636728
 21
10.13896933266548
 31
0.0
  0
LINE
  5
1AF
330
2
100
AcDbEntity
  8
0
100
AcDbLine
 10
22.42082774107357
 20
13.15928783996034
 30
0.0
 11
22.42082774107357
 21
13.07780557005569
 31
0.0
  0
ARC
  5
1B0
330
2
100
AcDbEntity
  8
0
100
AcDbCircle
 10
22.10672730921746
 20
12.10698782128767
 30
0.0
 40
0.7582419628729183
100
AcDbArc
 50
3.993744757500899
 51
43.57567031959971
  0
LWPOLYLINE
  5
1B1
330
2
100
AcDbEntity
  8
0
100
AcDbPolyline
 90
        5
 70
   128
 43
0.0
 10
22.42082774107357
 20
13.15928783996034
 10
22.42353954196321
 20
13.20462855829598
 10
22.4315707316309
 20
13.24352988137522
 10
22.44461267595895
 20
13.27449685315329
 10
22.45425860215485
 20
13.28650105988671
  0
LINE
  5
1B2
330
2
100
AcDbEntity
  8
0
100
AcDbLine
 10
22.65604679333316
 20
12.6296530857214
 30
0.0
 11
22.56195917242937
 21
12.71113535557899
 31
0.0
  0
ARC
  5
1B3
330
2
100
AcDbEntity
  8
0
100
AcDbCircle
 10
21.06786121745026
 20
13.12741950167034
 30
0.0
 40
0.5795922703998146
100
AcDbArc
 50
287.2086421099973
 51
357.1690928843015
  0
LINE
  5
1B4
330
2
100
AcDbEntity
  8
0
100
AcDbLine
 10
4.616951771381962
 20
7.77530473842259
 30
0.0
 11
4.593429866156014
 21
7.795675305898697
 31
0.0
  0
LINE
  5
1B5
330
2
100
AcDbEntity
  8
0
100
AcDbLine
 10
21.23933482778577
 20
12.57377340451714
 30
0.0
 11
4.616951771381962
 21
7.77530473842259
 31
0.0
  0
LINE
  5
1B6
330
2
100
AcDbEntity
  8
0
100
AcDbLine
 10
21.64674617721491
 20
13.95435811383933
 30
0.0
 11
21.64674617721491
 21
13.0987942800759
 31
0.0
  0
ARC
  5
1B7
330
2
100
AcDbEntity
  8
0
100
AcDbCircle
 10
22.03275563031898
 20
14.5091594733727
 30
0.0
 40
0.3477553622398834
100
AcDbArc
 50
287.2086421099973
 51
357.1690928843015
  0
LINE
  5
1B8
330
2
100
AcDbEntity
  8
0
100
AcDbLine
 10
22.13563979650152
 20
14.17697181509967
 30
0.0
 11
21.72822844707244
 21
14.05936228896993
 31
0.0
  0
LINE
  5
1B9
330
2
100
AcDbEntity
  8
0
100
AcDbLine
 10
22.38008660616831
 20
14.4919843404443
 30
0.0
 11
22.38008660616831
 21
15.95866519835132
 31
0.0
  0
ARC
  5
1BA
330
2
100
AcDbEntity
  8
0
100
AcDbCircle
 10
21.76252316914898
 20
13.9486330695299
 30
0.0
 40
0.1159184540798942
100
AcDbArc
 50
107.2086421099031
 51
177.1690928843014
  0
ARC
  5
1BB
330
2
100
AcDbEntity
  8
0
100
AcDbCircle
 10
25.77109787834215
 20
13.09076748599383
 30
0.0
 40
0.0306051121506509
100
AcDbArc
 50
357.751101182697
 51
47.59820542870267
  0
ARC
  5
1BC
330
2
100
AcDbEntity
  8
0
100
AcDbCircle
 10
22.43171982202816
 20
15.98335207843442
 30
0.0
 40
0.0298717792022964
100
AcDbArc
 50
357.7649448217996
 51
111.3846782330995
  0
LWPOLYLINE
  5
1BD
330
2
100
AcDbEntity
  8
0
100
AcDbPolyline
 90
        7
 70
   128
 43
0.0
 10
4.593429866156014
 20
10.85126042656949
 10
4.593881832931771
 20
10.85881721295092
 10
4.595220364542996
 20
10.86530076682103
 10
4.597394021970245
 20
10.87046192877616
 10
4.600319272671157
 20
10.87410235825402
 10
4.603883700991417
 20
10.87608215566533
 10
4.603904165942793
 20
10.87608809019499
  0
LWPOLYLINE
  5
1BE
330
2
100
AcDbEntity
  8
0
100
AcDbPolyline
 90
        5
 70
   128
 43
0.0
 10
22.38008660616831
 20
15.99940633330354
 10
22.37549771010376
 20
16.00259760438004
 10
22.37108516274927
 20
16.00410057772487
 10
22.36701853577782
 20
16.00385749492327
 10
22.36701843312787
 20
16.00385743790818
  0
LINE
  5
1BF
330
2
100
AcDbEntity
  8
0
100
AcDbLine
 10
22.38008660616831
 20
15.95866519835132
 30
0.0
 11
22.38008660616831
 21
15.99940633330354
 31
0.0
  0
LINE
  5
1C0
330
2
100
AcDbEntity
  8
0
100
AcDbLine
 10
22.38008660616831
 20
15.99940633330354
 30
0.0
 11
22.42082774107357
 21
16.01116728591657
 31
0.0
  0
LINE
  5
1C1
330
2
100
AcDbEntity
  8
0
100
AcDbLine
 10
24.34802567514746
 20
13.02438070676382
 30
0.0
 11
24.38330853298632
 21
13.03456599050193
 31
0.0
  0
LINE
  5
1C2
330
2
100
AcDbEntity
  8
0
100
AcDbLine
 10
24.43430282841527
 20
13.04365961885489
 30
0.0
 11
24.43430282841527
 21
12.99040363522144
 31
0.0
  0
ARC
  5
1C3
330
2
100
AcDbEntity
  8
0
100
AcDbCircle
 10
4.728056431854696
 20
9.301807011091767
 30
0.0
 40
0.1925959222443675
100
AcDbArc
 50
180.5536564467018
 51
216.0802073398961
  0
LINE
  5
1C4
330
2
100
AcDbEntity
  8
0
100
AcDbLine
 10
4.535469501477308
 20
10.80736795386733
 30
0.0
 11
4.535469501477308
 21
9.299945961008091
 31
0.0
  0
LINE
  5
1C5
330
2
100
AcDbEntity
  8
0
100
AcDbLine
 10
4.576210636429635
 20
10.85987004143268
 30
0.0
 11
4.59523924345936
 21
10.86536312710811
 31
0.0
  0
ARC
  5
1C6
330
2
100
AcDbEntity
  8
0
100
AcDbCircle
 10
4.593357997467904
 20
10.80450543171261
 30
0.0
 40
0.0579592270398979
100
AcDbArc
 50
107.2086421099031
 51
177.1690928843014
  0
ARC
  5
1C7
330
2
100
AcDbEntity
  8
0
100
AcDbCircle
 10
23.22368398988729
 20
12.06489041666711
 30
0.0
 40
0.1520933465009114
100
AcDbArc
 50
57.13635930490363
 51
107.6021602702027
  0
LINE
  5
1C8
330
2
100
AcDbEntity
  8
0
100
AcDbLine
 10
23.30621615560958
 20
12.19264341140885
 30
0.0
 11
26.50519526633932
 21
9.422246235357278
 31
0.0
  0
LWPOLYLINE
  5
1C9
330
2
100
AcDbEntity
  8
0
100
AcDbPolyline
 90
        9
 70
   128
 43
0.0
 10
26.47075680693362
 20
9.357983195179002
 10
26.48574927556794
 20
9.363354920713589
 10
26.4983577247784
 20
9.370085872855014
 10
26.50809761898287
 20
9.377917384833921
 10
26.5145946594196
 20
9.386548496036965
 10
26.51759916854442
 20
9.39564751772761
 10
26.51699568471051
 20
9.404864779566736
 10
26.5128073995285
 20
9.413846067394473
 10
26.50519526633932
 20
9.422246235357278
  0
LINE
  5
1CA
330
2
100
AcDbEntity
  8
0
100
AcDbLine
 10
25.73741637793316
 20
9.146286048145356
 30
0.0
 11
26.47075680693362
 21
9.357983195179002
 31
0.0
  0
LINE
  5
1CB
330
2
100
AcDbEntity
  8
0
100
AcDbLine
 10
23.17769007530009
 20
12.20986264113523
 30
0.0
 11
22.58007312284283
 21
12.03734548695829
 31
0.0
  0
LINE
  5
1CC
330
2
100
AcDbEntity
  8
0
100
AcDbLine
 10
22.50266324165167
 20
12.01499917908765
 30
0.0
 11
22.42573704857895
 21
11.99279249994978
 31
0.0
  0
LWPOLYLINE
  5
1CD
330
2
100
AcDbEntity
  8
0
100
AcDbPolyline
 90
        9
 70
   128
 43
0.0
 10
24.52643014549849
 20
10.80660042497331
 10
24.59595596861343
 20
10.8184008433445
 10
24.66922110277963
 20
10.81599981805365
 10
24.73507159550755
 20
10.79976288341251
 10
24.78348230616453
 20
10.77216196552055
 10
24.80708314290698
 20
10.73739905398665
 10
24.80228109232516
 20
10.70076648688004
 10
24.76980722304276
 20
10.66784124051602
 10
24.71460538730614
 20
10.64363588521107
  0
LINE
  5
1CE
330
2
100
AcDbEntity
  8
0
100
AcDbLine
 10
24.36346560573631
 20
10.75955661452141
 30
0.0
 11
24.52643014549849
 21
10.80660042497331
 31
0.0
  0
LWPOLYLINE
  5
1CF
330
2
100
AcDbEntity
  8
0
100
AcDbPolyline
 90
        9
 70
   128
 43
0.0
 10
24.5516408475439
 20
10.59659207475917
 10
24.48211502438196
 20
10.58479165638797
 10
24.40884989021581
 20
10.58719268167894
 10
24.3429993975349
 20
10.60342961632008
 10
24.29458868683085
 20
10.63103053416486
 10
24.27098785008841
 20
10.66579344574595
 10
24.27578990067022
 20
10.70242601285244
 10
24.30826376995262
 20
10.73535125916939
 10
24.36346560573631
 20
10.75955661452141
  0
LINE
  5
1D0
330
2
100
AcDbEntity
  8
0
100
AcDbLine
 10
24.71460538730614
 20
10.64363588521107
 30
0.0
 11
24.5516408475439
 21
10.59659207475917
 31
0.0
  0
ARC
  5
1D1
330
2
100
AcDbEntity
  8
0
100
AcDbCircle
 10
23.22368398988729
 20
12.10563155161955
 30
0.0
 40
0.1520933465006867
100
AcDbArc
 50
57.13635930490363
 51
107.6021602702968
  0
LINE
  5
1D2
330
2
100
AcDbEntity
  8
0
100
AcDbLine
 10
22.44434964629957
 20
12.81298819295975
 30
0.0
 11
22.43279057898653
 21
12.80965137764437
 31
0.0
  0
LINE
  5
1D3
330
2
100
AcDbEntity
  8
0
100
AcDbLine
 10
22.44434964629957
 20
12.81298819295975
 30
0.0
 11
22.44434964629957
 21
12.69573863987668
 31
0.0
  0
LINE
  5
1D4
330
2
100
AcDbEntity
  8
0
100
AcDbLine
 10
23.17769007530009
 20
12.25060377608756
 30
0.0
 11
22.56513559365462
 21
12.07377452866191
 31
0.0
  0
LINE
  5
1D5
330
2
100
AcDbEntity
  8
0
100
AcDbLine
 10
26.50519526633932
 20
9.462987370309491
 30
0.0
 11
23.30621615560958
 21
12.23338454636118
 31
0.0
  0
ARC
  5
1D6
330
2
100
AcDbEntity
  8
0
100
AcDbCircle
 10
25.7266453789965
 20
9.176392892721622
 30
0.0
 40
0.0319755611085073
100
AcDbArc
 50
231.2220787148989
 51
289.6851342021987
  0
LWPOLYLINE
  5
1D7
330
2
100
AcDbEntity
  8
0
100
AcDbPolyline
 90
       14
 70
   128
 43
0.0
 10
22.74986042129976
 20
12.12709999310786
 10
22.75013441423695
 20
12.14075946638772
 10
22.74118192216073
 20
12.22646733878875
 10
22.71568738156722
 20
12.31463313573428
 10
22.67753210524947
 20
12.39183441385418
 10
22.63252488810721
 20
12.44631797848294
 10
22.58751767101191
 20
12.46978920068338
 10
22.54936239469416
 20
12.45867479966611
 10
22.52386785410064
 20
12.4146668423127
 10
22.51491536197741
 20
12.34446514110229
 10
22.52386785410064
 20
12.25875726870114
 10
22.54936239469416
 20
12.17059147175561
 10
22.58751767101191
 20
12.09339019363571
 10
22.59480195729745
 20
12.0823384701691
  0
ARC
  5
1D8
330
2
100
AcDbEntity
  8
0
100
AcDbCircle
 10
22.51001109907341
 20
12.87334394185902
 30
0.0
 40
0.0891865618120468
100
AcDbArc
 50
179.5143498990977
 51
222.5890989715979
  0
LINE
  5
1D9
330
2
100
AcDbEntity
  8
0
100
AcDbLine
 10
22.42082774107357
 20
13.96500495068218
 30
0.0
 11
22.42082774107357
 21
13.15928783996034
 31
0.0
  0
LINE
  5
1DA
330
2
100
AcDbEntity
  8
0
100
AcDbLine
 10
22.42082774107357
 20
13.15928783996034
 30
0.0
 11
22.42082774107357
 21
12.87409989534123
 31
0.0
  0
LINE
  5
1DB
330
2
100
AcDbEntity
  8
0
100
AcDbLine
 10
2.481193524652809
 20
7.050121412600987
 30
0.0
 11
2.521934659605136
 21
7.061882365213904
 31
0.0
  0
ARC
  5
1DC
330
2
100
AcDbEntity
  8
0
100
AcDbCircle
 10
2.546854977426704
 20
7.110477161500256
 30
0.0
 40
0.0891865618121649
100
AcDbArc
 50
179.5143498990977
 51
222.5890989715979
  0
LINE
  5
1DD
330
2
100
AcDbEntity
  8
0
100
AcDbLine
 10
22.35460328054947
 20
12.7870806487368
 30
0.0
 11
2.521934659605136
 21
7.061882365213904
 31
0.0
  0
LINE
  5
1DE
330
2
100
AcDbEntity
  8
0
100
AcDbLine
 10
22.01341639169161
 20
13.81575987773632
 30
0.0
 11
22.01341639169161
 21
14.14168895726081
 31
0.0
  0
LINE
  5
1DF
330
2
100
AcDbEntity
  8
0
100
AcDbLine
 10
22.3178396909141
 20
14.31105066401457
 30
0.0
 11
22.33934547121598
 21
14.31725884806914
 31
0.0
  0
ARC
  5
1E0
330
2
100
AcDbEntity
  8
0
100
AcDbCircle
 10
22.36112963303103
 20
14.26162843310496
 30
0.0
 40
0.059743558404607
100
AcDbArc
 50
61.40895163576466
 51
111.3846782331996
  0
LINE
  5
1E1
330
2
100
AcDbEntity
  8
0
100
AcDbLine
 10
2.457671619426861
 20
8.496431703031788
 30
0.0
 11
2.457671619426861
 21
7.111233114982468
 31
0.0
  0
ARC
  5
1E2
330
2
100
AcDbEntity
  8
0
100
AcDbCircle
 10
2.573448611360987
 20
8.490706658722245
 30
0.0
 40
0.1159184540797939
100
AcDbArc
 50
107.2086421099031
 51
177.1690928843993
  0
LINE
  5
1E3
330
2
100
AcDbEntity
  8
0
100
AcDbLine
 10
2.539153889331458
 20
8.601435878162391
 30
0.0
 11
4.593429866156014
 21
9.194454272234082
 31
0.0
  0
LINE
  5
1E4
330
2
100
AcDbEntity
  8
0
100
AcDbLine
 10
21.72822844707244
 20
14.05936228896993
 30
0.0
 11
21.72822844707244
 21
13.73343320944545
 31
0.0
  0
LINE
  5
1E5
330
2
100
AcDbEntity
  8
0
100
AcDbLine
 10
21.72822844707244
 20
13.73343320944545
 30
0.0
 11
22.01341639169161
 21
13.81575987773632
 31
0.0
  0
LINE
  5
1E6
330
2
100
AcDbEntity
  8
0
100
AcDbLine
 10
22.01341639169161
 20
13.24538398854506
 30
0.0
 11
22.01341639169161
 21
13.4083485283073
 31
0.0
  0
LINE
  5
1E7
330
2
100
AcDbEntity
  8
0
100
AcDbLine
 10
22.01341639169161
 20
13.4083485283073
 30
0.0
 11
21.72822844707244
 21
13.32602186001642
 31
0.0
  0
LINE
  5
1E8
330
2
100
AcDbEntity
  8
0
100
AcDbLine
 10
21.72822844707244
 20
13.32602186001642
 30
0.0
 11
21.72822844707244
 21
13.16305732025418
 31
0.0
  0
LINE
  5
1E9
330
2
100
AcDbEntity
  8
0
100
AcDbLine
 10
21.72822844707244
 20
13.16305732025418
 30
0.0
 11
22.01341639169161
 21
13.24538398854506
 31
0.0
  0
LINE
  5
1EA
330
2
100
AcDbEntity
  8
0
100
AcDbLine
 10
2.521934659605136
 20
7.061882365213904
 30
0.0
 11
5.815001391238723
 21
4.210002919257675
 31
0.0
  0
ARC
  5
1EB
330
2
100
AcDbEntity
  8
0
100
AcDbCircle
 10
26.4865440477208
 20
9.43785366613892
 30
0.0
 40
0.031298099631567
100
AcDbArc
 50
2.951941046601397
 51
53.42162981749762
  0
LINE
  5
1EC
330
2
100
AcDbEntity
  8
0
100
AcDbLine
 10
1.747853095699355
 20
6.064342701661615
 30
0.0
 11
2.481193524652809
 21
6.276039848695262
 31
0.0
  0
LINE
  5
1ED
330
2
100
AcDbEntity
  8
0
100
AcDbLine
 10
2.481193524652809
 20
6.276039848695262
 30
0.0
 11
2.481193524652809
 21
7.050121412600987
 31
0.0
  0
LINE
  5
1EE
330
2
100
AcDbEntity
  8
0
100
AcDbLine
 10
2.521934659605136
 20
6.287800801308179
 30
0.0
 11
2.521934659605136
 21
7.061882365213904
 31
0.0
  0
ARC
  5
1EF
330
2
100
AcDbEntity
  8
0
100
AcDbCircle
 10
2.46404616361454
 20
6.290663323462894
 30
0.0
 40
0.0579592270398934
100
AcDbArc
 50
287.2086421099032
 51
357.1690928843015
  0
LINE
  5
1F0
330
2
100
AcDbEntity
  8
0
100
AcDbLine
 10
1.747853095699355
 20
6.023601566709402
 30
0.0
 11
2.481193524652809
 21
6.235298713742935
 31
0.0
  0
LINE
  5
1F1
330
2
100
AcDbEntity
  8
0
100
AcDbLine
 10
2.521934659605136
 20
6.287800801308179
 30
0.0
 11
5.815001391238723
 21
3.43592135535195
 31
0.0
  0
ARC
  5
1F2
330
2
100
AcDbEntity
  8
0
100
AcDbCircle
 10
5.757112895248127
 20
3.438783877506665
 30
0.0
 40
0.0579592270398565
100
AcDbArc
 50
287.2086421097994
 51
357.1690928843993
  0
ARC
  5
1F3
330
2
100
AcDbEntity
  8
0
100
AcDbCircle
 10
4.994925912745685
 20
3.316694345221065
 30
0.0
 40
0.1520933465003142
100
AcDbArc
 50
237.1363593047988
 51
287.6021602702993
  0
LINE
  5
1F4
330
2
100
AcDbEntity
  8
0
100
AcDbLine
 10
4.912393746976334
 20
3.188941350479439
 30
0.0
 11
1.713414636246596
 21
5.959338526531126
 31
0.0
  0
LWPOLYLINE
  5
1F5
330
2
100
AcDbEntity
  8
0
100
AcDbPolyline
 90
        9
 70
   128
 43
0.0
 10
1.747853095699355
 20
6.023601566709402
 10
1.732860627065036
 20
6.018229841174814
 10
1.720252177807509
 20
6.01149888903339
 10
1.710512283650047
 20
6.00366737705437
 10
1.70401524316631
 20
5.995036265851325
 10
1.701010734088555
 20
5.98593724416068
 10
1.701614217875402
 20
5.976719982321554
 10
1.705802503104422
 20
5.967738694493817
 10
1.713414636246596
 20
5.959338526531126
  0
LINE
  5
1F6
330
2
100
AcDbEntity
  8
0
100
AcDbLine
 10
5.774260256286396
 20
3.383419267786592
 30
0.0
 11
5.040919827332885
 21
3.171722120753059
 31
0.0
  0
LINE
  5
1F7
330
2
100
AcDbEntity
  8
0
100
AcDbLine
 10
3.50400451532684
 20
4.737948876677222
 30
0.0
 11
3.666969055089026
 21
4.784992687129118
 31
0.0
  0
LWPOLYLINE
  5
1F8
330
2
100
AcDbEntity
  8
0
100
AcDbPolyline
 90
        9
 70
   128
 43
0.0
 10
3.692179757134482
 20
4.57498433691498
 10
3.622653934019552
 20
4.563183918543671
 10
3.549388799853346
 20
4.565584943834636
 10
3.483538307125428
 20
4.581821878475892
 10
3.435127596468447
 20
4.609422796320671
 10
3.411526759678935
 20
4.644185707901641
 10
3.416328810307817
 20
4.680818275008249
 10
3.448802679590215
 20
4.713743521325199
 10
3.50400451532684
 20
4.737948876677222
  0
LINE
  5
1F9
330
2
100
AcDbEntity
  8
0
100
AcDbLine
 10
3.855144296896668
 20
4.622028147366876
 30
0.0
 11
3.692179757134482
 21
4.57498433691498
 31
0.0
  0
LWPOLYLINE
  5
1FA
330
2
100
AcDbEntity
  8
0
100
AcDbPolyline
 90
        9
 70
   128
 43
0.0
 10
3.666969055089026
 20
4.784992687129118
 10
3.736494878203956
 20
4.796793105500313
 10
3.809760012370162
 20
4.794392080209462
 10
3.875610505098137
 20
4.778155145568206
 10
3.924021215755061
 20
4.75055422767636
 10
3.947622052544573
 20
4.715791316142457
 10
3.942820001915691
 20
4.679158749035849
 10
3.910346132633293
 20
4.646233502671947
 10
3.855144296896668
 20
4.622028147366876
  0
LINE
  5
1FB
330
2
100
AcDbEntity
  8
0
100
AcDbLine
 10
5.815001391238723
 20
3.43592135535195
 30
0.0
 11
5.815001391238723
 21
4.210002919257675
 31
0.0
  0
LWPOLYLINE
  5
1FC
330
2
100
AcDbEntity
  8
0
100
AcDbPolyline
 90
       17
 70
   128
 43
0.0
 10
5.626826149431025
 20
3.965556109590892
 10
5.617873657307853
 20
4.051263981991922
 10
5.59237911676135
 20
4.139429778937454
 10
5.55422384044354
 20
4.216631057057355
 10
5.509216623301284
 20
4.271114621639156
 10
5.464209406159028
 20
4.294585843839598
 10
5.426054129841219
 20
4.283471442869284
 10
5.400559589294715
 20
4.239463485515869
 10
5.391607097171544
 20
4.169261784305462
 10
5.400559589294715
 20
4.083553911904317
 10
5.426054129841219
 20
3.995388114958785
 10
5.464209406159028
 20
3.918186836838884
 10
5.509216623301284
 20
3.863703272257197
 10
5.55422384044354
 20
3.840232050009689
 10
5.59237911676135
 20
3.851346451027183
 10
5.617873657307853
 20
3.895354408380484
 10
5.626826149431025
 20
3.965556109590892
  0
LWPOLYLINE
  5
1FD
330
2
100
AcDbEntity
  8
0
100
AcDbPolyline
 90
        7
 70
   128
 43
0.0
 10
1.700809285247459
 20
6.023601566709402
 10
1.701010734088555
 20
6.026678379113008
 10
1.70401524316631
 20
6.035777400803652
 10
1.710512283650047
 20
6.044408512006697
 10
1.720252177807509
 20
6.052240023985604
 10
1.732860627065036
 20
6.058970976080075
 10
1.747853095699355
 20
6.064342701661615
  0
LINE
  5
1FE
330
2
100
AcDbEntity
  8
0
100
AcDbLine
 10
22.95357927171537
 20
11.49059318999704
 30
0.0
 11
22.99261496452496
 21
11.5018618238648
 31
0.0
  0
ARC
  5
1FF
330
2
100
AcDbEntity
  8
0
100
AcDbCircle
 10
22.98057313702984
 20
11.59712767882976
 30
0.0
 40
0.1099011650158768
100
AcDbArc
 50
174.8060479850004
 51
255.7815548997004
  0
LINE
  5
200
330
2
100
AcDbEntity
  8
0
100
AcDbLine
 10
23.09471070307111
 20
11.36836978518724
 30
0.0
 11
23.1337463958807
 21
11.37963841905488
 31
0.0
  0
LWPOLYLINE
  5
201
330
2
100
AcDbEntity
  8
0
100
AcDbPolyline
 90
        3
 70
   128
 43
0.0
 10
23.04893326932782
 20
11.39091678953295
 10
23.06684562764454
 20
11.37858247693154
 10
23.09471070307111
 20
11.36836978518724
  0
LWPOLYLINE
  5
202
330
2
100
AcDbEntity
  8
0
100
AcDbPolyline
 90
       11
 70
   128
 43
0.0
 10
8.088721850414543
 20
9.523816477781764
 10
8.166034543844062
 20
9.488771506907909
 10
8.208636813982224
 20
9.432928298911036
 10
8.223746726219218
 20
9.358360454172697
 10
8.20932360313688
 20
9.275138773342149
 10
8.167315367518682
 20
9.194502805545624
 10
8.103395464282328
 20
9.127342885094975
 10
8.026196630605937
 20
9.082729331405374
 10
7.946144996707545
 20
9.066687452069203
 10
7.874051979354675
 20
9.081383791771798
 10
7.826147627574158
 20
9.116917169097831
  0
LWPOLYLINE
  5
203
330
2
100
AcDbEntity
  8
0
100
AcDbPolyline
 90
       11
 70
   128
 43
0.0
 10
19.64125608303638
 20
12.81508966725798
 10
19.67806815346998
 20
12.78216070236314
 10
19.70833244060154
 20
12.71645075852299
 10
19.70965987340182
 20
12.6364819484049
 10
19.68187117477757
 20
12.55305450298121
 10
19.62871936246463
 20
12.4774357610506
 10
19.55738288316033
 20
12.41983845269814
 10
19.47749612375153
 20
12.3880414135368
 10
19.39984823375883
 20
12.38633901000079
 10
19.33823319097357
 20
12.4169178274137
 10
19.31785699883412
 20
12.43583096558083
  0
LINE
  5
204
330
2
100
AcDbEntity
  8
0
100
AcDbLine
 10
22.65604679333316
 20
12.6296530857214
 30
0.0
 11
22.44434964629957
 21
12.81298819295975
 31
0.0
  0
ELLIPSE
  5
205
330
2
100
AcDbEntity
  8
0
100
AcDbEllipse
 10
29.80765614952927
 20
14.82576584969123
 30
0.0
 11
0.0208431949794001
 21
0.2046276625614285
 31
0.0
210
0.0
220
0.0
230
1.0
 40
0.7151041201610263
 41
1.77474674691261
 42
6.720820369635412
  0
ELLIPSE
  5
206
330
2
100
AcDbEntity
  8
0
100
AcDbEllipse
 10
29.74661216176802
 20
14.58223804645669
 30
0.0
 11
0.0299712565911122
 21
0.068767166022484
 31
0.0
210
0.0
220
0.0
230
1.0
 40
0.638763401582286
 41
0.0
 42
6.283185307179586
  0
ARC
  5
207
330
2
100
AcDbEntity
  8
0
100
AcDbCircle
 10
27.40412720135541
 20
11.89093636432434
 30
0.0
 40
4.922425290449759
100
AcDbArc
 50
49.96585756049348
 51
158.7815987019481
  0
ARC
  5
208
330
2
100
AcDbEntity
  8
0
100
AcDbCircle
 10
27.40412720135541
 20
11.89093636432434
 30
0.0
 40
4.74242529044976
100
AcDbArc
 50
57.00260336890227
 51
161.3983224027561
  0
POLYLINE
  5
209
330
2
100
AcDbEntity
  8
0
100
AcDb2dPolyline
 66
     1
 10
0.0
 20
0.0
 30
0.0
 70
     2
  0
VERTEX
  5
20A
330
209
100
AcDbEntity
  8
0
100
AcDbVertex
100
AcDb2dVertex
 10
22.918501503427
 20
11.56604596396877
 30
0.0
 42
-0.0284729970121276
  0
VERTEX
  5
20B
330
209
100
AcDbEntity
  8
0
100
AcDbVertex
100
AcDb2dVertex
 10
22.81964891819777
 20
11.6044619241396
 30
0.0
 42
-0.057643449779568
 70
     1
  0
VERTEX
  5
20C
330
209
100
AcDbEntity
  8
0
100
AcDbVertex
100
AcDb2dVertex
 10
22.77467871993619
 20
11.63158656787445
 30
0.0
 42
-0.0959590373405327
  0
VERTEX
  5
20D
330
209
100
AcDbEntity
  8
0
100
AcDbVertex
100
AcDb2dVertex
 10
22.58857599315778
 20
11.84310824161147
 30
0.0
 42
-0.0684944607016235
 70
     1
  0
VERTEX
  5
20E
330
209
100
AcDbEntity
  8
0
100
AcDbVertex
100
AcDb2dVertex
 10
22.43793170090518
 20
12.20602420902045
 30
0.0
 42
-0.0313023003004703
  0
VERTEX
  5
20F
330
209
100
AcDbEntity
  8
0
100
AcDbVertex
100
AcDb2dVertex
 10
22.39806067314035
 20
12.40886256416465
 30
0.0
 42
-0.0120534277068633
 70
     1
  0
VERTEX
  5
210
330
209
100
AcDbEntity
  8
0
100
AcDbVertex
100
AcDb2dVertex
 10
22.34056179932347
 20
12.94216799896512
 30
0.0
 42
-0.0481646675578455
  0
VERTEX
  5
211
330
209
100
AcDbEntity
  8
0
100
AcDbVertex
100
AcDb2dVertex
 10
22.35587604979523
 20
14.1238042836122
 30
0.0
 42
-0.1000229639175545
 70
     1
  0
VERTEX
  5
212
330
209
100
AcDbEntity
  8
0
100
AcDbVertex
100
AcDb2dVertex
 10
22.53003387763508
 20
14.67012784952598
 30
0.0
 42
-0.0801494357959433
  0
VERTEX
  5
213
330
209
100
AcDbEntity
  8
0
100
AcDbVertex
100
AcDb2dVertex
 10
22.71489953751015
 20
14.90446081045385
 30
0.0
 42
-0.0215269885069635
 70
     1
  0
VERTEX
  5
214
330
209
100
AcDbEntity
  8
0
100
AcDbVertex
100
AcDb2dVertex
 10
23.55992547210551
 20
15.61600709931539
 30
0.0
 42
-0.0390975682810107
  0
VERTEX
  5
215
330
209
100
AcDbEntity
  8
0
100
AcDbVertex
100
AcDb2dVertex
 10
25.15030304090649
 20
16.65491202897985
 30
0.0
 42
-0.0602350128485653
 70
     1
  0
VERTEX
  5
216
330
209
100
AcDbEntity
  8
0
100
AcDbVertex
100
AcDb2dVertex
 10
26.2976904106749
 20
17.11342266101732
 30
0.0
 42
-0.080884350866313
  0
VERTEX
  5
217
330
209
100
AcDbEntity
  8
0
100
AcDbVertex
100
AcDb2dVertex
 10
27.39274757656577
 20
17.22155920541476
 30
0.0
 42
-0.0613852523259455
 70
     1
  0
VERTEX
  5
218
330
209
100
AcDbEntity
  8
0
100
AcDbVertex
100
AcDb2dVertex
 10
28.81383934510083
 20
16.9547287167646
 30
0.0
 42
-0.040363411373353
  0
VERTEX
  5
219
330
209
100
AcDbEntity
  8
0
100
AcDbVertex
100
AcDb2dVertex
 10
29.79917346660826
 20
16.5509651929984
 30
0.0
 42
-0.0662518479796524
 70
     1
  0
VERTEX
  5
21A
330
209
100
AcDbEntity
  8
0
100
AcDbVertex
100
AcDb2dVertex
 10
30.33538965100749
 20
16.18262517916636
 30
0.0
 42
-0.0713509044212073
  0
VERTEX
  5
21B
330
209
100
AcDbEntity
  8
0
100
AcDbVertex
100
AcDb2dVertex
 10
30.50445234902745
 20
15.97949849783489
 30
0.0
 42
-0.0404011931541068
 70
     1
  0
VERTEX
  5
21C
330
209
100
AcDbEntity
  8
0
100
AcDbVertex
100
AcDb2dVertex
 10
30.7154779591929
 20
15.56500079421786
 30
0.0
  0
SEQEND
  5
21D
330
209
100
AcDbEntity
  8
0
  0
POLYLINE
  5
21E
330
2
100
AcDbEntity
  8
0
100
AcDb2dPolyline
 66
     1
 10
0.0
 20
0.0
 30
0.0
  0
VERTEX
  5
21F
330
21E
100
AcDbEntity
  8
0
100
AcDbVertex
100
AcDb2dVertex
 10
22.87624955639043
 20
11.60263722346187
 30
0.0
 42
-0.1347783723059615
  0
VERTEX
  5
220
330
21E
100
AcDbEntity
  8
0
100
AcDbVertex
100
AcDb2dVertex
 10
22.51531085154713
 20
12.22633349374277
 30
0.0
 42
-0.0313023003004682
  0
VERTEX
  5
221
330
21E
100
AcDbEntity
  8
0
100
AcDbVertex
100
AcDb2dVertex
 10
22.47736990750994
 20
12.41935281410028
 30
0.0
 42
-0.0120534277068633
  0
VERTEX
  5
222
330
21E
100
AcDbEntity
  8
0
100
AcDbVertex
100
AcDb2dVertex
 10
22.42028443434512
 20
12.94882393355019
 30
0.0
 42
-0.0481646675578456
  0
VERTEX
  5
223
330
21E
100
AcDbEntity
  8
0
100
AcDbVertex
100
AcDb2dVertex
 10
22.43539941217548
 20
14.11508448798756
 30
0.0
 42
-0.1000229639175538
  0
VERTEX
  5
224
330
21E
100
AcDbEntity
  8
0
100
AcDbVertex
100
AcDb2dVertex
 10
22.59993218572251
 20
14.63121478582613
 30
0.0
 42
-0.0801494357959455
  0
VERTEX
  5
225
330
21E
100
AcDbEntity
  8
0
100
AcDbVertex
100
AcDb2dVertex
 10
22.7690138131812
 20
14.84554014202089
 30
0.0
 42
-0.0215269885069639
  0
VERTEX
  5
226
330
21E
100
AcDbEntity
  8
0
100
AcDbVertex
100
AcDb2dVertex
 10
23.6087728260288
 20
15.55265146803694
 30
0.0
 42
-0.0390975682810118
  0
VERTEX
  5
227
330
21E
100
AcDbEntity
  8
0
100
AcDbVertex
100
AcDb2dVertex
 10
25.1886919822633
 20
16.58472450030487
 30
0.0
 42
-0.0602350128485656
  0
VERTEX
  5
228
330
21E
100
AcDbEntity
  8
0
100
AcDbVertex
100
AcDb2dVertex
 10
26.31824509249643
 20
17.03610833469153
 30
0.0
 42
-0.0808843508663099
  0
VERTEX
  5
229
330
21E
100
AcDbEntity
  8
0
100
AcDbVertex
100
AcDb2dVertex
 10
27.38771196836163
 20
17.14171784614515
 30
0.0
 42
-0.0613852523259457
  0
VERTEX
  5
22A
330
21E
100
AcDbEntity
  8
0
100
AcDbVertex
100
AcDb2dVertex
 10
28.78957030237101
 20
16.878498712403
 30
0.0
 42
-0.0403634113733529
  0
VERTEX
  5
22B
330
21E
100
AcDbEntity
  8
0
100
AcDbVertex
100
AcDb2dVertex
 10
29.76297208947224
 20
16.47962473958338
 30
0.0
 42
-0.0662518479796546
  0
VERTEX
  5
22C
330
21E
100
AcDbEntity
  8
0
100
AcDbVertex
100
AcDb2dVertex
 10
30.28178977123068
 20
16.12323618281263
 30
0.0
 42
-0.0713509044211984
  0
VERTEX
  5
22D
330
21E
100
AcDbEntity
  8
0
100
AcDbVertex
100
AcDb2dVertex
 10
30.43632026291945
 20
15.93756976255017
 30
0.0
 42
-0.0296517993704506
  0
VERTEX
  5
22E
330
21E
100
AcDbEntity
  8
0
100
AcDbVertex
100
AcDb2dVertex
 10
30.5933348785297
 20
15.64487912177546
 30
0.0
 42
-0.0404011931541065
  0
SEQEND
  5
22F
330
21E
100
AcDbEntity
  8
0
  0
LINE
  5
230
330
2
100
AcDbEntity
  8
0
100
AcDbLine
 10
22.42573704857895
 20
11.99279249994978
 30
0.0
 11
22.42573704857889
 21
12.25559163467559
 31
0.0
  0
ELLIPSE
  5
231
330
2
100
AcDbEntity
  8
0
100
AcDbEllipse
 10
29.86448825255522
 20
16.22076801445777
 30
0.0
 11
-0.102403095411546
 21
-0.3015682825853219
 31
0.0
210
0.0
220
0.0
230
1.0
 40
0.671739487600349
 41
2.350298767500601
 42
5.444532007288938
  0
ELLIPSE
  5
232
330
2
100
AcDbEntity
  8
0
100
AcDbEllipse
 10
29.86448825255522
 20
16.22076801445777
 30
0.0
 11
-0.102403095411546
 21
-0.3015682825853219
 31
0.0
210
0.0
220
0.0
230
1.0
 40
0.671739487600349
 41
7.526565401255447
 42
8.265259175314124
  0
ELLIPSE
  5
233
330
2
100
AcDbEntity
  8
0
100
AcDbEllipse
 10
28.10261455633801
 20
16.82926475161477
 30
0.0
 11
-0.102403095411546
 21
-0.3015682825853219
 31
0.0
210
0.0
220
0.0
230
1.0
 40
0.671739487600349
 41
2.883858089953639
 42
7.08423375319585
  0
ELLIPSE
  5
234
330
2
100
AcDbEntity
  8
0
100
AcDbEllipse
 10
28.10261455633801
 20
16.82926475161477
 30
0.0
 11
-0.102403095411546
 21
-0.3015682825853219
 31
0.0
210
0.0
220
0.0
230
1.0
 40
0.671739487600349
 41
7.758899083873729
 42
8.694456627139633
  0
ELLIPSE
  5
235
330
2
100
AcDbEntity
  8
0
100
AcDbEllipse
 10
25.36609234838144
 20
16.46261913447492
 30
0.0
 11
-0.1317603183767915
 21
0.2957644642310697
 31
0.0
210
0.0
220
0.0
230
1.0
 40
0.7562046212144633
 41
5.742368711136252
 42
10.03683750363791
  0
ELLIPSE
  5
236
330
2
100
AcDbEntity
  8
0
100
AcDbEllipse
 10
25.36609234838144
 20
16.46261913447492
 30
0.0
 11
-0.1317603183767915
 21
0.2957644642310697
 31
0.0
210
0.0
220
0.0
230
1.0
 40
0.7562046212144633
 41
10.71860919550879
 42
11.65895334551968
  0
ELLIPSE
  5
237
330
2
100
AcDbEntity
  8
0
100
AcDbEllipse
 10
23.62966338842054
 20
15.28464002131747
 30
0.0
 11
0.2496801589320512
 21
-0.2601701485483545
 31
0.0
210
0.0
220
0.0
230
1.0
 40
0.6939971189447486
 41
2.508437691543772
 42
6.716825859570252
  0
ELLIPSE
  5
238
330
2
100
AcDbEntity
  8
0
100
AcDbEllipse
 10
23.62966338842054
 20
15.28464002131747
 30
0.0
 11
0.2496801589320512
 21
-0.2601701485483545
 31
0.0
210
0.0
220
0.0
230
1.0
 40
0.6939971189447486
 41
7.450098685663069
 42
8.454924650439208
  0
ARC
  5
239
330
2
100
AcDbEntity
  8
0
100
AcDbCircle
 10
23.98815643700769
 20
19.64140952572731
 30
0.0
 40
7.695746754319331
100
AcDbArc
 50
262.9909616472689
 51
318.1927950475487
  0
ENDSEC
  0
SECTION
  2
OBJECTS
  0
DICTIONARY
  5
9
330
0
100
AcDbDictionary
281
     1
  3
ACAD_COLOR
350
3E
  3
ACAD_GROUP
350
35
  3
ACAD_LAYOUT
350
16
  3
ACAD_MATERIAL
350
B
  3
ACAD_MLEADERSTYLE
350
41
  3
ACAD_MLINESTYLE
350
36
  3
ACAD_PLOTSETTINGS
350
37
  3
ACAD_PLOTSTYLENAME
350
8
  3
ACAD_SCALELIST
350
3F
  3
ACAD_TABLESTYLE
350
40
  3
ACAD_VISUALSTYLE
350
2B
  3
ACDB_RECOMPOSE_DATA
350
248
  3
AcDbVariableDictionary
350
23A
  3
AcDsDecomposeData
350
24E
  0
DICTIONARY
  5
1E
330
1D
100
AcDbDictionary
280
     1
281
     1
  3
ACAD_LAYERSTATES
360
1F
  0
DICTIONARY
  5
6
330
5
100
AcDbDictionary
280
     1
281
     1
  0
DICTIONARY
  5
3
330
2
100
AcDbDictionary
280
     1
281
     1
  0
DICTIONARY
  5
3E
102
{ACAD_REACTORS
330
9
102
}
330
9
100
AcDbDictionary
281
     1
  0
DICTIONARY
  5
35
102
{ACAD_REACTORS
330
9
102
}
330
9
100
AcDbDictionary
281
     1
  0
DICTIONARY
  5
16
102
{ACAD_REACTORS
330
9
102
}
330
9
100
AcDbDictionary
281
     1
  3
Model
350
15
  3
レイアウト1
350
1C
  0
DICTIONARY
  5
B
102
{ACAD_REACTORS
330
9
102
}
330
9
100
AcDbDictionary
281
     1
  3
ByBlock
350
3B
  3
ByLayer
350
38
  3
Global
350
A
  0
DICTIONARY
  5
41
102
{ACAD_REACTORS
330
9
102
}
330
9
100
AcDbDictionary
281
     1
  0
DICTIONARY
  5
36
102
{ACAD_REACTORS
330
9
102
}
330
9
100
AcDbDictionary
281
     1
  3
Standard
350
42
  0
DICTIONARY
  5
37
102
{ACAD_REACTORS
330
9
102
}
330
9
100
AcDbDictionary
281
     1
  0
ACDBDICTIONARYWDFLT
  5
8
102
{ACAD_REACTORS
330
9
102
}
330
9
100
AcDbDictionary
281
     1
  3
Normal
350
7
100
AcDbDictionaryWithDefault
340
7
  0
DICTIONARY
  5
3F
102
{ACAD_REACTORS
330
9
102
}
330
9
100
AcDbDictionary
281
     1
  3
A0
350
47
  3
A1
350
48
  3
A2
350
49
  3
A3
350
4A
  3
A4
350
4B
  3
A5
350
4C
  3
A6
350
4D
  3
A7
350
4E
  3
A8
350
4F
  3
A9
350
50
  3
B0
350
51
  3
B1
350
52
  3
B2
350
53
  3
B3
350
54
  3
B4
350
55
  3
B5
350
56
  3
B6
350
57
  0
DICTIONARY
  5
40
102
{ACAD_REACTORS
330
9
102
}
330
9
100
AcDbDictionary
281
     1
  3
Standard
350
43
  0
DICTIONARY
  5
2B
102
{ACAD_REACTORS
330
9
102
}
330
9
100
AcDbDictionary
281
     1
  3
2dWireframe
350
2A
  3
Realistic
350
45
  3
Wireframe
350
46
  0
XRECORD
  5
248
102
{ACAD_REACTORS
330
9
102
}
330
9
100
AcDbXrecord
280
     1
 90
        1
330
43
  0
DICTIONARY
  5
23A
102
{ACAD_REACTORS
330
9
102
}
330
9
100
AcDbDictionary
281
     1
  3
CANNOSCALE
350
240
  3
CMLEADERSTYLE
350
23C
  3
CTABLESTYLE
350
23B
  3
CVIEWDETAILSTYLE
350
23D
  3
CVIEWSECTIONSTYLE
350
23E
  3
LAYEREVAL
350
242
  3
LAYERNOTIFY
350
243
  3
LIGHTINGUNITS
350
241
  3
MSLTSCALE
350
23F
  3
PSOLHEIGHT
350
245
  3
PSOLWIDTH
350
244
  3
XCLIPFRAME
350
246
  0
DICTIONARY
  5
24E
102
{ACAD_REACTORS
330
9
102
}
330
9
100
AcDbDictionary
281
     1
  3
AcDsRecords
350
250
  3
AcDsSchemas
350
24F
1001
ACAD
1070
     2
  0
DICTIONARY
  5
1F
102
{ACAD_REACTORS
330
1E
102
}
330
1E
100
AcDbDictionary
281
     1
  0
LAYOUT
  5
15
102
{ACAD_XDICTIONARY
360
17
102
}
102
{ACAD_REACTORS
330
16
102
}
330
16
100
AcDbPlotSettings
  1

  2
none_device
  4
ISO_A4_(210.00_x_297.00_MM)
  6

 40
7.5
 41
20.0
 42
7.5
 43
20.0
 44
210.0
 45
297.0
 46
11.54999923706054
 47
-13.65000009536743
 48
0.0
 49
0.0
140
0.0
141
0.0
142
1.0
143
8.704084754739808
 70
 11952
 72
     1
 73
     0
 74
     0
  7

 75
     0
147
0.1148885871608098
 76
     0
 77
     2
 78
   300
148
0.0
149
0.0
100
AcDbLayout
  1
Model
 70
     1
 71
     0
 10
0.0
 20
0.0
 11
12.0
 21
9.0
 12
0.0
 22
0.0
 32
0.0
 14
0.0
 24
0.0
 34
0.0
 15
0.0
 25
0.0
 35
0.0
146
0.0
 13
0.0
 23
0.0
 33
0.0
 16
1.0
 26
0.0
 36
0.0
 17
0.0
 27
1.0
 37
0.0
 76
     0
330
2
331
29
1001
ACAD_PSEXT
1000
None
1000
None
1000
Not applicable
1000
The layout will not be plotted unless a new plotter configuration name is selected.
1070
     0
  0
LAYOUT
  5
1C
102
{ACAD_REACTORS
330
16
102
}
330
16
100
AcDbPlotSettings
  1

  2
C:\Documents and Settings\basas\Application Data\Autodesk\AutoCAD 2005\R16.1\enu\plotters\Default Windows System Printer.pc3
  4

  6

 40
0.0
 41
0.0
 42
0.0
 43
0.0
 44
0.0
 45
0.0
 46
0.0
 47
0.0
 48
0.0
 49
0.0
140
0.0
141
0.0
142
1.0
143
1.0
 70
   688
 72
     0
 73
     0
 74
     5
  7

 75
    16
147
1.0
 76
     0
 77
     2
 78
   300
148
0.0
149
0.0
100
AcDbLayout
  1
レイアウト1
 70
     1
 71
     1
 10
0.0
 20
0.0
 11
12.0
 21
9.0
 12
0.0
 22
0.0
 32
0.0
 14
0.0
 24
0.0
 34
0.0
 15
0.0
 25
0.0
 35
0.0
146
0.0
 13
0.0
 23
0.0
 33
0.0
 16
1.0
 26
0.0
 36
0.0
 17
0.0
 27
1.0
 37
0.0
 76
     0
330
19
  0
MATERIAL
  5
3B
102
{ACAD_XDICTIONARY
360
3C
102
}
102
{ACAD_REACTORS
330
B
102
}
330
B
100
AcDbMaterial
  1
ByBlock
  0
MATERIAL
  5
38
102
{ACAD_XDICTIONARY
360
39
102
}
102
{ACAD_REACTORS
330
B
102
}
330
B
100
AcDbMaterial
  1
ByLayer
  0
MATERIAL
  5
A
102
{ACAD_XDICTIONARY
360
C
102
}
102
{ACAD_REACTORS
330
B
102
}
330
B
100
AcDbMaterial
  1
Global
 43
0.0007999999797903
 43
0.0
 43
0.0
 43
0.0
 43
0.0
 43
0.0007999999797903
 43
0.0
 43
0.0
 43
0.0
 43
0.0
 43
1.0
 43
0.0
 43
0.0
 43
0.0
 43
0.0
 43
1.0
 49
0.0007999999797903
 49
0.0
 49
0.0
 49
0.0
 49
0.0
 49
0.0007999999797903
 49
0.0
 49
0.0
 49
0.0
 49
0.0
 49
1.0
 49
0.0
 49
0.0
 49
0.0
 49
0.0
 49
1.0
142
0.0007999999797903
142
0.0
142
0.0
142
0.0
142
0.0
142
0.0007999999797903
142
0.0
142
0.0
142
0.0
142
0.0
142
1.0
142
0.0
142
0.0
142
0.0
142
0.0
142
1.0
144
0.0007999999797903
144
0.0
144
0.0
144
0.0
144
0.0
144
0.0007999999797903
144
0.0
144
0.0
144
0.0
144
0.0
144
1.0
144
0.0
144
0.0
144
0.0
144
0.0
144
1.0
1001
ACAD
1070
    -1
1070
     3
1070
     0
1000

1071
        0
1070
     0
  0
MLINESTYLE
  5
42
102
{ACAD_REACTORS
330
36
102
}
330
36
100
AcDbMlineStyle
  2
STANDARD
 70
     0
  3

 62
   256
 51
90.0
 52
90.0
 71
     2
 49
0.5
 62
   256
  6
BYLAYER
 49
-0.5
 62
   256
  6
BYLAYER
  0
ACDBPLACEHOLDER
  5
7
102
{ACAD_REACTORS
330
8
102
}
330
8
  0
SCALE
  5
47
102
{ACAD_REACTORS
330
3F
102
}
330
3F
100
AcDbScale
 70
     0
300
1:1
140
1.0
141
1.0
290
     1
  0
SCALE
  5
48
102
{ACAD_REACTORS
330
3F
102
}
330
3F
100
AcDbScale
 70
     0
300
1:2
140
1.0
141
2.0
290
     0
  0
SCALE
  5
49
102
{ACAD_REACTORS
330
3F
102
}
330
3F
100
AcDbScale
 70
     0
300
1:4
140
1.0
141
4.0
290
     0
  0
SCALE
  5
4A
102
{ACAD_REACTORS
330
3F
102
}
330
3F
100
AcDbScale
 70
     0
300
1:5
140
1.0
141
5.0
290
     0
  0
SCALE
  5
4B
102
{ACAD_REACTORS
330
3F
102
}
330
3F
100
AcDbScale
 70
     0
300
1:8
140
1.0
141
8.0
290
     0
  0
SCALE
  5
4C
102
{ACAD_REACTORS
330
3F
102
}
330
3F
100
AcDbScale
 70
     0
300
1:10
140
1.0
141
10.0
290
     0
  0
SCALE
  5
4D
102
{ACAD_REACTORS
330
3F
102
}
330
3F
100
AcDbScale
 70
     0
300
1:16
140
1.0
141
16.0
290
     0
  0
SCALE
  5
4E
102
{ACAD_REACTORS
330
3F
102
}
330
3F
100
AcDbScale
 70
     0
300
1:20
140
1.0
141
20.0
290
     0
  0
SCALE
  5
4F
102
{ACAD_REACTORS
330
3F
102
}
330
3F
100
AcDbScale
 70
     0
300
1:30
140
1.0
141
30.0
290
     0
  0
SCALE
  5
50
102
{ACAD_REACTORS
330
3F
102
}
330
3F
100
AcDbScale
 70
     0
300
1:40
140
1.0
141
40.0
290
     0
  0
SCALE
  5
51
102
{ACAD_REACTORS
330
3F
102
}
330
3F
100
AcDbScale
 70
     0
300
1:50
140
1.0
141
50.0
290
     0
  0
SCALE
  5
52
102
{ACAD_REACTORS
330
3F
102
}
330
3F
100
AcDbScale
 70
     0
300
1:100
140
1.0
141
100.0
290
     0
  0
SCALE
  5
53
102
{ACAD_REACTORS
330
3F
102
}
330
3F
100
AcDbScale
 70
     0
300
2:1
140
2.0
141
1.0
290
     0
  0
SCALE
  5
54
102
{ACAD_REACTORS
330
3F
102
}
330
3F
100
AcDbScale
 70
     0
300
4:1
140
4.0
141
1.0
290
     0
  0
SCALE
  5
55
102
{ACAD_REACTORS
330
3F
102
}
330
3F
100
AcDbScale
 70
     0
300
8:1
140
8.0
141
1.0
290
     0
  0
SCALE
  5
56
102
{ACAD_REACTORS
330
3F
102
}
330
3F
100
AcDbScale
 70
     0
300
10:1
140
10.0
141
1.0
290
     0
  0
SCALE
  5
57
102
{ACAD_REACTORS
330
3F
102
}
330
3F
100
AcDbScale
 70
     0
300
100:1
140
100.0
141
1.0
290
     0
  0
TABLESTYLE
  5
43
102
{ACAD_XDICTIONARY
360
44
102
}
102
{ACAD_REACTORS
330
40
102
}
330
40
100
AcDbTableStyle
  3
Standard
 70
     0
 71
     0
 40
1.5
 41
1.5
280
     0
281
     0
  7
Standard
140
4.5
170
     2
 62
     0
 63
     7
283
     0
274
    -2
284
     1
 64
     0
275
    -2
285
     1
 65
     0
276
    -2
286
     1
 66
     0
277
    -2
287
     1
 67
     0
278
    -2
288
     1
 68
     0
279
    -2
289
     1
 69
     0
  7
Standard
140
6.0
170
     5
 62
     0
 63
     7
283
     0
274
    -2
284
     1
 64
     0
275
    -2
285
     1
 65
     0
276
    -2
286
     1
 66
     0
277
    -2
287
     1
 67
     0
278
    -2
288
     1
 68
     0
279
    -2
289
     1
 69
     0
  7
Standard
140
4.5
170
     5
 62
     0
 63
     7
283
     0
274
    -2
284
     1
 64
     0
275
    -2
285
     1
 65
     0
276
    -2
286
     1
 66
     0
277
    -2
287
     1
 67
     0
278
    -2
288
     1
 68
     0
279
    -2
289
     1
 69
     0
  0
VISUALSTYLE
  5
2A
102
{ACAD_XDICTIONARY
360
252
102
}
102
{ACAD_REACTORS
330
2B
102
}
330
2B
100
AcDbVisualStyle
  2
2dWireframe
 70
     4
 71
     0
 72
     2
 73
     1
 90
        0
 40
-0.6
 41
-30.0
 62
     5
 63
     7
421
 16777215
 74
     1
 91
        4
 64
     7
 65
   257
 75
     1
175
     1
 42
1.0
 92
        0
 66
   257
 43
1.0
 76
     1
 77
     6
 78
     2
 67
     7
 79
     5
170
     0
171
     0
290
     0
174
     0
 93
        1
 44
0.0
173
     0
291
     0
 45
0.0
1001
ACAD
1000
AcDbSavedByObjectVersion
1070
     0
  0
VISUALSTYLE
  5
45
102
{ACAD_XDICTIONARY
360
257
102
}
102
{ACAD_REACTORS
330
2B
102
}
330
2B
100
AcDbVisualStyle
  2
Realistic
 70
     8
 71
     2
 72
     3
 73
     0
 90
        2
 40
-0.6
 41
30.0
 62
     5
 63
     7
421
 16777215
 74
     0
 91
        0
 64
     7
 65
   257
 75
     1
175
     1
 42
1.0
 92
        8
 66
   257
 43
1.0
 76
     1
 77
     6
 78
     2
 67
     7
 79
     3
170
     0
171
     0
290
     0
174
     0
 93
       13
 44
0.0
173
     0
291
     0
 45
0.0
1001
ACAD
1000
AcDbSavedByObjectVersion
1070
     0
  0
VISUALSTYLE
  5
46
102
{ACAD_XDICTIONARY
360
259
102
}
102
{ACAD_REACTORS
330
2B
102
}
330
2B
100
AcDbVisualStyle
  2
Wireframe
 70
     5
 71
     0
 72
     2
 73
     0
 90
        0
 40
-0.6
 41
-30.0
 62
     5
 63
     7
421
 16777215
 74
     1
 91
        4
 64
     7
 65
   257
 75
     1
175
     1
 42
1.0
 92
        0
 66
   257
 43
1.0
 76
     1
 77
     6
 78
     2
 67
     7
 79
     3
170
     0
171
     0
290
     0
174
     0
 93
        1
 44
0.0
173
     0
291
     0
 45
0.0
1001
ACAD
1000
AcDbSavedByObjectVersion
1070
     0
  0
DICTIONARYVAR
  5
240
102
{ACAD_REACTORS
330
23A
102
}
330
23A
100
DictionaryVariables
280
     0
  1
1:1
  0
DICTIONARYVAR
  5
23C
102
{ACAD_REACTORS
330
23A
102
}
330
23A
100
DictionaryVariables
280
     0
  1
STANDARD
  0
DICTIONARYVAR
  5
23B
102
{ACAD_REACTORS
330
23A
102
}
330
23A
100
DictionaryVariables
280
     0
  1
STANDARD
  0
DICTIONARYVAR
  5
23D
102
{ACAD_REACTORS
330
23A
102
}
330
23A
100
DictionaryVariables
280
     0
  1

  0
DICTIONARYVAR
  5
23E
102
{ACAD_REACTORS
330
23A
102
}
330
23A
100
DictionaryVariables
280
     0
  1

  0
DICTIONARYVAR
  5
242
102
{ACAD_REACTORS
330
23A
102
}
330
23A
100
DictionaryVariables
280
     0
  1
0
  0
DICTIONARYVAR
  5
243
102
{ACAD_REACTORS
330
23A
102
}
330
23A
100
DictionaryVariables
280
     0
  1
0
  0
DICTIONARYVAR
  5
241
102
{ACAD_REACTORS
330
23A
102
}
330
23A
100
DictionaryVariables
280
     0
  1
2
  0
DICTIONARYVAR
  5
23F
102
{ACAD_REACTORS
330
23A
102
}
330
23A
100
DictionaryVariables
280
     0
  1
1
  0
DICTIONARYVAR
  5
245
102
{ACAD_REACTORS
330
23A
102
}
330
23A
100
DictionaryVariables
280
     0
  1
80.000000
  0
DICTIONARYVAR
  5
244
102
{ACAD_REACTORS
330
23A
102
}
330
23A
100
DictionaryVariables
280
     0
  1
5.000000
  0
DICTIONARYVAR
  5
246
102
{ACAD_REACTORS
330
23A
102
}
330
23A
100
DictionaryVariables
280
     0
  1
2
  0
DICTIONARY
  5
250
102
{ACAD_REACTORS
330
24E
102
}
330
24E
100
AcDbDictionary
281
     1
  0
DICTIONARY
  5
24F
102
{ACAD_REACTORS
330
24E
102
}
330
24E
100
AcDbDictionary
281
     1
  3
1299762832
350
249
  3
1299762848
350
24A
  3
1299762864
350
24B
  3
1299762880
350
24C
  3
1299762896
350
24D
  0
DICTIONARY
  5
17
330
15
100
AcDbDictionary
280
     1
281
     1
  0
DICTIONARY
  5
3C
330
3B
100
AcDbDictionary
280
     1
281
     1
  3
ACAD_XREC_ROUNDTRIP
360
255
  3
FBXASSET
360
3D
  0
DICTIONARY
  5
39
330
38
100
AcDbDictionary
280
     1
281
     1
  3
ACAD_XREC_ROUNDTRIP
360
254
  3
FBXASSET
360
3A
  0
DICTIONARY
  5
C
330
A
100
AcDbDictionary
280
     1
281
     1
  3
ACAD_XREC_ROUNDTRIP
360
251
  3
BUMPTILE
360
D
  3
DIFFUSETILE
360
E
  3
FBXASSET
360
F
  3
OPACITYTILE
360
10
  3
REFLECTIONTILE
360
11
  0
DICTIONARY
  5
44
330
43
100
AcDbDictionary
280
     1
281
     1
  3
ACAD_ROUNDTRIP_2008_TABLESTYLE_CELLSTYLEMAP
360
247
  3
ACAD_XREC_ROUNDTRIP
360
256
  0
DICTIONARY
  5
252
330
2A
100
AcDbDictionary
280
     1
281
     1
  3
ACAD_XREC_ROUNDTRIP
360
253
  0
DICTIONARY
  5
257
330
45
100
AcDbDictionary
280
     1
281
     1
  3
ACAD_XREC_ROUNDTRIP
360
258
  0
DICTIONARY
  5
259
330
46
100
AcDbDictionary
280
     1
281
     1
  3
ACAD_XREC_ROUNDTRIP
360
25A
  0
XRECORD
  5
249
102
{ACAD_REACTORS
330
24F
102
}
330
24F
100
AcDbXrecord
280
     1
  1
AcDb_Thumbnail_Schema
102
{ATTRRECORD
341
24A
  2
AcDbDs::TreatedAsObjectData
280
     1
291
     1
102
ATTRRECORD}
102
{ATTRRECORD
341
24B
  2
AcDbDs::Legacy
280
     1
291
     1
102
ATTRRECORD}
  2
AcDbDs::ID
280
    10
 91
        8
102
{ATTRRECORD
341
24C
  2
AcDs:Indexable
280
     1
291
     1
102
ATTRRECORD}
102
{ATTRRECORD
341
24D
  2
AcDbDs::HandleAttribute
280
     7
282
     1
102
ATTRRECORD}
  2
Thumbnail_Data
280
    15
 91
        0
  0
XRECORD
  5
24A
102
{ACAD_REACTORS
330
24F
102
}
330
24F
100
AcDbXrecord
280
     1
  1
AcDbDs::TreatedAsObjectDataSchema
  2
AcDbDs::TreatedAsObjectData
280
     1
 91
        0
  0
XRECORD
  5
24B
102
{ACAD_REACTORS
330
24F
102
}
330
24F
100
AcDbXrecord
280
     1
  1
AcDbDs::LegacySchema
  2
AcDbDs::Legacy
280
     1
 91
        0
  0
XRECORD
  5
24C
102
{ACAD_REACTORS
330
24F
102
}
330
24F
100
AcDbXrecord
280
     1
  1
AcDbDs::IndexedPropertySchema
  2
AcDs:Indexable
280
     1
 91
        0
  0
XRECORD
  5
24D
102
{ACAD_REACTORS
330
24F
102
}
330
24F
100
AcDbXrecord
280
     1
  1
AcDbDs::HandleAttributeSchema
  2
AcDbDs::HandleAttribute
280
     7
 91
        1
284
     1
  0
XRECORD
  5
255
102
{ACAD_REACTORS
330
3C
102
}
330
3C
100
AcDbXrecord
280
     1
102
MATERIAL
148
0.0
149
0.0
149
0.0
 93
        0
 94
       63
282
     0
 72
     1
 77
     1
171
     1
175
     1
179
     1
273
     0
  0
XRECORD
  5
3D
102
{ACAD_REACTORS
330
3C
102
}
330
3C
100
AcDbXrecord
280
     1
 70
     1
 90
429727718
  1
D62C5603-E3A1-4AEA-B7FB-FE5D8D0755AF
310
504B03040A0000080000CC70623B3DEE336E79000000790000001B0000006175746F6465736B2D64657369676E2D7061636B6167652E786D6C3C3F786D6C2076657273696F6E3D22312E302220656E636F64696E673D227574662D3822203F3E3C666F726D6174733E3C666F726D61743E687474703A2F2F736368656D612E
310
6175746F6465736B2E636F6D2F64657369676E2D7061636B6167652F323030393C2F666F726D61743E3C2F666F726D6174733E504B0304140006080800CC70623BD486FD9CA0000000F4000000130000005B436F6E74656E745F54797065735D2E786D6C7D8EC10E82300C865F65E91D8A1E8C310C0EEA1BF002731658846E
310
D98AC1B77784ABF1D8FE5FBFBF75BBCE937A534CCEB38643598122B6FEE978D0B0485F9C41B54DDD7D022595594E1A469170414C76A4D9A4D207E29CF43ECE46F218070CC6BECC4078ACAA135ACF422C856C0E68EA1BF5669944DDD7BCDE7B1F8E415D77AECB980613C2E4AC91FC167A2B244592486606FC29C8FD7F045B9A
310
EF7053A7E60B504B0304140006080800CC70623B853B8169EB0000007C01000008000000636F72652E786D6C8D90416EC3201045AF62CDB6C206821CC7C244919D9CA01740401C94182C03558F5F9C3852BBEB6A467FFE9B197D7EFC9E1EC5975982F5AE035262288C535E5B377690E21535501C055FBC8FBF6C503839990E
310
5619041F179FE64D52DE45E362569DD7661365082642A11EB9E920A89B99642953CC8E702F67A9EE7234257977194EC9EAE275C4EABCCF5EAD5940D4AC6F0E35A568B8F43562CD7046CD199FD07E60174276A7BE677B5EADB0E0D14EEFFB6A31321A0D82627C4084204C3F096B71DD52F6819B16635EADF63F509AF53FA164
310
5DDCD1EDDD17164090FCC8732078B56691CB33A85CD7DCC40F504B0304140006080800CC70623B55019EA25F0000007C00000007000000636E782E786D6C4DCB3B0E80201045D1AD90E915ED2CF8AC45050C11660C8261F98AB1B07AC9C97D42D718D865D3E909258CFD00CCE24AC6E326A164D74DC0B4128928FF32603847
310
2BA13128B1252AC747C6BAB984FC68F0B87FE8960A5C09FE86CFB69FBA01504B0304140006080800CC70623BDBABAAF470010000D40300000C0000006662782F636F72652E786D6CC553D16E823014FD95A6AF4B694182CC941A83FA05FB810A9511A125A5257EFE2E82712ECEB8A7F100CD39F7F69E734AF9FADC366850B6
310
AF8DCE7018308C942E4C59EB2AC3DE1D498AD15A706B8CFB56869196ADCAF00863C12B6B7C374385D14E6907A836A59A41D9F7CA615434B0C8705F7CAA5606D23BA8E84F41278B93AC54100640439DE0BDB320004D43C63716C7C399D30917DCFBBA9CD9BA8469F5B156168B24CED3F7248AC8769F27244EB73B92EED8862C
310
B7F13E0C179B3C8F979C8ECD82BBBABDAA2BAC924E9558448CBD9330242CFA08E3154B5651FCC6D215639C8EE5774DBE2B5F6CF2B5768B68963BB5F5588420E442FC700B1139D4CB01F450C1E918227C2E09DF070D8140C84E1E9AAB8F1340832A9CB13130A5F1376A908D57309505ECF2A0DF179C4E9D30F5B239B87E3823
310
7A79C6F31DE1A8A5AEC08474B03C7837EAE4938639B44E5932B833D2C6B6B279CDC613877FA26EE21F4A2A4C63EC7F29A2F301D1F9F7A0E37D145F504B0304140006080800CC70623B9C113CC27E0000009D0000000B0000006662782F636E782E786D6C4DCCDF0A83201C86E15B91DFB94BFB330DD428C8FB886521330DA7
310
6397BF1A1DECE883878F57749FCDA1B7892F1BBC047A23808C7F84D9FA55424E0BE6803A256208E9EF06C84F9B91703228B1C690F78B66B34CD9A5439DF5CF0BFBF65E35BCA1B8D6A5C6F540381E886698B5741C695F9503EBA150A2F8958E3DC3EA0B504B0304140006080800CC70623B7DF2F77C2A010000120200003100
310
00006662782F41393633353835312D344632462D344230382D423046372D3739314545314133324237412F636F72652E786D6C8D51DB8EC22014FC15C2939B0D2DB4B45643319AE817EC0F6041255A68B86CFCFC856D4D76DF7CE190393373060EDB3DC707F856CE6B6B7A480A0C81328395DA5C7B18C3057510EC3873D686
310
3F34088C18550F330C39BB3A1BA7051AAC09CA84841A2BD5020AEF55806078A44B0FFD7053A328440C89E1EFC52486BBB8AA8214A99D789CF9E05200300FC927E4FB4D5B375D43103D5527440FB843077C5AA3F5861C8F645F5787F59E95B390B318B55CE45AA638FAA2957BD7248B390B7A7CC51F9C124149C82B8C378810
310
84AB2F42B7B8DD56F413775B8C5999E9FF4471926F8AA236A1AE96B8B3CC434E5839373893369E1FAF30EA395917409EB7F26AF8801C171837A4A6AC9C89E9F9C9B1A58BA30FD6A5EF5DDDCF894B9AD9B6A59C957943A9FCAE2FD5BC4DFE03504B0304140006080800CC70623BAD7543B64E01000033030000300000006662
310
782F41393633353835312D344632462D344230382D423046372D3739314545314133324237412F636E782E786D6CD593CD6EC32010845F0571AD6CE3D48AD20813A9873E410FBD12D82434182C7EAAE6EDBB2424CD25871E7B41D6EC30B3FA84F9E67BB2E40B4234DE8DB46F1925E094D7C6ED479AD3AE5951B2113C789FEE
310
6C943839C1488B4C05DF079FE72A69D8C96C13AAD6B8631503449F83828872B949AC57D26200B826A308D316B4064D6E46FCDA41C05550DC9E483A00797BFD207EFB092A45DE9514C1BBD22178396BD39D891265658C238DEA00936C654E5E433CB65A26D9F6EDB5EBC14EBF49A45CB856E66048291F6939A9A81BB5C89177
310
38143CA680F4AA299D66A042CEB3354A2684DC9D8D178FE0D9B8B41CAAD720F880EE7EF93C0C18769E099ECC04D5A102C8049A8A05632F4DDF376CF1DE0F6BB65C2F8627B65A33C6BB62177CEBBDAD973006829F89F22E814B54F4BC2BE347F8AA8F681390B50FA73F804400B5F542E796F19FF974E7F78DB802FE05E20750
310
4B0304140006080800CC70623BE75B7789680500003C100000340000006662782F41393633353835312D344632462D344230382D423046372D3739314545314133324237412F6F626A656374732E786D6CAD575B8F9B3818FD2B887D06C22499CB8AA1CA655245D5B455A356FB305264C061D8018C6C3393D95FBFC7600890
310
A4CD5EF210B0B1BFEBF98E3F7B1FF6596ABC522E1296DF9BAE3D320D9A872C4AF2F8DE2CE5CEBA358D0FBEC719939D65A691938CDE9B6ADAF4BD98B3B2D05311DD91329583D9D5FC0F438434A7A611A644887B5384CF34233629258BA878B12322891DEFF6B66BD70BFB62634E8AE781D082709A4B588AF91C528CDA28B73F
310
1C998EEF39EABBEFA97FBD6A7C7E9553F9D3D79FE442923C3C523610337627CB87ABE99D359D4CC6D6E4FACAB5E6ABF9D2726FC6A3C5F56271377BB88362213924694B38DD99FE47C48627A1E7D49F5A8BB5E1A74C0A599ED3B0F21F1E56366B89112D681E218F0915D0D6F17AD41FBA2A369DCF6335D62ABBD39779D5DDD1
310
11D4D8DE3CBB96B2E04FB8202E41051754A1AA8E8F76B4C6DFE810B580B1547F4B84911149794252234D024EF8BBE963A95AE27B3D310A9D5C215C7960FAEE415ED75694C6AFB17BCACA5D99A60A9AA65F217B0BFC53292ACB92BF283FAD0D3621576592CB5BED907C2FA8E9DF794E35E97BEA31BED21FEB401ABB94C44839
310
DCACBF0E1C5DA8DA5B2F4DFFD32AD86F543D9E565E7056502E157C00AD2671CD534549AB752FCA9CDA00677A313F04E51B22FF19E57B300579E3C97EB29F682D92935CEC18CF901B7B54FD8C51F362B56FC72FE0B3C1EAE335EDCCBF5AEC39ADB17DC238973F804BA5E6F6BFE7AF1FB32E523BE9F3BD571418E3631DCA4D48
310
5250CF639223210A9446CA30052EDF057BD35F8329C1ECD84552BF0DC8D18BE7BCE23BFE6BD960AB4A7DE79923A103BEBD80F911CBAA2C60DB19B01CF164A5583B772EE6D3FFA56666CBCDA74DC97724A48F9A58967497E489C4D979006FD7A05E227A1EBDD0F737C623387A9C844D3709995625106D157315F8B8392CD4E0
310
A0B9A720C4BE9829CEF37EA1E13111214D53925356365ADA634861B52519DD27A00AEB808EAF0628E6F435519D446F45CF2C9CF5214F0A15B2F6D06B79DA3EE3CBF7F56780D2F4E7EF73A0F5E5B02A38D07DC852C6B7C1FBB6664213E0C39E3EBA7FF4E1AD23EA2829407C85E586727488B751B2DB9502BC7B228A3FD68B6E
310
A65A22397E690AA8D158D7E404EC8CDA235CC3B7D1898680131CEC2CDF2638C65196279577750F15884AEE19F94199155B92B13297978469D4F8D358DF0AEF7631E28DC8F0D9F437D5D39A83B2231A1D52D543813A824EF8D44BCFF2FA6A31BD1E8DAD87F1CCB526B3879935BF59CDADD5C37479BB1CDD4CA7B3556B516589
310
EF352754B706114D9C885EC9131DE6EFEB43D99AFE2391C2F958179413D7CFEF6B1B6DB1E7600F00DE6E5C67454A339A4BA2E0FBA85ED26F045D454F463DBFCE484C2F90F2E5E3666003662ED8F755951A7D1BECD5B30B550B2785C8E7320B7292A4838DDA71BBC863ED7613CAF659337A3354231D4FF4A182A54904C2898C
310
98B28C4AD0CE056CCF332A80986E571EE9DBC305BB5FEB7E509220A58D25CF042D712A806AC0AD0C657FDEF80D2D9CEAA2EE4D1C76F60BFE74219A06527D6F82DF6412526107381E55E353090704D085B52408A8913C4ED159D79BDA71BB4BC506F4831350EB6F975CD22D69BF7AC49B91A2C0A9DDA3D5CA36AD20FC478E37
310
E61844E2352865EBCB61A275A65283CAAA9DD27703B4102F5AF51EF5F573B75CBB5AD38BC845F7A49F82A0966A49C2E3EA5EA0ECD326CD965F1DB402C6FA8B51A4658C5C5E2EC9E214602E55810345408596591009A82E7E7FFACA19EEA299B14A0081A705CB3296EBC14CDF658DCD336EA6D1136881AAEB87B81AB9EE53D5
310
F5EB8BC8362082DA24122F98680A4E7930C01A0079749CEA14382A0783E5EBA5A10F8C098456A03D6A4AEB6BB881E2513747552A5DB22C7EDAF83BD5528081A365F7FF06504B0304140006080000CC70623B000000000000000000000000350000006662782F41393633353835312D344632462D344230382D423046372D37
310
39314545314133324237412F76657274696365732E62696E504B0304140006080800CC70623BF270F1330600000004000000360000006662782F41393633353835312D344632462D344230382D423046372D3739314545314133324237412F747269616E676C65732E62696E636660600000504B0304140006080000CC7062
310
3B000000000000000000000000370000006662782F41393633353835312D344632462D344230382D423046372D3739314545314133324237412F617474726962757465732E62696E504B0304140006080800CC70623B08DA0BD19000000041010000360000006662782F41393633353835312D344632462D344230382D4230
310
46372D3739314545314133324237412F6469726563746F72792E786D6C858F410AC3201045AF22B36F53E9A60B35CBEEBAE80D244E44489C6234F4F835464A48035D0DF398FF9F8AF63D0E6CC63039F212F8F9020C7D47C6792B21C5FE7403D62A1188E2E60C98D7234A5830286103A55745067B9D86B8A3CF9C7F90C11DE6
310
07FB144396D7B6A82D282E9A152AD114D5EF2CB866EEE831B8EEA07A7BB5A8D7D61A2BAAEB7FD5F70921FF497D00504B0304140006080800CC70623BEDD1DC58FD000000A00100003B0000006662782F41393633353835312D344632462D344230382D423046372D3739314545314133324237412F7265736F75726365732F
310
636F72652E786D6C8D504B6E833010BD0A9A6D65B00922041947112427E8052C33A156828DFCA97AFC9A40A576D7CDCCE87D344F8F9FBFE667F689CE6B6B3A6039850C8DB2A336530731DC4903D95970676DF82583CCC8193B5861107C72362E3BA4AC096842428D1D7107A5F7182053CF7474E0D507CE32973124857FE48B
310
540F3961CEF244279DE03EB81420DB9EAC1384436FA353E879B1B182C7A8C75DA3C7F453DF353A1075D537A7BA6464B8F535A99AE14A9A2BBD90E350DD183B5CFABE3AF262350B1EF4FC9351399401471025A527C218A1E53BAB5A5AB765F5469B96525EACF23FA6B88CFF34456DC2A1DCE36E360F82A5202F42F062ED2BAD
310
579969AFDD8A6F504B010214000A0000080000CC70623B3DEE336E79000000790000001B00000000000000000000000000000000006175746F6465736B2D64657369676E2D7061636B6167652E786D6C504B01021400140006080800CC70623BD486FD9CA0000000F40000001300000000000000000000000000B20000005B
310
436F6E74656E745F54797065735D2E786D6C504B01021400140006080800CC70623B853B8169EB0000007C010000080000000000000000000000000083010000636F72652E786D6C504B01021400140006080800CC70623B55019EA25F0000007C000000070000000000000000000000000094020000636E782E786D6C504B
310
01021400140006080800CC70623BDBABAAF470010000D40300000C00000000000000000000000000180300006662782F636F72652E786D6C504B01021400140006080800CC70623B9C113CC27E0000009D0000000B00000000000000000000000000B20400006662782F636E782E786D6C504B01021400140006080800CC70
310
623B7DF2F77C2A010000120200003100000000000000000000000000590500006662782F41393633353835312D344632462D344230382D423046372D3739314545314133324237412F636F72652E786D6C504B01021400140006080800CC70623BAD7543B64E010000330300003000000000000000000000000000D2060000
310
6662782F41393633353835312D344632462D344230382D423046372D3739314545314133324237412F636E782E786D6C504B01021400140006080800CC70623BE75B7789680500003C10000034000000000000000000000000006E0800006662782F41393633353835312D344632462D344230382D423046372D3739314545
310
314133324237412F6F626A656374732E786D6C504B01021400140006080000CC70623B0000000000000000000000003500000000000000000000000000280E00006662782F41393633353835312D344632462D344230382D423046372D3739314545314133324237412F76657274696365732E62696E504B01021400140006
310
080800CC70623BF270F133060000000400000036000000000000000000000000007B0E00006662782F41393633353835312D344632462D344230382D423046372D3739314545314133324237412F747269616E676C65732E62696E504B01021400140006080000CC70623B0000000000000000000000003700000000000000
310
000000000000D50E00006662782F41393633353835312D344632462D344230382D423046372D3739314545314133324237412F617474726962757465732E62696E504B01021400140006080800CC70623B08DA0BD1900000004101000036000000000000000000000000002A0F00006662782F41393633353835312D344632
310
462D344230382D423046372D3739314545314133324237412F6469726563746F72792E786D6C504B01021400140006080800CC70623BEDD1DC58FD000000A00100003B000000000000000000000000000E1000006662782F41393633353835312D344632462D344230382D423046372D3739314545314133324237412F7265
310
736F75726365732F636F72652E786D6C504B0506000000000E000E0080040000641100000000
  0
XRECORD
  5
254
102
{ACAD_REACTORS
330
39
102
}
330
39
100
AcDbXrecord
280
     1
102
MATERIAL
148
0.0
149
0.0
149
0.0
 93
        0
 94
       63
282
     0
 72
     1
 77
     1
171
     1
175
     1
179
     1
273
     0
  0
XRECORD
  5
3A
102
{ACAD_REACTORS
330
39
102
}
330
39
100
AcDbXrecord
280
     1
 70
     1
 90
429727718
  1
30362254-06B7-45E0-A893-8CFA70E3D6BC
310
504B03040A0000080000CC70623B3DEE336E79000000790000001B0000006175746F6465736B2D64657369676E2D7061636B6167652E786D6C3C3F786D6C2076657273696F6E3D22312E302220656E636F64696E673D227574662D3822203F3E3C666F726D6174733E3C666F726D61743E687474703A2F2F736368656D612E
310
6175746F6465736B2E636F6D2F64657369676E2D7061636B6167652F323030393C2F666F726D61743E3C2F666F726D6174733E504B0304140006080800CC70623BD486FD9CA0000000F4000000130000005B436F6E74656E745F54797065735D2E786D6C7D8EC10E82300C865F65E91D8A1E8C310C0EEA1BF002731658846E
310
D98AC1B77784ABF1D8FE5FBFBF75BBCE937A534CCEB38643598122B6FEE978D0B0485F9C41B54DDD7D022595594E1A469170414C76A4D9A4D207E29CF43ECE46F218070CC6BECC4078ACAA135ACF422C856C0E68EA1BF5669944DDD7BCDE7B1F8E415D77AECB980613C2E4AC91FC167A2B244592486606FC29C8FD7F045B9A
310
EF7053A7E60B504B0304140006080800CC70623B1EC5D7A3EB0000007C01000008000000636F72652E786D6C8D90416EC3201045AF82665B6103C6756C6122AB4D4ED00B204C5C94182C03558F5F9C3852BBEB6A467FFE9B197D71FC9E6FE8CBACC17AD7032D0820E3B41FAD9B7A48F1820F808E52ACDEC75F36404ECDA687
310
4D0629A6D5A76597B477D1B89855E747B38B2A041301E95B6E7A08FAD3CCAA50296647B8168BD2573599823EBB0CA76447F43862C7BCCF5EAC59410E4DDD9C7973C2755553CCCFA4C603E3040F1565ED3B1FDE4E432BCA0D9622DAF9795FAF464533826484B498524CD807E51D79ED187F21878E10516EF63F505AC67F42C9
310
BA58B1FDDD071640D2FCC87D2045B96591CB3DA85CB7DCE40F504B0304140006080800CC70623B55019EA25F0000007C00000007000000636E782E786D6C4DCB3B0E80201045D1AD90E915ED2CF8AC45050C11660C8261F98AB1B07AC9C97D42D718D865D3E909258CFD00CCE24AC6E326A164D74DC0B4128928FF32603847
310
2BA13128B1252AC747C6BAB984FC68F0B87FE8960A5C09FE86CFB69FBA01504B0304140006080800CC70623B8C9102E971010000D40300000C0000006662782F636F72652E786D6CC5535B6E833010BC8AE5DF0A6C08340F1947A84D4ED00B38C6A128602363A31CBFCB234A53A551FA553EC09AD9F5CE8C31DB9E9B1AF5CA
310
7695D1198E428A91D2D214952E33ECDD315861B4E5CC1AE3BE9561A445A3323CC098B3D21ADFCE9034DA29ED00D5A6503328BA4E398C640D8B0C77F253352214DE4145770A5B214FA2546114020D759C75CE8200340D19DE981F0F6746269C33EFAB6266AB02A655C74A59CCF365BADC27CB5D902ED22848F6340DF238A141
310
BE88E2F57B92BFEDF23523433367AE6A2EEAA455C2A902F398D2751045018D3FA264435F3771F242571B4A1919CA6F9A7C5B3CD9E42BED16F12C776AEB308F40C848FC700B1139D4891EF410CEC810227CC6846F8386402064270EF5C5C709A05E49676C024C61FC95EA45ED154CA5211D1FF4FB8291A913A68E9B83EBBB33
310
E2A7673CDE118E5AE8124C0807CB8377834E366998436B950D7A7746DAD846D4CFD978E0F04FD455FC5D49D2D4C6FE9722321F10997F0F32DC47FE05504B0304140006080800CC70623BFFEA85907E0000009D0000000B0000006662782F636E782E786D6C4DCCD10A83201886E15B91FFDC95D95A811AB6F23E625948A6C3
310
E9D8E5AF46073BFAE0E1E365ED67B3E8ADC3CB78C7815C7240DA3DFC64DCC221C519D7805AC182F7F1EF06C88D9BE6703008B6049F9E274D7A1E938DBB5AE3D6131B2589BA0D3D965551E0B2EA732C9B9A624AAEB41E3A557677029960D9AFB4EF11165F504B0304140006080800CC70623B4FEEA4082C0100001202000031
310
0000006662782F39464131463745442D413632322D343644302D413938332D3331353338454246344243312F636F72652E786D6C8D515B6EC32010BC0AE2AB55850DD871ED0813254D72825EC00192A2C460F1A872FC42ED48ED5F7E00CDCECCCEB26C731F6FE05B39AFADE921293004CA082BB5B9F43086336A21D870E6AC
310
0D7F68109861543DCC30E4ECE26C9C164858139409093556AA051CBC570102714B8F1E7AF1A5C6A11862480C7F2DA6415C878B2A4891CA89C7990F2E050073937C42DE1DB7E4F87ED8A36D4329AA9B3D46DBAEAD504556557BD81DEBDD0761E52CE42C462D17B996298E3E6BE59E35C962CE821E1FF18553435012728A7187
310
0841987E927A8D9B35ADDF70BBC6989599FE4F1427F9A4286A132ABAC49D651EF234CD5CE04CDA78BA3DC2A8FB645D00B9DF8B57E215725C60BCA2A463E54C4CE327C7A65E1C7DB02E7DEFCBF594B864C5CA6CDBD49C957943E9FA5D5FBAF336F90F504B0304140006080800CC70623BAD7543B64E01000033030000300000
310
006662782F39464131463745442D413632322D343644302D413938332D3331353338454246344243312F636E782E786D6CD593CD6EC32010845F0571AD6CE3D48AD20813A9873E410FBD12D82434182C7EAAE6EDBB2424CD25871E7B41D6EC30B3FA84F9E67BB2E40B4234DE8DB46F1925E094D7C6ED479AD3AE5951B2113C
310
789FEE6C943839C1488B4C05DF079FE72A69D8C96C13AAD6B8631503449F83828872B949AC57D26200B826A308D316B4064D6E46FCDA41C05550DC9E483A00797BFD207EFB092A45DE9514C1BBD22178396BD39D891265658C238DEA00936C654E5E433CB65A26D9F6EDB5EBC14EBF49A45CB856E66048291F6939A9A81BB5
310
C8917738143CA680F4AA299D66A042CEB3354A2684DC9D8D178FE0D9B8B41CAAD720F880EE7EF93C0C18769E099ECC04D5A102C8049A8A05632F4DDF376CF1DE0F6BB65C2F8627B65A33C6BB62177CEBBDAD973006829F89F22E814B54F4BC2BE347F8AA8F681390B50FA73F804400B5F542E796F19FF974E7F78DB802FE05
310
E207504B0304140006080800CC70623B16AB87BA640500003C100000340000006662782F39464131463745442D413632322D343644302D413938332D3331353338454246344243312F6F626A656374732E786D6CAD575B6FA33818FD2B887DE6924B3BED8A326A92B68A663B534DD4D13E548A0C38942D60649B369D5FBFC7
310
600890A493BDE42160637FD7F31D7FF63E6FB3D478A55C242CBF3247B66B1A340F5994E4F19559CA8D75611A9F7D8F33263BCB4C232719BD32D5B4E97B316765A1A722BA21652A07B3B7B33F0D11D29C9A46981221AE4C113ED38CD8A4942CA2E2C58E882476BCD9DA23BB5ED8171B73523C0F841684D35CC252CCE79062D4
310
468DFA43D7747CCF51DF7D4FFDEB5593E3AB9CCA9FBEFE241792E4E19EB28198C968BAB8199F5D5A67D3E9C49A9E8F47D6EC76B6B0469F26EEFC7C3EBFBCBEB98462213924694B38DD98FE1D62C393D073EA4FADC5DAF04326852CCF6958F90F0F2B9BB5C48816348F90C7840A68EB78EDF68723159BCEE7891A6B95DDE9D3
310
BCEAEEE8086A6C6F9E5D4B59F0175C10A7A0820BAA5055C7473B5AE3CFDD452D602CD5DF12616444529E90D448938013FE6EFA58AA96F85E4F8C42275708571E98FE6827AF6B2B4AE3D7D83D64E5A64C53054DD3AF90BD06FEA9149565C94FCA0F6B834DC85599E4F2423B24DF0B6AFA979E534DFA9E7A4CC6FA631D486393
310
921829879BF5D781A373557BCB85E97FB90DB62B558F8795179C15944B051F40AB495CF35451D26A4727654E6D8033BD98EF82F21D91FF8AF2DD9982BCF1643BDD4EB516C9492E368C67C88DED563FC36D5EACF66DFF057C3658BDBFA69DF9578B3DA735B64F18C7F20770A9D45CFCF7FCF563D6456A277DBEF78A02637CA2
310
43B90A490AEAB94F72244481D24819A6C0E59B606BFA4B3025981DBB48EAB701D97BF19C577CC77F2D1B6C55A9EF3C732474C0B727303F625995056C3B02963D9EAC146BE78EC5FCEC7FA999EBC5EACBAAE41B12D27B4D2C0BBA49F244E2ECDC81B76B502F113D8F5EE8FB1BE3111CDD4FC2AA9B844CAB1288B68AB90A7CDC
310
1C166AB0D3DC5310625FCC14E779BFD0709F8890A629C9292B1B2DED31A4B0DA928CEE135085754027E3018A397D4D5427D15BD1330B677DC8934285AC3DF45A9EB68FF8F2B8FC0A509AFEECFD0FF2DE25CC6047F7214B195F07EFEB9A094D800F7BFAE8FED187B78EA8A3A400F115961BCAD1215E47C966530AF0EE8128FE
310
58CEBB996A8964FFA529A046635D9353B0336A8F700DDF46271A024E70B0B37C9DE01847591E54DED53D54202AB947E4076556AC49C6CA5C9E1226B7F1A7B1BE15DEED62C41B91E1B3E9AFAAA735036547343A925075041DF0A9979E893B391F8FCFA6967B3EFB644DCF6E5CEBFAE272625DCC6FAF3FB93793C5F90CE1EF57
310
407342756B10D1C489E8953CD1617E5CEECAD6F4EF8914CE5D5D504E5C3F1F9736DA62CFC11E00BCDDB8CC8A9466349744C1F75EBDA4DF09BA8A9E8C7A7E9991989E20E5DBDD6A6003664ED8F7A04A8DBE0DF6EAD9B9AA858342E47399053949D2C146EDB85DE4B176BB0965FBAC19BD19AA918E27FA50C1D22402E144464C
310
59462568E704B6E71915404CB72B8FF4EDE184DDAF753F284990D2C6926782963815403548A70C657FDEF80D2D9CEAA2AE4C1C76F60BFE74219A06527D6582DF6412526107381E55E353090704D085B52408D0933C4ED159D79BDA71BB4BC506F4831350EB6F979CD22D69BF7AC49B91A2C0A9DDA3D5CA36AD20FC478E37E6
310
1844E2352865EBCB6EA275A652E3836BE04EFB400BF1A2556F515F1FBB35B2AB35BD889C744FFA1004B5544B121E57F70215746DD2F5E2C1412B602CBF19455AC6C8E5E9922C4E01E65215385004546899059180EAFCF7A707CE7017CD8CDB0410789AB32C63B91E5CEBBBACB17AC6CD347A022D5075FD106377347AAABA7E
310
7D11590744509B44E205134DC1290F06580320F78E537D3D73540E06CB970B431F185308AD40BBD794D6D77003C5A36E8EAA54BA64597CD8F83BD552A080A365F7FF06504B0304140006080000CC70623B000000000000000000000000350000006662782F39464131463745442D413632322D343644302D413938332D3331
310
353338454246344243312F76657274696365732E62696E504B0304140006080800CC70623BF270F1330600000004000000360000006662782F39464131463745442D413632322D343644302D413938332D3331353338454246344243312F747269616E676C65732E62696E636660600000504B0304140006080000CC70623B
310
000000000000000000000000370000006662782F39464131463745442D413632322D343644302D413938332D3331353338454246344243312F617474726962757465732E62696E504B0304140006080800CC70623B08DA0BD19000000041010000360000006662782F39464131463745442D413632322D343644302D413938
310
332D3331353338454246344243312F6469726563746F72792E786D6C858F410AC3201045AF22B36F53E9A60B35CBEEBAE80D244E44489C6234F4F835464A48035D0DF398FF9F8AF63D0E6CC63039F212F8F9020C7D47C6792B21C5FE7403D62A1188E2E60C98D7234A5830286103A55745067B9D86B8A3CF9C7F90C11DE607
310
FB144396D7B6A82D282E9A152AD114D5EF2CB866EEE831B8EEA07A7BB5A8D7D61A2BAAEB7FD5F70921FF497D00504B0304140006080800CC70623B0D6EF93BFE000000A00100003B0000006662782F39464131463745442D413632322D343644302D413938332D3331353338454246344243312F7265736F75726365732F63
310
6F72652E786D6C8D50596E833010BD0A9ADFCA60B334011947A8694ED00B586642AC041B79A97AFC9A40A5F6AF3F33A3B7689E1E3F7DCD8FEC139DD7D6F4C0720A191A65476DA61E62B892236427C19DB5E1970C322367EC618541F0C9D9B8EC90B226A009093576C41D94DE63804C3DD2D18357379C652E63480A7FCF17A9
310
EE72C29CE5894E3AC17D702940B63D59270887DE46A7D0F36263058F518FBB468FE9A7BE6A7420864373B8D4873369AA8691FA421B3294352543C5CAF65C0F6FEF43CB8BD52C78D0F34F46E550061C419494B6843142CB0F5677F4B52BEB177AEC28E5C52AFF638ACBF84F53D42654E51E77B379102C05791282176B5F693D
310
CB4C7BED567C03504B010214000A0000080000CC70623B3DEE336E79000000790000001B00000000000000000000000000000000006175746F6465736B2D64657369676E2D7061636B6167652E786D6C504B01021400140006080800CC70623BD486FD9CA0000000F40000001300000000000000000000000000B20000005B
310
436F6E74656E745F54797065735D2E786D6C504B01021400140006080800CC70623B1EC5D7A3EB0000007C010000080000000000000000000000000083010000636F72652E786D6C504B01021400140006080800CC70623B55019EA25F0000007C000000070000000000000000000000000094020000636E782E786D6C504B
310
01021400140006080800CC70623B8C9102E971010000D40300000C00000000000000000000000000180300006662782F636F72652E786D6C504B01021400140006080800CC70623BFFEA85907E0000009D0000000B00000000000000000000000000B30400006662782F636E782E786D6C504B01021400140006080800CC70
310
623B4FEEA4082C0100001202000031000000000000000000000000005A0500006662782F39464131463745442D413632322D343644302D413938332D3331353338454246344243312F636F72652E786D6C504B01021400140006080800CC70623BAD7543B64E010000330300003000000000000000000000000000D5060000
310
6662782F39464131463745442D413632322D343644302D413938332D3331353338454246344243312F636E782E786D6C504B01021400140006080800CC70623B16AB87BA640500003C1000003400000000000000000000000000710800006662782F39464131463745442D413632322D343644302D413938332D3331353338
310
454246344243312F6F626A656374732E786D6C504B01021400140006080000CC70623B0000000000000000000000003500000000000000000000000000270E00006662782F39464131463745442D413632322D343644302D413938332D3331353338454246344243312F76657274696365732E62696E504B01021400140006
310
080800CC70623BF270F133060000000400000036000000000000000000000000007A0E00006662782F39464131463745442D413632322D343644302D413938332D3331353338454246344243312F747269616E676C65732E62696E504B01021400140006080000CC70623B0000000000000000000000003700000000000000
310
000000000000D40E00006662782F39464131463745442D413632322D343644302D413938332D3331353338454246344243312F617474726962757465732E62696E504B01021400140006080800CC70623B08DA0BD190000000410100003600000000000000000000000000290F00006662782F39464131463745442D413632
310
322D343644302D413938332D3331353338454246344243312F6469726563746F72792E786D6C504B01021400140006080800CC70623B0D6EF93BFE000000A00100003B000000000000000000000000000D1000006662782F39464131463745442D413632322D343644302D413938332D3331353338454246344243312F7265
310
736F75726365732F636F72652E786D6C504B0506000000000E000E0080040000641100000000
  0
XRECORD
  5
251
102
{ACAD_REACTORS
330
C
102
}
330
C
100
AcDbXrecord
280
     1
102
MATERIAL
148
0.0
149
0.0
149
0.0
 93
        0
 94
       63
282
     0
 72
     1
 77
     1
171
     1
175
     1
179
     1
273
     0
  0
XRECORD
  5
D
102
{ACAD_REACTORS
330
C
102
}
330
C
100
AcDbXrecord
280
     1
270
     1
271
     1
  0
XRECORD
  5
E
102
{ACAD_REACTORS
330
C
102
}
330
C
100
AcDbXrecord
280
     1
270
     1
271
     1
  0
XRECORD
  5
F
102
{ACAD_REACTORS
330
C
102
}
330
C
100
AcDbXrecord
280
     1
 70
     0
 90
1673772943
  1
ECE7A1D2-D628-4531-984C-D00F80459256
310
504B03040A0000080000CC70623B3DEE336E79000000790000001B0000006175746F6465736B2D64657369676E2D7061636B6167652E786D6C3C3F786D6C2076657273696F6E3D22312E302220656E636F64696E673D227574662D3822203F3E3C666F726D6174733E3C666F726D61743E687474703A2F2F736368656D612E
310
6175746F6465736B2E636F6D2F64657369676E2D7061636B6167652F323030393C2F666F726D61743E3C2F666F726D6174733E504B0304140006080800CC70623BD486FD9CA0000000F4000000130000005B436F6E74656E745F54797065735D2E786D6C7D8EC10E82300C865F65E91D8A1E8C310C0EEA1BF002731658846E
310
D98AC1B77784ABF1D8FE5FBFBF75BBCE937A534CCEB38643598122B6FEE978D0B0485F9C41B54DDD7D022595594E1A469170414C76A4D9A4D207E29CF43ECE46F218070CC6BECC4078ACAA135ACF422C856C0E68EA1BF5669944DDD7BCDE7B1F8E415D77AECB980613C2E4AC91FC167A2B244592486606FC29C8FD7F045B9A
310
EF7053A7E60B504B0304140006080800CC70623BD9DDAED0EC0000007C01000008000000636F72652E786D6C8D90416EC3201045AF82665B61836D9CD8C2444DD39CA01740405C94182C03558F5F9C3852BBEB6A467FFE9B197D7EF89E6EE8CB2CC17A37002D0820E394D7D68D03A478C17B4007C117EFE32F1B20272733C0
310
2A83E0E3E2D3BC49CABB685CCCAAF3DA6CA20CC14440EA969B0182FA34932C648AD911AEC52CD5558EA6A0CF2EC329598D1E47ACCEFBECC59A050463A7EA5833865FEBDD0E37353BE3EE8DBDE3F6786A48D375FBF6CC78B9C282473B3DEFABC5C86834888A900E538A49F5419B9EB47DD5BC907D4F082F57FB1F28CDFA9F50
310
B22ED6D5F6EE030B20687EE43E10BC5CB3C8E51E54AE6B6EE207504B0304140006080800CC70623B55019EA25F0000007C00000007000000636E782E786D6C4DCB3B0E80201045D1AD90E915ED2CF8AC45050C11660C8261F98AB1B07AC9C97D42D718D865D3E909258CFD00CCE24AC6E326A164D74DC0B4128928FF326038
310
472BA13128B1252AC747C6BAB984FC68F0B87FE8960A5C09FE86CFB69FBA01504B0304140006080800CC70623BA24EB22D72010000D40300000C0000006662782F636F72652E786D6CC5535B6E833010BC8AE5DF0A6C5E49888CA3A6694ED00B38E05014B091B1518EDFE511A5A9D228FD2A1F60CDEC7A67C6986DCE4D8D7A
310
69BA4AAB0C073EC548AA5C17952A33ECECD15B61B4E1CC686DBF9561A44423333CC098B3D268D7CE50AE9595CA02AA74216750749DB418E5352C32DCE59FB211BE70162ABA93DF8AFC244AE9073ED050C759670D0840D390E18DF9F1706664C23973AE2A66B62A605A75ACA4C13C4976E1364A12EF355A2EBD384AF65EFA96
310
BC7B8BED2EA6719AAE16FB8491A199335B351775B991C2CA02F390D2D40B028F861F41BCA68B7518BFD0D59A524686F29B26D7164F36B94AD9289CE54E6D1DE6010819891F6E21228B3AD1831EC219194284CF98F06DD01008846CC5A1BEF83801D4CBDC6A1303536877A57A513B0953A94FC707FDBE6064EA84A9E3E6E0FA
310
EE8CF0E9198F7784A316AA0413C2C2F2E0ECA0934D1AE6D05A69BCDE9E91D2A611F573361E38FC1375157F5752AE6B6DFE4B11990F88CCBF0719EE23FF02504B0304140006080800CC70623B408A7D3B7C0000009D0000000B0000006662782F636E782E786D6C4DCCD10A83201886E15B91FFDC552A92A0064DBC8F581632
310
D3703A76F9ABD1C18E3E78F878E5F0D9027ABBFCF2292AE86E2D20171F69F6715550CB827B40839639A5F2770314A7CD293819B45C73AAFB45B35BA61ACAA1C1C7E7855C58C15BC331339661262CC762340413D68D77DA5B42298546CBE6573AF60CEB2F504B0304140006080800CC70623B449FB9BD290100001202000031
310
0000006662782F36394639363044362D344446342D343946362D394244322D3234314243333846323333332F636F72652E786D6C8D515B6EC32010BC0AE22B55850D98B871848994463E412FE002495162B07854397EA176A4F62F3F2C9A9D991D587EB84F37F0AD7D30CEF6905418026DA553C65E7A98E219ED203808EE9D
310
8B7F6810D871D23D2C3014FCE25D9A57483A1BB58D19B54EE9151C43D0110279CB971E06F9A5A7B11A53CC8C70ADE6515EC78BAE4895DB992778883E0700CB907242D17643D7E2538BD869608875438BBAE38922CAC8F1BDD90DB4691A5E2F42C153326A951B95E398B3D1FE599322163C9AE9115F7A3D46ADA0A018778810
310
84E907617BDCEE297BC5BB3DC6BC2EF47FA234AB2745C9D8D8D035EE220B50105E2F0DC1954B9FB747187D9F9D8FA0CCDB042D5FA0C015C65B42DF78BD10F3F3B363CB56C7109DCFDFBBB97E662ED92EB62D13BC2E1BCAE5777DB9966D8A1F504B0304140006080800CC70623BAD7543B64E01000033030000300000006662
310
782F36394639363044362D344446342D343946362D394244322D3234314243333846323333332F636E782E786D6CD593CD6EC32010845F0571AD6CE3D48AD20813A9873E410FBD12D82434182C7EAAE6EDBB2424CD25871E7B41D6EC30B3FA84F9E67BB2E40B4234DE8DB46F1925E094D7C6ED479AD3AE5951B2113C789FEE
310
6C943839C1488B4C05DF079FE72A69D8C96C13AAD6B8631503449F83828872B949AC57D26200B826A308D316B4064D6E46FCDA41C05550DC9E483A00797BFD207EFB092A45DE9514C1BBD22178396BD39D891265658C238DEA00936C654E5E433CB65A26D9F6EDB5EBC14EBF49A45CB856E66048291F6939A9A81BB5C89177
310
38143CA680F4AA299D66A042CEB3354A2684DC9D8D178FE0D9B8B41CAAD720F880EE7EF93C0C18769E099ECC04D5A102C8049A8A05632F4DDF376CF1DE0F6BB65C2F8627B65A33C6BB62177CEBBDAD973006829F89F22E814B54F4BC2BE347F8AA8F681390B50FA73F804400B5F542E796F19FF974E7F78DB802FE05E20750
310
4B0304140006080800CC70623B8D05915C650500003B100000340000006662782F36394639363044362D344446342D343946362D394244322D3234314243333846323333332F6F626A656374732E786D6CAD575B6FA33814FE2B887D06429276DA1565D4266D158D3A339A6846FB502932E050B66023DB74D2FDF5FB190C01
310
9276B2973C046C8ECFF53B17071F77456EBD502133CEAE6CDF9DD81665314F32965ED995DA3A17B6F5310C04E7AA47665B8C14F4CAD6DB7618A48257A5D94AE89654B91AEDDEDDFC61C998326A5B714EA4BCB265FC440BE2924AF184CA6737218AB8E976E7FA6E4338649B0A523E8D98964450A6A029F619B8588D52FE7039
310
B1BD30F0F4F730D0FF866AF6369557DB33949F31A9088B0F848DD8CCFCF9F2767A76E99CCDE733677E3EF59D9BBB9BA5E37F984D16E78BC5E5F5ED25044B25C0C96822E8D60EEFE11B91C581D77CEA34368A1F5329E68CD1B8B61F16D63A1B8E092D294B10C78C4A48EB593D192E7DED9BDEE7995E1B91FDEDD3ACEA9FE831
310
6A756F9F7D4D79F4274C90A7A04248AA51D5F8C718DAE06FB2F75AC4796EBE65D22A88A22223B995679120E2D50E41AA49C260C046A35368846B0BECD0DFF3EBEB8AD4F835768F69B9ADF25C43D30E6B646F807FAA64AD59F61715C7A54127C4AACA98BA3006A9D792DAE165E0D59B61A01FB3A9F9D838D2DAE62445C86166
310
F37564E842E7DE6A69879FEEA2DD5AE7E371E1A5E025154AC307D06A03D73EB5978C58FFA4C8E9033066E0F3BD53BEC1F39F91BE7B55103791EDE6BBB991A2046172CB4581D8B893FA674DDA17A77B3B7C413D1B511FD2743BFF8A38F03A658705E3ADF8015C3A3417FF3D7E439FF591DA0B5F18BC20C1B8981957AE6392A3
310
F43C640C01D1A0B4728E2DD4F26DB4B3C3152A252A3B4E913CEC1C72F012782FF88EFF8637AA552DBEF76408E8A8DE9E50F9E1CB3A2DA0DB1B6039A893B56063DC5B3E3FFB5F72E67AB9FEB4AEC496C4F4C1149625DD662C53E89D7BF0F6151A046260D1337DFDC94502430F83B0EE07A130A224BCAD7DAE1D9FB6CD422FF6
310
920702629C4BB9AE79C12F243C6432A6794E18E5552BA56B431AAB5D91317302B2B071E86C3A42B1A02F999E24061403B5D0EB639195DA655DD3EBEAB4FB862DDF579F014AD0E73C22F99E28DA57FB98E75C6CA2D74D53086D600F4786E0FE3144B771A8A7B900F03594DB8A633CBC49B2EDB69228BB479CF863B5E807AAAB
310
23872F6DFEB4129B949CA33823F58830E86D65621E10047D9DB34D862E8EAC3C2ABC2F7B2C40D67CDFE01F5545B92105AF983AC54D93D69E56FB8E797F88913F898A9FEC705D3F9D1B54EC8426FB500D40A03BD0119B06E1B95DDC7EB8F6975367793EBD70E66733DFB9BC982F9CE564727731999F5D4ECFCE3B8D6A4DC2A0
310
6D50FD148437D110834A64C6CDDF57FBACB5C307A2A477DFE4939736CFEF2B175371E0E10CF0DD1D5C15654E0BCA14D1E87DD02FF93782A162C0A3D95F1524A52770F972BF1EE9809D13CE7DD599467F8ECE9ADD85CE85A34CD45355448C64F9E8A031DC2D596ACC6E5DD93D9B82DE2EF5CAF81363A8E47996A0DE24564A79
310
4115AACE09C55E14540231FDA13C319787134EBF34E3A022514E5B4D9E0826E25C02D5805B15ABE1BEF51B26383D445DD9E875EE33FE4C22DA16427D65A3BCA92CA6D28DD01DF5DC53330704308475351050232CCD31583787BA75774AFB06E5070DD0C8EF484E19968C5D83BA5B90B244D31E54D55A372320FE4786B7EA58
310
44E135AA5467CB7EA333A61683CC6A8C3257034C10CF46F40EF9F5BE59BE5BD30C3C72D235E95D10345C1D45445A5F0BB47E46A5EBE5570F9380B5FA629579952296A773720405982B9DE04011506178964401AA8BDF1FBF0A8EAB6861DD6580C0E38217056766716DAEB2D6FA0917D3E4116581EADB879C4E7CFFB11EFACD
310
3D641311495D92C8676CB409A72D18610D803CE8A626049E8EC1887CB5B44CC39883690DDA8399B4B9855B481E7D71D4A9D22F96E5BB73BF5793020C02137BF837504B0304140006080000CC70623B000000000000000000000000350000006662782F36394639363044362D344446342D343946362D394244322D32343142
310
43333846323333332F76657274696365732E62696E504B0304140006080800CC70623BF270F1330600000004000000360000006662782F36394639363044362D344446342D343946362D394244322D3234314243333846323333332F747269616E676C65732E62696E636660600000504B0304140006080000CC70623B0000
310
00000000000000000000370000006662782F36394639363044362D344446342D343946362D394244322D3234314243333846323333332F617474726962757465732E62696E504B0304140006080800CC70623B08DA0BD19000000041010000360000006662782F36394639363044362D344446342D343946362D394244322D
310
3234314243333846323333332F6469726563746F72792E786D6C858F410AC3201045AF22B36F53E9A60B35CBEEBAE80D244E44489C6234F4F835464A48035D0DF398FF9F8AF63D0E6CC63039F212F8F9020C7D47C6792B21C5FE7403D62A1188E2E60C98D7234A5830286103A55745067B9D86B8A3CF9C7F90C11DE607FB14
310
4396D7B6A82D282E9A152AD114D5EF2CB866EEE831B8EEA07A7BB5A8D7D61A2BAAEB7FD5F70921FF497D00504B0304140006080800CC70623BCA768048FE000000A00100003B0000006662782F36394639363044362D344446342D343946362D394244322D3234314243333846323333332F7265736F75726365732F636F72
310
652E786D6C8D50596E833010BD0A9ADFCA60D600328E9AA639412F609909B1126CE4A5EAF16B0295DABFFECC8CDEA2797AECF8353F924FB44E193D409E5248504B332A3D0D10FC95B4901C39B3C6F85F3248B49871801506CE266BC2B243D2688FDA47549B11775038871E12F988C7004EDE7016A9083E2ADC3D5D84BC8B09
310
D33C8D74D471E6BC8D0192EDC93A815B742658898E651BCB59086ADC356A8C3FD555A1055ED7E7E254D615792D0F075295F585746FF53B694EE78A565DD736979A65AB9933AFE69F8CD2A2F038022F28ED489E135A7CE4554F9BBEA85E68DB53CAB255FEC71496F19FA6A0B42F8B3DEE6673C0F318E4497096AD7DC5F52C33
310
EEB55BFE0D504B010214000A0000080000CC70623B3DEE336E79000000790000001B00000000000000000000000000000000006175746F6465736B2D64657369676E2D7061636B6167652E786D6C504B01021400140006080800CC70623BD486FD9CA0000000F40000001300000000000000000000000000B20000005B436F
310
6E74656E745F54797065735D2E786D6C504B01021400140006080800CC70623BD9DDAED0EC0000007C010000080000000000000000000000000083010000636F72652E786D6C504B01021400140006080800CC70623B55019EA25F0000007C000000070000000000000000000000000095020000636E782E786D6C504B0102
310
1400140006080800CC70623BA24EB22D72010000D40300000C00000000000000000000000000190300006662782F636F72652E786D6C504B01021400140006080800CC70623B408A7D3B7C0000009D0000000B00000000000000000000000000B50400006662782F636E782E786D6C504B01021400140006080800CC70623B
310
449FB9BD290100001202000031000000000000000000000000005A0500006662782F36394639363044362D344446342D343946362D394244322D3234314243333846323333332F636F72652E786D6C504B01021400140006080800CC70623BAD7543B64E010000330300003000000000000000000000000000D20600006662
310
782F36394639363044362D344446342D343946362D394244322D3234314243333846323333332F636E782E786D6C504B01021400140006080800CC70623B8D05915C650500003B10000034000000000000000000000000006E0800006662782F36394639363044362D344446342D343946362D394244322D32343142433338
310
46323333332F6F626A656374732E786D6C504B01021400140006080000CC70623B0000000000000000000000003500000000000000000000000000250E00006662782F36394639363044362D344446342D343946362D394244322D3234314243333846323333332F76657274696365732E62696E504B010214001400060808
310
00CC70623BF270F13306000000040000003600000000000000000000000000780E00006662782F36394639363044362D344446342D343946362D394244322D3234314243333846323333332F747269616E676C65732E62696E504B01021400140006080000CC70623B00000000000000000000000037000000000000000000
310
00000000D20E00006662782F36394639363044362D344446342D343946362D394244322D3234314243333846323333332F617474726962757465732E62696E504B01021400140006080800CC70623B08DA0BD190000000410100003600000000000000000000000000270F00006662782F36394639363044362D344446342D
310
343946362D394244322D3234314243333846323333332F6469726563746F72792E786D6C504B01021400140006080800CC70623BCA768048FE000000A00100003B000000000000000000000000000B1000006662782F36394639363044362D344446342D343946362D394244322D3234314243333846323333332F7265736F
310
75726365732F636F72652E786D6C504B0506000000000E000E0080040000621100000000
  0
XRECORD
  5
10
102
{ACAD_REACTORS
330
C
102
}
330
C
100
AcDbXrecord
280
     1
270
     1
271
     1
  0
XRECORD
  5
11
102
{ACAD_REACTORS
330
C
102
}
330
C
100
AcDbXrecord
280
     1
270
     1
271
     1
  0
CELLSTYLEMAP
  5
247
102
{ACAD_REACTORS
330
44
102
}
330
44
100
AcDbCellStyleMap
 90
        3
300
CELLSTYLE
  1
TABLEFORMAT_BEGIN
 90
        5
170
     1
 91
        0
 92
    32768
 62
   257
 93
        1
300
CONTENTFORMAT
  1
CONTENTFORMAT_BEGIN
 90
        0
 91
        0
 92
      512
 93
        0
300

 40
0.0
140
1.0
 94
        5
 62
     0
340
21
144
6.0
309
CONTENTFORMAT_END
171
     1
301
MARGIN
  1
CELLMARGIN_BEGIN
 40
1.5
 40
1.5
 40
1.5
 40
1.5
 40
4.5
 40
4.5
309
CELLMARGIN_END
 94
        6
 95
        1
302
GRIDFORMAT
  1
GRIDFORMAT_BEGIN
 90
        0
 91
        1
 62
     0
 92
       -2
340
24
 93
        0
 40
1.125
309
GRIDFORMAT_END
 95
        2
302
GRIDFORMAT
  1
GRIDFORMAT_BEGIN
 90
        0
 91
        1
 62
     0
 92
       -2
340
24
 93
        0
 40
1.125
309
GRIDFORMAT_END
 95
        4
302
GRIDFORMAT
  1
GRIDFORMAT_BEGIN
 90
        0
 91
        1
 62
     0
 92
       -2
340
24
 93
        0
 40
1.125
309
GRIDFORMAT_END
 95
        8
302
GRIDFORMAT
  1
GRIDFORMAT_BEGIN
 90
        0
 91
        1
 62
     0
 92
       -2
340
24
 93
        0
 40
1.125
309
GRIDFORMAT_END
 95
       16
302
GRIDFORMAT
  1
GRIDFORMAT_BEGIN
 90
        0
 91
        1
 62
     0
 92
       -2
340
24
 93
        0
 40
1.125
309
GRIDFORMAT_END
 95
       32
302
GRIDFORMAT
  1
GRIDFORMAT_BEGIN
 90
        0
 91
        1
 62
     0
 92
       -2
340
24
 93
        0
 40
1.125
309
GRIDFORMAT_END
309
TABLEFORMAT_END
  1
CELLSTYLE_BEGIN
 90
        1
 91
        1
300
_TITLE
309
CELLSTYLE_END
300
CELLSTYLE
  1
TABLEFORMAT_BEGIN
 90
        5
170
     1
 91
        0
 92
        0
 62
   257
 93
        1
300
CONTENTFORMAT
  1
CONTENTFORMAT_BEGIN
 90
        0
 91
        0
 92
      512
 93
        0
300

 40
0.0
140
1.0
 94
        5
 62
     0
340
21
144
4.5
309
CONTENTFORMAT_END
171
     1
301
MARGIN
  1
CELLMARGIN_BEGIN
 40
1.5
 40
1.5
 40
1.5
 40
1.5
 40
4.5
 40
4.5
309
CELLMARGIN_END
 94
        6
 95
        1
302
GRIDFORMAT
  1
GRIDFORMAT_BEGIN
 90
        0
 91
        1
 62
     0
 92
       -2
340
24
 93
        0
 40
1.125
309
GRIDFORMAT_END
 95
        2
302
GRIDFORMAT
  1
GRIDFORMAT_BEGIN
 90
        0
 91
        1
 62
     0
 92
       -2
340
24
 93
        0
 40
1.125
309
GRIDFORMAT_END
 95
        4
302
GRIDFORMAT
  1
GRIDFORMAT_BEGIN
 90
        0
 91
        1
 62
     0
 92
       -2
340
24
 93
        0
 40
1.125
309
GRIDFORMAT_END
 95
        8
302
GRIDFORMAT
  1
GRIDFORMAT_BEGIN
 90
        0
 91
        1
 62
     0
 92
       -2
340
24
 93
        0
 40
1.125
309
GRIDFORMAT_END
 95
       16
302
GRIDFORMAT
  1
GRIDFORMAT_BEGIN
 90
        0
 91
        1
 62
     0
 92
       -2
340
24
 93
        0
 40
1.125
309
GRIDFORMAT_END
 95
       32
302
GRIDFORMAT
  1
GRIDFORMAT_BEGIN
 90
        0
 91
        1
 62
     0
 92
       -2
340
24
 93
        0
 40
1.125
309
GRIDFORMAT_END
309
TABLEFORMAT_END
  1
CELLSTYLE_BEGIN
 90
        2
 91
        1
300
_HEADER
309
CELLSTYLE_END
300
CELLSTYLE
  1
TABLEFORMAT_BEGIN
 90
        5
170
     1
 91
        0
 92
        0
 62
   257
 93
        1
300
CONTENTFORMAT
  1
CONTENTFORMAT_BEGIN
 90
        0
 91
        0
 92
      512
 93
        0
300

 40
0.0
140
1.0
 94
        2
 62
     0
340
21
144
4.5
309
CONTENTFORMAT_END
171
     1
301
MARGIN
  1
CELLMARGIN_BEGIN
 40
1.5
 40
1.5
 40
1.5
 40
1.5
 40
4.5
 40
4.5
309
CELLMARGIN_END
 94
        6
 95
        1
302
GRIDFORMAT
  1
GRIDFORMAT_BEGIN
 90
        0
 91
        1
 62
     0
 92
       -2
340
24
 93
        0
 40
1.125
309
GRIDFORMAT_END
 95
        2
302
GRIDFORMAT
  1
GRIDFORMAT_BEGIN
 90
        0
 91
        1
 62
     0
 92
       -2
340
24
 93
        0
 40
1.125
309
GRIDFORMAT_END
 95
        4
302
GRIDFORMAT
  1
GRIDFORMAT_BEGIN
 90
        0
 91
        1
 62
     0
 92
       -2
340
24
 93
        0
 40
1.125
309
GRIDFORMAT_END
 95
        8
302
GRIDFORMAT
  1
GRIDFORMAT_BEGIN
 90
        0
 91
        1
 62
     0
 92
       -2
340
24
 93
        0
 40
1.125
309
GRIDFORMAT_END
 95
       16
302
GRIDFORMAT
  1
GRIDFORMAT_BEGIN
 90
        0
 91
        1
 62
     0
 92
       -2
340
24
 93
        0
 40
1.125
309
GRIDFORMAT_END
 95
       32
302
GRIDFORMAT
  1
GRIDFORMAT_BEGIN
 90
        0
 91
        1
 62
     0
 92
       -2
340
24
 93
        0
 40
1.125
309
GRIDFORMAT_END
309
TABLEFORMAT_END
  1
CELLSTYLE_BEGIN
 90
        3
 91
        2
300
_DATA
309
CELLSTYLE_END
  0
XRECORD
  5
256
102
{ACAD_REACTORS
330
44
102
}
330
44
100
AcDbXrecord
280
     1
102
ACAD_ROUNDTRIP_PRE2007_TABLESTYLE
 90
      512
 91
        0
  1

 92
      512
 93
        0
  2

 94
      512
 95
        0
  3

  0
XRECORD
  5
253
102
{ACAD_REACTORS
330
252
102
}
330
252
100
AcDbXrecord
280
     1
102
RTVSPost2010Prop28
280
     1
102
RTVSPost2010PropOp28
 70
     1
102
RTVSPost2010Prop29
280
     1
102
RTVSPost2010PropOp29
 70
     1
102
RTVSPost2010Prop30
280
     0
102
RTVSPost2010PropOp30
 70
     1
102
RTVSPost2010Prop31
280
     0
102
RTVSPost2010PropOp31
 70
     1
102
RTVSPost2010Prop32
280
     0
102
RTVSPost2010PropOp32
 70
     1
102
RTVSPost2010Prop33
280
     0
102
RTVSPost2010PropOp33
 70
     1
102
RTVSPost2010Prop34
280
     0
102
RTVSPost2010PropOp34
 70
     1
102
RTVSPost2010Prop35
280
     0
102
RTVSPost2010PropOp35
 70
     1
102
RTVSPost2010Prop36
280
     0
102
RTVSPost2010PropOp36
 70
     1
102
RTVSPost2010Prop37
 90
       50
102
RTVSPost2010PropOp37
 70
     1
102
RTVSPost2010Prop38
140
0.0
102
RTVSPost2010PropOp38
 70
     1
102
RTVSPost2010Prop39
140
1.0
102
RTVSPost2010PropOp39
 70
     1
102
RTVSPost2010Prop40
 90
        0
102
RTVSPost2010PropOp40
 70
     1
102
RTVSPost2010Prop41ColorIndex
 90
       18
102
RTVSPost2010Prop41ColorRGB
 90
        0
102
RTVSPost2010PropOp41
 70
     1
102
RTVSPost2010Prop42
 90
       50
102
RTVSPost2010PropOp42
 70
     1
102
RTVSPost2010Prop43
 90
        3
102
RTVSPost2010PropOp43
 70
     1
102
RTVSPost2010Prop44ColorIndex
 90
        5
102
RTVSPost2010Prop44ColorRGB
 90
      255
102
RTVSPost2010PropOp44
 70
     1
102
RTVSPost2010Prop45
280
     0
102
RTVSPost2010PropOp45
 70
     1
102
RTVSPost2010Prop46
 90
       50
102
RTVSPost2010PropOp46
 70
     1
102
RTVSPost2010Prop47
 90
       50
102
RTVSPost2010PropOp47
 70
     1
102
RTVSPost2010Prop48
 90
       50
102
RTVSPost2010PropOp48
 70
     1
102
RTVSPost2010Prop49
280
     0
102
RTVSPost2010PropOp49
 70
     1
102
RTVSPost2010Prop50
 90
       50
102
RTVSPost2010PropOp50
 70
     1
102
RTVSPost2010Prop51ColorIndex
 90
      256
102
RTVSPost2010Prop51ColorRGB
 90
-16777216
102
RTVSPost2010PropOp51
 70
     0
102
RTVSPost2010Prop52
140
1.0
102
RTVSPost2010PropOp52
 70
     0
102
RTVSPost2010Prop53
 90
        2
102
RTVSPost2010PropOp53
 70
     1
102
RTVSPost2010Prop54
  1
strokes_ogs.tif
102
RTVSPost2010PropOp54
 70
     1
102
RTVSPost2010Prop55
280
     0
102
RTVSPost2010PropOp55
 70
     1
102
RTVSPost2010Prop56
140
1.0
102
RTVSPost2010PropOp56
 70
     1
102
RTVSPost2010Prop57
140
1.0
102
RTVSPost2010PropOp57
 70
     1
102
RTVSPropertyOp0
 70
     1
102
RTVSPropertyOp1
 70
     1
102
RTVSPropertyOp2
 70
     1
102
RTVSPropertyOp3
 70
     1
102
RTVSPropertyOp4
 70
     1
102
RTVSPropertyOp5
 70
     1
102
RTVSPropertyOp6
 70
     1
102
RTVSPropertyOp7
 70
     1
102
RTVSPropertyOp8
 70
     1
102
RTVSPropertyOp9
 70
     1
102
RTVSPropertyOp10
 70
     1
102
RTVSPropertyOp11
 70
     1
102
RTVSPropertyOp12
 70
     1
102
RTVSPropertyOp13
 70
     1
102
RTVSPropertyOp14
 70
     1
102
RTVSPropertyOp15
 70
     1
102
RTVSPropertyOp16
 70
     1
102
RTVSPropertyOp17
 70
     1
102
RTVSPropertyOp18
 70
     1
102
RTVSPropertyOp19
 70
     1
102
RTVSPropertyOp20
 70
     1
102
RTVSPropertyOp21
 70
     1
102
RTVSPropertyOp22
 70
     1
102
RTVSPropertyOp23
 70
     1
102
RTVSPropertyOp24
 70
     1
102
RTVSPropertyOp25
 70
     1
102
RTVSPropertyOp26
 70
     1
102
RTVSPropertyOp27
 70
     1
102
RTVSPropertyOp28
 70
     1
102
RTVSPropertyOp29
 70
     1
102
RTVSPropertyOp30
 70
     1
102
RTVSPropertyOp31
 70
     1
102
RTVSPropertyOp32
 70
     1
102
RTVSPropertyOp33
 70
     1
102
RTVSPropertyOp34
 70
     1
102
RTVSPropertyOp35
 70
     1
102
RTVSPropertyOp36
 70
     1
102
RTVSPropertyOp37
 70
     1
102
RTVSPropertyOp38
 70
     1
102
RTVSPropertyOp39
 70
     1
102
RTVSPropertyOp40
 70
     1
102
RTVSPropertyOp41
 70
     1
102
RTVSPropertyOp42
 70
     1
102
RTVSPropertyOp43
 70
     1
102
RTVSPropertyOp44
 70
     1
102
RTVSPropertyOp45
 70
     1
102
RTVSPropertyOp46
 70
     1
102
RTVSPropertyOp47
 70
     1
102
RTVSPropertyOp48
 70
     1
102
RTVSPropertyOp49
 70
     1
102
RTVSPropertyOp50
 70
     1
102
RTVSPropertyOp51
 70
     0
102
RTVSPropertyOp52
 70
     0
102
RTVSPropertyOp53
 70
     1
102
RTVSPropertyOp54
 70
     1
102
RTVSPropertyOp55
 70
     1
102
RTVSPropertyOp56
 70
     1
102
RTVSPropertyOp57
 70
     1
102
RTVSPropertyOp58
 70
     1
102
RTVSPropertyOp59
 70
     1
102
RTVSPropertyOp60
 70
     1
102
RTVSPropertyOp61
 70
     1
102
RTVSPropertyOp62
 70
     1
  0
XRECORD
  5
258
102
{ACAD_REACTORS
330
257
102
}
330
257
100
AcDbXrecord
280
     1
102
RTVSPost2010Prop28
280
     0
102
RTVSPost2010PropOp28
 70
     1
102
RTVSPost2010Prop29
280
     1
102
RTVSPost2010PropOp29
 70
     1
102
RTVSPost2010Prop30
280
     1
102
RTVSPost2010PropOp30
 70
     1
102
RTVSPost2010Prop31
280
     0
102
RTVSPost2010PropOp31
 70
     1
102
RTVSPost2010Prop32
280
     0
102
RTVSPost2010PropOp32
 70
     1
102
RTVSPost2010Prop33
280
     0
102
RTVSPost2010PropOp33
 70
     1
102
RTVSPost2010Prop34
280
     0
102
RTVSPost2010PropOp34
 70
     1
102
RTVSPost2010Prop35
280
     0
102
RTVSPost2010PropOp35
 70
     1
102
RTVSPost2010Prop36
280
     0
102
RTVSPost2010PropOp36
 70
     1
102
RTVSPost2010Prop37
 90
       50
102
RTVSPost2010PropOp37
 70
     1
102
RTVSPost2010Prop38
140
0.0
102
RTVSPost2010PropOp38
 70
     1
102
RTVSPost2010Prop39
140
1.0
102
RTVSPost2010PropOp39
 70
     1
102
RTVSPost2010Prop40
 90
        0
102
RTVSPost2010PropOp40
 70
     1
102
RTVSPost2010Prop41ColorIndex
 90
       18
102
RTVSPost2010Prop41ColorRGB
 90
        0
102
RTVSPost2010PropOp41
 70
     1
102
RTVSPost2010Prop42
 90
       50
102
RTVSPost2010PropOp42
 70
     1
102
RTVSPost2010Prop43
 90
        3
102
RTVSPost2010PropOp43
 70
     1
102
RTVSPost2010Prop44ColorIndex
 90
        5
102
RTVSPost2010Prop44ColorRGB
 90
      255
102
RTVSPost2010PropOp44
 70
     1
102
RTVSPost2010Prop45
280
     0
102
RTVSPost2010PropOp45
 70
     1
102
RTVSPost2010Prop46
 90
       50
102
RTVSPost2010PropOp46
 70
     1
102
RTVSPost2010Prop47
 90
       50
102
RTVSPost2010PropOp47
 70
     1
102
RTVSPost2010Prop48
 90
       50
102
RTVSPost2010PropOp48
 70
     1
102
RTVSPost2010Prop49
280
     0
102
RTVSPost2010PropOp49
 70
     1
102
RTVSPost2010Prop50
 90
       50
102
RTVSPost2010PropOp50
 70
     1
102
RTVSPost2010Prop51ColorIndex
 90
      256
102
RTVSPost2010Prop51ColorRGB
 90
-16777216
102
RTVSPost2010PropOp51
 70
     0
102
RTVSPost2010Prop52
140
1.0
102
RTVSPost2010PropOp52
 70
     0
102
RTVSPost2010Prop53
 90
        2
102
RTVSPost2010PropOp53
 70
     1
102
RTVSPost2010Prop54
  1
strokes_ogs.tif
102
RTVSPost2010PropOp54
 70
     1
102
RTVSPost2010Prop55
280
     0
102
RTVSPost2010PropOp55
 70
     1
102
RTVSPost2010Prop56
140
1.0
102
RTVSPost2010PropOp56
 70
     1
102
RTVSPost2010Prop57
140
1.0
102
RTVSPost2010PropOp57
 70
     1
102
RTVSPropertyOp0
 70
     1
102
RTVSPropertyOp1
 70
     1
102
RTVSPropertyOp2
 70
     1
102
RTVSPropertyOp3
 70
     1
102
RTVSPropertyOp4
 70
     1
102
RTVSPropertyOp5
 70
     1
102
RTVSPropertyOp6
 70
     1
102
RTVSPropertyOp7
 70
     1
102
RTVSPropertyOp8
 70
     1
102
RTVSPropertyOp9
 70
     1
102
RTVSPropertyOp10
 70
     1
102
RTVSPropertyOp11
 70
     1
102
RTVSPropertyOp12
 70
     1
102
RTVSPropertyOp13
 70
     1
102
RTVSPropertyOp14
 70
     1
102
RTVSPropertyOp15
 70
     1
102
RTVSPropertyOp16
 70
     1
102
RTVSPropertyOp17
 70
     1
102
RTVSPropertyOp18
 70
     1
102
RTVSPropertyOp19
 70
     1
102
RTVSPropertyOp20
 70
     1
102
RTVSPropertyOp21
 70
     1
102
RTVSPropertyOp22
 70
     1
102
RTVSPropertyOp23
 70
     1
102
RTVSPropertyOp24
 70
     1
102
RTVSPropertyOp25
 70
     1
102
RTVSPropertyOp26
 70
     1
102
RTVSPropertyOp27
 70
     1
102
RTVSPropertyOp28
 70
     1
102
RTVSPropertyOp29
 70
     1
102
RTVSPropertyOp30
 70
     1
102
RTVSPropertyOp31
 70
     1
102
RTVSPropertyOp32
 70
     1
102
RTVSPropertyOp33
 70
     1
102
RTVSPropertyOp34
 70
     1
102
RTVSPropertyOp35
 70
     1
102
RTVSPropertyOp36
 70
     1
102
RTVSPropertyOp37
 70
     1
102
RTVSPropertyOp38
 70
     1
102
RTVSPropertyOp39
 70
     1
102
RTVSPropertyOp40
 70
     1
102
RTVSPropertyOp41
 70
     1
102
RTVSPropertyOp42
 70
     1
102
RTVSPropertyOp43
 70
     1
102
RTVSPropertyOp44
 70
     1
102
RTVSPropertyOp45
 70
     1
102
RTVSPropertyOp46
 70
     1
102
RTVSPropertyOp47
 70
     1
102
RTVSPropertyOp48
 70
     1
102
RTVSPropertyOp49
 70
     1
102
RTVSPropertyOp50
 70
     1
102
RTVSPropertyOp51
 70
     0
102
RTVSPropertyOp52
 70
     0
102
RTVSPropertyOp53
 70
     1
102
RTVSPropertyOp54
 70
     1
102
RTVSPropertyOp55
 70
     1
102
RTVSPropertyOp56
 70
     1
102
RTVSPropertyOp57
 70
     1
102
RTVSPropertyOp58
 70
     1
102
RTVSPropertyOp59
 70
     1
102
RTVSPropertyOp60
 70
     1
102
RTVSPropertyOp61
 70
     1
102
RTVSPropertyOp62
 70
     1
  0
XRECORD
  5
25A
102
{ACAD_REACTORS
330
259
102
}
330
259
100
AcDbXrecord
280
     1
102
RTVSPost2010Prop28
280
     0
102
RTVSPost2010PropOp28
 70
     1
102
RTVSPost2010Prop29
280
     1
102
RTVSPost2010PropOp29
 70
     1
102
RTVSPost2010Prop30
280
     1
102
RTVSPost2010PropOp30
 70
     1
102
RTVSPost2010Prop31
280
     0
102
RTVSPost2010PropOp31
 70
     1
102
RTVSPost2010Prop32
280
     0
102
RTVSPost2010PropOp32
 70
     1
102
RTVSPost2010Prop33
280
     0
102
RTVSPost2010PropOp33
 70
     1
102
RTVSPost2010Prop34
280
     0
102
RTVSPost2010PropOp34
 70
     1
102
RTVSPost2010Prop35
280
     0
102
RTVSPost2010PropOp35
 70
     1
102
RTVSPost2010Prop36
280
     0
102
RTVSPost2010PropOp36
 70
     1
102
RTVSPost2010Prop37
 90
       50
102
RTVSPost2010PropOp37
 70
     1
102
RTVSPost2010Prop38
140
0.0
102
RTVSPost2010PropOp38
 70
     1
102
RTVSPost2010Prop39
140
1.0
102
RTVSPost2010PropOp39
 70
     1
102
RTVSPost2010Prop40
 90
        0
102
RTVSPost2010PropOp40
 70
     1
102
RTVSPost2010Prop41ColorIndex
 90
       18
102
RTVSPost2010Prop41ColorRGB
 90
        0
102
RTVSPost2010PropOp41
 70
     1
102
RTVSPost2010Prop42
 90
       50
102
RTVSPost2010PropOp42
 70
     1
102
RTVSPost2010Prop43
 90
        3
102
RTVSPost2010PropOp43
 70
     1
102
RTVSPost2010Prop44ColorIndex
 90
        5
102
RTVSPost2010Prop44ColorRGB
 90
      255
102
RTVSPost2010PropOp44
 70
     1
102
RTVSPost2010Prop45
280
     0
102
RTVSPost2010PropOp45
 70
     1
102
RTVSPost2010Prop46
 90
       50
102
RTVSPost2010PropOp46
 70
     1
102
RTVSPost2010Prop47
 90
       50
102
RTVSPost2010PropOp47
 70
     1
102
RTVSPost2010Prop48
 90
       50
102
RTVSPost2010PropOp48
 70
     1
102
RTVSPost2010Prop49
280
     0
102
RTVSPost2010PropOp49
 70
     1
102
RTVSPost2010Prop50
 90
       50
102
RTVSPost2010PropOp50
 70
     1
102
RTVSPost2010Prop51ColorIndex
 90
      256
102
RTVSPost2010Prop51ColorRGB
 90
-16777216
102
RTVSPost2010PropOp51
 70
     0
102
RTVSPost2010Prop52
140
1.0
102
RTVSPost2010PropOp52
 70
     0
102
RTVSPost2010Prop53
 90
        2
102
RTVSPost2010PropOp53
 70
     1
102
RTVSPost2010Prop54
  1
strokes_ogs.tif
102
RTVSPost2010PropOp54
 70
     1
102
RTVSPost2010Prop55
280
     0
102
RTVSPost2010PropOp55
 70
     1
102
RTVSPost2010Prop56
140
1.0
102
RTVSPost2010PropOp56
 70
     1
102
RTVSPost2010Prop57
140
1.0
102
RTVSPost2010PropOp57
 70
     1
102
RTVSPropertyOp0
 70
     1
102
RTVSPropertyOp1
 70
     1
102
RTVSPropertyOp2
 70
     1
102
RTVSPropertyOp3
 70
     1
102
RTVSPropertyOp4
 70
     1
102
RTVSPropertyOp5
 70
     1
102
RTVSPropertyOp6
 70
     1
102
RTVSPropertyOp7
 70
     1
102
RTVSPropertyOp8
 70
     1
102
RTVSPropertyOp9
 70
     1
102
RTVSPropertyOp10
 70
     1
102
RTVSPropertyOp11
 70
     1
102
RTVSPropertyOp12
 70
     1
102
RTVSPropertyOp13
 70
     1
102
RTVSPropertyOp14
 70
     1
102
RTVSPropertyOp15
 70
     1
102
RTVSPropertyOp16
 70
     1
102
RTVSPropertyOp17
 70
     1
102
RTVSPropertyOp18
 70
     1
102
RTVSPropertyOp19
 70
     1
102
RTVSPropertyOp20
 70
     1
102
RTVSPropertyOp21
 70
     1
102
RTVSPropertyOp22
 70
     1
102
RTVSPropertyOp23
 70
     1
102
RTVSPropertyOp24
 70
     1
102
RTVSPropertyOp25
 70
     1
102
RTVSPropertyOp26
 70
     1
102
RTVSPropertyOp27
 70
     1
102
RTVSPropertyOp28
 70
     1
102
RTVSPropertyOp29
 70
     1
102
RTVSPropertyOp30
 70
     1
102
RTVSPropertyOp31
 70
     1
102
RTVSPropertyOp32
 70
     1
102
RTVSPropertyOp33
 70
     1
102
RTVSPropertyOp34
 70
     1
102
RTVSPropertyOp35
 70
     1
102
RTVSPropertyOp36
 70
     1
102
RTVSPropertyOp37
 70
     1
102
RTVSPropertyOp38
 70
     1
102
RTVSPropertyOp39
 70
     1
102
RTVSPropertyOp40
 70
     1
102
RTVSPropertyOp41
 70
     1
102
RTVSPropertyOp42
 70
     1
102
RTVSPropertyOp43
 70
     1
102
RTVSPropertyOp44
 70
     1
102
RTVSPropertyOp45
 70
     1
102
RTVSPropertyOp46
 70
     1
102
RTVSPropertyOp47
 70
     1
102
RTVSPropertyOp48
 70
     1
102
RTVSPropertyOp49
 70
     1
102
RTVSPropertyOp50
 70
     1
102
RTVSPropertyOp51
 70
     0
102
RTVSPropertyOp52
 70
     0
102
RTVSPropertyOp53
 70
     1
102
RTVSPropertyOp54
 70
     1
102
RTVSPropertyOp55
 70
     1
102
RTVSPropertyOp56
 70
     1
102
RTVSPropertyOp57
 70
     1
102
RTVSPropertyOp58
 70
     1
102
RTVSPropertyOp59
 70
     1
102
RTVSPropertyOp60
 70
     1
102
RTVSPropertyOp61
 70
     1
102
RTVSPropertyOp62
 70
     1
  0
ENDSEC
  0
EOF
