  0
SECTION
  2
HEADER
  9
$ACADVER
  1
AC1018
  9
$ACADMAINTVER
 70
   104
  9
$DWGCODEPAGE
  3
ANSI_932
  9
$INSBASE
 10
0.0
 20
0.0
 30
0.0
  9
$EXTMIN
 10
-0.0128171702706368
 20
-0.0090635592987383
 30
-0.0015258207003583
  9
$EXTMAX
 10
50.00701891594133
 20
43.47413629641835
 30
0.0000000349246037
  9
$LIMMIN
 10
-7.230618853911209
 20
-4.802499948010904
  9
$LIMMAX
 10
57.23379268888038
 20
48.72901537384496
  9
$ORTHOMODE
 70
     1
  9
$REGENMODE
 70
     1
  9
$FILLMODE
 70
     1
  9
$QTEXTMODE
 70
     0
  9
$MIRRTEXT
 70
     0
  9
$LTSCALE
 40
1.0
  9
$ATTMODE
 70
     1
  9
$TEXTSIZE
 40
2.5
  9
$TRACEWID
 40
1.0
  9
$TEXTSTYLE
  7
Standard
  9
$CLAYER
  8
0
  9
$CELTYPE
  6
ByLayer
  9
$CECOLOR
 62
   256
  9
$CELTSCALE
 40
1.0
  9
$DISPSILH
 70
     0
  9
$DIMSCALE
 40
1.0
  9
$DIMASZ
 40
2.5
  9
$DIMEXO
 40
0.625
  9
$DIMDLI
 40
3.75
  9
$DIMRND
 40
0.0
  9
$DIMDLE
 40
0.0
  9
$DIMEXE
 40
1.25
  9
$DIMTP
 40
0.0
  9
$DIMTM
 40
0.0
  9
$DIMTXT
 40
2.5
  9
$DIMCEN
 40
2.5
  9
$DIMTSZ
 40
0.0
  9
$DIMTOL
 70
     0
  9
$DIMLIM
 70
     0
  9
$DIMTIH
 70
     0
  9
$DIMTOH
 70
     0
  9
$DIMSE1
 70
     0
  9
$DIMSE2
 70
     0
  9
$DIMTAD
 70
     1
  9
$DIMZIN
 70
     8
  9
$DIMBLK
  1

  9
$DIMASO
 70
     1
  9
$DIMSHO
 70
     1
  9
$DIMPOST
  1

  9
$DIMAPOST
  1

  9
$DIMALT
 70
     0
  9
$DIMALTD
 70
     3
  9
$DIMALTF
 40
0.03937007874016
  9
$DIMLFAC
 40
1.0
  9
$DIMTOFL
 70
     1
  9
$DIMTVP
 40
0.0
  9
$DIMTIX
 70
     0
  9
$DIMSOXD
 70
     0
  9
$DIMSAH
 70
     0
  9
$DIMBLK1
  1

  9
$DIMBLK2
  1

  9
$DIMSTYLE
  2
ISO-25
  9
$DIMCLRD
 70
     0
  9
$DIMCLRE
 70
     0
  9
$DIMCLRT
 70
     0
  9
$DIMTFAC
 40
1.0
  9
$DIMGAP
 40
0.625
  9
$DIMJUST
 70
     0
  9
$DIMSD1
 70
     0
  9
$DIMSD2
 70
     0
  9
$DIMTOLJ
 70
     0
  9
$DIMTZIN
 70
     8
  9
$DIMALTZ
 70
     0
  9
$DIMALTTZ
 70
     0
  9
$DIMUPT
 70
     0
  9
$DIMDEC
 70
     2
  9
$DIMTDEC
 70
     2
  9
$DIMALTU
 70
     2
  9
$DIMALTTD
 70
     3
  9
$DIMTXSTY
  7
Standard
  9
$DIMAUNIT
 70
     0
  9
$DIMADEC
 70
     0
  9
$DIMALTRND
 40
0.0
  9
$DIMAZIN
 70
     0
  9
$DIMDSEP
 70
    44
  9
$DIMATFIT
 70
     3
  9
$DIMFRAC
 70
     0
  9
$DIMLDRBLK
  1

  9
$DIMLUNIT
 70
     2
  9
$DIMLWD
 70
    -2
  9
$DIMLWE
 70
    -2
  9
$DIMTMOVE
 70
     0
  9
$LUNITS
 70
     2
  9
$LUPREC
 70
     4
  9
$SKETCHINC
 40
1.0
  9
$FILLETRAD
 40
0.0
  9
$AUNITS
 70
     0
  9
$AUPREC
 70
     0
  9
$MENU
  1
.
  9
$ELEVATION
 40
0.0
  9
$PELEVATION
 40
0.0
  9
$THICKNESS
 40
0.0
  9
$LIMCHECK
 70
     0
  9
$CHAMFERA
 40
0.0
  9
$CHAMFERB
 40
0.0
  9
$CHAMFERC
 40
0.0
  9
$CHAMFERD
 40
0.0
  9
$SKPOLY
 70
     0
  9
$TDCREATE
 40
2458646.434884260
  9
$TDUCREATE
 40
2458646.101550926
  9
$TDUPDATE
 40
2458646.460844907
  9
$TDUUPDATE
 40
2458646.127511574
  9
$TDINDWG
 40
0.0260648148
  9
$TDUSRTIMER
 40
0.0260648148
  9
$USRTIMER
 70
     1
  9
$ANGBASE
 50
0.0
  9
$ANGDIR
 70
     0
  9
$PDMODE
 70
     0
  9
$PDSIZE
 40
0.0
  9
$PLINEWID
 40
0.0
  9
$SPLFRAME
 70
     0
  9
$SPLINETYPE
 70
     6
  9
$SPLINESEGS
 70
     8
  9
$HANDSEED
  5
2C6
  9
$SURFTAB1
 70
     6
  9
$SURFTAB2
 70
     6
  9
$SURFTYPE
 70
     6
  9
$SURFU
 70
     6
  9
$SURFV
 70
     6
  9
$UCSBASE
  2

  9
$UCSNAME
  2

  9
$UCSORG
 10
0.0
 20
0.0
 30
0.0
  9
$UCSXDIR
 10
1.0
 20
0.0
 30
0.0
  9
$UCSYDIR
 10
0.0
 20
1.0
 30
0.0
  9
$UCSORTHOREF
  2

  9
$UCSORTHOVIEW
 70
     0
  9
$UCSORGTOP
 10
0.0
 20
0.0
 30
0.0
  9
$UCSORGBOTTOM
 10
0.0
 20
0.0
 30
0.0
  9
$UCSORGLEFT
 10
0.0
 20
0.0
 30
0.0
  9
$UCSORGRIGHT
 10
0.0
 20
0.0
 30
0.0
  9
$UCSORGFRONT
 10
0.0
 20
0.0
 30
0.0
  9
$UCSORGBACK
 10
0.0
 20
0.0
 30
0.0
  9
$PUCSBASE
  2

  9
$PUCSNAME
  2

  9
$PUCSORG
 10
0.0
 20
0.0
 30
0.0
  9
$PUCSXDIR
 10
1.0
 20
0.0
 30
0.0
  9
$PUCSYDIR
 10
0.0
 20
1.0
 30
0.0
  9
$PUCSORTHOREF
  2

  9
$PUCSORTHOVIEW
 70
     0
  9
$PUCSORGTOP
 10
0.0
 20
0.0
 30
0.0
  9
$PUCSORGBOTTOM
 10
0.0
 20
0.0
 30
0.0
  9
$PUCSORGLEFT
 10
0.0
 20
0.0
 30
0.0
  9
$PUCSORGRIGHT
 10
0.0
 20
0.0
 30
0.0
  9
$PUCSORGFRONT
 10
0.0
 20
0.0
 30
0.0
  9
$PUCSORGBACK
 10
0.0
 20
0.0
 30
0.0
  9
$USERI1
 70
     0
  9
$USERI2
 70
     0
  9
$USERI3
 70
     0
  9
$USERI4
 70
     0
  9
$USERI5
 70
     0
  9
$USERR1
 40
0.0
  9
$USERR2
 40
0.0
  9
$USERR3
 40
0.0
  9
$USERR4
 40
0.0
  9
$USERR5
 40
0.0
  9
$WORLDVIEW
 70
     1
  9
$SHADEDGE
 70
     3
  9
$SHADEDIF
 70
    70
  9
$TILEMODE
 70
     1
  9
$MAXACTVP
 70
    64
  9
$PINSBASE
 10
0.0
 20
0.0
 30
0.0
  9
$PLIMCHECK
 70
     0
  9
$PEXTMIN
 10
0.0
 20
0.0
 30
0.0
  9
$PEXTMAX
 10
0.0
 20
0.0
 30
0.0
  9
$PLIMMIN
 10
0.0
 20
0.0
  9
$PLIMMAX
 10
12.0
 20
9.0
  9
$UNITMODE
 70
     0
  9
$VISRETAIN
 70
     1
  9
$PLINEGEN
 70
     0
  9
$PSLTSCALE
 70
     1
  9
$TREEDEPTH
 70
  3020
  9
$CMLSTYLE
  2
Standard
  9
$CMLJUST
 70
     0
  9
$CMLSCALE
 40
20.0
  9
$PROXYGRAPHICS
 70
     1
  9
$MEASUREMENT
 70
     1
  9
$CELWEIGHT
370
    -1
  9
$ENDCAPS
280
     0
  9
$JOINSTYLE
280
     0
  9
$LWDISPLAY
290
     0
  9
$INSUNITS
 70
     4
  9
$HYPERLINKBASE
  1

  9
$STYLESHEET
  1

  9
$XEDIT
290
     1
  9
$CEPSNTYPE
380
     0
  9
$PSTYLEMODE
290
     1
  9
$FINGERPRINTGUID
  2
{6DC9F823-A06A-D446-B2D2-8663FDE3A27C}
  9
$VERSIONGUID
  2
{8DF2D6D5-8DB2-4443-8B63-DC223D3EBAD7}
  9
$EXTNAMES
290
     1
  9
$PSVPSCALE
 40
0.0
  9
$OLESTARTUP
290
     0
  9
$SORTENTS
280
   127
  9
$INDEXCTL
280
     0
  9
$HIDETEXT
280
     1
  9
$XCLIPFRAME
290
     0
  9
$HALOGAP
280
     0
  9
$OBSCOLOR
 70
   257
  9
$OBSLTYPE
280
     0
  9
$INTERSECTIONDISPLAY
280
     0
  9
$INTERSECTIONCOLOR
 70
   257
  9
$DIMASSOC
280
     2
  9
$PROJECTNAME
  1

  0
ENDSEC
  0
SECTION
  2
CLASSES
  0
CLASS
  1
ACDBDICTIONARYWDFLT
  2
AcDbDictionaryWithDefault
  3
ObjectDBX Classes
 90
        0
 91
        1
280
     0
281
     0
  0
CLASS
  1
DICTIONARYVAR
  2
AcDbDictionaryVar
  3
ObjectDBX Classes
 90
        0
 91
       12
280
     0
281
     0
  0
CLASS
  1
TABLESTYLE
  2
AcDbTableStyle
  3
ObjectDBX Classes
 90
     4095
 91
        1
280
     0
281
     0
  0
CLASS
  1
MATERIAL
  2
AcDbMaterial
  3
ObjectDBX Classes
 90
     1153
 91
        3
280
     0
281
     0
  0
CLASS
  1
VISUALSTYLE
  2
AcDbVisualStyle
  3
ObjectDBX Classes
 90
     4095
 91
        3
280
     0
281
     0
  0
CLASS
  1
SCALE
  2
AcDbScale
  3
ObjectDBX Classes
 90
     1153
 91
       17
280
     0
281
     0
  0
CLASS
  1
MLEADERSTYLE
  2
AcDbMLeaderStyle
  3
ACDB_MLEADERSTYLE_CLASS
 90
     4095
 91
        0
280
     0
281
     0
  0
CLASS
  1
CELLSTYLEMAP
  2
AcDbCellStyleMap
  3
ObjectDBX Classes
 90
     1152
 91
        1
280
     0
281
     0
  0
CLASS
  1
EXACXREFPANELOBJECT
  2
ExAcXREFPanelObject
  3
EXAC_ESW
 90
     1025
 91
        0
280
     1
281
     0
  0
CLASS
  1
NPOCOLLECTION
  2
AcDbImpNonPersistentObjectsCollection
  3
ObjectDBX Classes
 90
     1153
 91
        0
280
     0
281
     0
  0
CLASS
  1
LAYER_INDEX
  2
AcDbLayerIndex
  3
ObjectDBX Classes
 90
        0
 91
        0
280
     0
281
     0
  0
CLASS
  1
SPATIAL_INDEX
  2
AcDbSpatialIndex
  3
ObjectDBX Classes
 90
        0
 91
        0
280
     0
281
     0
  0
CLASS
  1
IDBUFFER
  2
AcDbIdBuffer
  3
ObjectDBX Classes
 90
        0
 91
        0
280
     0
281
     0
  0
CLASS
  1
ACDBSECTIONVIEWSTYLE
  2
AcDbSectionViewStyle
  3
ObjectDBX Classes
 90
     1025
 91
        0
280
     0
281
     0
  0
CLASS
  1
ACDBDETAILVIEWSTYLE
  2
AcDbDetailViewStyle
  3
ObjectDBX Classes
 90
     1025
 91
        0
280
     0
281
     0
  0
CLASS
  1
SORTENTSTABLE
  2
AcDbSortentsTable
  3
ObjectDBX Classes
 90
        0
 91
        2
280
     0
281
     0
  0
CLASS
  1
DIMASSOC
  2
AcDbDimAssoc
  3
"AcDbDimAssoc|Product Desc:     AcDim ARX App For Dimension|Company:          Autodesk, Inc.|WEB Address:      www.autodesk.com"
 90
        0
 91
        0
280
     0
281
     0
  0
ENDSEC
  0
SECTION
  2
TABLES
  0
TABLE
  2
VPORT
  5
29
330
0
100
AcDbSymbolTable
 70
     1
  0
VPORT
  5
2A
330
29
100
AcDbSymbolTableRecord
100
AcDbViewportTableRecord
  2
*Active
 70
     0
 10
0.0
 20
0.0
 11
1.0
 21
1.0
 12
25.00158691748459
 22
21.96325771291703
 13
0.0
 23
0.0
 14
10.0
 24
10.0
 15
10.0
 25
10.0
 16
0.0
 26
0.0
 36
1.0
 17
0.0
 27
0.0
 37
0.0
 40
54.03337327799826
 41
2.471048513302034
 42
50.0
 43
0.0
 44
0.0
 50
0.0
 51
0.0
 71
     0
 72
  1000
 73
     1
 74
     3
 75
     0
 76
     1
 77
     0
 78
     0
281
     0
 65
     1
110
0.0
120
0.0
130
0.0
111
1.0
121
0.0
131
0.0
112
0.0
122
1.0
132
0.0
 79
     0
146
0.0
1001
ACAD_NAV_VCDISPLAY
1070
     3
  0
ENDTAB
  0
TABLE
  2
LTYPE
  5
24
330
0
100
AcDbSymbolTable
 70
     1
  0
LTYPE
  5
25
330
24
100
AcDbSymbolTableRecord
100
AcDbLinetypeTableRecord
  2
ByBlock
 70
     0
  3

 72
    65
 73
     0
 40
0.0
  0
LTYPE
  5
26
330
24
100
AcDbSymbolTableRecord
100
AcDbLinetypeTableRecord
  2
ByLayer
 70
     0
  3

 72
    65
 73
     0
 40
0.0
  0
LTYPE
  5
14
330
24
100
AcDbSymbolTableRecord
100
AcDbLinetypeTableRecord
  2
Continuous
 70
     0
  3
Solid line
 72
    65
 73
     0
 40
0.0
  0
ENDTAB
  0
TABLE
  2
LAYER
  5
1E
102
{ACAD_XDICTIONARY
360
1F
102
}
330
0
100
AcDbSymbolTable
 70
     1
  0
LAYER
  5
6
102
{ACAD_XDICTIONARY
360
7
102
}
330
1E
100
AcDbSymbolTableRecord
100
AcDbLayerTableRecord
  2
0
 70
     0
 62
     7
  6
Continuous
370
    -3
390
8
  0
ENDTAB
  0
TABLE
  2
STYLE
  5
21
330
0
100
AcDbSymbolTable
 70
     1
  0
STYLE
  5
22
330
21
100
AcDbSymbolTableRecord
100
AcDbTextStyleTableRecord
  2
Standard
 70
     0
 40
0.0
 41
1.0
 50
0.0
 71
     0
 42
2.5
  3
arial.ttf
  4

1001
ACAD
1000
Arial
1071
       34
  0
ENDTAB
  0
TABLE
  2
VIEW
  5
27
330
0
100
AcDbSymbolTable
 70
     0
  0
ENDTAB
  0
TABLE
  2
UCS
  5
28
330
0
100
AcDbSymbolTable
 70
     0
  0
ENDTAB
  0
TABLE
  2
APPID
  5
2E
330
0
100
AcDbSymbolTable
 70
     3
  0
APPID
  5
13
330
2E
100
AcDbSymbolTableRecord
100
AcDbRegAppTableRecord
  2
ACAD
 70
     0
  0
APPID
  5
19
330
2E
100
AcDbSymbolTableRecord
100
AcDbRegAppTableRecord
  2
ACAD_PSEXT
 70
     0
  0
APPID
  5
2D
330
2E
100
AcDbSymbolTableRecord
100
AcDbRegAppTableRecord
  2
ACAD_NAV_VCDISPLAY
 70
     0
  0
ENDTAB
  0
TABLE
  2
DIMSTYLE
  5
2F
330
0
100
AcDbSymbolTable
 70
     2
100
AcDbDimStyleTable
 71
     2
340
30
340
31
  0
DIMSTYLE
105
31
330
2F
100
AcDbSymbolTableRecord
100
AcDbDimStyleTableRecord
  2
Standard
 70
     0
340
22
  0
DIMSTYLE
105
30
330
2F
100
AcDbSymbolTableRecord
100
AcDbDimStyleTableRecord
  2
ISO-25
 70
     0
 41
2.5
 42
0.625
 43
3.75
 44
1.25
 73
     0
 74
     0
 77
     1
 78
     8
140
2.5
141
2.5
143
0.03937007874016
147
0.625
171
     3
172
     1
271
     2
272
     2
274
     3
278
    44
283
     0
284
     8
340
22
  0
ENDTAB
  0
TABLE
  2
BLOCK_RECORD
  5
1
330
0
100
AcDbSymbolTable
 70
     0
  0
BLOCK_RECORD
  5
2
102
{ACAD_XDICTIONARY
360
3
102
}
330
1
100
AcDbSymbolTableRecord
100
AcDbBlockTableRecord
  2
*Model_Space
340
16
  0
BLOCK_RECORD
  5
1A
330
1
100
AcDbSymbolTableRecord
100
AcDbBlockTableRecord
  2
*Paper_Space
340
1D
  0
ENDTAB
  0
ENDSEC
  0
SECTION
  2
BLOCKS
  0
BLOCK
  5
5
330
2
100
AcDbEntity
  8
0
100
AcDbBlockBegin
  2
*Model_Space
 70
     0
 10
0.0
 20
0.0
 30
0.0
  3
*Model_Space
  1

  0
ENDBLK
  5
15
330
2
100
AcDbEntity
  8
0
100
AcDbBlockEnd
  0
BLOCK
  5
1B
330
1A
100
AcDbEntity
 67
     1
  8
0
100
AcDbBlockBegin
  2
*Paper_Space
 70
     0
 10
0.0
 20
0.0
 30
0.0
  3
*Paper_Space
  1

  0
ENDBLK
  5
1C
330
1A
100
AcDbEntity
 67
     1
  8
0
100
AcDbBlockEnd
  0
ENDSEC
  0
SECTION
  2
ENTITIES
  0
SPLINE
  5
56
330
2
100
AcDbEntity
  8
0
100
AcDbSpline
210
0.0
220
0.0
230
1.0
 70
     8
 71
     3
 72
    10
 73
     6
 74
     0
 42
0.000000001
 43
0.0000000001
 40
0.0
 40
0.0
 40
0.0
 40
0.0
 40
0.0996095516847089
 40
0.3278166842847683
 40
1.0
 40
1.0
 40
1.0
 40
1.0
 10
27.07080034516017
 20
42.39980970937581
 30
0.0
 10
27.05703764484411
 20
42.49796726022263
 30
0.0
 10
27.05450425040535
 20
42.58830011197239
 30
0.0
 10
26.98100259623789
 20
42.73169989283891
 30
0.0
 10
26.85486775026801
 20
42.8874715353234
 30
0.0
 10
26.71918386421735
 20
42.98801877895574
 30
0.0
  0
LINE
  5
57
330
2
100
AcDbEntity
  8
0
100
AcDbLine
 10
26.71918386421735
 20
42.98801877895574
 30
0.0
 11
26.47592469882473
 21
43.16003103557305
 31
0.0
  0
LINE
  5
58
330
2
100
AcDbEntity
  8
0
100
AcDbLine
 10
24.5587779234701
 20
43.33899475421506
 30
0.0
 11
24.10590802039991
 21
43.10042058876677
 31
0.0
  0
SPLINE
  5
59
330
2
100
AcDbEntity
  8
0
100
AcDbSpline
210
0.0
220
0.0
230
1.0
 70
     8
 71
     3
 72
    12
 73
     8
 74
     0
 42
0.000000001
 43
0.0000000001
 40
0.0
 40
0.0
 40
0.0
 40
0.0
 40
0.1835965173210103
 40
0.4110248497755526
 40
0.6120718992054743
 40
0.8600282950335415
 40
1.0
 40
1.0
 40
1.0
 40
1.0
 10
26.17803269519815
 20
43.31164602848406
 30
0.0
 10
26.1334671138941
 20
43.32930287864029
 30
0.0
 10
26.03369636863215
 20
43.36883197368449
 30
0.0
 10
25.86392976177786
 20
43.40901717178545
 30
0.0
 10
25.66929967602512
 20
43.44197672823197
 30
0.0
 10
25.49271956961934
 20
43.45800307215673
 30
0.0
 10
25.3754011602871
 20
43.45965037929766
 30
0.0
 10
25.3330704867821
 20
43.46024475848452
 30
0.0
  0
SPLINE
  5
5A
330
2
100
AcDbEntity
  8
0
100
AcDbSpline
210
0.0
220
0.0
230
1.0
 70
     8
 71
     3
 72
    11
 73
     7
 74
     0
 42
0.000000001
 43
0.0000000001
 40
0.0
 40
0.0
 40
0.0
 40
0.0
 40
0.4078526112920055
 40
0.5706311029246525
 40
0.8366511488575108
 40
1.0
 40
1.0
 40
1.0
 40
1.0
 10
25.3330704867821
 20
43.46024475848452
 30
0.0
 10
25.22336167998072
 20
43.45669966251951
 30
0.0
 10
25.069866874033
 20
43.45173967951455
 30
0.0
 10
24.85431249903137
 20
43.41870955828983
 30
0.0
 10
24.70563136321975
 20
43.3882827832487
 30
0.0
 10
24.60860524672068
 20
43.3554856968159
 30
0.0
 10
24.57169268791885
 20
43.34300839250685
 30
0.0
  0
LINE
  5
5B
330
2
100
AcDbEntity
  8
0
100
AcDbLine
 10
23.09445493278973
 20
42.82260990682396
 30
0.0
 11
23.09445493278973
 21
42.68783569216704
 31
0.0
  0
SPLINE
  5
5C
330
2
100
AcDbEntity
  8
0
100
AcDbSpline
210
0.0
220
0.0
230
1.0
 70
     8
 71
     3
 72
    13
 73
     9
 74
     0
 42
0.000000001
 43
0.0000000001
 40
0.0
 40
0.0
 40
0.0
 40
0.0
 40
0.2502351336815974
 40
0.3511012828453599
 40
0.516718241992855
 40
0.6854258747703361
 40
0.863519083944389
 40
1.0
 40
1.0
 40
1.0
 40
1.0
 10
24.27361450274
 20
42.54459057980084
 30
0.0
 10
24.14259992020607
 20
42.54098225649715
 30
0.0
 10
23.95877526168458
 20
42.53591947045975
 30
0.0
 10
23.69577250450489
 20
42.50254708372284
 30
0.0
 10
23.47999312985127
 20
42.46361295987429
 30
0.0
 10
23.23979159110049
 20
42.39987553097754
 30
0.0
 10
23.02667736478273
 20
42.32585496247926
 30
0.0
 10
22.90547935399931
 20
42.26443226884106
 30
0.0
 10
22.8528964674579
 20
42.23778346074782
 30
0.0
  0
SPLINE
  5
5D
330
2
100
AcDbEntity
  8
0
100
AcDbSpline
210
0.0
220
0.0
230
1.0
 70
     8
 71
     3
 72
    12
 73
     8
 74
     0
 42
0.000000001
 43
0.0000000001
 40
0.0
 40
0.0
 40
0.0
 40
0.0
 40
0.198239801194106
 40
0.4189978040965793
 40
0.5838395779111365
 40
0.7356730334040572
 40
1.0
 40
1.0
 40
1.0
 40
1.0
 10
25.62291022415507
 20
42.27517086054739
 30
0.0
 10
25.54667946337338
 20
42.30807611469565
 30
0.0
 10
25.38555883482271
 20
42.37762435449567
 30
0.0
 10
25.13088190346586
 20
42.449027129805
 30
0.0
 10
24.88406806345761
 20
42.49782002008316
 30
0.0
 10
24.60742844603871
 20
42.53527020731232
 30
0.0
 10
24.40328042823218
 20
42.54097019560504
 30
0.0
 10
24.27361450274
 20
42.54459057980084
 30
0.0
  0
LINE
  5
5E
330
2
100
AcDbEntity
  8
0
100
AcDbLine
 10
26.03784841379761
 20
42.08174188591493
 30
0.0
 11
25.62350873800472
 21
42.27546155927188
 31
0.0
  0
LINE
  5
5F
330
2
100
AcDbEntity
  8
0
100
AcDbLine
 10
22.85030055871054
 20
42.23938295822955
 30
0.0
 11
22.26567520976622
 21
41.93751592528712
 31
0.0
  0
SPLINE
  5
60
330
2
100
AcDbEntity
  8
0
100
AcDbSpline
210
0.0
220
0.0
230
1.0
 70
     8
 71
     3
 72
    11
 73
     7
 74
     0
 42
0.000000001
 43
0.0000000001
 40
0.0
 40
0.0
 40
0.0
 40
0.0
 40
0.2567374669649171
 40
0.5126860520130533
 40
0.7623464372145527
 40
1.0
 40
1.0
 40
1.0
 40
1.0
 10
22.05225144421897
 20
41.50388222012234
 30
0.0
 10
22.05516512572692
 20
41.47176861141908
 30
0.0
 10
22.06098353582024
 20
41.40764007008628
 30
0.0
 10
22.10784022538543
 20
41.31596359688801
 30
0.0
 10
22.17727923639356
 20
41.2355289653309
 30
0.0
 10
22.23919114743471
 20
41.19815014498564
 30
0.0
 10
22.2693843858976
 20
41.17992121912693
 30
0.0
  0
LINE
  5
61
330
2
100
AcDbEntity
  8
0
100
AcDbLine
 10
22.05226122304104
 20
41.61683592095277
 30
0.0
 11
22.05226122304104
 21
41.5022094882005
 31
0.0
  0
SPLINE
  5
62
330
2
100
AcDbEntity
  8
0
100
AcDbSpline
210
0.0
220
0.0
230
1.0
 70
     8
 71
     3
 72
    11
 73
     7
 74
     0
 42
0.000000001
 43
0.0000000001
 40
0.0
 40
0.0
 40
0.0
 40
0.0
 40
0.1823543220667365
 40
0.4886909254232818
 40
0.8000953399012477
 40
1.0
 40
1.0
 40
1.0
 40
1.0
 10
22.26776670956958
 20
41.93474414908081
 30
0.0
 10
22.24571898499039
 20
41.92375300027062
 30
0.0
 10
22.18663333894734
 20
41.89429784602653
 30
0.0
 10
22.11241834701843
 20
41.81612375675589
 30
0.0
 10
22.05734781582343
 20
41.71524251124671
 30
0.0
 10
22.05775139814655
 20
41.64485532530395
 30
0.0
 10
22.05790918526823
 20
41.61733630172149
 30
0.0
  0
LINE
  5
63
330
2
100
AcDbEntity
  8
0
100
AcDbLine
 10
22.26913129002892
 20
41.18005033624995
 30
0.0
 11
22.43019775290256
 21
41.09757260579156
 31
0.0
  0
LINE
  5
64
330
2
100
AcDbEntity
  8
0
100
AcDbLine
 10
20.07507828798892
 20
38.25256713488054
 30
0.0
 11
20.09096298964945
 21
37.9374322437982
 31
0.0
  0
SPLINE
  5
65
330
2
100
AcDbEntity
  8
0
100
AcDbSpline
210
0.0
220
0.0
230
1.0
 70
     8
 71
     3
 72
     9
 73
     5
 74
     0
 42
0.000000001
 43
0.0000000001
 40
0.0
 40
0.0
 40
0.0
 40
0.0
 40
0.202177352573491
 40
1.0
 40
1.0
 40
1.0
 40
1.0
 10
20.41310744499329
 20
31.79754653454806
 30
0.0
 10
20.41809703675125
 20
31.74222576704566
 30
0.0
 10
20.43280534783926
 20
31.57915129171343
 30
0.0
 10
20.53276376947909
 20
31.313170085553
 30
0.0
 10
20.67928200400766
 20
31.08563006033407
 30
0.0
  0
LINE
  5
66
330
2
100
AcDbEntity
  8
0
100
AcDbLine
 10
19.24077898684292
 20
37.93059118927649
 30
0.0
 11
19.77660297248822
 21
30.4154138407768
 31
0.0
  0
SPLINE
  5
67
330
2
100
AcDbEntity
  8
0
100
AcDbSpline
210
0.0
220
0.0
230
1.0
 70
     8
 71
     3
 72
    11
 73
     7
 74
     0
 42
0.000000001
 43
0.0000000001
 40
0.0
 40
0.0
 40
0.0
 40
0.0
 40
0.0883187236008595
 40
0.4034992053547846
 40
0.710241078332461
 40
1.0
 40
1.0
 40
1.0
 40
1.0
 10
19.78350398773164
 20
30.4143600738458
 30
0.0
 10
19.78265755316958
 20
30.39914731243112
 30
0.0
 10
19.77879047199788
 20
30.32964520810018
 30
0.0
 10
19.83909677298741
 20
30.21624320036957
 30
0.0
 10
19.94060850207286
 20
30.10163887934992
 30
0.0
 10
20.0318317841195
 20
30.05051547636155
 30
0.0
 10
20.0761448178557
 20
30.02568154109296
 30
0.0
  0
LINE
  5
68
330
2
100
AcDbEntity
  8
0
100
AcDbLine
 10
20.07026079792785
 20
30.02859647384959
 30
0.0
 11
23.45261300464369
 21
28.3374203704657
 31
0.0
  0
LINE
  5
69
330
2
100
AcDbEntity
  8
0
100
AcDbLine
 10
27.21353206830965
 20
26.45696083863272
 30
0.0
 11
40.33466151412988
 21
19.89639611572263
 31
0.0
  0
LINE
  5
6A
330
2
100
AcDbEntity
  8
0
100
AcDbLine
 10
49.41920808987407
 20
24.19653824405581
 30
0.0
 11
49.98074562528501
 21
32.07238425380585
 31
0.0
  0
SPLINE
  5
6B
330
2
100
AcDbEntity
  8
0
100
AcDbSpline
210
0.0
220
0.0
230
1.0
 70
     8
 71
     3
 72
    11
 73
     7
 74
     0
 42
0.000000001
 43
0.0000000001
 40
0.0
 40
0.0
 40
0.0
 40
0.0
 40
0.2598250823401076
 40
0.6441491721092494
 40
0.9984438643342706
 40
1.0
 40
1.0
 40
1.0
 40
1.0
 10
49.11961602669633
 20
23.806780205744
 30
0.0
 10
49.15528226207225
 20
23.82621741994785
 30
0.0
 10
49.24370473376996
 20
23.87440547525353
 30
0.0
 10
49.3448508009663
 20
23.98236537954621
 30
0.0
 10
49.40948435966197
 20
24.08439106192099
 30
0.0
 10
49.4105342711134
 20
24.13871885846575
 30
0.0
 10
49.41053886237618
 20
24.13895643391929
 30
0.0
  0
LINE
  5
6C
330
2
100
AcDbEntity
  8
0
100
AcDbLine
 10
41.29887897819334
 20
19.89639235792463
 30
0.0
 11
49.12529268481272
 21
23.80959921126023
 31
0.0
  0
SPLINE
  5
6D
330
2
100
AcDbEntity
  8
0
100
AcDbSpline
210
0.0
220
0.0
230
1.0
 70
     8
 71
     3
 72
    12
 73
     8
 74
     0
 42
0.000000001
 43
0.0000000001
 40
0.0
 40
0.0
 40
0.0
 40
0.0
 40
0.1261960729836415
 40
0.353850269785801
 40
0.5788195494296538
 40
0.8059178654419689
 40
1.0
 40
1.0
 40
1.0
 40
1.0
 10
40.32900603630936
 20
19.89925197795277
 30
0.0
 10
40.36515880596398
 20
19.88284607799226
 30
0.0
 10
40.46653016398909
 20
19.83684439196617
 30
0.0
 10
40.66075216337941
 20
19.79550381977592
 30
0.0
 10
40.90119977812862
 20
19.78903241432638
 30
0.0
 10
41.12490391187298
 20
19.82244081724663
 30
0.0
 10
41.24786861085183
 20
19.87501194870243
 30
0.0
 10
41.30453138145489
 20
19.89923699854799
 30
0.0
  0
LINE
  5
6E
330
2
100
AcDbEntity
  8
0
100
AcDbLine
 10
10.17213094829291
 20
0.5744547217590828
 30
0.0
 11
28.43660985686494
 21
10.21231028011798
 31
0.0
  0
LINE
  5
6F
330
2
100
AcDbEntity
  8
0
100
AcDbLine
 10
21.17375401158418
 20
23.97598617735766
 30
0.0
 11
11.68577321576955
 21
18.96934283260619
 31
0.0
  0
LINE
  5
70
330
2
100
AcDbEntity
  8
0
100
AcDbLine
 10
11.68577321576955
 20
18.96934283260619
 30
0.0
 11
2.909275103012127
 21
14.33813061899876
 31
0.0
  0
LINE
  5
71
330
2
100
AcDbEntity
  8
0
100
AcDbLine
 10
26.82611048564676
 20
12.12099219541628
 30
0.0
 11
26.86845371943337
 21
12.15094891827855
 31
0.0
  0
LINE
  5
72
330
2
100
AcDbEntity
  8
0
100
AcDbLine
 10
23.45261210793888
 20
31.74188133162189
 30
0.0
 11
23.45261210793888
 21
12.69379009049353
 31
0.0
  0
LINE
  5
73
330
2
100
AcDbEntity
  8
0
100
AcDbLine
 10
27.21352694403025
 20
12.69378797670625
 30
0.0
 11
27.21352694403025
 21
31.74187921788645
 31
0.0
  0
LINE
  5
74
330
2
100
AcDbEntity
  8
0
100
AcDbLine
 10
20.09096298964945
 20
37.9374322437982
 30
0.0
 11
19.14044285039117
 21
37.92978914991002
 31
0.0
  0
LINE
  5
75
330
2
100
AcDbEntity
  8
0
100
AcDbLine
 10
19.11862220290873
 20
38.60814817237332
 30
0.0
 11
20.09387797045979
 21
38.61599262182858
 31
0.0
  0
ELLIPSE
  5
76
330
2
100
AcDbEntity
  8
0
100
AcDbEllipse
 10
18.83229688463353
 20
38.02728894998564
 30
0.0
 11
0.12960392986049
 21
0.0046336892463947
 31
0.0
210
0.0
220
0.0
230
1.0
 40
0.8921149373000002
 41
4.681347321965722
 42
6.199783771200956
  0
LINE
  5
77
330
2
100
AcDbEntity
  8
0
100
AcDbLine
 10
18.26632973684897
 20
37.90703058764308
 30
0.0
 11
18.83241403045816
 21
37.91157521073357
 31
0.0
  0
ELLIPSE
  5
78
330
2
100
AcDbEntity
  8
0
100
AcDbEllipse
 10
19.11873792638295
 20
38.49243520055451
 30
0.0
 11
0.1296039298604606
 21
0.0046336892463947
 31
0.0
210
0.0
220
0.0
230
0.9999999999999998
 40
0.8921149372999998
 41
1.539754668376129
 42
3.058191117610921
  0
LINE
  5
79
330
2
100
AcDbEntity
  8
0
100
AcDbLine
 10
18.96180063651067
 20
38.02227160223776
 30
0.0
 11
18.98923559690811
 21
38.49745157171064
 31
0.0
  0
LINE
  5
7A
330
2
100
AcDbEntity
  8
0
100
AcDbLine
 10
18.27611502873475
 20
39.52705439659136
 30
0.0
 11
20.3659488562076
 21
39.54386112389002
 31
0.0
  0
LINE
  5
7B
330
2
100
AcDbEntity
  8
0
100
AcDbLine
 10
18.18348202544943
 20
37.27365191529871
 30
0.0
 11
18.15447767420776
 21
37.27648751142394
 31
0.0
  0
SPLINE
  5
7C
330
2
100
AcDbEntity
  8
0
100
AcDbSpline
210
0.0
220
0.0
230
1.0
 70
     8
 71
     3
 72
    11
 73
     7
 74
     0
 42
0.000000001
 43
0.0000000001
 40
0.0
 40
0.0
 40
0.0
 40
0.0
 40
0.25146859758016
 40
0.5004675203733971
 40
0.7517175584187443
 40
1.0
 40
1.0
 40
1.0
 40
1.0
 10
18.15447767421935
 20
37.27648751140341
 30
0.0
 10
18.15183342212454
 20
37.27689529219774
 30
0.0
 10
18.14657088715257
 20
37.27770684896849
 30
0.0
 10
18.14030075937418
 20
37.28047545570475
 30
0.0
 10
18.13567355202755
 20
37.28393393539864
 30
0.0
 10
18.13470037786811
 20
37.2866366884409
 30
0.0
 10
18.1342166814794
 20
37.28798003677504
 30
0.0
  0
LINE
  5
7D
330
2
100
AcDbEntity
  8
0
100
AcDbLine
 10
18.1342166814802
 20
37.28798003676163
 30
0.0
 11
18.13373807532947
 21
37.29053926432707
 31
0.0
  0
SPLINE
  5
7E
330
2
100
AcDbEntity
  8
0
100
AcDbSpline
210
0.0
220
0.0
230
1.0
 70
     8
 71
     3
 72
     9
 73
     5
 74
     0
 42
0.000000001
 43
0.0000000001
 40
0.0
 40
0.0
 40
0.0
 40
0.0
 40
0.5009145597867071
 40
1.0
 40
1.0
 40
1.0
 40
1.0
 10
18.12595602853552
 20
37.29867317717948
 30
0.0
 10
18.12798910190492
 20
37.29750138165688
 30
0.0
 10
18.13204782475414
 20
37.29516206949333
 30
0.0
 10
18.13317534594289
 20
37.29207831920231
 30
0.0
 10
18.13373807535171
 20
37.29053926433087
 30
0.0
  0
SPLINE
  5
7F
330
2
100
AcDbEntity
  8
0
100
AcDbSpline
210
0.0
220
0.0
230
1.0
 70
     8
 71
     3
 72
    15
 73
    11
 74
     0
 42
0.000000001
 43
0.0000000001
 40
0.0
 40
0.0
 40
0.0
 40
0.0
 40
0.1250200499126686
 40
0.2499722102901784
 40
0.374909560321663
 40
0.5002585942712085
 40
0.6253644806323349
 40
0.7503669921384317
 40
0.874796259865006
 40
1.0
 40
1.0
 40
1.0
 40
1.0
 10
18.08786977588255
 20
37.29758000115619
 30
0.0
 10
18.08908704348946
 20
37.29825667730159
 30
0.0
 10
18.09152091769124
 20
37.29960966213761
 30
0.0
 10
18.09608328889206
 20
37.30110487438623
 30
0.0
 10
18.10109787774217
 20
37.30211907335025
 30
0.0
 10
18.10642941174963
 20
37.30254468633747
 30
0.0
 10
18.11181745914981
 20
37.3024186549743
 30
0.0
 10
18.11701399970902
 20
37.30171021378244
 30
0.0
 10
18.12188762848756
 20
37.30049757629097
 30
0.0
 10
18.12459709319878
 20
37.29928256671632
 30
0.0
 10
18.12595602853552
 20
37.29867317717948
 30
0.0
  0
LINE
  5
80
330
2
100
AcDbEntity
  8
0
100
AcDbLine
 10
18.08786977585929
 20
37.29758000114741
 30
0.0
 11
18.08458239058676
 21
37.29558649217135
 31
0.0
  0
SPLINE
  5
81
330
2
100
AcDbEntity
  8
0
100
AcDbSpline
210
0.0
220
0.0
230
1.0
 70
     8
 71
     3
 72
    11
 73
     7
 74
     0
 42
0.000000001
 43
0.0000000001
 40
0.0
 40
0.0
 40
0.0
 40
0.0
 40
0.251540686359048
 40
0.5001196808157591
 40
0.7515905981915723
 40
1.0
 40
1.0
 40
1.0
 40
1.0
 10
18.08458239060991
 20
37.29558649219241
 30
0.0
 10
18.08266120274327
 20
37.29458989767425
 30
0.0
 10
18.07884144747193
 20
37.29260844274736
 30
0.0
 10
18.07106223713203
 20
37.29107126701434
 30
0.0
 10
18.06280281566205
 20
37.29057379220234
 30
0.0
 10
18.05753782377095
 20
37.29136178806141
 30
0.0
 10
18.0549214505393
 20
37.29175337295178
 30
0.0
  0
LINE
  5
82
330
2
100
AcDbEntity
  8
0
100
AcDbLine
 10
18.05492145051907
 20
37.29175337295767
 30
0.0
 11
18.02774202002118
 21
37.29753473685223
 31
0.0
  0
SPLINE
  5
83
330
2
100
AcDbEntity
  8
0
100
AcDbSpline
210
0.0
220
0.0
230
1.0
 70
     8
 71
     3
 72
    11
 73
     7
 74
     0
 42
0.000000001
 43
0.0000000001
 40
0.0
 40
0.0
 40
0.0
 40
0.0
 40
0.2522610336750923
 40
0.5001176379711746
 40
0.751870301407158
 40
1.0
 40
1.0
 40
1.0
 40
1.0
 10
18.02774202004165
 20
37.29753473683647
 30
0.0
 10
18.02531718495874
 20
37.29821199813817
 30
0.0
 10
18.02050985194962
 20
37.29955469588894
 30
0.0
 10
18.01552788055234
 20
37.30291660121941
 30
0.0
 10
18.0124310511358
 20
37.30677716061292
 30
0.0
 10
18.01260593554003
 20
37.3095255338447
 30
0.0
 10
18.01269274399294
 20
37.31088976085777
 30
0.0
  0
LINE
  5
84
330
2
100
AcDbEntity
  8
0
100
AcDbLine
 10
18.01269274397772
 20
37.31088976086172
 30
0.0
 11
18.01328920813976
 21
37.31343993552663
 31
0.0
  0
SPLINE
  5
85
330
2
100
AcDbEntity
  8
0
100
AcDbSpline
210
0.0
220
0.0
230
1.0
 70
     8
 71
     3
 72
    11
 73
     7
 74
     0
 42
0.000000001
 43
0.0000000001
 40
0.0
 40
0.0
 40
0.0
 40
0.0
 40
0.2494706268537219
 40
0.4994244171619722
 40
0.7504540849103045
 40
1.0
 40
1.0
 40
1.0
 40
1.0
 10
18.0055877830763
 20
37.32428150876105
 30
0.0
 10
18.00692125741916
 20
37.32355656917751
 30
0.0
 10
18.0095907887178
 20
37.32210528598019
 30
0.0
 10
18.01215330279622
 20
37.31938870070088
 30
0.0
 10
18.01362196796077
 20
37.31645650719273
 30
0.0
 10
18.01339990869258
 20
37.31444347048795
 30
0.0
 10
18.01328920816058
 20
37.31343993554972
 30
0.0
  0
SPLINE
  5
86
330
2
100
AcDbEntity
  8
0
100
AcDbSpline
210
0.0
220
0.0
230
1.0
 70
     8
 71
     3
 72
    11
 73
     7
 74
     0
 42
0.000000001
 43
0.0000000001
 40
0.0
 40
0.0
 40
0.0
 40
0.0
 40
0.2497900080546957
 40
0.4998278921370959
 40
0.7494347155015104
 40
1.0
 40
1.0
 40
1.0
 40
1.0
 10
17.97135702561056
 20
37.325094216811
 30
0.0
 10
17.97399647712948
 20
37.32597339118932
 30
0.0
 10
17.97927799939442
 20
37.32773261238375
 30
0.0
 10
17.98879057196757
 20
37.3282957972628
 30
0.0
 10
17.9981667996114
 20
37.32729833062256
 30
0.0
 10
18.0031109638155
 20
37.32528839989999
 30
0.0
 10
18.00558778307621
 20
37.32428150876113
 30
0.0
  0
LINE
  5
87
330
2
100
AcDbEntity
  8
0
100
AcDbLine
 10
17.97135702562957
 20
37.32509421679316
 30
0.0
 11
17.96730919977278
 21
37.32348571076829
 31
0.0
  0
SPLINE
  5
88
330
2
100
AcDbEntity
  8
0
100
AcDbSpline
210
0.0
220
0.0
230
1.0
 70
     8
 71
     3
 72
    11
 73
     7
 74
     0
 42
0.000000001
 43
0.0000000001
 40
0.0
 40
0.0
 40
0.0
 40
0.0
 40
0.2514568645276368
 40
0.50028408293503
 40
0.7518103885513332
 40
1.0
 40
1.0
 40
1.0
 40
1.0
 10
17.96730919976664
 20
37.32348571077782
 30
0.0
 10
17.96501528130708
 20
37.3227111131654
 30
0.0
 10
17.96045143336812
 20
37.32117001840564
 30
0.0
 10
17.95219623394436
 20
37.32048448789043
 30
0.0
 10
17.94391012192077
 20
37.32085508673882
 30
0.0
 10
17.93908781117671
 20
37.32217199156493
 30
0.0
 10
17.93669275552813
 20
37.32282604737127
 30
0.0
  0
LINE
  5
89
330
2
100
AcDbEntity
  8
0
100
AcDbLine
 10
17.93669275553134
 20
37.32282604738504
 30
0.0
 11
17.91251033544127
 21
37.33130841007387
 31
0.0
  0
SPLINE
  5
8A
330
2
100
AcDbEntity
  8
0
100
AcDbSpline
210
0.0
220
0.0
230
1.0
 70
     8
 71
     3
 72
    11
 73
     7
 74
     0
 42
0.000000001
 43
0.0000000001
 40
0.0
 40
0.0
 40
0.0
 40
0.0
 40
0.2516612451089184
 40
0.499800333595745
 40
0.7516779147717762
 40
1.0
 40
1.0
 40
1.0
 40
1.0
 10
17.9125103354219
 20
37.33130841007731
 30
0.0
 10
17.91042344431985
 20
37.33222031299646
 30
0.0
 10
17.90627886946258
 20
37.33403135618257
 30
0.0
 10
17.90281081877434
 20
37.33783902451243
 30
0.0
 10
17.90137487387618
 20
37.34193950220737
 30
0.0
 10
17.90268552824528
 20
37.34461241755882
 30
0.0
 10
17.90333619726361
 20
37.34593937548841
 30
0.0
  0
LINE
  5
8B
330
2
100
AcDbEntity
  8
0
100
AcDbLine
 10
17.90333619726316
 20
37.3459393755056
 30
0.0
 11
17.90499304219239
 21
37.34836383491689
 31
0.0
  0
SPLINE
  5
8C
330
2
100
AcDbEntity
  8
0
100
AcDbSpline
210
0.0
220
0.0
230
1.0
 70
     8
 71
     3
 72
    11
 73
     7
 74
     0
 42
0.000000001
 43
0.0000000001
 40
0.0
 40
0.0
 40
0.0
 40
0.0
 40
0.2498262929042203
 40
0.5001131762523901
 40
0.7500450777779577
 40
1.0
 40
1.0
 40
1.0
 40
1.0
 10
17.89847976277995
 20
37.36185465191816
 30
0.0
 10
17.90009333464918
 20
37.36095399278699
 30
0.0
 10
17.9033234532378
 20
37.35915101403104
 30
0.0
 10
17.90594840357332
 20
37.35568804085518
 30
0.0
 10
17.9067848224755
 20
37.35197826425707
 30
0.0
 10
17.90559032061085
 20
37.34956868169939
 30
0.0
 10
17.90499304217402
 20
37.34836383493764
 30
0.0
  0
SPLINE
  5
8D
330
2
100
AcDbEntity
  8
0
100
AcDbSpline
210
0.0
220
0.0
230
1.0
 70
     8
 71
     3
 72
    11
 73
     7
 74
     0
 42
0.000000001
 43
0.0000000001
 40
0.0
 40
0.0
 40
0.0
 40
0.0
 40
0.2496427166004541
 40
0.499741364392687
 40
0.7499784895030498
 40
1.0
 40
1.0
 40
1.0
 40
1.0
 10
17.86882463020694
 20
37.36412435863659
 30
0.0
 10
17.87131082922847
 20
37.3646405531952
 30
0.0
 10
17.87628776790353
 20
37.36567388505639
 30
0.0
 10
17.88442414985687
 20
37.36562506564181
 30
0.0
 10
17.89222569702219
 20
37.36445625427025
 30
0.0
 10
17.89639567328933
 20
37.36272160348704
 30
0.0
 10
17.89847976277995
 20
37.36185465191816
 30
0.0
  0
LINE
  5
8E
330
2
100
AcDbEntity
  8
0
100
AcDbLine
 10
17.86882463019326
 20
37.36412435862836
 30
0.0
 11
17.86419742108844
 21
37.36296952064979
 31
0.0
  0
SPLINE
  5
8F
330
2
100
AcDbEntity
  8
0
100
AcDbSpline
210
0.0
220
0.0
230
1.0
 70
     8
 71
     3
 72
    11
 73
     7
 74
     0
 42
0.000000001
 43
0.0000000001
 40
0.0
 40
0.0
 40
0.0
 40
0.0
 40
0.2515293819915291
 40
0.5004481658465406
 40
0.7521920149795357
 40
1.0
 40
1.0
 40
1.0
 40
1.0
 10
17.86419742107069
 20
37.36296952065321
 30
0.0
 10
17.86163067525089
 20
37.36245182224286
 30
0.0
 10
17.85652382360791
 20
37.36142179856183
 30
0.0
 10
17.84816208517419
 20
37.36160397910921
 30
0.0
 10
17.84021467063199
 20
37.3628302447906
 30
0.0
 10
17.8360468128821
 20
37.36461765751837
 30
0.0
 10
17.83397930284567
 20
37.36550432255729
 30
0.0
  0
LINE
  5
90
330
2
100
AcDbEntity
  8
0
100
AcDbLine
 10
17.83397930286248
 20
37.3655043225802
 30
0.0
 11
17.81384778313462
 21
37.37631822477343
 31
0.0
  0
SPLINE
  5
91
330
2
100
AcDbEntity
  8
0
100
AcDbSpline
210
0.0
220
0.0
230
1.0
 70
     8
 71
     3
 72
    11
 73
     7
 74
     0
 42
0.000000001
 43
0.0000000001
 40
0.0
 40
0.0
 40
0.0
 40
0.0
 40
0.2517174624293892
 40
0.5000712569408274
 40
0.7516694163605453
 40
1.0
 40
1.0
 40
1.0
 40
1.0
 10
17.81384778314094
 20
37.37631822475067
 30
0.0
 10
17.81218577769747
 20
37.37742713520368
 30
0.0
 10
17.80888397597458
 20
37.37963013788267
 30
0.0
 10
17.80707096863877
 20
37.38371432437416
 30
0.0
 10
17.8073827463454
 20
37.38787307183376
 30
0.0
 10
17.80977444735023
 20
37.39034928796519
 30
0.0
 10
17.81096248167435
 20
37.39157930365387
 30
0.0
  0
LINE
  5
92
330
2
100
AcDbEntity
  8
0
100
AcDbLine
 10
17.8109624816755
 20
37.39157930367404
 30
0.0
 11
17.81358063824665
 21
37.39378478627853
 31
0.0
  0
SPLINE
  5
93
330
2
100
AcDbEntity
  8
0
100
AcDbSpline
210
0.0
220
0.0
230
1.0
 70
     8
 71
     3
 72
    11
 73
     7
 74
     0
 42
0.000000001
 43
0.0000000001
 40
0.0
 40
0.0
 40
0.0
 40
0.0
 40
0.2499439125434509
 40
0.5000200895146627
 40
0.7498283048246929
 40
1.0
 40
1.0
 40
1.0
 40
1.0
 10
17.80935346321503
 20
37.40973046666883
 30
0.0
 10
17.81123538945958
 20
37.40865232167602
 30
0.0
 10
17.81500023781967
 20
37.40649546116145
 30
0.0
 10
17.81744637227599
 20
37.40225999571119
 30
0.0
 10
17.81728898234765
 20
37.39780821172722
 30
0.0
 10
17.81481735189868
 20
37.39512657793576
 30
0.0
 10
17.81358063825027
 20
37.39378478628095
 30
0.0
  0
SPLINE
  5
94
330
2
100
AcDbEntity
  8
0
100
AcDbSpline
210
0.0
220
0.0
230
1.0
 70
     8
 71
     3
 72
    11
 73
     7
 74
     0
 42
0.000000001
 43
0.0000000001
 40
0.0
 40
0.0
 40
0.0
 40
0.0
 40
0.2505042282600591
 40
0.4996582184751768
 40
0.7502173986977975
 40
1.0
 40
1.0
 40
1.0
 40
1.0
 10
17.7847429963722
 20
37.41297019629925
 30
0.0
 10
17.78693517904972
 20
37.4131792181686
 30
0.0
 10
17.79130772836283
 20
37.41359613526252
 30
0.0
 10
17.79796639693749
 20
37.41314233125448
 30
0.0
 10
17.80422974225355
 20
37.41191319559944
 30
0.0
 10
17.80764732436739
 20
37.41045728974341
 30
0.0
 10
17.80935346321503
 20
37.40973046666883
 30
0.0
  0
LINE
  5
95
330
2
100
AcDbEntity
  8
0
100
AcDbLine
 10
17.78474299639004
 20
37.41297019627574
 30
0.0
 11
17.77975333107002
 21
37.41231189937391
 31
0.0
  0
SPLINE
  5
96
330
2
100
AcDbEntity
  8
0
100
AcDbSpline
210
0.0
220
0.0
230
1.0
 70
     8
 71
     3
 72
    11
 73
     7
 74
     0
 42
0.000000001
 43
0.0000000001
 40
0.0
 40
0.0
 40
0.0
 40
0.0
 40
0.2517729536482767
 40
0.5000302217114096
 40
0.7513828133564856
 40
1.0
 40
1.0
 40
1.0
 40
1.0
 10
17.77975333106067
 20
37.41231189936267
 30
0.0
 10
17.77702437672414
 20
37.41207532845813
 30
0.0
 10
17.7716045743895
 20
37.41160549005756
 30
0.0
 10
17.76350491605457
 20
37.4126367574091
 30
0.0
 10
17.75624013987751
 20
37.4146624120392
 30
0.0
 10
17.75290602149368
 20
37.41684693158109
 30
0.0
 10
17.75124808301725
 20
37.41793321544515
 30
0.0
  0
LINE
  5
97
330
2
100
AcDbEntity
  8
0
100
AcDbLine
 10
17.75124808299286
 20
37.41793321546736
 30
0.0
 11
17.73605327792265
 21
37.43060329634281
 31
0.0
  0
SPLINE
  5
98
330
2
100
AcDbEntity
  8
0
100
AcDbSpline
210
0.0
220
0.0
230
1.0
 70
     8
 71
     3
 72
    11
 73
     7
 74
     0
 42
0.000000001
 43
0.0000000001
 40
0.0
 40
0.0
 40
0.0
 40
0.0
 40
0.2511986864876067
 40
0.5003114928254535
 40
0.7515761817145929
 40
1.0
 40
1.0
 40
1.0
 40
1.0
 10
17.73605327791035
 20
37.43060329636434
 30
0.0
 10
17.73489764191198
 20
37.43185857498467
 30
0.0
 10
17.73259596597731
 20
37.43435870876012
 30
0.0
 10
17.73247593598383
 20
37.43854186201184
 30
0.0
 10
17.7345545924935
 20
37.44257424434902
 30
0.0
 10
17.73790743782813
 20
37.44475003864893
 30
0.0
 10
17.73957432955807
 20
37.44583175079567
 30
0.0
  0
LINE
  5
99
330
2
100
AcDbEntity
  8
0
100
AcDbLine
 10
17.73957432954757
 20
37.44583175077173
 30
0.0
 11
17.74306634372759
 21
37.44770893898916
 31
0.0
  0
SPLINE
  5
9A
330
2
100
AcDbEntity
  8
0
100
AcDbSpline
210
0.0
220
0.0
230
1.0
 70
     8
 71
     3
 72
    11
 73
     7
 74
     0
 42
0.000000001
 43
0.0000000001
 40
0.0
 40
0.0
 40
0.0
 40
0.0
 40
0.2503782494239579
 40
0.5000139043438747
 40
0.7498828136360795
 40
1.0
 40
1.0
 40
1.0
 40
1.0
 10
17.74206506280371
 20
37.46583601797896
 30
0.0
 10
17.7442120046337
 20
37.46457416353432
 30
0.0
 10
17.74849952069894
 20
37.46205419716741
 30
0.0
 10
17.75053271340547
 20
37.45702761841839
 30
0.0
 10
17.74903246973111
 20
37.45189483668783
 30
0.0
 10
17.74505571063253
 20
37.44910470005892
 30
0.0
 10
17.74306634371757
 20
37.44770893899825
 30
0.0
  0
SPLINE
  5
9B
330
2
100
AcDbEntity
  8
0
100
AcDbSpline
210
0.0
220
0.0
230
1.0
 70
     8
 71
     3
 72
    11
 73
     7
 74
     0
 42
0.000000001
 43
0.0000000001
 40
0.0
 40
0.0
 40
0.0
 40
0.0
 40
0.2498117794960579
 40
0.5003710705337489
 40
0.7505985091926753
 40
1.0
 40
1.0
 40
1.0
 40
1.0
 10
17.72283746302333
 20
37.46947151149155
 30
0.0
 10
17.72460138321803
 20
37.46946945201461
 30
0.0
 10
17.72813450178427
 20
37.46946532689822
 30
0.0
 10
17.73326114075608
 20
37.468749700705
 30
0.0
 10
17.73805513129113
 20
37.46758807713977
 30
0.0
 10
17.74072989286904
 20
37.46641939370693
 30
0.0
 10
17.74206506280371
 20
37.46583601797896
 30
0.0
  0
LINE
  5
9C
330
2
100
AcDbEntity
  8
0
100
AcDbLine
 10
17.72283746300228
 20
37.46947151147789
 30
0.0
 11
17.71766674044964
 21
37.46935672802381
 31
0.0
  0
SPLINE
  5
9D
330
2
100
AcDbEntity
  8
0
100
AcDbSpline
210
0.0
220
0.0
230
1.0
 70
     8
 71
     3
 72
    11
 73
     7
 74
     0
 42
0.000000001
 43
0.0000000001
 40
0.0
 40
0.0
 40
0.0
 40
0.0
 40
0.2517183011499894
 40
0.4998590704800662
 40
0.7510590374374856
 40
1.0
 40
1.0
 40
1.0
 40
1.0
 10
17.71766674043292
 20
37.4693567280091
 30
0.0
 10
17.71489993473264
 20
37.46940794109423
 30
0.0
 10
17.70940564639834
 20
37.46950963940155
 30
0.0
 10
17.70191616884399
 20
37.47136017915675
 30
0.0
 10
17.69565585172468
 20
37.47409727196864
 30
0.0
 10
17.6932993298028
 20
37.47658018322979
 30
0.0
 10
17.69212639073528
 20
37.47781603153335
 30
0.0
  0
LINE
  5
9E
330
2
100
AcDbEntity
  8
0
100
AcDbLine
 10
17.69212639072623
 20
37.47781603155904
 30
0.0
 11
17.68254299478507
 21
37.49178323411133
 31
0.0
  0
SPLINE
  5
9F
330
2
100
AcDbEntity
  8
0
100
AcDbSpline
210
0.0
220
0.0
230
1.0
 70
     8
 71
     3
 72
    11
 73
     7
 74
     0
 42
0.000000001
 43
0.0000000001
 40
0.0
 40
0.0
 40
0.0
 40
0.0
 40
0.2519020488950542
 40
0.5004708701158789
 40
0.7517456887930849
 40
1.0
 40
1.0
 40
1.0
 40
1.0
 10
17.68254299480314
 20
37.49178323412776
 30
0.0
 10
17.68192478348734
 20
37.49313513995234
 30
0.0
 10
17.68069654117444
 20
37.495821062863
 30
0.0
 10
17.6823414724862
 20
37.49992621281966
 30
0.0
 10
17.68604431957731
 20
37.5036531874031
 30
0.0
 10
17.69023547393943
 20
37.50542980278607
 30
0.0
 10
17.6923183797743
 20
37.50631273913911
 30
0.0
  0
LINE
  5
A0
330
2
100
AcDbEntity
  8
0
100
AcDbLine
 10
17.69231837975832
 20
37.50631273915321
 30
0.0
 11
17.69650387745155
 21
37.50779330943109
 31
0.0
  0
SPLINE
  5
A1
330
2
100
AcDbEntity
  8
0
100
AcDbSpline
210
0.0
220
0.0
230
1.0
 70
     8
 71
     3
 72
    15
 73
    11
 74
     0
 42
0.000000001
 43
0.0000000001
 40
0.0
 40
0.0
 40
0.0
 40
0.0
 40
0.1249787242571663
 40
0.2500529728643033
 40
0.3748617069223183
 40
0.499789503803563
 40
0.6249703728196156
 40
0.7499900846678566
 40
0.8749938398585459
 40
1.0
 40
1.0
 40
1.0
 40
1.0
 10
17.69959005003457
 20
37.52770175288821
 30
0.0
 10
17.70086878927928
 20
37.5270262121237
 30
0.0
 10
17.70342724514112
 20
37.52567461426203
 30
0.0
 10
17.70598433174611
 20
37.52315472345494
 30
0.0
 10
17.70742032675551
 20
37.52041954513308
 30
0.0
 10
17.70759216932562
 20
37.51756323245388
 30
0.0
 10
17.7065486077719
 20
37.5147272832094
 30
0.0
 10
17.70426641410242
 20
37.51206349163225
 30
0.0
 10
17.70094294205948
 20
37.50965967862628
 30
0.0
 10
17.69798357515806
 20
37.50841543647559
 30
0.0
 10
17.69650387747369
 20
37.50779330941576
 30
0.0
  0
SPLINE
  5
A2
330
2
100
AcDbEntity
  8
0
100
AcDbSpline
210
0.0
220
0.0
230
1.0
 70
     8
 71
     3
 72
     9
 73
     5
 74
     0
 42
0.000000001
 43
0.0000000001
 40
0.0
 40
0.0
 40
0.0
 40
0.0
 40
0.4990227259270896
 40
1.0
 40
1.0
 40
1.0
 40
1.0
 10
17.68577401318717
 20
37.53117890668618
 30
0.0
 10
17.68833813392475
 20
37.53087241068879
 30
0.0
 10
17.69347641842426
 20
37.53025821822521
 30
0.0
 10
17.69754951914062
 20
37.52855501766307
 30
0.0
 10
17.69959005003457
 20
37.52770175288821
 30
0.0
  0
LINE
  5
A3
330
2
100
AcDbEntity
  8
0
100
AcDbLine
 10
17.68577401319156
 20
37.53117890666713
 30
0.0
 11
17.68067161408777
 21
37.53160114589999
 31
0.0
  0
SPLINE
  5
A4
330
2
100
AcDbEntity
  8
0
100
AcDbSpline
210
0.0
220
0.0
230
1.0
 70
     8
 71
     3
 72
    11
 73
     7
 74
     0
 42
0.000000001
 43
0.0000000001
 40
0.0
 40
0.0
 40
0.0
 40
0.0
 40
0.2515468035760296
 40
0.5001925759009187
 40
0.7517011004481474
 40
1.0
 40
1.0
 40
1.0
 40
1.0
 10
17.68067161409829
 20
37.5316011459252
 30
0.0
 10
17.67798702858866
 20
37.53193801558015
 30
0.0
 10
17.6726488182746
 20
37.53260786985018
 30
0.0
 10
17.66609278913391
 20
37.53520438663777
 30
0.0
 10
17.6610994376438
 20
37.53853196728416
 30
0.0
 10
17.65983220784984
 20
37.54120532400366
 30
0.0
 10
17.65920266185252
 20
37.54253341858475
 30
0.0
  0
LINE
  5
A5
330
2
100
AcDbEntity
  8
0
100
AcDbLine
 10
17.65920266184414
 20
37.54253341857402
 30
0.0
 11
17.65561670287026
 21
37.55720367000954
 31
0.0
  0
SPLINE
  5
A6
330
2
100
AcDbEntity
  8
0
100
AcDbSpline
210
0.0
220
0.0
230
1.0
 70
     8
 71
     3
 72
    11
 73
     7
 74
     0
 42
0.000000001
 43
0.0000000001
 40
0.0
 40
0.0
 40
0.0
 40
0.0
 40
0.2515677846940035
 40
0.4998710451248802
 40
0.7515088472686601
 40
1.0
 40
1.0
 40
1.0
 40
1.0
 10
17.65561670287843
 20
37.55720367000916
 30
0.0
 10
17.65557557872224
 20
37.55858862474984
 30
0.0
 10
17.65549386406673
 20
37.56134056206351
 30
0.0
 10
17.65886314969385
 20
37.56516590901789
 30
0.0
 10
17.66396346702283
 20
37.56845463133617
 30
0.0
 10
17.66882119146842
 20
37.56974834408139
 30
0.0
 10
17.6712347720768
 20
37.57039113064316
 30
0.0
  0
LINE
  5
A7
330
2
100
AcDbEntity
  8
0
100
AcDbLine
 10
17.67123477206034
 20
37.57039113062193
 30
0.0
 11
17.67593577059154
 21
37.5714079551697
 31
0.0
  0
SPLINE
  5
A8
330
2
100
AcDbEntity
  8
0
100
AcDbSpline
210
0.0
220
0.0
230
1.0
 70
     8
 71
     3
 72
    15
 73
    11
 74
     0
 42
0.000000001
 43
0.0000000001
 40
0.0
 40
0.0
 40
0.0
 40
0.0
 40
0.127929270781457
 40
0.248990715737816
 40
0.3701974799206579
 40
0.5005424390870946
 40
0.6304876314582853
 40
0.766240291451018
 40
0.8815700457544306
 40
1.0
 40
1.0
 40
1.0
 40
1.0
 10
17.68376051959918
 20
37.59263623786557
 30
0.0
 10
17.68523766482291
 20
37.59183181877662
 30
0.0
 10
17.688112655388
 20
37.59026616547876
 30
0.0
 10
17.69082691278935
 20
37.58737020772196
 30
0.0
 10
17.69190713421134
 20
37.58422002403237
 30
0.0
 10
17.69147863041345
 20
37.58095727797817
 30
0.0
 10
17.68948433152534
 20
37.57770122869504
 30
0.0
 10
17.68588075311793
 20
37.57496955012554
 30
0.0
 10
17.68131624261113
 20
37.57275540613966
 30
0.0
 10
17.67774504872536
 20
37.57186105919234
 30
0.0
 10
17.67593577059469
 20
37.57140795515363
 30
0.0
  0
LINE
  5
A9
330
2
100
AcDbEntity
  8
0
100
AcDbLine
 10
17.67516337342439
 20
37.59539958188597
 30
0.0
 11
17.6837605196192
 21
37.59263623788247
 31
0.0
  0
LINE
  5
AA
330
2
100
AcDbEntity
  8
0
100
AcDbLine
 10
17.67516337342439
 20
37.59539958188597
 30
0.0
 11
17.67035374050184
 21
37.59633988409643
 31
0.0
  0
SPLINE
  5
AB
330
2
100
AcDbEntity
  8
0
100
AcDbSpline
210
0.0
220
0.0
230
1.0
 70
     8
 71
     3
 72
    11
 73
     7
 74
     0
 42
0.000000001
 43
0.0000000001
 40
0.0
 40
0.0
 40
0.0
 40
0.0
 40
0.2518240376935907
 40
0.5005405970565496
 40
0.7519874895787471
 40
1.0
 40
1.0
 40
1.0
 40
1.0
 10
17.67035374052555
 20
37.59633988407084
 30
0.0
 10
17.66786638058389
 20
37.59694928972025
 30
0.0
 10
17.6629223544231
 20
37.59816058102669
 30
0.0
 10
17.65758800463706
 20
37.60138117824723
 30
0.0
 10
17.65408853499488
 20
37.60515292463742
 30
0.0
 10
17.65396876953918
 20
37.60789705620238
 30
0.0
 10
17.65390929857701
 20
37.60925968738789
 30
0.0
  0
LINE
  5
AC
330
2
100
AcDbEntity
  8
0
100
AcDbLine
 10
17.6539092985952
 20
37.60925968740328
 30
0.0
 11
17.65650183382118
 21
37.62398015659021
 31
0.0
  0
SPLINE
  5
AD
330
2
100
AcDbEntity
  8
0
100
AcDbSpline
210
0.0
220
0.0
230
1.0
 70
     8
 71
     3
 72
    11
 73
     7
 74
     0
 42
0.000000001
 43
0.0000000001
 40
0.0
 40
0.0
 40
0.0
 40
0.0
 40
0.2515609311405194
 40
0.5000173916888341
 40
0.7514639133972864
 40
1.0
 40
1.0
 40
1.0
 40
1.0
 10
17.65650183383985
 20
37.62398015658582
 30
0.0
 10
17.65703849140402
 20
37.62533898481871
 30
0.0
 10
17.65810518373291
 20
37.62803987221679
 30
0.0
 10
17.66297032627144
 20
37.63144098388591
 30
0.0
 10
17.66934760044126
 20
37.63411801500618
 30
0.0
 10
17.67463521858055
 20
37.63487912377712
 30
0.0
 10
17.67726363784554
 20
37.63525746292781
 30
0.0
  0
LINE
  5
AE
330
2
100
AcDbEntity
  8
0
100
AcDbLine
 10
17.67726363784105
 20
37.63525746291911
 30
0.0
 11
17.68228883136685
 21
37.6357586158058
 31
0.0
  0
SPLINE
  5
AF
330
2
100
AcDbEntity
  8
0
100
AcDbSpline
210
0.0
220
0.0
230
1.0
 70
     8
 71
     3
 72
    15
 73
    11
 74
     0
 42
0.000000001
 43
0.0000000001
 40
0.0
 40
0.0
 40
0.0
 40
0.0
 40
0.1116226578855379
 40
0.2261615839230085
 40
0.360125219321025
 40
0.4998580297636613
 40
0.6334592734031965
 40
0.7735408771475509
 40
0.8851293751862543
 40
1.0
 40
1.0
 40
1.0
 40
1.0
 10
17.6915138705447
 20
37.65930494411863
 30
0.0
 10
17.69332019936853
 20
37.65860389231313
 30
0.0
 10
17.69698004939917
 20
37.65718347293116
 30
0.0
 10
17.70103974826932
 20
37.6540551626298
 30
0.0
 10
17.70346524625306
 20
37.65022792571352
 30
0.0
 10
17.70313841022175
 20
37.64600741537253
 30
0.0
 10
17.70029273775627
 20
37.64196507803839
 30
0.0
 10
17.69518579101517
 20
37.63890555952078
 30
0.0
 10
17.6890567566137
 20
37.63666680265731
 30
0.0
 10
17.68456649925131
 20
37.63606425571258
 30
0.0
 10
17.68228883137781
 20
37.63575861581099
 30
0.0
  0
LINE
  5
B0
330
2
100
AcDbEntity
  8
0
100
AcDbLine
 10
17.69151387053712
 20
37.65930494413563
 30
0.0
 11
17.68719172584263
 21
37.66072948914191
 31
0.0
  0
SPLINE
  5
B1
330
2
100
AcDbEntity
  8
0
100
AcDbSpline
210
0.0
220
0.0
230
1.0
 70
     8
 71
     3
 72
    11
 73
     7
 74
     0
 42
0.000000001
 43
0.0000000001
 40
0.0
 40
0.0
 40
0.0
 40
0.0
 40
0.2511873545800168
 40
0.5001853708796786
 40
0.7512466315374571
 40
1.0
 40
1.0
 40
1.0
 40
1.0
 10
17.68719172584239
 20
37.66072948912402
 30
0.0
 10
17.68501726906238
 20
37.66158232199148
 30
0.0
 10
17.68068730797512
 20
37.66328055447134
 30
0.0
 10
17.67679941263936
 20
37.66698197480176
 30
0.0
 10
17.67496596091948
 20
37.67104105954894
 30
0.0
 10
17.67596590581605
 20
37.6737420481082
 30
0.0
 10
17.67646356964348
 20
37.67508630648543
 30
0.0
  0
LINE
  5
B2
330
2
100
AcDbEntity
  8
0
100
AcDbLine
 10
17.67646356965852
 20
37.67508630650728
 30
0.0
 11
17.68514612021612
 21
37.68920057539089
 31
0.0
  0
SPLINE
  5
B3
330
2
100
AcDbEntity
  8
0
100
AcDbSpline
210
0.0
220
0.0
230
1.0
 70
     8
 71
     3
 72
    11
 73
     7
 74
     0
 42
0.000000001
 43
0.0000000001
 40
0.0
 40
0.0
 40
0.0
 40
0.0
 40
0.2517753493912848
 40
0.5002454247730707
 40
0.7514740307732723
 40
1.0
 40
1.0
 40
1.0
 40
1.0
 10
17.68514612020878
 20
37.68920057541676
 30
0.0
 10
17.68622684425509
 20
37.69047820078605
 30
0.0
 10
17.6883741047434
 20
37.69301667902518
 30
0.0
 10
17.69456834613029
 20
37.69582965908482
 30
0.0
 10
17.70190956327589
 20
37.69779101015807
 30
0.0
 10
17.70739768116049
 20
37.69798634527221
 30
0.0
 10
17.71012690042945
 20
37.69808348465009
 30
0.0
  0
LINE
  5
B4
330
2
100
AcDbEntity
  8
0
100
AcDbLine
 10
17.71012690041288
 20
37.69808348464042
 30
0.0
 11
17.71525765377285
 21
37.69804710237077
 31
0.0
  0
SPLINE
  5
B5
330
2
100
AcDbEntity
  8
0
100
AcDbSpline
210
0.0
220
0.0
230
1.0
 70
     8
 71
     3
 72
    15
 73
    11
 74
     0
 42
0.000000001
 43
0.0000000001
 40
0.0
 40
0.0
 40
0.0
 40
0.0
 40
0.1119023531726601
 40
0.2264059506535795
 40
0.3602766292526159
 40
0.4999735752816391
 40
0.6335668547225878
 40
0.7736856708599699
 40
0.8851404640290606
 40
1.0
 40
1.0
 40
1.0
 40
1.0
 10
17.73405823166777
 20
37.72012823320434
 30
0.0
 10
17.73553757451526
 20
37.71925241177682
 30
0.0
 10
17.73853064851425
 20
37.71748040987249
 30
0.0
 10
17.74120567637857
 20
37.71399694784623
 30
0.0
 10
17.74198143828233
 20
37.71000153338067
 30
0.0
 10
17.73990537714246
 20
37.70590893949386
 30
0.0
 10
17.7354479794726
 20
37.70224703770704
 30
0.0
 10
17.72917401152147
 20
37.69978987129533
 30
0.0
 10
17.72225416273343
 20
37.69823218386765
 30
0.0
 10
17.71761309730022
 20
37.6981094118862
 30
0.0
 10
17.7152576537715
 20
37.69804710238557
 30
0.0
  0
LINE
  5
B6
330
2
100
AcDbEntity
  8
0
100
AcDbLine
 10
17.73405823164198
 20
37.72012823320906
 30
0.0
 11
17.73043093699406
 21
37.72196579377644
 31
0.0
  0
SPLINE
  5
B7
330
2
100
AcDbEntity
  8
0
100
AcDbSpline
210
0.0
220
0.0
230
1.0
 70
     8
 71
     3
 72
    11
 73
     7
 74
     0
 42
0.000000001
 43
0.0000000001
 40
0.0
 40
0.0
 40
0.0
 40
0.0
 40
0.2513686038101985
 40
0.5000222510881613
 40
0.7514957390560486
 40
1.0
 40
1.0
 40
1.0
 40
1.0
 10
17.73043093697539
 20
37.72196579377614
 30
0.0
 10
17.72865820261859
 20
37.72302638757828
 30
0.0
 10
17.72513188067462
 20
37.7251361200285
 30
0.0
 10
17.72287887005867
 20
37.72916041437537
 30
0.0
 10
17.72275910023259
 20
37.73331882630883
 30
0.0
 10
17.72487183405235
 20
37.73585439566583
 30
0.0
 10
17.72592192749663
 20
37.73711465132826
 30
0.0
  0
LINE
  5
B8
330
2
100
AcDbEntity
  8
0
100
AcDbLine
 10
17.72592192749501
 20
37.73711465131074
 30
0.0
 11
17.74025995587048
 21
37.75003377142878
 31
0.0
  0
SPLINE
  5
B9
330
2
100
AcDbEntity
  8
0
100
AcDbSpline
210
0.0
220
0.0
230
1.0
 70
     8
 71
     3
 72
    11
 73
     7
 74
     0
 42
0.000000001
 43
0.0000000001
 40
0.0
 40
0.0
 40
0.0
 40
0.0
 40
0.2516134532379091
 40
0.5001317405819038
 40
0.7515068803992639
 40
1.0
 40
1.0
 40
1.0
 40
1.0
 10
17.74025995589519
 20
37.75003377141026
 30
0.0
 10
17.7418537186668
 20
37.75116694769944
 30
0.0
 10
17.74502163889817
 20
37.75341936076652
 30
0.0
 10
17.75222967394861
 20
37.75554285905417
 30
0.0
 10
17.76023726184852
 20
37.75668217014141
 30
0.0
 10
17.76568592477523
 20
37.75630725816394
 30
0.0
 10
17.76839454894326
 20
37.75612088296393
 30
0.0
  0
LINE
  5
BA
330
2
100
AcDbEntity
  8
0
100
AcDbLine
 10
17.76839454894762
 20
37.75612088297439
 30
0.0
 11
17.77338899690074
 21
37.75555721405531
 31
0.0
  0
SPLINE
  5
BB
330
2
100
AcDbEntity
  8
0
100
AcDbSpline
210
0.0
220
0.0
230
1.0
 70
     8
 71
     3
 72
    15
 73
    11
 74
     0
 42
0.000000001
 43
0.0000000001
 40
0.0
 40
0.0
 40
0.0
 40
0.0
 40
0.1119582632039249
 40
0.2260497642359044
 40
0.3601387560158569
 40
0.499701405203208
 40
0.6332731657039061
 40
0.7733319551761122
 40
0.8851052093571732
 40
1.0
 40
1.0
 40
1.0
 40
1.0
 10
17.80097939325876
 20
37.77518997222096
 30
0.0
 10
17.80206655893362
 20
37.77417928766804
 30
0.0
 10
17.80426160499312
 20
37.77213866111353
 30
0.0
 10
17.80539307977861
 20
37.76845287861859
 30
0.0
 10
17.80453772014504
 20
37.76446328319479
 30
0.0
 10
17.80075251806682
 20
37.76068579239666
 30
0.0
 10
17.79490893681333
 20
37.75755866044209
 30
0.0
 10
17.78775248378799
 20
37.75578585664613
 30
0.0
 10
17.7803155034913
 20
37.75501662325541
 30
0.0
 10
17.7757189328357
 20
37.75537537031988
 30
0.0
 10
17.77338899689983
 20
37.7555572140769
 30
0.0
  0
LINE
  5
BC
330
2
100
AcDbEntity
  8
0
100
AcDbLine
 10
17.80097939323747
 20
37.775189972213
 30
0.0
 11
17.79819896837182
 21
37.7773635135865
 31
0.0
  0
SPLINE
  5
BD
330
2
100
AcDbEntity
  8
0
100
AcDbSpline
210
0.0
220
0.0
230
1.0
 70
     8
 71
     3
 72
    11
 73
     7
 74
     0
 42
0.000000001
 43
0.0000000001
 40
0.0
 40
0.0
 40
0.0
 40
0.0
 40
0.2516484359061833
 40
0.5005680877470138
 40
0.7515908708020157
 40
1.0
 40
1.0
 40
1.0
 40
1.0
 10
17.79819896836695
 20
37.77736351361106
 30
0.0
 10
17.79690418100865
 20
37.77858716847898
 30
0.0
 10
17.79432864649495
 20
37.78102120934672
 30
0.0
 10
17.79377069996124
 20
37.78519576288561
 30
0.0
 10
17.79541628249308
 20
37.78927340179325
 30
0.0
 10
17.79852236214146
 20
37.79153641465875
 30
0.0
 10
17.80006727451431
 20
37.79266199963144
 30
0.0
  0
LINE
  5
BE
330
2
100
AcDbEntity
  8
0
100
AcDbLine
 10
17.80006727451187
 20
37.79266199964379
 30
0.0
 11
17.81946670791153
 21
37.8038047086935
 31
0.0
  0
SPLINE
  5
BF
330
2
100
AcDbEntity
  8
0
100
AcDbSpline
210
0.0
220
0.0
230
1.0
 70
     8
 71
     3
 72
    11
 73
     7
 74
     0
 42
0.000000001
 43
0.0000000001
 40
0.0
 40
0.0
 40
0.0
 40
0.0
 40
0.2516609521453861
 40
0.5002624916626198
 40
0.7518898036167637
 40
1.0
 40
1.0
 40
1.0
 40
1.0
 10
17.81946670790089
 20
37.80380470867554
 30
0.0
 10
17.82150018893119
 20
37.80474532942193
 30
0.0
 10
17.8255424302019
 20
37.80661513589876
 30
0.0
 10
17.83347731707905
 20
37.80794576589426
 30
0.0
 10
17.84178217606226
 20
37.8082184751723
 30
0.0
 10
17.84695593454038
 20
37.8072910398145
 30
0.0
 10
17.84952460751499
 20
37.80683058574631
 30
0.0
  0
LINE
  5
C0
330
2
100
AcDbEntity
  8
0
100
AcDbLine
 10
17.84952460751324
 20
37.80683058572313
 30
0.0
 11
17.85418871135714
 21
37.80575192848742
 31
0.0
  0
SPLINE
  5
C1
330
2
100
AcDbEntity
  8
0
100
AcDbSpline
210
0.0
220
0.0
230
1.0
 70
     8
 71
     3
 72
    15
 73
    11
 74
     0
 42
0.000000001
 43
0.0000000001
 40
0.0
 40
0.0
 40
0.0
 40
0.0
 40
0.1116553763460342
 40
0.2262236505428127
 40
0.3602716284570913
 40
0.4999768139053211
 40
0.6336023541285347
 40
0.7737312634917912
 40
0.885167849955363
 40
1.0
 40
1.0
 40
1.0
 40
1.0
 10
17.88932697571583
 20
37.82209670350783
 30
0.0
 10
17.88996069043464
 20
37.82099798948674
 30
0.0
 10
17.89124465240576
 20
37.81877189787437
 30
0.0
 10
17.89086265115839
 20
37.81504781866193
 30
0.0
 10
17.88834463331685
 20
37.81123272619636
 30
0.0
 10
17.88309027655994
 20
37.80792294003719
 30
0.0
 10
17.8760384087033
 20
37.80549193931249
 30
0.0
 10
17.86831627338042
 20
37.80450543724958
 30
0.0
 10
17.86072935900631
 20
37.80450378551505
 30
0.0
 10
17.85639063066731
 20
37.80533173917882
 30
0.0
 10
17.85418871134204
 20
37.80575192846702
 30
0.0
  0
LINE
  5
C2
330
2
100
AcDbEntity
  8
0
100
AcDbLine
 10
17.88932697569235
 20
37.82209670351753
 30
0.0
 11
17.8875121326842
 21
37.82451253711208
 31
0.0
  0
SPLINE
  5
C3
330
2
100
AcDbEntity
  8
0
100
AcDbSpline
210
0.0
220
0.0
230
1.0
 70
     8
 71
     3
 72
    11
 73
     7
 74
     0
 42
0.000000001
 43
0.0000000001
 40
0.0
 40
0.0
 40
0.0
 40
0.0
 40
0.2518919639598264
 40
0.5003718076763335
 40
0.7517389077428135
 40
1.0
 40
1.0
 40
1.0
 40
1.0
 10
17.88751213270829
 20
37.82451253711503
 30
0.0
 10
17.88674871860159
 20
37.82584531358927
 30
0.0
 10
17.8852322315705
 20
37.82849281279162
 30
0.0
 10
17.8864527103766
 20
37.8326315963857
 30
0.0
 10
17.88971852811501
 20
37.83645713490523
 30
0.0
 10
17.89371709506961
 20
37.83834151220636
 30
0.0
 10
17.89570394972446
 20
37.83927784361084
 30
0.0
  0
LINE
  5
C4
330
2
100
AcDbEntity
  8
0
100
AcDbLine
 10
17.89570394973704
 20
37.83927784361417
 30
0.0
 11
17.91931979717386
 21
37.84815605561618
 31
0.0
  0
SPLINE
  5
C5
330
2
100
AcDbEntity
  8
0
100
AcDbSpline
210
0.0
220
0.0
230
1.0
 70
     8
 71
     3
 72
    11
 73
     7
 74
     0
 42
0.000000001
 43
0.0000000001
 40
0.0
 40
0.0
 40
0.0
 40
0.0
 40
0.2517005834826637
 40
0.5003737180616693
 40
0.752302753311538
 40
1.0
 40
1.0
 40
1.0
 40
1.0
 10
17.9193197971948
 20
37.84815605560344
 30
0.0
 10
17.92169757947243
 20
37.84886628835179
 30
0.0
 10
17.92642454411645
 20
37.85027821118521
 30
0.0
 10
17.93474205227985
 20
37.85075616748481
 30
0.0
 10
17.94297405660855
 20
37.85015677384763
 30
0.0
 10
17.94764783924149
 20
37.84871435434086
 30
0.0
 10
17.94996493730394
 20
37.84799925316757
 30
0.0
  0
LINE
  5
C6
330
2
100
AcDbEntity
  8
0
100
AcDbLine
 10
17.94996493731771
 20
37.84799925314362
 30
0.0
 11
17.95409133518209
 21
37.84645497122698
 31
0.0
  0
SPLINE
  5
C7
330
2
100
AcDbEntity
  8
0
100
AcDbSpline
210
0.0
220
0.0
230
1.0
 70
     8
 71
     3
 72
    15
 73
    11
 74
     0
 42
0.000000001
 43
0.0000000001
 40
0.0
 40
0.0
 40
0.0
 40
0.0
 40
0.1118397858699269
 40
0.2263381108286046
 40
0.3602215478425068
 40
0.4999687204392729
 40
0.6334569203306252
 40
0.7736376147258338
 40
0.8853972204804042
 40
1.0
 40
1.0
 40
1.0
 40
1.0
 10
17.99525112054058
 20
37.85879231669296
 30
0.0
 10
17.99541713846426
 20
37.85765011668043
 30
0.0
 10
17.99575312071709
 20
37.85533856546448
 30
0.0
 10
17.99383633229744
 20
37.85173320633826
 30
0.0
 10
17.98974124273973
 20
37.84828083253693
 30
0.0
 10
17.98326152021077
 20
37.84557846686114
 30
0.0
 10
17.97536097642505
 20
37.84392031402047
 30
0.0
 10
17.9673887257688
 20
37.8437596234221
 30
0.0
 10
17.95997171667308
 20
37.84456024988047
 30
0.0
 10
17.95606780706658
 20
37.84581813099987
 30
0.0
 10
17.95409133517454
 20
37.84645497122586
 30
0.0
  0
LINE
  5
C8
330
2
100
AcDbEntity
  8
0
100
AcDbLine
 10
17.99525112052519
 20
37.85879231667669
 30
0.0
 11
17.99446727919288
 21
37.86135197127404
 31
0.0
  0
SPLINE
  5
C9
330
2
100
AcDbEntity
  8
0
100
AcDbSpline
210
0.0
220
0.0
230
1.0
 70
     8
 71
     3
 72
    11
 73
     7
 74
     0
 42
0.000000001
 43
0.0000000001
 40
0.0
 40
0.0
 40
0.0
 40
0.0
 40
0.2513142826289956
 40
0.5001074616288907
 40
0.7515516253285883
 40
1.0
 40
1.0
 40
1.0
 40
1.0
 10
17.99446727917012
 20
37.86135197127077
 30
0.0
 10
17.99428488476424
 20
37.86273086163435
 30
0.0
 10
17.99392192567417
 20
37.86547480977931
 30
0.0
 10
17.99680555044112
 20
37.86939796780553
 30
0.0
 10
18.00160785898005
 20
37.87279791569922
 30
0.0
 10
18.00630497089339
 20
37.87422316794752
 30
0.0
 10
18.00863945226894
 20
37.87493152339874
 30
0.0
  0
LINE
  5
CA
330
2
100
AcDbEntity
  8
0
100
AcDbLine
 10
18.00863945224709
 20
37.87493152340172
 30
0.0
 11
18.03541440761497
 21
37.88116962989982
 31
0.0
  0
SPLINE
  5
CB
330
2
100
AcDbEntity
  8
0
100
AcDbSpline
210
0.0
220
0.0
230
1.0
 70
     8
 71
     3
 72
    11
 73
     7
 74
     0
 42
0.000000001
 43
0.0000000001
 40
0.0
 40
0.0
 40
0.0
 40
0.0
 40
0.2515514273170465
 40
0.4998301073241917
 40
0.7512600841763671
 40
1.0
 40
1.0
 40
1.0
 40
1.0
 10
18.03541440763791
 20
37.88116962989067
 30
0.0
 10
18.03803784219804
 20
37.8816156211496
 30
0.0
 10
18.04325057977512
 20
37.88250180120932
 30
0.0
 10
18.05158144295112
 20
37.8821084284051
 30
0.0
 10
18.05939887454948
 20
37.8806678808338
 30
0.0
 10
18.06337353647953
 20
37.87876313579608
 30
0.0
 10
18.06535017899317
 20
37.87781588541718
 30
0.0
  0
LINE
  5
CC
330
2
100
AcDbEntity
  8
0
100
AcDbLine
 10
18.06535017898981
 20
37.87781588541128
 30
0.0
 11
18.06871904005588
 21
37.87589283504363
 31
0.0
  0
SPLINE
  5
CD
330
2
100
AcDbEntity
  8
0
100
AcDbSpline
210
0.0
220
0.0
230
1.0
 70
     8
 71
     3
 72
    15
 73
    11
 74
     0
 42
0.000000001
 43
0.0000000001
 40
0.0
 40
0.0
 40
0.0
 40
0.0
 40
0.1118937679798399
 40
0.2262960086846497
 40
0.3601983802784529
 40
0.4999210752049534
 40
0.6334818328522713
 40
0.7736898542149313
 40
0.8854252658955381
 40
1.0
 40
1.0
 40
1.0
 40
1.0
 10
18.11411214955773
 20
37.88367846886421
 30
0.0
 10
18.11380395104385
 20
37.88254227166625
 30
0.0
 10
18.11318064471624
 20
37.88024440561345
 30
0.0
 10
18.10979214296189
 20
37.87692002886445
 30
0.0
 10
18.10438206665782
 20
37.87395388143883
 30
0.0
 10
18.09690120859511
 20
37.87198933300223
 30
0.0
 10
18.08847622906999
 20
37.87120164736111
 30
0.0
 10
18.08060794371272
 20
37.87187239830143
 30
0.0
 10
18.07368132653088
 20
37.87342608880076
 30
0.0
 10
18.07038691294687
 20
37.87506373757735
 30
0.0
 10
18.06871904004134
 20
37.87589283506427
 30
0.0
  0
LINE
  5
CE
330
2
100
AcDbEntity
  8
0
100
AcDbLine
 10
18.11411214957893
 20
37.88367846883882
 30
0.0
 11
18.11441755558366
 21
37.88625802264685
 31
0.0
  0
SPLINE
  5
CF
330
2
100
AcDbEntity
  8
0
100
AcDbSpline
210
0.0
220
0.0
230
1.0
 70
     8
 71
     3
 72
    11
 73
     7
 74
     0
 42
0.000000001
 43
0.0000000001
 40
0.0
 40
0.0
 40
0.0
 40
0.0
 40
0.2514630828637847
 40
0.5000162558844658
 40
0.7514313865561232
 40
1.0
 40
1.0
 40
1.0
 40
1.0
 10
18.11441755560928
 20
37.88625802266177
 30
0.0
 10
18.1148091334191
 20
37.88762758973569
 30
0.0
 10
18.11558775773314
 20
37.89035087536744
 30
0.0
 10
18.12006403460478
 20
37.89388028864518
 30
0.0
 10
18.12615328188499
 20
37.89671798127017
 30
0.0
 10
18.13134709069092
 20
37.89762038692424
 30
0.0
 10
18.13392921034692
 20
37.89806902095448
 30
0.0
  0
LINE
  5
D0
330
2
100
AcDbEntity
  8
0
100
AcDbLine
 10
18.13392921034957
 20
37.89806902094846
 30
0.0
 11
18.16272141708788
 21
37.90138031943844
 31
0.0
  0
SPLINE
  5
D1
330
2
100
AcDbEntity
  8
0
100
AcDbSpline
210
0.0
220
0.0
230
1.0
 70
     8
 71
     3
 72
    11
 73
     7
 74
     0
 42
0.000000001
 43
0.0000000001
 40
0.0
 40
0.0
 40
0.0
 40
0.0
 40
0.251253301138869
 40
0.5001312218539421
 40
0.7521247322522417
 40
1.0
 40
1.0
 40
1.0
 40
1.0
 10
18.1627214170966
 20
37.90138031945268
 30
0.0
 10
18.16546717643075
 20
37.90154804117527
 30
0.0
 10
18.17093273634387
 20
37.90188189895816
 30
0.0
 10
18.17891688000801
 20
37.90062035643965
 30
0.0
 10
18.18596260576302
 20
37.89840228350696
 30
0.0
 10
18.18905435839691
 20
37.89612928554787
 30
0.0
 10
18.19058749878383
 20
37.89500214978279
 30
0.0
  0
LINE
  5
D2
330
2
100
AcDbEntity
  8
0
100
AcDbLine
 10
18.1905874987956
 20
37.89500214978733
 30
0.0
 11
18.19310009553259
 21
37.89276028491319
 31
0.0
  0
SPLINE
  5
D3
330
2
100
AcDbEntity
  8
0
100
AcDbSpline
210
0.0
220
0.0
230
1.0
 70
     8
 71
     3
 72
    15
 73
    11
 74
     0
 42
0.000000001
 43
0.0000000001
 40
0.0
 40
0.0
 40
0.0
 40
0.0
 40
0.1118756983795633
 40
0.2262640879509359
 40
0.3602021835009387
 40
0.4999698537281791
 40
0.6337049971508878
 40
0.7735277511539066
 40
0.8853835505978974
 40
1.0
 40
1.0
 40
1.0
 40
1.0
 10
18.24073831532436
 20
37.89565600569176
 30
0.0
 10
18.23996527815249
 20
37.89457689664271
 30
0.0
 10
18.2384018416495
 20
37.89239444211214
 30
0.0
 10
18.23366979018965
 20
37.88951171513418
 30
0.0
 10
18.22716363574251
 20
37.88716661449552
 30
0.0
 10
18.21902585305678
 20
37.88601799264397
 30
0.0
 10
18.2104680951379
 20
37.88613164576219
 30
0.0
 10
18.20304821061491
 20
37.88759160413596
 30
0.0
 10
18.19692577865654
 20
37.88983074696142
 30
0.0
 10
18.1943856444892
 20
37.89177586870376
 30
0.0
 10
18.19310009554999
 20
37.89276028489122
 30
0.0
  0
LINE
  5
D4
330
2
100
AcDbEntity
  8
0
100
AcDbLine
 10
18.24073831531021
 20
37.89565600570237
 30
0.0
 11
18.24173566762738
 21
37.8974883566047
 31
0.0
  0
LINE
  5
D5
330
2
100
AcDbEntity
  8
0
100
AcDbLine
 10
18.26632973684897
 20
37.90703058764308
 30
0.0
 11
18.24173566762738
 21
37.8974883566047
 31
0.0
  0
LINE
  5
D6
330
2
100
AcDbEntity
  8
0
100
AcDbLine
 10
18.85292150023668
 20
37.27399097066212
 30
0.0
 11
18.28757527124701
 21
37.26944370004632
 31
0.0
  0
LINE
  5
D7
330
2
100
AcDbEntity
  8
0
100
AcDbLine
 10
18.2623826881413
 20
37.27857974782703
 30
0.0
 11
18.28757527124701
 21
37.26944370004632
 31
0.0
  0
LINE
  5
D8
330
2
100
AcDbEntity
  8
0
100
AcDbLine
 10
18.2623826881413
 20
37.27857974782703
 30
0.0
 11
18.26110025606195
 21
37.28064960831729
 31
0.0
  0
SPLINE
  5
D9
330
2
100
AcDbEntity
  8
0
100
AcDbSpline
210
0.0
220
0.0
230
1.0
 70
     8
 71
     3
 72
     9
 73
     5
 74
     0
 42
0.000000001
 43
0.0000000001
 40
0.0
 40
0.0
 40
0.0
 40
0.0
 40
0.4986918324566569
 40
1.0
 40
1.0
 40
1.0
 40
1.0
 10
18.25435672644384
 20
37.28613256929558
 30
0.0
 10
18.25581989413168
 20
37.28533122808594
 30
0.0
 10
18.25875390586521
 20
37.28372434151311
 30
0.0
 10
18.260316776316
 20
37.28167630548957
 30
0.0
 10
18.26110025603774
 20
37.28064960830352
 30
0.0
  0
SPLINE
  5
DA
330
2
100
AcDbEntity
  8
0
100
AcDbSpline
210
0.0
220
0.0
230
1.0
 70
     8
 71
     3
 72
    15
 73
    11
 74
     0
 42
0.000000001
 43
0.0000000001
 40
0.0
 40
0.0
 40
0.0
 40
0.0
 40
0.1274209318192002
 40
0.2483934610417488
 40
0.3701682522955519
 40
0.4997097994019614
 40
0.6275301731574654
 40
0.748408578829805
 40
0.8698794157275639
 40
1.0
 40
1.0
 40
1.0
 40
1.0
 10
18.21328097898449
 20
37.28277942265273
 30
0.0
 10
18.21432792126265
 20
37.28366828929999
 30
0.0
 10
18.21636882311645
 20
37.28540103963988
 30
0.0
 10
18.22083805875779
 20
37.28744194932661
 30
0.0
 10
18.22614486052917
 20
37.28889450481864
 30
0.0
 10
18.23208327743178
 20
37.28970611147567
 30
0.0
 10
18.23821186377496
 20
37.28993627942843
 30
0.0
 10
18.24414384771869
 20
37.28941220443612
 30
0.0
 10
18.2496936504596
 20
37.28815936572616
 30
0.0
 10
18.25276714539084
 20
37.28682347744611
 30
0.0
 10
18.25435672644384
 20
37.28613256929558
 30
0.0
  0
LINE
  5
DB
330
2
100
AcDbEntity
  8
0
100
AcDbLine
 10
18.21328097899985
 20
37.28277942264833
 30
0.0
 11
18.21091254480823
 21
37.28048016602119
 31
0.0
  0
SPLINE
  5
DC
330
2
100
AcDbEntity
  8
0
100
AcDbSpline
210
0.0
220
0.0
230
1.0
 70
     8
 71
     3
 72
    11
 73
     7
 74
     0
 42
0.000000001
 43
0.0000000001
 40
0.0
 40
0.0
 40
0.0
 40
0.0
 40
0.2515615011974495
 40
0.5000762644333216
 40
0.7516645476676214
 40
1.0
 40
1.0
 40
1.0
 40
1.0
 10
18.21091254480649
 20
37.28048016601995
 30
0.0
 10
18.20944204255262
 20
37.27930773654931
 30
0.0
 10
18.20651884774546
 20
37.27697707725852
 30
0.0
 10
18.19955931897823
 20
37.27465682013015
 30
0.0
 10
18.19168025107328
 20
37.27331985075017
 30
0.0
 10
18.1862028875482
 20
37.27354170828956
 30
0.0
 10
18.18348202544096
 20
37.27365191528412
 30
0.0
  0
LINE
  5
DD
330
2
100
AcDbEntity
  8
0
100
AcDbLine
 10
20.89781134484069
 20
39.73543351506741
 30
0.0
 11
20.6738972251822
 21
39.67658396653692
 31
0.0
  0
LINE
  5
DE
330
2
100
AcDbEntity
  8
0
100
AcDbLine
 10
18.27611502873475
 20
39.52705439659136
 30
0.0
 11
18.25152078869004
 21
39.51751208016732
 31
0.0
  0
SPLINE
  5
DF
330
2
100
AcDbEntity
  8
0
100
AcDbSpline
210
0.0
220
0.0
230
1.0
 70
     8
 71
     3
 72
    11
 73
     7
 74
     0
 42
0.000000001
 43
0.0000000001
 40
0.0
 40
0.0
 40
0.0
 40
0.0
 40
0.2516862619710904
 40
0.4997195896981138
 40
0.7516445999911157
 40
1.0
 40
1.0
 40
1.0
 40
1.0
 10
18.15819430188989
 20
39.51254257028041
 30
0.0
 10
18.15662119269724
 20
39.51370897470856
 30
0.0
 10
18.15349780616773
 20
39.51602485455726
 30
0.0
 10
18.14623264424244
 20
39.51822789826034
 30
0.0
 10
18.13812538266748
 20
39.51942452842451
 30
0.0
 10
18.13258671771737
 20
39.51905528062092
 30
0.0
 10
18.12983714503592
 20
39.51887197405119
 30
0.0
  0
LINE
  5
E0
330
2
100
AcDbEntity
  8
0
100
AcDbLine
 10
18.12983714503273
 20
39.51887197403343
 30
0.0
 11
18.12416014531402
 21
39.51821982624613
 31
0.0
  0
SPLINE
  5
E1
330
2
100
AcDbEntity
  8
0
100
AcDbSpline
210
0.0
220
0.0
230
1.0
 70
     8
 71
     3
 72
    11
 73
     7
 74
     0
 42
0.000000001
 43
0.0000000001
 40
0.0
 40
0.0
 40
0.0
 40
0.0
 40
0.2516980210585527
 40
0.5002512789825162
 40
0.7519193118864384
 40
1.0
 40
1.0
 40
1.0
 40
1.0
 10
18.12416014529969
 20
39.51821982622971
 30
0.0
 10
18.12148673706918
 20
39.51778516961226
 30
0.0
 10
18.11617332268107
 20
39.51692128706017
 30
0.0
 10
18.10991132286982
 20
39.51404789050764
 30
0.0
 10
18.10542110673434
 20
39.51047050771146
 30
0.0
 10
18.1045868983015
 20
39.50771416389304
 30
0.0
 10
18.10417278818308
 20
39.50634588491126
 30
0.0
  0
ELLIPSE
  5
E2
330
2
100
AcDbEntity
  8
0
100
AcDbEllipse
 10
18.85302821620059
 20
37.38290641901941
 30
0.0
 11
0.1296295459484229
 21
0.0038492875884961
 31
0.0
210
0.0
220
0.0
230
1.0
 40
0.8397079695
 41
4.686616376351779
 42
6.20505282558694
  0
LINE
  5
E3
330
2
100
AcDbEntity
  8
0
100
AcDbLine
 10
18.25152078869004
 20
39.51751208016732
 30
0.0
 11
18.23570475217642
 21
39.48874626334866
 31
0.0
  0
LINE
  5
E4
330
2
100
AcDbEntity
  8
0
100
AcDbLine
 10
18.1880665323988
 20
39.48585054255948
 30
0.0
 11
18.15819430189151
 21
39.51254257026676
 31
0.0
  0
LINE
  5
E5
330
2
100
AcDbEntity
  8
0
100
AcDbLine
 10
18.10417278818341
 20
39.50634588493207
 30
0.0
 11
18.10056889428346
 21
39.47579340853823
 31
0.0
  0
SPLINE
  5
E6
330
2
100
AcDbEntity
  8
0
100
AcDbSpline
210
0.0
220
0.0
230
1.0
 70
     8
 71
     3
 72
    11
 73
     7
 74
     0
 42
0.000000001
 43
0.0000000001
 40
0.0
 40
0.0
 40
0.0
 40
0.0
 40
0.2517893274461018
 40
0.5001836148830594
 40
0.7514683899950349
 40
1.0
 40
1.0
 40
1.0
 40
1.0
 10
18.01486321082546
 20
39.4910100771783
 30
0.0
 10
18.0128386415404
 20
39.49198769540398
 30
0.0
 10
18.00881680156094
 20
39.49392974999009
 30
0.0
 10
18.00079619163516
 20
39.49533410251268
 30
0.0
 10
17.99236919183354
 20
39.49564780148411
 30
0.0
 10
17.98710730402986
 20
39.49471745604892
 30
0.0
 10
17.98449085229597
 20
39.49425484566689
 30
0.0
  0
LINE
  5
E7
330
2
100
AcDbEntity
  8
0
100
AcDbLine
 10
17.98449085228698
 20
39.49425484565833
 30
0.0
 11
17.97922276873693
 21
39.49302006919071
 31
0.0
  0
SPLINE
  5
E8
330
2
100
AcDbEntity
  8
0
100
AcDbSpline
210
0.0
220
0.0
230
1.0
 70
     8
 71
     3
 72
    15
 73
    11
 74
     0
 42
0.000000001
 43
0.0000000001
 40
0.0
 40
0.0
 40
0.0
 40
0.0
 40
0.111488013618093
 40
0.226246607912943
 40
0.3600731781773244
 40
0.4998001063692615
 40
0.6334172255280808
 40
0.7735162625769091
 40
0.8851275354796815
 40
1.0
 40
1.0
 40
1.0
 40
1.0
 10
18.18806653238883
 20
39.48585054256122
 30
0.0
 10
18.18933205277462
 20
39.4849001667519
 30
0.0
 10
18.1919002184925
 20
39.48297153517849
 30
0.0
 10
18.19784476765698
 20
39.48072038223483
 30
0.0
 10
18.20530630575231
 20
39.4792368002964
 30
0.0
 10
18.21374475099363
 20
39.47909474203001
 30
0.0
 10
18.22201314247249
 20
39.48022181697934
 30
0.0
 10
18.22848766263888
 20
39.48254500112499
 30
0.0
 10
18.23340425430655
 20
39.48543671302683
 30
0.0
 10
18.23493059350747
 20
39.48763254050787
 30
0.0
 10
18.23570475216321
 20
39.48874626336184
 30
0.0
  0
SPLINE
  5
E9
330
2
100
AcDbEntity
  8
0
100
AcDbSpline
210
0.0
220
0.0
230
1.0
 70
     8
 71
     3
 72
    11
 73
     7
 74
     0
 42
0.000000001
 43
0.0000000001
 40
0.0
 40
0.0
 40
0.0
 40
0.0
 40
0.2516806563712997
 40
0.5002491672824934
 40
0.7516458034426162
 40
1.0
 40
1.0
 40
1.0
 40
1.0
 10
17.97922276871593
 20
39.49302006918682
 30
0.0
 10
17.97678717222291
 20
39.49231742568819
 30
0.0
 10
17.97194609649201
 20
39.49092082719651
 30
0.0
 10
17.96704438042423
 20
39.48745344536192
 30
0.0
 10
17.96408753651831
 20
39.48349659451316
 30
0.0
 10
17.9644359224799
 20
39.48071259147969
 30
0.0
 10
17.96460905498899
 20
39.47932906434711
 30
0.0
  0
LINE
  5
EA
330
2
100
AcDbEntity
  8
0
100
AcDbLine
 10
18.05517578476039
 20
39.46800777474305
 30
0.0
 11
18.01486321084586
 21
39.49101007715565
 31
0.0
  0
SPLINE
  5
EB
330
2
100
AcDbEntity
  8
0
100
AcDbSpline
210
0.0
220
0.0
230
1.0
 70
     8
 71
     3
 72
    15
 73
    11
 74
     0
 42
0.000000001
 43
0.0000000001
 40
0.0
 40
0.0
 40
0.0
 40
0.0
 40
0.1120728909369856
 40
0.2261390220452692
 40
0.3601044998171037
 40
0.4998764935346701
 40
0.6333956063454385
 40
0.7734628636499448
 40
0.8850952961834888
 40
1.0
 40
1.0
 40
1.0
 40
1.0
 10
18.05517578477345
 20
39.46800777475101
 30
0.0
 10
18.05681769088954
 20
39.46720472641016
 30
0.0
 10
18.06013070477084
 20
39.46558434734314
 30
0.0
 10
18.06689072183798
 20
39.46400664557397
 30
0.0
 10
18.07479436919759
 20
39.46332813460871
 30
0.0
 10
18.08312079375197
 20
39.46405856475712
 30
0.0
 10
18.09072203463075
 20
39.46603356392234
 30
0.0
 10
18.09613202334051
 20
39.46896132664999
 30
0.0
 10
18.09969051383989
 20
39.47231696663859
 30
0.0
 10
18.10027329476576
 20
39.4746234888713
 30
0.0
 10
18.10056889428989
 20
39.47579340855094
 30
0.0
  0
SPLINE
  5
EC
330
2
100
AcDbEntity
  8
0
100
AcDbSpline
210
0.0
220
0.0
230
1.0
 70
     8
 71
     3
 72
    10
 73
     6
 74
     0
 42
0.000000001
 43
0.0000000001
 40
0.0
 40
0.0
 40
0.0
 40
0.0
 40
0.2628402340428454
 40
0.6162876642243481
 40
1.0
 40
1.0
 40
1.0
 40
1.0
 10
20.36594885619914
 20
39.54386112390082
 30
0.0
 10
20.398652042131
 20
39.55163711126238
 30
0.0
 10
20.47533196955546
 20
39.56986965129028
 30
0.0
 10
20.5875110539665
 20
39.61199778195748
 30
0.0
 10
20.64432432434369
 20
39.65447393656614
 30
0.0
 10
20.67389722520747
 20
39.67658396651135
 30
0.0
  0
LINE
  5
ED
330
2
100
AcDbEntity
  8
0
100
AcDbLine
 10
19.01085554405232
 20
37.8255293916953
 30
0.0
 11
18.98250897734678
 21
37.37825060510402
 31
0.0
  0
SPLINE
  5
EE
330
2
100
AcDbEntity
  8
0
100
AcDbSpline
210
0.0
220
0.0
230
1.0
 70
     8
 71
     3
 72
    11
 73
     7
 74
     0
 42
0.000000001
 43
0.0000000001
 40
0.0
 40
0.0
 40
0.0
 40
0.0
 40
0.2516991674174372
 40
0.5001605813932948
 40
0.7514791869818602
 40
1.0
 40
1.0
 40
1.0
 40
1.0
 10
17.88363272429553
 20
39.45504176766613
 30
0.0
 10
17.88124704500637
 20
39.45578719103865
 30
0.0
 10
17.87650637481454
 20
39.45726844896724
 30
0.0
 10
17.86807726663161
 20
39.4578085010548
 30
0.0
 10
17.8597053472792
 20
39.45723665353779
 30
0.0
 10
17.8549436353175
 20
39.45578178437245
 30
0.0
 10
17.85257610589889
 20
39.45505842151958
 30
0.0
  0
LINE
  5
EF
330
2
100
AcDbEntity
  8
0
100
AcDbLine
 10
17.85257610588798
 20
39.45505842152181
 30
0.0
 11
17.84792976619887
 21
39.45330370317759
 31
0.0
  0
LINE
  5
F0
330
2
100
AcDbEntity
  8
0
100
AcDbLine
 10
17.93262989853448
 20
39.43673158168085
 30
0.0
 11
17.88363272428834
 21
39.45504176769155
 31
0.0
  0
SPLINE
  5
F1
330
2
100
AcDbEntity
  8
0
100
AcDbSpline
210
0.0
220
0.0
230
1.0
 70
     8
 71
     3
 72
    11
 73
     7
 74
     0
 42
0.000000001
 43
0.0000000001
 40
0.0
 40
0.0
 40
0.0
 40
0.0
 40
0.2517027397727576
 40
0.5003322667386021
 40
0.7518434150640948
 40
1.0
 40
1.0
 40
1.0
 40
1.0
 10
17.84792976618215
 20
39.45330370319343
 30
0.0
 10
17.84583814708687
 20
39.4523641560736
 30
0.0
 10
17.84168044692014
 20
39.45049653341449
 30
0.0
 10
17.83832535493434
 20
39.44659448614774
 30
0.0
 10
17.83709026381189
 20
39.44241721516603
 30
0.0
 10
17.83858212966386
 20
39.43973075314064
 30
0.0
 10
17.83932305470351
 20
39.43839654002772
 30
0.0
  0
SPLINE
  5
F2
330
2
100
AcDbEntity
  8
0
100
AcDbSpline
210
0.0
220
0.0
230
1.0
 70
     8
 71
     3
 72
    15
 73
    11
 74
     0
 42
0.000000001
 43
0.0000000001
 40
0.0
 40
0.0
 40
0.0
 40
0.0
 40
0.1115482675342002
 40
0.2261114325716929
 40
0.3600376521658879
 40
0.4996827177560629
 40
0.6333184588419162
 40
0.7734535172174425
 40
0.8851119008650538
 40
1.0
 40
1.0
 40
1.0
 40
1.0
 10
17.9326298985139
 20
39.43673158170149
 30
0.0
 10
17.93456217898559
 20
39.43612178133876
 30
0.0
 10
17.93847896510184
 20
39.43488569908798
 30
0.0
 10
17.94573751546226
 20
39.43403525937356
 30
0.0
 10
17.95376317135882
 20
39.4341933400777
 30
0.0
 10
17.96157589052251
 20
39.43579325359126
 30
0.0
 10
17.96823874859267
 20
39.4384860360472
 30
0.0
 10
17.97227482255691
 20
39.44192895432923
 30
0.0
 10
17.97437029178908
 20
39.445577227359
 30
0.0
 10
17.97398505055508
 20
39.44789401761019
 30
0.0
 10
17.97378968387999
 20
39.4490689271686
 30
0.0
  0
SPLINE
  5
F3
330
2
100
AcDbEntity
  8
0
100
AcDbSpline
210
0.0
220
0.0
230
1.0
 70
     8
 71
     3
 72
    11
 73
     7
 74
     0
 42
0.000000001
 43
0.0000000001
 40
0.0
 40
0.0
 40
0.0
 40
0.0
 40
0.2518062895613921
 40
0.4999355932829217
 40
0.751622717442808
 40
1.0
 40
1.0
 40
1.0
 40
1.0
 10
17.77021092922946
 20
39.40622360102163
 30
0.0
 10
17.7675661318146
 20
39.40670676622358
 30
0.0
 10
17.76231515747633
 20
39.40766604123737
 30
0.0
 10
17.7538496295163
 20
39.40730028698784
 30
0.0
 10
17.74588195522897
 20
39.40589395701835
 30
0.0
 10
17.74183533606464
 20
39.40396844067425
 30
0.0
 10
17.73982541842591
 20
39.40301205483553
 30
0.0
  0
LINE
  5
F4
330
2
100
AcDbEntity
  8
0
100
AcDbLine
 10
17.82574153827372
 20
39.39341021154701
 30
0.0
 11
17.77021092920847
 21
39.40622360100775
 31
0.0
  0
LINE
  5
F5
330
2
100
AcDbEntity
  8
0
100
AcDbLine
 10
17.73982541840854
 20
39.40301205483181
 30
0.0
 11
17.73600101044907
 21
39.40081562507597
 31
0.0
  0
SPLINE
  5
F6
330
2
100
AcDbEntity
  8
0
100
AcDbSpline
210
0.0
220
0.0
230
1.0
 70
     8
 71
     3
 72
    11
 73
     7
 74
     0
 42
0.000000001
 43
0.0000000001
 40
0.0
 40
0.0
 40
0.0
 40
0.0
 40
0.2517745107689401
 40
0.4998596715489678
 40
0.7516051227229646
 40
1.0
 40
1.0
 40
1.0
 40
1.0
 10
17.73600101043177
 20
39.4008156250724
 30
0.0
 10
17.73435904816897
 20
39.39967465287671
 30
0.0
 10
17.73109918395612
 20
39.39740942759554
 30
0.0
 10
17.72938297031843
 20
39.39325167056525
 30
0.0
 10
17.72994169629627
 20
39.38903438698815
 30
0.0
 10
17.73252214555531
 20
39.38655979414413
 30
0.0
 10
17.73380372662487
 20
39.38533078670188
 30
0.0
  0
SPLINE
  5
F7
330
2
100
AcDbEntity
  8
0
100
AcDbSpline
210
0.0
220
0.0
230
1.0
 70
     8
 71
     3
 72
    11
 73
     7
 74
     0
 42
0.000000001
 43
0.0000000001
 40
0.0
 40
0.0
 40
0.0
 40
0.0
 40
0.2513764882799275
 40
0.5001546558619965
 40
0.7516380599047018
 40
1.0
 40
1.0
 40
1.0
 40
1.0
 10
17.679581171015
 20
39.34667557009047
 30
0.0
 10
17.67679850669729
 20
39.34686883158418
 30
0.0
 10
17.6712619407134
 20
39.34725335694881
 30
0.0
 10
17.66311766487898
 20
39.34604238141825
 30
0.0
 10
17.65591354330845
 20
39.34382488641978
 30
0.0
 10
17.65276206915444
 20
39.34152070012572
 30
0.0
 10
17.65119617233405
 20
39.34037580163859
 30
0.0
  0
LINE
  5
F8
330
2
100
AcDbEntity
  8
0
100
AcDbLine
 10
17.73922143865053
 20
39.33991803415859
 30
0.0
 11
17.67958117104051
 21
39.34667557011579
 31
0.0
  0
LINE
  5
F9
330
2
100
AcDbEntity
  8
0
100
AcDbLine
 10
17.65119617234319
 20
39.34037580164915
 30
0.0
 11
17.64837270362387
 21
39.33782716423693
 31
0.0
  0
ELLIPSE
  5
FA
330
2
100
AcDbEntity
  8
0
100
AcDbEllipse
 10
19.14034379459773
 20
37.82086984633423
 30
0.0
 11
0.1296295459484525
 21
0.0038492875884961
 31
0.0
210
0.0
220
0.0
230
0.9999999999999998
 40
0.8397079695000002
 41
1.545023722761986
 42
3.063460171997391
  0
SPLINE
  5
FB
330
2
100
AcDbEntity
  8
0
100
AcDbSpline
210
0.0
220
0.0
230
1.0
 70
     8
 71
     3
 72
    11
 73
     7
 74
     0
 42
0.000000001
 43
0.0000000001
 40
0.0
 40
0.0
 40
0.0
 40
0.0
 40
0.2513635777494937
 40
0.5000702291844066
 40
0.7514129812978262
 40
1.0
 40
1.0
 40
1.0
 40
1.0
 10
17.64837270363628
 20
39.33782716422543
 30
0.0
 10
17.64722460027461
 20
39.33654500174297
 30
0.0
 10
17.6449405290644
 20
39.33399422930341
 30
0.0
 10
17.6450584390772
 20
39.32974721597064
 30
0.0
 10
17.64732797838918
 20
39.3256759589779
 30
0.0
 10
17.65088532635304
 20
39.32352485415052
 30
0.0
 10
17.65265419585524
 20
39.32245523044102
 30
0.0
  0
SPLINE
  5
FC
330
2
100
AcDbEntity
  8
0
100
AcDbSpline
210
0.0
220
0.0
230
1.0
 70
     8
 71
     3
 72
    11
 73
     7
 74
     0
 42
0.000000001
 43
0.0000000001
 40
0.0
 40
0.0
 40
0.0
 40
0.0
 40
0.2515962702673357
 40
0.5002626957026789
 40
0.7517162065042098
 40
1.0
 40
1.0
 40
1.0
 40
1.0
 10
17.61569254803623
 20
39.27900626615856
 30
0.0
 10
17.61288732905667
 20
39.27890743728532
 30
0.0
 10
17.60730955794258
 20
39.27871093040348
 30
0.0
 10
17.59984494560332
 20
39.2766792126229
 30
0.0
 10
17.59372193171752
 20
39.2737627664232
 30
0.0
 10
17.59159039981687
 20
39.27118346135102
 30
0.0
 10
17.59053139377164
 20
39.26990198878047
 30
0.0
  0
LINE
  5
FD
330
2
100
AcDbEntity
  8
0
100
AcDbLine
 10
17.6768379824565
 20
39.27859837483154
 30
0.0
 11
17.61569254805864
 21
39.27900626616505
 31
0.0
  0
LINE
  5
FE
330
2
100
AcDbEntity
  8
0
100
AcDbLine
 10
17.59053139376628
 20
39.26990198879214
 30
0.0
 11
17.58883902063128
 21
39.26710994888625
 31
0.0
  0
SPLINE
  5
FF
330
2
100
AcDbEntity
  8
0
100
AcDbSpline
210
0.0
220
0.0
230
1.0
 70
     8
 71
     3
 72
    11
 73
     7
 74
     0
 42
0.000000001
 43
0.0000000001
 40
0.0
 40
0.0
 40
0.0
 40
0.0
 40
0.2518145861047208
 40
0.5001616121933346
 40
0.7515444598657054
 40
1.0
 40
1.0
 40
1.0
 40
1.0
 10
17.58883902064051
 20
39.26710994889342
 30
0.0
 10
17.58825772157803
 20
39.2657342588257
 30
0.0
 10
17.58710312810993
 20
39.26300182234225
 30
0.0
 10
17.58895430205637
 20
39.25885953825408
 30
0.0
 10
17.59287110311624
 20
39.25511793448674
 30
0.0
 10
17.59723982903572
 20
39.25338405874119
 30
0.0
 10
17.59941139925622
 20
39.25252219809708
 30
0.0
  0
SPLINE
  5
100
330
2
100
AcDbEntity
  8
0
100
AcDbSpline
210
0.0
220
0.0
230
1.0
 70
     8
 71
     3
 72
    11
 73
     7
 74
     0
 42
0.000000001
 43
0.0000000001
 40
0.0
 40
0.0
 40
0.0
 40
0.0
 40
0.2517936903547139
 40
0.5003716806517922
 40
0.7519933525693521
 40
1.0
 40
1.0
 40
1.0
 40
1.0
 10
17.58132446033259
 20
39.20617956271911
 30
0.0
 10
17.57861801961514
 20
39.20579380131596
 30
0.0
 10
17.57323970259504
 20
39.20502720513418
 30
0.0
 10
17.56678544913906
 20
39.2022564920045
 30
0.0
 10
17.56205178143671
 20
39.19875792816469
 30
0.0
 10
17.56102147372723
 20
39.196017577936
 30
0.0
 10
17.56051004723086
 20
39.19465731662431
 30
0.0
  0
LINE
  5
101
330
2
100
AcDbEntity
  8
0
100
AcDbLine
 10
17.55999796257112
 20
39.19175578834138
 30
0.0
 11
17.6539092985952
 21
37.60925968740328
 31
0.0
  0
LINE
  5
102
330
2
100
AcDbEntity
  8
0
100
AcDbLine
 10
17.5605100472055
 20
39.19465731659883
 30
0.0
 11
17.55999796257112
 21
39.19175578834138
 31
0.0
  0
LWPOLYLINE
  5
103
330
2
100
AcDbEntity
  8
0
100
AcDbPolyline
 90
        3
 70
   128
 43
0.0
 10
26.47592469882473
 20
43.16003103557305
 10
26.36797322493773
 20
43.22717920198886
 10
26.18945160197955
 20
43.30954702619375
  0
LINE
  5
104
330
2
100
AcDbEntity
  8
0
100
AcDbLine
 10
24.5681840198952
 20
42.7882312914144
 30
0.0
 11
24.35804996691173
 21
42.88997130498355
 31
0.0
  0
LINE
  5
105
330
2
100
AcDbEntity
  8
0
100
AcDbLine
 10
24.66504206308627
 20
42.87610957843599
 30
0.0
 11
24.35804996691173
 21
43.02474551969235
 31
0.0
  0
ARC
  5
106
330
2
100
AcDbEntity
  8
0
100
AcDbCircle
 10
23.90790605342254
 20
41.98665994887307
 30
0.0
 40
1.13148185808078
100
AcDbArc
 50
66.55705081230067
 51
114.3639070353992
  0
ARC
  5
107
330
2
100
AcDbEntity
  8
0
100
AcDbCircle
 10
23.90790605342254
 20
41.85188573416427
 30
0.0
 40
1.131481858080727
100
AcDbArc
 50
66.55705081230067
 51
114.3639070353992
  0
LWPOLYLINE
  5
108
330
2
100
AcDbEntity
  8
0
100
AcDbPolyline
 90
        9
 70
   128
 43
0.0
 10
23.11813829240805
 20
42.65988576472151
 10
23.10826586671126
 20
42.66570640393371
 10
23.10086715745908
 20
42.67237035801189
 10
23.09619993636508
 20
42.6796348329517
 10
23.09444637103819
 20
42.6872192326706
 10
23.0956985272696
 20
42.69481977385413
 10
23.09990260043675
 20
42.70214719180635
 10
23.10687114920046
 20
42.70893285781752
 10
23.11636252193955
 20
42.71490290129864
  0
LINE
  5
109
330
2
100
AcDbEntity
  8
0
100
AcDbLine
 10
23.44113508346599
 20
42.88260201751548
 30
0.0
 11
23.11636252193955
 21
42.71490290129864
 31
0.0
  0
LINE
  5
10A
330
2
100
AcDbEntity
  8
0
100
AcDbLine
 10
23.5165241103483
 20
42.46700016113449
 30
0.0
 11
23.11813829240805
 21
42.65988576472151
 31
0.0
  0
LINE
  5
10B
330
2
100
AcDbEntity
  8
0
100
AcDbLine
 10
23.44113508346599
 20
43.01737623222429
 30
0.0
 11
23.11636252193955
 21
42.84967711600744
 31
0.0
  0
ARC
  5
10C
330
2
100
AcDbEntity
  8
0
100
AcDbCircle
 10
23.12779717874458
 20
42.81802280339394
 30
0.0
 40
0.0336563052237357
100
AcDbArc
 50
109.8615115050992
 51
172.1666319567005
  0
ARC
  5
10D
330
2
100
AcDbEntity
  8
0
100
AcDbCircle
 10
23.38167430154674
 20
39.82317421418738
 30
0.0
 40
1.611801631718443
100
AcDbArc
 50
110.8241936599004
 51
163.4888292197998
  0
ARC
  5
10E
330
2
100
AcDbEntity
  8
0
100
AcDbCircle
 10
25.3106215123654
 20
35.89811674817999
 30
0.0
 40
5.980106574053571
100
AcDbArc
 50
80.79391405340095
 51
114.7322298576999
  0
ARC
  5
10F
330
2
100
AcDbEntity
  8
0
100
AcDbCircle
 10
25.03219244155318
 20
40.7775077997258
 30
0.0
 40
2.065358248519412
100
AcDbArc
 50
100.2855371666988
 51
121.5881306949986
  0
LINE
  5
110
330
2
100
AcDbEntity
  8
0
100
AcDbLine
 10
24.66750435668616
 20
42.97852701892073
 30
0.0
 11
24.66341476812338
 21
42.80967603148706
 31
0.0
  0
SPLINE
  5
111
330
2
100
AcDbEntity
  8
0
100
AcDbSpline
210
0.0
220
0.0
230
1.0
 70
     8
 71
     3
 72
     9
 73
     5
 74
     0
 42
0.000000001
 43
0.0000000001
 40
0.0
 40
0.0
 40
0.0
 40
0.0
 40
0.5880102392045426
 40
1.0
 40
1.0
 40
1.0
 40
1.0
 10
26.03723059854012
 20
42.08061284459689
 30
0.0
 10
26.08555379208492
 20
42.05701260533182
 30
0.0
 10
26.16773466296602
 20
42.0168768429052
 30
0.0
 10
26.24255147658725
 20
41.96645046477362
 30
0.0
 10
26.27337523773445
 20
41.94567531330945
 30
0.0
  0
LINE
  5
112
330
2
100
AcDbEntity
  8
0
100
AcDbLine
 10
22.2566487144022
 20
41.18768545389546
 30
0.0
 11
22.26911062219192
 21
41.18006090897329
 31
0.0
  0
SPLINE
  5
113
330
2
100
AcDbEntity
  8
0
100
AcDbSpline
210
0.0
220
0.0
230
1.0
 70
     8
 71
     3
 72
    23
 73
    19
 74
     0
 42
0.000000001
 43
0.0000000001
 40
0.0
 40
0.0
 40
0.0
 40
0.0
 40
0.0650759994387883
 40
0.1301487902534017
 40
0.1952223179159527
 40
0.2602971153614017
 40
0.3253719992642218
 40
0.3904466071404661
 40
0.4555208169974175
 40
0.5205951245273424
 40
0.5856694320572672
 40
0.650743649930856
 40
0.7158182467249019
 40
0.78089312738986
 40
0.8459679407787879
 40
0.9110414684413388
 40
0.9761142495284506
 40
1.0
 40
1.0
 40
1.0
 40
1.0
 10
27.02516229588925
 20
32.58791572794182
 30
0.0
 10
26.90811690532299
 20
32.64014153489156
 30
0.0
 10
26.67403189520697
 20
32.7445905737559
 30
0.0
 10
26.25394632582434
 20
32.85401504796359
 30
0.0
 10
25.80314513943177
 20
32.92303397135532
 30
0.0
 10
25.33302569673984
 20
32.94604137672213
 30
0.0
 10
24.86323980899548
 20
32.92294092204503
 30
0.0
 10
24.41141985909188
 20
32.85440800922585
 30
0.0
 10
23.9950473891629
 20
32.74312849221337
 30
0.0
 10
23.63009116279856
 20
32.59337012785723
 30
0.0
 10
23.33056989608714
 20
32.41089011282936
 30
0.0
 10
23.1080251843996
 20
32.20270919411326
 30
0.0
 10
22.9709065125939
 20
31.97677989456841
 30
0.0
 10
22.92490292540549
 20
31.74195892851725
 30
0.0
 10
22.97018143819677
 20
31.50663060036985
 30
0.0
 10
23.11096627426919
 20
31.28223232107882
 30
0.0
 10
23.27555127736923
 20
31.11355533938326
 30
0.0
 10
23.41514693693726
 20
31.03239155884932
 30
0.0
 10
23.45262897528638
 20
31.01059873274046
 30
0.0
  0
SPLINE
  5
114
330
2
100
AcDbEntity
  8
0
100
AcDbSpline
210
0.0
220
0.0
230
1.0
 70
     8
 71
     3
 72
    15
 73
    11
 74
     0
 42
0.000000001
 43
0.0000000001
 40
0.0
 40
0.0
 40
0.0
 40
0.0
 40
0.049818182304337
 40
0.1855580891668008
 40
0.3212988262675708
 40
0.4570401391390151
 40
0.5927812716668866
 40
0.7285197555231463
 40
0.8642652640745426
 40
1.0
 40
1.0
 40
1.0
 40
1.0
 10
27.21352190518553
 20
31.01060752939125
 30
0.0
 10
27.25100614793574
 20
31.03239524180849
 30
0.0
 10
27.39062393680035
 20
31.11354806787431
 30
0.0
 10
27.55519212618807
 20
31.28222854499398
 30
0.0
 10
27.69600436574557
 20
31.50663720992076
 30
0.0
 10
27.74120162077565
 20
31.74193248253497
 30
0.0
 10
27.69545498974044
 20
31.97688420843049
 30
0.0
 10
27.55734517243043
 20
32.20231919524876
 30
0.0
 10
27.33850195519092
 20
32.4123506950531
 30
0.0
 10
27.12960608591932
 20
32.5293955984678
 30
0.0
 10
27.02516229588925
 20
32.58791572794182
 30
0.0
  0
SPLINE
  5
115
330
2
100
AcDbEntity
  8
0
100
AcDbSpline
210
0.0
220
0.0
230
1.0
 70
     8
 71
     3
 72
    11
 73
     7
 74
     0
 42
0.000000001
 43
0.0000000001
 40
0.0
 40
0.0
 40
0.0
 40
0.0
 40
0.2940402605076222
 40
0.5880791098596391
 40
0.8821194051416838
 40
1.0
 40
1.0
 40
1.0
 40
1.0
 10
21.61376765220153
 20
40.18300621270117
 30
0.0
 10
21.3377582852901
 20
40.02503820472238
 30
0.0
 10
20.78574087608892
 20
39.70910294688368
 30
0.0
 10
20.28826856423384
 20
39.12896780785602
 30
0.0
 10
20.05140947028072
 20
38.6333911036534
 30
0.0
 10
20.08749219019485
 20
38.34196869093182
 30
0.0
 10
20.07489893530984
 20
38.25612351783706
 30
0.0
  0
SPLINE
  5
116
330
2
100
AcDbEntity
  8
0
100
AcDbSpline
210
0.0
220
0.0
230
1.0
 70
     8
 71
     3
 72
    11
 73
     7
 74
     0
 42
0.000000001
 43
0.0000000001
 40
0.0
 40
0.0
 40
0.0
 40
0.0
 40
0.2500000116064147
 40
0.5000004612255643
 40
0.7499996019335855
 40
1.0
 40
1.0
 40
1.0
 40
1.0
 10
26.21230444676472
 20
40.91629995655633
 30
0.0
 10
25.79527789528855
 20
40.93708866438803
 30
0.0
 10
24.9612240616847
 20
40.97866611647423
 30
0.0
 10
23.72160395609993
 20
40.84977465555867
 30
0.0
 10
22.56163429578992
 20
40.59601488246594
 30
0.0
 10
21.92972372975688
 20
40.32067600008941
 30
0.0
 10
21.61376765220153
 20
40.18300621270117
 30
0.0
  0
LINE
  5
117
330
2
100
AcDbEntity
  8
0
100
AcDbLine
 10
26.30338377361792
 20
42.45173185910707
 30
0.0
 11
26.2123044467442
 21
40.91629995656382
 31
0.0
  0
LINE
  5
118
330
2
100
AcDbEntity
  8
0
100
AcDbLine
 10
26.85873119978876
 20
42.38483586204876
 30
0.0
 11
26.30338377361792
 21
42.45173123152786
 31
0.0
  0
LINE
  5
119
330
2
100
AcDbEntity
  8
0
100
AcDbLine
 10
20.39572560461641
 20
31.89445384778744
 30
0.0
 11
20.40287975846132
 21
31.81003025483476
 31
0.0
  0
SPLINE
  5
11A
330
2
100
AcDbEntity
  8
0
100
AcDbSpline
210
0.0
220
0.0
230
1.0
 70
     8
 71
     3
 72
    10
 73
     6
 74
     0
 42
0.000000001
 43
0.0000000001
 40
0.0
 40
0.0
 40
0.0
 40
0.0
 40
0.4852796321863476
 40
0.7392243491391059
 40
1.0
 40
1.0
 40
1.0
 40
1.0
 10
28.37892022518461
 20
34.73115329496049
 30
0.0
 10
28.28004874125406
 20
34.72592961369308
 30
0.0
 10
28.12943824060783
 20
34.71797240278021
 30
0.0
 10
27.947353716592
 20
34.6716922551607
 30
0.0
 10
27.8690248563561
 20
34.63833446246408
 30
0.0
 10
27.82934066900601
 20
34.62143421789303
 30
0.0
  0
ARC
  5
11B
330
2
100
AcDbEntity
  8
0
100
AcDbCircle
 10
28.37900319005528
 20
41.56700588343678
 30
0.0
 40
1.325990041008425
100
AcDbArc
 50
65.50869017480112
 51
114.4870554971995
  0
LINE
  5
11C
330
2
100
AcDbEntity
  8
0
100
AcDbLine
 10
28.92870167730875
 20
34.62144311722666
 30
0.0
 11
28.92869928599217
 21
42.77368885376861
 31
0.0
  0
SPLINE
  5
11D
330
2
100
AcDbEntity
  8
0
100
AcDbSpline
210
0.0
220
0.0
230
1.0
 70
     8
 71
     3
 72
    10
 73
     6
 74
     0
 42
0.000000001
 43
0.0000000001
 40
0.0
 40
0.0
 40
0.0
 40
0.0
 40
0.2608740502138607
 40
0.5148626801337083
 40
1.0
 40
1.0
 40
1.0
 40
1.0
 10
28.92869996922235
 20
34.62144309994821
 30
0.0
 10
28.88932352975697
 20
34.63822857731732
 30
0.0
 10
28.81160993907753
 20
34.67135650191713
 30
0.0
 10
28.63116041271668
 20
34.71744125233782
 30
0.0
 10
28.48184857449234
 20
34.72571529890823
 30
0.0
 10
28.38384532478721
 20
34.73114610373771
 30
0.0
  0
LINE
  5
11E
330
2
100
AcDbEntity
  8
0
100
AcDbLine
 10
28.38384532476603
 20
34.73114610376156
 30
0.0
 11
28.37892022520053
 21
34.73115329498547
 31
0.0
  0
LINE
  5
11F
330
2
100
AcDbEntity
  8
0
100
AcDbLine
 10
27.11648400037109
 20
42.4172738425259
 30
0.0
 11
27.82939669425661
 21
42.77373018949455
 31
0.0
  0
LINE
  5
120
330
2
100
AcDbEntity
  8
0
100
AcDbLine
 10
27.82931880548976
 20
34.62144431288495
 30
0.0
 11
27.22558604207306
 21
34.31957793112472
 31
0.0
  0
LINE
  5
121
330
2
100
AcDbEntity
  8
0
100
AcDbLine
 10
28.92869928599217
 20
42.77368885376861
 30
0.0
 11
49.75341830474707
 21
32.36132934439123
 31
0.0
  0
LINE
  5
122
330
2
100
AcDbEntity
  8
0
100
AcDbLine
 10
49.19220598921778
 20
24.48969096127215
 30
0.0
 11
28.92870167730875
 21
34.62144311722666
 31
0.0
  0
SPLINE
  5
123
330
2
100
AcDbEntity
  8
0
100
AcDbSpline
210
0.0
220
0.0
230
1.0
 70
     8
 71
     3
 72
    11
 73
     7
 74
     0
 42
0.000000001
 43
0.0000000001
 40
0.0
 40
0.0
 40
0.0
 40
0.0
 40
0.248610997384795
 40
0.5015210318101614
 40
0.7505362508009256
 40
1.0
 40
1.0
 40
1.0
 40
1.0
 10
26.85879371579425
 20
42.384912416084
 30
0.0
 10
26.88146643872543
 20
42.38240776098808
 30
0.0
 10
26.92720394638976
 20
42.37735513973944
 30
0.0
 10
26.99722758604632
 20
42.38219181512386
 30
0.0
 10
27.06355144204946
 20
42.39448549352576
 30
0.0
 10
27.09890208985127
 20
42.40963674265482
 30
0.0
 10
27.11659331796709
 20
42.41721918374863
 30
0.0
  0
SPLINE
  5
124
330
2
100
AcDbEntity
  8
0
100
AcDbSpline
210
0.0
220
0.0
230
1.0
 70
     8
 71
     3
 72
    11
 73
     7
 74
     0
 42
0.000000001
 43
0.0000000001
 40
0.0
 40
0.0
 40
0.0
 40
0.0
 40
0.2498728081051591
 40
0.499709989756611
 40
0.7496802666361273
 40
1.0
 40
1.0
 40
1.0
 40
1.0
 10
27.22578247211784
 20
34.31949025274815
 30
0.0
 10
27.20727054247147
 20
34.31115264213691
 30
0.0
 10
27.17024932257916
 20
34.29447860967728
 30
0.0
 10
27.1010457989204
 20
34.28164913548523
 30
0.0
 10
27.02780491160305
 20
34.27827346016434
 30
0.0
 10
26.98078854258057
 20
34.28540459983037
 30
0.0
 10
26.95726393741864
 20
34.28897266024179
 30
0.0
  0
LINE
  5
125
330
2
100
AcDbEntity
  8
0
100
AcDbLine
 10
20.60732434267384
 20
31.01044708145108
 30
0.0
 11
20.00359175002838
 21
30.70858078512833
 31
0.0
  0
SPLINE
  5
126
330
2
100
AcDbEntity
  8
0
100
AcDbSpline
210
0.0
220
0.0
230
1.0
 70
     8
 71
     3
 72
    10
 73
     6
 74
     0
 42
0.000000001
 43
0.0000000001
 40
0.0
 40
0.0
 40
0.0
 40
0.0
 40
0.2607393420259801
 40
0.514681038283003
 40
1.0
 40
1.0
 40
1.0
 40
1.0
 10
20.00361361355996
 20
30.70857069016997
 30
0.0
 10
19.9684297844722
 20
30.68801993994332
 30
0.0
 10
19.89897939181201
 20
30.64745421103587
 30
0.0
 10
19.80286664409952
 20
30.55424161261644
 30
0.0
 10
19.78670168997021
 20
30.47827546352834
 30
0.0
 10
19.77608952135332
 20
30.42840426829642
 30
0.0
  0
LINE
  5
127
330
2
100
AcDbEntity
  8
0
100
AcDbLine
 10
49.41970411848135
 20
24.20838862666366
 30
0.0
 11
49.41972564038225
 21
24.21084726512543
 31
0.0
  0
SPLINE
  5
128
330
2
100
AcDbEntity
  8
0
100
AcDbSpline
210
0.0
220
0.0
230
1.0
 70
     8
 71
     3
 72
    10
 73
     6
 74
     0
 42
0.000000001
 43
0.0000000001
 40
0.0
 40
0.0
 40
0.0
 40
0.0
 40
0.4853128144642465
 40
0.7392763856342789
 40
1.0
 40
1.0
 40
1.0
 40
1.0
 10
49.41972564038225
 20
24.21084726511619
 30
0.0
 10
49.40886211709393
 20
24.26048671111294
 30
0.0
 10
49.39231372605097
 20
24.33610241530937
 30
0.0
 10
49.2964013127232
 20
24.42884441290843
 30
0.0
 10
49.22723783482335
 20
24.46923115300842
 30
0.0
 10
49.1922018897932
 20
24.48968974834028
 30
0.0
  0
SPLINE
  5
129
330
2
100
AcDbEntity
  8
0
100
AcDbSpline
210
0.0
220
0.0
230
1.0
 70
     8
 71
     3
 72
    11
 73
     7
 74
     0
 42
0.000000001
 43
0.0000000001
 40
0.0
 40
0.0
 40
0.0
 40
0.0
 40
0.0429464141904403
 40
0.507258835751638
 40
0.7727954691712491
 40
1.0
 40
1.0
 40
1.0
 40
1.0
 10
49.97606204923755
 20
32.07309088239264
 30
0.0
 10
49.9779305012355
 20
32.07755337559144
 30
0.0
 10
49.99999960299906
 20
32.13026182977214
 30
0.0
 10
49.94625428531628
 20
32.21369553311602
 30
0.0
 10
49.85618786615098
 20
32.30453208070064
 30
0.0
 10
49.78585090367571
 20
32.34340494297097
 30
0.0
 10
49.75341830474005
 20
32.36132934441125
 30
0.0
  0
LINE
  5
12A
330
2
100
AcDbEntity
  8
0
100
AcDbLine
 10
12.50239381095883
 20
6.172834563107127
 30
0.0
 11
12.39118381842117
 21
6.373203828792385
 31
0.0
  0
LINE
  5
12B
330
2
100
AcDbEntity
  8
0
100
AcDbLine
 10
12.39118381842117
 20
6.373203828792385
 30
0.0
 11
12.39103811857126
 21
6.37811312921398
 31
0.0
  0
LINE
  5
12C
330
2
100
AcDbEntity
  8
0
100
AcDbLine
 10
12.39103811857126
 20
6.37811312921398
 30
0.0
 11
12.4923886882024
 21
6.539214850285957
 31
0.0
  0
LINE
  5
12D
330
2
100
AcDbEntity
  8
0
100
AcDbLine
 10
12.4923886882024
 20
6.539214850285957
 30
0.0
 11
12.37274125567666
 21
6.734379406304253
 31
0.0
  0
LINE
  5
12E
330
2
100
AcDbEntity
  8
0
100
AcDbLine
 10
12.37274125567666
 20
6.734379406304253
 30
0.0
 11
12.37237726220873
 21
6.739317007291737
 31
0.0
  0
LINE
  5
12F
330
2
100
AcDbEntity
  8
0
100
AcDbLine
 10
12.37237726220873
 20
6.739317007291737
 30
0.0
 11
12.46460049531339
 21
6.908343124244321
 31
0.0
  0
LINE
  5
130
330
2
100
AcDbEntity
  8
0
100
AcDbLine
 10
12.46460049531339
 20
6.908343124244321
 30
0.0
 11
12.33689123120395
 21
7.097710956135362
 31
0.0
  0
LINE
  5
131
330
2
100
AcDbEntity
  8
0
100
AcDbLine
 10
12.33689123120395
 20
7.097710956135362
 30
0.0
 11
12.33628195639524
 21
7.102675185873231
 31
0.0
  0
LINE
  5
132
330
2
100
AcDbEntity
  8
0
100
AcDbLine
 10
12.33628195639524
 20
7.102675185873231
 30
0.0
 11
12.41915033563178
 21
7.279097603383453
 31
0.0
  0
LINE
  5
133
330
2
100
AcDbEntity
  8
0
100
AcDbLine
 10
12.41915033563178
 20
7.279097603383453
 30
0.0
 11
12.28375928948546
 21
7.462104127937788
 31
0.0
  0
LINE
  5
134
330
2
100
AcDbEntity
  8
0
100
AcDbLine
 10
12.28375928948546
 20
7.462104127937788
 30
0.0
 11
12.28292198496941
 21
7.46707505443064
 31
0.0
  0
LINE
  5
135
330
2
100
AcDbEntity
  8
0
100
AcDbLine
 10
12.28292198496941
 20
7.46707505443064
 30
0.0
 11
12.35615572567819
 21
7.650385050999894
 31
0.0
  0
LINE
  5
136
330
2
100
AcDbEntity
  8
0
100
AcDbLine
 10
12.35615572567819
 20
7.650385050999894
 30
0.0
 11
12.21348873905452
 21
7.82648192825073
 31
0.0
  0
LINE
  5
137
330
2
100
AcDbEntity
  8
0
100
AcDbLine
 10
12.21348873905452
 20
7.82648192825073
 30
0.0
 11
12.21239744194343
 21
7.831451697731894
 31
0.0
  0
LINE
  5
138
330
2
100
AcDbEntity
  8
0
100
AcDbLine
 10
12.21239744194343
 20
7.831451697731894
 30
0.0
 11
12.27579652702696
 21
8.021094762335895
 31
0.0
  0
LINE
  5
139
330
2
100
AcDbEntity
  8
0
100
AcDbLine
 10
12.27579652702696
 20
8.021094762335895
 30
0.0
 11
12.12626337010659
 21
8.189767521467873
 31
0.0
  0
LINE
  5
13A
330
2
100
AcDbEntity
  8
0
100
AcDbLine
 10
12.12626337010659
 20
8.189767521467873
 30
0.0
 11
12.12495873283377
 21
8.19470603892439
 31
0.0
  0
LINE
  5
13B
330
2
100
AcDbEntity
  8
0
100
AcDbLine
 10
12.12495873283377
 20
8.19470603892439
 30
0.0
 11
12.17833920132536
 21
8.390108911181057
 31
0.0
  0
LINE
  5
13C
330
2
100
AcDbEntity
  8
0
100
AcDbLine
 10
12.17833920132536
 20
8.390108911181057
 30
0.0
 11
12.02239678753488
 21
8.550848136768752
 31
0.0
  0
LINE
  5
13D
330
2
100
AcDbEntity
  8
0
100
AcDbLine
 10
12.02239678753488
 20
8.550848136768752
 30
0.0
 11
12.02085370127655
 21
8.555758016889308
 31
0.0
  0
LINE
  5
13E
330
2
100
AcDbEntity
  8
0
100
AcDbLine
 10
12.02085370127655
 20
8.555758016889308
 30
0.0
 11
12.06402646777446
 21
8.756353349294153
 31
0.0
  0
LINE
  5
13F
330
2
100
AcDbEntity
  8
0
100
AcDbLine
 10
12.06402646777446
 20
8.756353349294153
 30
0.0
 11
11.90215681946821
 21
8.908668874614997
 31
0.0
  0
LINE
  5
140
330
2
100
AcDbEntity
  8
0
100
AcDbLine
 10
11.90215681946821
 20
8.908668874614997
 30
0.0
 11
11.90039492717434
 21
8.913524686797433
 31
0.0
  0
LINE
  5
141
330
2
100
AcDbEntity
  8
0
100
AcDbLine
 10
11.90039492717434
 20
8.913524686797433
 30
0.0
 11
11.93325443194817
 21
9.118704568221962
 31
0.0
  0
LINE
  5
142
330
2
100
AcDbEntity
  8
0
100
AcDbLine
 10
11.93325443194817
 20
9.118704568221962
 30
0.0
 11
11.76591992837479
 21
9.262153520702664
 31
0.0
  0
LINE
  5
143
330
2
100
AcDbEntity
  8
0
100
AcDbLine
 10
11.76591992837479
 20
9.262153520702664
 30
0.0
 11
11.76393735114638
 21
9.266947631180597
 31
0.0
  0
LINE
  5
144
330
2
100
AcDbEntity
  8
0
100
AcDbLine
 10
11.76393735114638
 20
9.266947631180597
 30
0.0
 11
11.78639699417502
 21
9.476090200215956
 31
0.0
  0
LINE
  5
145
330
2
100
AcDbEntity
  8
0
100
AcDbLine
 10
11.78639699417502
 20
9.476090200215956
 30
0.0
 11
11.6140839278524
 21
9.610251705341399
 31
0.0
  0
LINE
  5
146
330
2
100
AcDbEntity
  8
0
100
AcDbLine
 10
11.6140839278524
 20
9.610251705341399
 30
0.0
 11
11.61190167517277
 21
9.614959366701512
 31
0.0
  0
LINE
  5
147
330
2
100
AcDbEntity
  8
0
100
AcDbLine
 10
11.61190167517277
 20
9.614959366701512
 30
0.0
 11
11.62385094316587
 21
9.827464491078908
 31
0.0
  0
LINE
  5
148
330
2
100
AcDbEntity
  8
0
100
AcDbLine
 10
11.62385094316587
 20
9.827464491078908
 30
0.0
 11
11.44709035848958
 21
9.951928228174885
 31
0.0
  0
LINE
  5
149
330
2
100
AcDbEntity
  8
0
100
AcDbLine
 10
11.44709035848958
 20
9.951928228174885
 30
0.0
 11
11.44472961071707
 21
9.95652812565172
 31
0.0
  0
LINE
  5
14A
330
2
100
AcDbEntity
  8
0
100
AcDbLine
 10
11.44472961071707
 20
9.95652812565172
 30
0.0
 11
11.44616662477561
 21
10.1717491474237
 31
0.0
  0
LINE
  5
14B
330
2
100
AcDbEntity
  8
0
100
AcDbLine
 10
11.44616662477561
 20
10.1717491474237
 30
0.0
 11
11.26549007861065
 21
10.28614030430951
 31
0.0
  0
LINE
  5
14C
330
2
100
AcDbEntity
  8
0
100
AcDbLine
 10
11.26549007861065
 20
10.28614030430951
 30
0.0
 11
11.26290727942218
 21
10.29064769241521
 31
0.0
  0
LINE
  5
14D
330
2
100
AcDbEntity
  8
0
100
AcDbLine
 10
11.26290727942218
 20
10.29064769241521
 30
0.0
 11
11.2538298190527
 21
10.50793286924661
 31
0.0
  0
LINE
  5
14E
330
2
100
AcDbEntity
  8
0
100
AcDbLine
 10
11.2538298190527
 20
10.50793286924661
 30
0.0
 11
11.0697686974409
 21
10.61191849464611
 31
0.0
  0
LINE
  5
14F
330
2
100
AcDbEntity
  8
0
100
AcDbLine
 10
11.0697686974409
 20
10.61191849464611
 30
0.0
 11
11.06700808634841
 21
10.61629503035389
 31
0.0
  0
LINE
  5
150
330
2
100
AcDbEntity
  8
0
100
AcDbLine
 10
11.06700808634841
 20
10.61629503035389
 30
0.0
 11
11.04743647774166
 21
10.8350072403062
 31
0.0
  0
LINE
  5
151
330
2
100
AcDbEntity
  8
0
100
AcDbLine
 10
11.04743647774166
 20
10.8350072403062
 30
0.0
 11
10.8605209710666
 21
10.92828234300416
 31
0.0
  0
LINE
  5
152
330
2
100
AcDbEntity
  8
0
100
AcDbLine
 10
10.8605209710666
 20
10.92828234300416
 30
0.0
 11
10.85758374372834
 21
10.93252527701068
 31
0.0
  0
LINE
  5
153
330
2
100
AcDbEntity
  8
0
100
AcDbLine
 10
10.85758374372834
 20
10.93252527701068
 30
0.0
 11
10.82758323587963
 21
11.15200121888866
 31
0.0
  0
LINE
  5
154
330
2
100
AcDbEntity
  8
0
100
AcDbLine
 10
10.82758323587963
 20
11.15200121888866
 30
0.0
 11
10.63840690451733
 21
11.23427219570672
 31
0.0
  0
LINE
  5
155
330
2
100
AcDbEntity
  8
0
100
AcDbLine
 10
10.63840690451733
 20
11.23427219570672
 30
0.0
 11
10.63529511065545
 21
11.23836916421335
 31
0.0
  0
LINE
  5
156
330
2
100
AcDbEntity
  8
0
100
AcDbLine
 10
10.63529511065545
 20
11.23836916421335
 30
0.0
 11
10.59493317294962
 21
11.45796851043403
 31
0.0
  0
LINE
  5
157
330
2
100
AcDbEntity
  8
0
100
AcDbLine
 10
10.59493317294962
 20
11.45796851043403
 30
0.0
 11
10.4040427757802
 21
11.52899733666923
 31
0.0
  0
LINE
  5
158
330
2
100
AcDbEntity
  8
0
100
AcDbLine
 10
10.4040427757802
 20
11.52899733666923
 30
0.0
 11
10.40078067020654
 21
11.53292856211129
 31
0.0
  0
LINE
  5
159
330
2
100
AcDbEntity
  8
0
100
AcDbLine
 10
10.40078067020654
 20
11.53292856211129
 30
0.0
 11
10.35019292486157
 21
11.75198794590992
 31
0.0
  0
LINE
  5
15A
330
2
100
AcDbEntity
  8
0
100
AcDbLine
 10
10.35019292486157
 20
11.75198794590992
 30
0.0
 11
10.1581526431179
 21
11.81156539090848
 31
0.0
  0
LINE
  5
15B
330
2
100
AcDbEntity
  8
0
100
AcDbLine
 10
10.1581526431179
 20
11.81156539090848
 30
0.0
 11
10.15474330038977
 21
11.81532236911524
 31
0.0
  0
LINE
  5
15C
330
2
100
AcDbEntity
  8
0
100
AcDbLine
 10
10.15474330038977
 20
11.81532236911524
 30
0.0
 11
10.0940684441291
 21
12.03319513015818
 31
0.0
  0
LINE
  5
15D
330
2
100
AcDbEntity
  8
0
100
AcDbLine
 10
10.0940684441291
 20
12.03319513015818
 30
0.0
 11
9.901481403557273
 21
12.08112965490039
 31
0.0
  0
LINE
  5
15E
330
2
100
AcDbEntity
  8
0
100
AcDbLine
 10
9.901481403557273
 20
12.08112965490039
 30
0.0
 11
9.8979063763829
 21
12.08471498422006
 31
0.0
  0
LINE
  5
15F
330
2
100
AcDbEntity
  8
0
100
AcDbLine
 10
9.8979063763829
 20
12.08471498422006
 30
0.0
 11
9.82735228339064
 21
12.30073528246403
 31
0.0
  0
LINE
  5
160
330
2
100
AcDbEntity
  8
0
100
AcDbLine
 10
9.82735228339064
 20
12.30073528246403
 30
0.0
 11
9.634771391985218
 21
12.33689591254285
 31
0.0
  0
LINE
  5
161
330
2
100
AcDbEntity
  8
0
100
AcDbLine
 10
9.634771391985218
 20
12.33689591254285
 30
0.0
 11
9.631056814023583
 21
12.340290754964
 31
0.0
  0
LINE
  5
162
330
2
100
AcDbEntity
  8
0
100
AcDbLine
 10
9.631056814023583
 20
12.340290754964
 30
0.0
 11
9.550813252838395
 21
12.55382742450773
 31
0.0
  0
LINE
  5
163
330
2
100
AcDbEntity
  8
0
100
AcDbLine
 10
9.550813252838395
 20
12.55382742450773
 30
0.0
 11
9.358827459113657
 21
12.57809607812465
 31
0.0
  0
LINE
  5
164
330
2
100
AcDbEntity
  8
0
100
AcDbLine
 10
9.358827459113657
 20
12.57809607812465
 30
0.0
 11
9.354999634950631
 21
12.58128168086583
 31
0.0
  0
LINE
  5
165
330
2
100
AcDbEntity
  8
0
100
AcDbLine
 10
9.354999634950631
 20
12.58128168086583
 30
0.0
 11
9.265304542244315
 21
12.79169573492987
 31
0.0
  0
LINE
  5
166
330
2
100
AcDbEntity
  8
0
100
AcDbLine
 10
9.265304542244315
 20
12.79169573492987
 30
0.0
 11
9.074471878422304
 21
12.80400937632061
 31
0.0
  0
LINE
  5
167
330
2
100
AcDbEntity
  8
0
100
AcDbLine
 10
9.074471878422304
 20
12.80400937632061
 30
0.0
 11
9.070536444703007
 21
12.80698521052005
 31
0.0
  0
LINE
  5
168
330
2
100
AcDbEntity
  8
0
100
AcDbLine
 10
9.070536444703007
 20
12.80698521052005
 30
0.0
 11
8.971675583478415
 21
13.0136397119952
 31
0.0
  0
LINE
  5
169
330
2
100
AcDbEntity
  8
0
100
AcDbLine
 10
8.971675583478415
 20
13.0136397119952
 30
0.0
 11
8.782544345640015
 21
13.01397238382265
 31
0.0
  0
LINE
  5
16A
330
2
100
AcDbEntity
  8
0
100
AcDbLine
 10
8.782544345640015
 20
13.01397238382265
 30
0.0
 11
8.778528631837325
 21
13.01671351495524
 31
0.0
  0
LINE
  5
16B
330
2
100
AcDbEntity
  8
0
100
AcDbLine
 10
8.778528631837325
 20
13.01671351495524
 30
0.0
 11
8.670770684235161
 21
13.21900671329183
 31
0.0
  0
LINE
  5
16C
330
2
100
AcDbEntity
  8
0
100
AcDbLine
 10
8.670770684235161
 20
13.21900671329183
 30
0.0
 11
8.483942973239424
 21
13.20733571646424
 31
0.0
  0
LINE
  5
16D
330
2
100
AcDbEntity
  8
0
100
AcDbLine
 10
8.483942973239424
 20
13.20733571646424
 30
0.0
 11
8.479831435743825
 21
13.20985623627237
 31
0.0
  0
LINE
  5
16E
330
2
100
AcDbEntity
  8
0
100
AcDbLine
 10
8.479831435743825
 20
13.20985623627237
 30
0.0
 11
8.363515115533061
 21
13.40717432250804
 31
0.0
  0
LINE
  5
16F
330
2
100
AcDbEntity
  8
0
100
AcDbLine
 10
8.363515115533061
 20
13.40717432250804
 30
0.0
 11
8.179536836196248
 21
13.38354122769148
 31
0.0
  0
LINE
  5
170
330
2
100
AcDbEntity
  8
0
100
AcDbLine
 10
8.179536836196248
 20
13.38354122769148
 30
0.0
 11
8.175358170806395
 21
13.38582023194547
 31
0.0
  0
LINE
  5
171
330
2
100
AcDbEntity
  8
0
100
AcDbLine
 10
8.175358170806395
 20
13.38582023194547
 30
0.0
 11
8.050826632794787
 21
13.57757682842067
 31
0.0
  0
LINE
  5
172
330
2
100
AcDbEntity
  8
0
100
AcDbLine
 10
8.050826632794787
 20
13.57757682842067
 30
0.0
 11
7.870229854347564
 21
13.54206492930315
 31
0.0
  0
LINE
  5
173
330
2
100
AcDbEntity
  8
0
100
AcDbLine
 10
7.870229854347564
 20
13.54206492930315
 30
0.0
 11
7.865990722699349
 21
13.54409570729373
 31
0.0
  0
LINE
  5
174
330
2
100
AcDbEntity
  8
0
100
AcDbLine
 10
7.865990722699349
 20
13.54409570729373
 30
0.0
 11
7.733635460495219
 21
13.72971008933453
 31
0.0
  0
LINE
  5
175
330
2
100
AcDbEntity
  8
0
100
AcDbLine
 10
7.733635460495219
 20
13.72971008933453
 30
0.0
 11
7.556979581641066
 21
13.68241121655946
 31
0.0
  0
LINE
  5
176
330
2
100
AcDbEntity
  8
0
100
AcDbLine
 10
7.556979581641066
 20
13.68241121655946
 30
0.0
 11
7.552666660566534
 21
13.68420562309146
 31
0.0
  0
LINE
  5
177
330
2
100
AcDbEntity
  8
0
100
AcDbLine
 10
7.552666660566534
 20
13.68420562309146
 30
0.0
 11
7.412860720590129
 21
13.86313156944634
 31
0.0
  0
LINE
  5
178
330
2
100
AcDbEntity
  8
0
100
AcDbLine
 10
7.412860720590129
 20
13.86313156944634
 30
0.0
 11
7.240667732772281
 21
13.80418935431111
 31
0.0
  0
LINE
  5
179
330
2
100
AcDbEntity
  8
0
100
AcDbLine
 10
7.240667732772281
 20
13.80418935431111
 30
0.0
 11
7.236331923419169
 21
13.80572241859904
 31
0.0
  0
LINE
  5
17A
330
2
100
AcDbEntity
  8
0
100
AcDbLine
 10
7.236331923419169
 20
13.80572241859904
 30
0.0
 11
7.089497544799583
 21
13.97742313519253
 31
0.0
  0
LINE
  5
17B
330
2
100
AcDbEntity
  8
0
100
AcDbLine
 10
7.089497544799583
 20
13.97742313519253
 30
0.0
 11
6.922291147744473
 21
13.90701218743231
 31
0.0
  0
LINE
  5
17C
330
2
100
AcDbEntity
  8
0
100
AcDbLine
 10
6.922291147744473
 20
13.90701218743231
 30
0.0
 11
6.917941332034568
 21
13.90828165619797
 31
0.0
  0
LINE
  5
17D
330
2
100
AcDbEntity
  8
0
100
AcDbLine
 10
6.917941332034568
 20
13.90828165619797
 30
0.0
 11
6.764503487019441
 21
14.07225362040673
 31
0.0
  0
LINE
  5
17E
330
2
100
AcDbEntity
  8
0
100
AcDbLine
 10
6.764503487019441
 20
14.07225362040673
 30
0.0
 11
6.602767069510893
 21
13.9905888572756
 31
0.0
  0
LINE
  5
17F
330
2
100
AcDbEntity
  8
0
100
AcDbLine
 10
6.602767069510893
 20
13.9905888572756
 30
0.0
 11
6.598390266026279
 21
13.99160006177819
 31
0.0
  0
LINE
  5
180
330
2
100
AcDbEntity
  8
0
100
AcDbLine
 10
6.598390266026279
 20
13.99160006177819
 30
0.0
 11
6.438820386764759
 21
14.14734781188076
 31
0.0
  0
LINE
  5
181
330
2
100
AcDbEntity
  8
0
100
AcDbLine
 10
6.438820386764759
 20
14.14734781188076
 30
0.0
 11
6.283038020775437
 21
14.05467126928728
 31
0.0
  0
LINE
  5
182
330
2
100
AcDbEntity
  8
0
100
AcDbLine
 10
6.283038020775437
 20
14.05467126928728
 30
0.0
 11
6.278686838584122
 21
14.05540678712206
 31
0.0
  0
LINE
  5
183
330
2
100
AcDbEntity
  8
0
100
AcDbLine
 10
6.278686838584122
 20
14.05540678712206
 30
0.0
 11
6.113459773377049
 21
14.20246512718136
 31
0.0
  0
LINE
  5
184
330
2
100
AcDbEntity
  8
0
100
AcDbLine
 10
6.113459773377049
 20
14.20246512718136
 30
0.0
 11
5.964091959360332
 21
14.09905904329933
 31
0.0
  0
LINE
  5
185
330
2
100
AcDbEntity
  8
0
100
AcDbLine
 10
5.964091959360332
 20
14.09905904329933
 30
0.0
 11
5.959754100233206
 21
14.09952454731985
 31
0.0
  0
LINE
  5
186
330
2
100
AcDbEntity
  8
0
100
AcDbLine
 10
5.959754100233206
 20
14.09952454731985
 30
0.0
 11
5.789368952297043
 21
14.23745379749028
 31
0.0
  0
LINE
  5
187
330
2
100
AcDbEntity
  8
0
100
AcDbLine
 10
5.789368952297043
 20
14.23745379749028
 30
0.0
 11
5.646874482526699
 21
14.12361294495969
 31
0.0
  0
LINE
  5
188
330
2
100
AcDbEntity
  8
0
100
AcDbLine
 10
5.646874482526699
 20
14.12361294495969
 30
0.0
 11
5.642559511781889
 21
14.12381321785097
 31
0.0
  0
LINE
  5
189
330
2
100
AcDbEntity
  8
0
100
AcDbLine
 10
5.642559511781889
 20
14.12381321785097
 30
0.0
 11
5.467516067521906
 21
14.25220259779726
 31
0.0
  0
LINE
  5
18A
330
2
100
AcDbEntity
  8
0
100
AcDbLine
 10
5.467516067521906
 20
14.25220259779726
 30
0.0
 11
5.332328454572928
 21
14.12827113883109
 31
0.0
  0
LINE
  5
18B
330
2
100
AcDbEntity
  8
0
100
AcDbLine
 10
5.332328454572928
 20
14.12827113883109
 30
0.0
 11
5.328068484264543
 21
14.12819367875617
 31
0.0
  0
LINE
  5
18C
330
2
100
AcDbEntity
  8
0
100
AcDbLine
 10
5.328068484264543
 20
14.12819367875617
 30
0.0
 11
5.148889418468326
 21
14.24666058794485
 31
0.0
  0
LINE
  5
18D
330
2
100
AcDbEntity
  8
0
100
AcDbLine
 10
5.148889418468326
 20
14.24666058794485
 30
0.0
 11
5.021370776961453
 21
14.11302596495052
 31
0.0
  0
LINE
  5
18E
330
2
100
AcDbEntity
  8
0
100
AcDbLine
 10
5.021370776961453
 20
14.11302596495052
 30
0.0
 11
5.017176055596428
 21
14.11267254903033
 31
0.0
  0
LINE
  5
18F
330
2
100
AcDbEntity
  8
0
100
AcDbLine
 10
5.017176055596428
 20
14.11267254903033
 30
0.0
 11
4.834384042999754
 21
14.22086963921259
 31
0.0
  0
LINE
  5
190
330
2
100
AcDbEntity
  8
0
100
AcDbLine
 10
4.834384042999754
 20
14.22086963921259
 30
0.0
 11
4.714956270573414
 21
14.07791037268041
 31
0.0
  0
LINE
  5
191
330
2
100
AcDbEntity
  8
0
100
AcDbLine
 10
4.714956270573414
 20
14.07791037268041
 30
0.0
 11
4.710815524757779
 21
14.07729388065861
 31
0.0
  0
LINE
  5
192
330
2
100
AcDbEntity
  8
0
100
AcDbLine
 10
4.710815524757779
 20
14.07729388065861
 30
0.0
 11
4.524998489143491
 21
14.17487608949292
 31
0.0
  0
LINE
  5
193
330
2
100
AcDbEntity
  8
0
100
AcDbLine
 10
4.524998489143491
 20
14.17487608949292
 30
0.0
 11
4.413987830462644
 21
14.02303375777609
 31
0.0
  0
LINE
  5
194
330
2
100
AcDbEntity
  8
0
100
AcDbLine
 10
4.413987830462644
 20
14.02303375777609
 30
0.0
 11
4.409932830656135
 21
14.02214486409909
 31
0.0
  0
LINE
  5
195
330
2
100
AcDbEntity
  8
0
100
AcDbLine
 10
4.409932830656135
 20
14.02214486409909
 30
0.0
 11
4.22161105549524
 21
14.10884084630521
 31
0.0
  0
LINE
  5
196
330
2
100
AcDbEntity
  8
0
100
AcDbLine
 10
4.22161105549524
 20
14.10884084630521
 30
0.0
 11
4.119377917000988
 21
13.94855046431968
 31
0.0
  0
LINE
  5
197
330
2
100
AcDbEntity
  8
0
100
AcDbLine
 10
4.119377917000988
 20
13.94855046431968
 30
0.0
 11
4.115398073050398
 21
13.94740573753589
 31
0.0
  0
LINE
  5
198
330
2
100
AcDbEntity
  8
0
100
AcDbLine
 10
4.115398073050398
 20
13.94740573753589
 30
0.0
 11
3.92513215265286
 21
14.02295917534232
 31
0.0
  0
LINE
  5
199
330
2
100
AcDbEntity
  8
0
100
AcDbLine
 10
3.92513215265286
 20
14.02295917534232
 30
0.0
 11
3.831983306935229
 21
13.85470279267658
 31
0.0
  0
LINE
  5
19A
330
2
100
AcDbEntity
  8
0
100
AcDbLine
 10
3.831983306935229
 20
13.85470279267658
 30
0.0
 11
3.828111414135316
 21
13.85329341964996
 31
0.0
  0
LINE
  5
19B
330
2
100
AcDbEntity
  8
0
100
AcDbLine
 10
3.828111414135316
 20
13.85329341964996
 30
0.0
 11
3.636481756636192
 21
13.91746794372497
 31
0.0
  0
LINE
  5
19C
330
2
100
AcDbEntity
  8
0
100
AcDbLine
 10
3.636481756636192
 20
13.91746794372497
 30
0.0
 11
3.552667267720924
 21
13.74175971839039
 31
0.0
  0
LINE
  5
19D
330
2
100
AcDbEntity
  8
0
100
AcDbLine
 10
3.552667267720924
 20
13.74175971839039
 30
0.0
 11
3.548936121314695
 21
13.74008023329899
 31
0.0
  0
LINE
  5
19E
330
2
100
AcDbEntity
  8
0
100
AcDbLine
 10
3.548936121314695
 20
13.74008023329899
 30
0.0
 11
3.356494097403901
 21
13.79269545989828
 31
0.0
  0
LINE
  5
19F
330
2
100
AcDbEntity
  8
0
100
AcDbLine
 10
3.356494097403901
 20
13.79269545989828
 30
0.0
 11
3.28229614126723
 21
13.61004196184131
 31
0.0
  0
LINE
  5
1A0
330
2
100
AcDbEntity
  8
0
100
AcDbLine
 10
3.28229614126723
 20
13.61004196184131
 30
0.0
 11
3.278672262770973
 21
13.60811935245983
 31
0.0
  0
LINE
  5
1A1
330
2
100
AcDbEntity
  8
0
100
AcDbLine
 10
3.278672262770973
 20
13.60811935245983
 30
0.0
 11
3.086009553925667
 21
13.64901327261012
 31
0.0
  0
LINE
  5
1A2
330
2
100
AcDbEntity
  8
0
100
AcDbLine
 10
3.086009553925667
 20
13.64901327261012
 30
0.0
 11
3.021629001728885
 21
13.45997278709735
 31
0.0
  0
LINE
  5
1A3
330
2
100
AcDbEntity
  8
0
100
AcDbLine
 10
3.021629001728885
 20
13.45997278709735
 30
0.0
 11
3.018145869626281
 21
13.4578019291983
 31
0.0
  0
LINE
  5
1A4
330
2
100
AcDbEntity
  8
0
100
AcDbLine
 10
3.018145869626281
 20
13.4578019291983
 30
0.0
 11
2.825845275349906
 21
13.48684334496477
 31
0.0
  0
LINE
  5
1A5
330
2
100
AcDbEntity
  8
0
100
AcDbLine
 10
2.825845275349906
 20
13.48684334496477
 30
0.0
 11
2.771446103515283
 21
13.2919943092585
 31
0.0
  0
LINE
  5
1A6
330
2
100
AcDbEntity
  8
0
100
AcDbLine
 10
2.771446103515283
 20
13.2919943092585
 30
0.0
 11
2.768113966365194
 21
13.28958032701751
 31
0.0
  0
LINE
  5
1A7
330
2
100
AcDbEntity
  8
0
100
AcDbLine
 10
2.768113966365194
 20
13.28958032701751
 30
0.0
 11
2.576750770513315
 21
13.30668627079608
 31
0.0
  0
LINE
  5
1A8
330
2
100
AcDbEntity
  8
0
100
AcDbLine
 10
2.576750770513315
 20
13.30668627079608
 30
0.0
 11
2.532545465086838
 21
13.10658586927953
 31
0.0
  0
LINE
  5
1A9
330
2
100
AcDbEntity
  8
0
100
AcDbLine
 10
2.532545465086838
 20
13.10658586927953
 30
0.0
 11
2.529354074330374
 21
13.10394550201625
 31
0.0
  0
LINE
  5
1AA
330
2
100
AcDbEntity
  8
0
100
AcDbLine
 10
2.529354074330374
 20
13.10394550201625
 30
0.0
 11
2.339493312303518
 21
13.10906313384493
 31
0.0
  0
LINE
  5
1AB
330
2
100
AcDbEntity
  8
0
100
AcDbLine
 10
2.339493312303518
 20
13.10906313384493
 30
0.0
 11
2.305589141143291
 21
12.90432013176238
 31
0.0
  0
LINE
  5
1AC
330
2
100
AcDbEntity
  8
0
100
AcDbLine
 10
2.305589141143291
 20
12.90432013176238
 30
0.0
 11
2.302571292127195
 21
12.90145126070951
 31
0.0
  0
LINE
  5
1AD
330
2
100
AcDbEntity
  8
0
100
AcDbLine
 10
2.302571292127195
 20
12.90145126070951
 30
0.0
 11
2.11476775071519
 21
12.89457460442381
 31
0.0
  0
LINE
  5
1AE
330
2
100
AcDbEntity
  8
0
100
AcDbLine
 10
2.11476775071519
 20
12.89457460442381
 30
0.0
 11
2.091275397986728
 21
12.68579434718465
 31
0.0
  0
LINE
  5
1AF
330
2
100
AcDbEntity
  8
0
100
AcDbLine
 10
2.091275397986728
 20
12.68579434718465
 30
0.0
 11
2.088441339114197
 21
12.68270544383194
 31
0.0
  0
LINE
  5
1B0
330
2
100
AcDbEntity
  8
0
100
AcDbLine
 10
2.088441339114197
 20
12.68270544383194
 30
0.0
 11
1.903258687236162
 21
12.66385304715288
 31
0.0
  0
LINE
  5
1B1
330
2
100
AcDbEntity
  8
0
100
AcDbLine
 10
1.903258687236162
 20
12.66385304715288
 30
0.0
 11
1.890247159628827
 21
12.45165864100139
 31
0.0
  0
LINE
  5
1B2
330
2
100
AcDbEntity
  8
0
100
AcDbLine
 10
1.890247159628827
 20
12.45165864100139
 30
0.0
 11
1.887585276015224
 21
12.44836910843059
 31
0.0
  0
LINE
  5
1B3
330
2
100
AcDbEntity
  8
0
100
AcDbLine
 10
1.887585276015224
 20
12.44836910843059
 30
0.0
 11
1.705574884309328
 21
12.41759531646238
 31
0.0
  0
LINE
  5
1B4
330
2
100
AcDbEntity
  8
0
100
AcDbLine
 10
1.705574884309328
 20
12.41759531646238
 30
0.0
 11
1.703091325017324
 21
12.20261567147987
 31
0.0
  0
LINE
  5
1B5
330
2
100
AcDbEntity
  8
0
100
AcDbLine
 10
1.703091325017324
 20
12.20261567147987
 30
0.0
 11
1.700634411905596
 21
12.19912339102745
 31
0.0
  0
LINE
  5
1B6
330
2
100
AcDbEntity
  8
0
100
AcDbLine
 10
1.700634411905596
 20
12.19912339102745
 30
0.0
 11
1.522331936629269
 21
12.15652667955331
 31
0.0
  0
LINE
  5
1B7
330
2
100
AcDbEntity
  8
0
100
AcDbLine
 10
1.522331936629269
 20
12.15652667955331
 30
0.0
 11
1.530359264790387
 21
11.93941905665341
 31
0.0
  0
LINE
  5
1B8
330
2
100
AcDbEntity
  8
0
100
AcDbLine
 10
1.530359264790387
 20
11.93941905665341
 30
0.0
 11
1.528116204257956
 21
11.93572846935807
 31
0.0
  0
LINE
  5
1B9
330
2
100
AcDbEntity
  8
0
100
AcDbLine
 10
1.528116204257956
 20
11.93572846935807
 30
0.0
 11
1.35406345078305
 21
11.88143381877566
 31
0.0
  0
LINE
  5
1BA
330
2
100
AcDbEntity
  8
0
100
AcDbLine
 10
1.35406345078305
 20
11.88143381877566
 30
0.0
 11
1.372605082600936
 21
11.66282534754685
 31
0.0
  0
LINE
  5
1BB
330
2
100
AcDbEntity
  8
0
100
AcDbLine
 10
1.372605082600936
 20
11.66282534754685
 30
0.0
 11
1.370543079301057
 21
11.65897382425298
 31
0.0
  0
LINE
  5
1BC
330
2
100
AcDbEntity
  8
0
100
AcDbLine
 10
1.370543079301057
 20
11.65897382425298
 30
0.0
 11
1.20128390266979
 21
11.59312732274572
 31
0.0
  0
LINE
  5
1BD
330
2
100
AcDbEntity
  8
0
100
AcDbLine
 10
1.20128390266979
 20
11.59312732274572
 30
0.0
 11
1.230256483451809
 21
11.37369076802707
 31
0.0
  0
LINE
  5
1BE
330
2
100
AcDbEntity
  8
0
100
AcDbLine
 10
1.230256483451809
 20
11.37369076802707
 30
0.0
 11
1.228428146556228
 21
11.36966423333278
 31
0.0
  0
LINE
  5
1BF
330
2
100
AcDbEntity
  8
0
100
AcDbLine
 10
1.228428146556228
 20
11.36966423333278
 30
0.0
 11
1.064423730410846
 21
11.29248151760392
 31
0.0
  0
LINE
  5
1C0
330
2
100
AcDbEntity
  8
0
100
AcDbLine
 10
1.064423730410846
 20
11.29248151760392
 30
0.0
 11
1.103760986378528
 21
11.07286115178439
 31
0.0
  0
LINE
  5
1C1
330
2
100
AcDbEntity
  8
0
100
AcDbLine
 10
1.103760986378528
 20
11.07286115178439
 30
0.0
 11
1.102154017658223
 21
11.06868201449105
 31
0.0
  0
LINE
  5
1C2
330
2
100
AcDbEntity
  8
0
100
AcDbLine
 10
1.102154017658223
 20
11.06868201449105
 30
0.0
 11
0.9439318194193539
 21
10.98037639181383
 31
0.0
  0
LINE
  5
1C3
330
2
100
AcDbEntity
  8
0
100
AcDbLine
 10
0.9439318194193539
 20
10.98037639181383
 30
0.0
 11
0.993500519723157
 21
10.76123343026176
 31
0.0
  0
LINE
  5
1C4
330
2
100
AcDbEntity
  8
0
100
AcDbLine
 10
0.993500519723157
 20
10.76123343026176
 30
0.0
 11
0.9921019376564162
 21
10.75692041026231
 31
0.0
  0
LINE
  5
1C5
330
2
100
AcDbEntity
  8
0
100
AcDbLine
 10
0.9921019376564162
 20
10.75692041026231
 30
0.0
 11
0.8401238242589656
 21
10.65776476062788
 31
0.0
  0
LINE
  5
1C6
330
2
100
AcDbEntity
  8
0
100
AcDbLine
 10
0.8401238242589656
 20
10.65776476062788
 30
0.0
 11
0.8997880051382765
 21
10.43974723010645
 31
0.0
  0
LINE
  5
1C7
330
2
100
AcDbEntity
  8
0
100
AcDbLine
 10
0.8997880051382765
 20
10.43974723010645
 30
0.0
 11
0.898606691802491
 21
10.43531146275642
 31
0.0
  0
LINE
  5
1C8
330
2
100
AcDbEntity
  8
0
100
AcDbLine
 10
0.898606691802491
 20
10.43531146275642
 30
0.0
 11
0.7533317971146915
 21
10.32559403525911
 31
0.0
  0
LINE
  5
1C9
330
2
100
AcDbEntity
  8
0
100
AcDbLine
 10
0.7533317971146915
 20
10.32559403525911
 30
0.0
 11
0.822907668374076
 21
10.10935795428472
 31
0.0
  0
LINE
  5
1CA
330
2
100
AcDbEntity
  8
0
100
AcDbLine
 10
0.822907668374076
 20
10.10935795428472
 30
0.0
 11
0.821973002860564
 21
10.1047989599513
 31
0.0
  0
LINE
  5
1CB
330
2
100
AcDbEntity
  8
0
100
AcDbLine
 10
0.821973002860564
 20
10.1047989599513
 30
0.0
 11
0.6837928205943556
 21
9.984873245781384
 31
0.0
  0
LINE
  5
1CC
330
2
100
AcDbEntity
  8
0
100
AcDbLine
 10
0.6837928205943556
 20
9.984873245781384
 30
0.0
 11
0.7630945422644549
 21
9.771051744591835
 31
0.0
  0
LINE
  5
1CD
330
2
100
AcDbEntity
  8
0
100
AcDbLine
 10
0.7630945422644549
 20
9.771051744591835
 30
0.0
 11
0.7623921766738294
 21
9.766390907137582
 31
0.0
  0
LINE
  5
1CE
330
2
100
AcDbEntity
  8
0
100
AcDbLine
 10
0.7623921766738294
 20
9.766390907137582
 30
0.0
 11
0.631759008342198
 21
9.636591946562385
 31
0.0
  0
LINE
  5
1CF
330
2
100
AcDbEntity
  8
0
100
AcDbLine
 10
0.631759008342198
 20
9.636591946562385
 30
0.0
 11
0.720505770824482
 21
9.425842955357783
 31
0.0
  0
LINE
  5
1D0
330
2
100
AcDbEntity
  8
0
100
AcDbLine
 10
0.720505770824482
 20
9.425842955357783
 30
0.0
 11
0.7200439039934286
 21
9.421094415598471
 31
0.0
  0
LINE
  5
1D1
330
2
100
AcDbEntity
  8
0
100
AcDbLine
 10
0.7200439039934286
 20
9.421094415598471
 30
0.0
 11
0.5973601750561015
 21
9.281802815194593
 31
0.0
  0
LINE
  5
1D2
330
2
100
AcDbEntity
  8
0
100
AcDbLine
 10
0.5973601750561015
 20
9.281802815194593
 30
0.0
 11
0.695313529365012
 21
9.074743201102185
 31
0.0
  0
LINE
  5
1D3
330
2
100
AcDbEntity
  8
0
100
AcDbLine
 10
0.695313529365012
 20
9.074743201102185
 30
0.0
 11
0.6950989935969081
 21
9.069917069506356
 31
0.0
  0
LINE
  5
1D4
330
2
100
AcDbEntity
  8
0
100
AcDbLine
 10
0.6950989935969081
 20
9.069917069506356
 30
0.0
 11
0.580671476591927
 21
8.921576493557578
 31
0.0
  0
LINE
  5
1D5
330
2
100
AcDbEntity
  8
0
100
AcDbLine
 10
0.580671476591927
 20
8.921576493557578
 30
0.0
 11
0.687565644320924
 21
8.718816153155339
 31
0.0
  0
LINE
  5
1D6
330
2
100
AcDbEntity
  8
0
100
AcDbLine
 10
0.687565644320924
 20
8.718816153155339
 30
0.0
 11
0.6875601784470895
 21
8.713943720549904
 31
0.0
  0
LINE
  5
1D7
330
2
100
AcDbEntity
  8
0
100
AcDbLine
 10
0.6875601784470895
 20
8.713943720549904
 30
0.0
 11
0.5817981311375586
 21
8.556966535458228
 31
0.0
  0
LINE
  5
1D8
330
2
100
AcDbEntity
  8
0
100
AcDbLine
 10
0.5817981311375586
 20
8.556966535458228
 30
0.0
 11
0.6972750971101352
 21
8.359124796286948
 31
0.0
  0
LINE
  5
1D9
330
2
100
AcDbEntity
  8
0
100
AcDbLine
 10
0.6972750971101352
 20
8.359124796286948
 30
0.0
 11
0.6975292605283301
 21
8.354197656803627
 31
0.0
  0
LINE
  5
1DA
330
2
100
AcDbEntity
  8
0
100
AcDbLine
 10
0.6975292605283301
 20
8.354197656803627
 30
0.0
 11
0.6006998278021999
 21
8.189076436637385
 31
0.0
  0
LINE
  5
1DB
330
2
100
AcDbEntity
  8
0
100
AcDbLine
 10
0.6006998278021999
 20
8.189076436637385
 30
0.0
 11
0.7244179745670595
 21
7.996740445034879
 31
0.0
  0
LINE
  5
1DC
330
2
100
AcDbEntity
  8
0
100
AcDbLine
 10
0.7244179745670595
 20
7.996740445034879
 30
0.0
 11
0.7249153696557802
 21
7.991782304807578
 31
0.0
  0
LINE
  5
1DD
330
2
100
AcDbEntity
  8
0
100
AcDbLine
 10
0.7249153696557802
 20
7.991782304807578
 30
0.0
 11
0.6373389887097448
 21
7.818994109438617
 31
0.0
  0
LINE
  5
1DE
330
2
100
AcDbEntity
  8
0
100
AcDbLine
 10
0.6373389887097448
 20
7.818994109438617
 30
0.0
 11
0.7689327854425611
 21
7.632739055108054
 31
0.0
  0
LINE
  5
1DF
330
2
100
AcDbEntity
  8
0
100
AcDbLine
 10
0.7689327854425611
 20
7.632739055108054
 30
0.0
 11
0.7696556480989229
 21
7.627772937081869
 31
0.0
  0
LINE
  5
1E0
330
2
100
AcDbEntity
  8
0
100
AcDbLine
 10
0.7696556480989229
 20
7.627772937081869
 30
0.0
 11
0.6915755506035079
 21
7.447838549793279
 31
0.0
  0
LINE
  5
1E1
330
2
100
AcDbEntity
  8
0
100
AcDbLine
 10
0.6915755506035079
 20
7.447838549793279
 30
0.0
 11
0.8306521372664754
 21
7.268219263566027
 31
0.0
  0
LINE
  5
1E2
330
2
100
AcDbEntity
  8
0
100
AcDbLine
 10
0.8306521372664754
 20
7.268219263566027
 30
0.0
 11
0.8316264303782102
 21
7.263242979928524
 31
0.0
  0
LINE
  5
1E3
330
2
100
AcDbEntity
  8
0
100
AcDbLine
 10
0.8316264303782102
 20
7.263242979928524
 30
0.0
 11
0.7632721833453192
 21
7.076706476125949
 31
0.0
  0
LINE
  5
1E4
330
2
100
AcDbEntity
  8
0
100
AcDbLine
 10
0.7632721833453192
 20
7.076706476125949
 30
0.0
 11
0.9094332338711051
 21
6.904253192219615
 31
0.0
  0
LINE
  5
1E5
330
2
100
AcDbEntity
  8
0
100
AcDbLine
 10
0.9094332338711051
 20
6.904253192219615
 30
0.0
 11
0.9106200130806957
 21
6.899301039361756
 31
0.0
  0
LINE
  5
1E6
330
2
100
AcDbEntity
  8
0
100
AcDbLine
 10
0.9106200130806957
 20
6.899301039361756
 30
0.0
 11
0.8522273325330647
 21
6.706697746936145
 31
0.0
  0
LINE
  5
1E7
330
2
100
AcDbEntity
  8
0
100
AcDbLine
 10
0.8522273325330647
 20
6.706697746936145
 30
0.0
 11
1.005007563887088
 21
6.541937559545354
 31
0.0
  0
LINE
  5
1E8
330
2
100
AcDbEntity
  8
0
100
AcDbLine
 10
1.005007563887088
 20
6.541937559545354
 30
0.0
 11
1.006431425652664
 21
6.537013360730884
 31
0.0
  0
LINE
  5
1E9
330
2
100
AcDbEntity
  8
0
100
AcDbLine
 10
1.006431425652664
 20
6.537013360730884
 30
0.0
 11
0.9581321759584252
 21
6.338940912942807
 31
0.0
  0
LINE
  5
1EA
330
2
100
AcDbEntity
  8
0
100
AcDbLine
 10
0.9581321759584252
 20
6.338940912942807
 30
0.0
 11
1.117127113010681
 21
6.182340519048834
 31
0.0
  0
LINE
  5
1EB
330
2
100
AcDbEntity
  8
0
100
AcDbLine
 10
1.117127113010681
 20
6.182340519048834
 30
0.0
 11
1.118768243507213
 21
6.177462925229253
 31
0.0
  0
LINE
  5
1EC
330
2
100
AcDbEntity
  8
0
100
AcDbLine
 10
1.118768243507213
 20
6.177462925229253
 30
0.0
 11
1.080720935214831
 21
5.974508634415289
 31
0.0
  0
LINE
  5
1ED
330
2
100
AcDbEntity
  8
0
100
AcDbLine
 10
1.080720935214831
 20
5.974508634415289
 30
0.0
 11
1.245392871985803
 21
5.826564044417499
 31
0.0
  0
LINE
  5
1EE
330
2
100
AcDbEntity
  8
0
100
AcDbLine
 10
1.245392871985803
 20
5.826564044417499
 30
0.0
 11
1.247254004176142
 21
5.821744463549559
 31
0.0
  0
LINE
  5
1EF
330
2
100
AcDbEntity
  8
0
100
AcDbLine
 10
1.247254004176142
 20
5.821744463549559
 30
0.0
 11
1.219599383731139
 21
5.614500148602688
 31
0.0
  0
LINE
  5
1F0
330
2
100
AcDbEntity
  8
0
100
AcDbLine
 10
1.219599383731139
 20
5.614500148602688
 30
0.0
 11
1.38949670184484
 21
5.475637752015333
 31
0.0
  0
LINE
  5
1F1
330
2
100
AcDbEntity
  8
0
100
AcDbLine
 10
1.38949670184484
 20
5.475637752015333
 30
0.0
 11
1.391555972181838
 21
5.470897157321983
 31
0.0
  0
LINE
  5
1F2
330
2
100
AcDbEntity
  8
0
100
AcDbLine
 10
1.391555972181838
 20
5.470897157321983
 30
0.0
 11
1.374348015081765
 21
5.259990230806683
 31
0.0
  0
LINE
  5
1F3
330
2
100
AcDbEntity
  8
0
100
AcDbLine
 10
1.374348015081765
 20
5.259990230806683
 30
0.0
 11
1.548950089576432
 21
5.130628905179305
 31
0.0
  0
LINE
  5
1F4
330
2
100
AcDbEntity
  8
0
100
AcDbLine
 10
1.548950089576432
 20
5.130628905179305
 30
0.0
 11
1.551232094518249
 21
5.12597111992432
 31
0.0
  0
LINE
  5
1F5
330
2
100
AcDbEntity
  8
0
100
AcDbLine
 10
1.551232094518249
 20
5.12597111992432
 30
0.0
 11
1.544526826086511
 21
4.912031585854032
 31
0.0
  0
LINE
  5
1F6
330
2
100
AcDbEntity
  8
0
100
AcDbLine
 10
1.544526826086511
 20
4.912031585854032
 30
0.0
 11
1.723313031741098
 21
4.792558303558025
 31
0.0
  0
LINE
  5
1F7
330
2
100
AcDbEntity
  8
0
100
AcDbLine
 10
1.723313031741098
 20
4.792558303558025
 30
0.0
 11
1.725795907792396
 21
4.787997606751265
 31
0.0
  0
LINE
  5
1F8
330
2
100
AcDbEntity
  8
0
100
AcDbLine
 10
1.725795907792396
 20
4.787997606751265
 30
0.0
 11
1.729605626206204
 21
4.571672204983437
 31
0.0
  0
LINE
  5
1F9
330
2
100
AcDbEntity
  8
0
100
AcDbLine
 10
1.729605626206204
 20
4.571672204983437
 30
0.0
 11
1.912055338059008
 21
4.462435339206545
 31
0.0
  0
LINE
  5
1FA
330
2
100
AcDbEntity
  8
0
100
AcDbLine
 10
1.912055338059008
 20
4.462435339206545
 30
0.0
 11
1.91473908516789
 21
4.457985119377895
 31
0.0
  0
LINE
  5
1FB
330
2
100
AcDbEntity
  8
0
100
AcDbLine
 10
1.91473908516789
 20
4.457985119377895
 30
0.0
 11
1.929056958175765
 21
4.239914371506627
 31
0.0
  0
LINE
  5
1FC
330
2
100
AcDbEntity
  8
0
100
AcDbLine
 10
1.929056958175765
 20
4.239914371506627
 30
0.0
 11
2.1146065072558
 21
4.14124924839717
 31
0.0
  0
LINE
  5
1FD
330
2
100
AcDbEntity
  8
0
100
AcDbLine
 10
2.1146065072558
 20
4.14124924839717
 30
0.0
 11
2.117466529016063
 21
4.136932459498553
 31
0.0
  0
LINE
  5
1FE
330
2
100
AcDbEntity
  8
0
100
AcDbLine
 10
2.117466529016063
 20
4.136932459498553
 30
0.0
 11
2.142260444460097
 21
3.917760983190246
 31
0.0
  0
LINE
  5
1FF
330
2
100
AcDbEntity
  8
0
100
AcDbLine
 10
2.142260444460097
 20
3.917760983190246
 30
0.0
 11
2.33037007511754
 21
3.82995442269666
 31
0.0
  0
LINE
  5
200
330
2
100
AcDbEntity
  8
0
100
AcDbLine
 10
2.33037007511754
 20
3.82995442269666
 30
0.0
 11
2.333405688288419
 21
3.825780764557085
 31
0.0
  0
LINE
  5
201
330
2
100
AcDbEntity
  8
0
100
AcDbLine
 10
2.333405688288419
 20
3.825780764557085
 30
0.0
 11
2.368597074212962
 21
3.606161852316433
 31
0.0
  0
LINE
  5
202
330
2
100
AcDbEntity
  8
0
100
AcDbLine
 10
2.368597074212962
 20
3.606161852316433
 30
0.0
 11
2.55870790026559
 21
3.529477720539056
 31
0.0
  0
LINE
  5
203
330
2
100
AcDbEntity
  8
0
100
AcDbLine
 10
2.55870790026559
 20
3.529477720539056
 30
0.0
 11
2.561895191577791
 21
3.525463794387849
 31
0.0
  0
LINE
  5
204
330
2
100
AcDbEntity
  8
0
100
AcDbLine
 10
2.561895191577791
 20
3.525463794387849
 30
0.0
 11
2.607382929135485
 21
3.306056201221596
 31
0.0
  0
LINE
  5
205
330
2
100
AcDbEntity
  8
0
100
AcDbLine
 10
2.607382929135485
 20
3.306056201221596
 30
0.0
 11
2.798917616953718
 21
3.240725710427965
 31
0.0
  0
LINE
  5
206
330
2
100
AcDbEntity
  8
0
100
AcDbLine
 10
2.798917616953718
 20
3.240725710427965
 30
0.0
 11
2.802253853548099
 21
3.236883538417481
 31
0.0
  0
LINE
  5
207
330
2
100
AcDbEntity
  8
0
100
AcDbLine
 10
2.802253853548099
 20
3.236883538417481
 30
0.0
 11
2.857912227537219
 21
3.018333721051335
 31
0.0
  0
LINE
  5
208
330
2
100
AcDbEntity
  8
0
100
AcDbLine
 10
2.857912227537219
 20
3.018333721051335
 30
0.0
 11
3.050296176454243
 21
2.96455419786144
 31
0.0
  0
LINE
  5
209
330
2
100
AcDbEntity
  8
0
100
AcDbLine
 10
3.050296176454243
 20
2.96455419786144
 30
0.0
 11
3.05377862536801
 21
2.960889107827124
 31
0.0
  0
LINE
  5
20A
330
2
100
AcDbEntity
  8
0
100
AcDbLine
 10
3.05377862536801
 20
2.960889107827124
 30
0.0
 11
3.119412230552911
 21
2.743865793697922
 31
0.0
  0
LINE
  5
20B
330
2
100
AcDbEntity
  8
0
100
AcDbLine
 10
3.119412230552911
 20
2.743865793697922
 30
0.0
 11
3.312079722031257
 21
2.701797059376415
 31
0.0
  0
LINE
  5
20C
330
2
100
AcDbEntity
  8
0
100
AcDbLine
 10
3.312079722031257
 20
2.701797059376415
 30
0.0
 11
3.315725464074721
 21
2.698305769625621
 31
0.0
  0
LINE
  5
20D
330
2
100
AcDbEntity
  8
0
100
AcDbLine
 10
3.315725464074721
 20
2.698305769625621
 30
0.0
 11
3.391135479067979
 21
2.483454114599077
 31
0.0
  0
LINE
  5
20E
330
2
100
AcDbEntity
  8
0
100
AcDbLine
 10
3.391135479067979
 20
2.483454114599077
 30
0.0
 11
3.583504396844969
 21
2.453221014202714
 31
0.0
  0
LINE
  5
20F
330
2
100
AcDbEntity
  8
0
100
AcDbLine
 10
3.583504396844969
 20
2.453221014202714
 30
0.0
 11
3.58726560563509
 21
2.449936727246051
 31
0.0
  0
LINE
  5
210
330
2
100
AcDbEntity
  8
0
100
AcDbLine
 10
3.58726560563509
 20
2.449936727246051
 30
0.0
 11
3.672271656444887
 21
2.237880772295379
 31
0.0
  0
LINE
  5
211
330
2
100
AcDbEntity
  8
0
100
AcDbLine
 10
3.672271656444887
 20
2.237880772295379
 30
0.0
 11
3.863767399853765
 21
2.219573309598816
 31
0.0
  0
LINE
  5
212
330
2
100
AcDbEntity
  8
0
100
AcDbLine
 10
3.863767399853765
 20
2.219573309598816
 30
0.0
 11
3.867639292653678
 21
2.21649698127819
 31
0.0
  0
LINE
  5
213
330
2
100
AcDbEntity
  8
0
100
AcDbLine
 10
3.867639292653678
 20
2.21649698127819
 30
0.0
 11
3.961946221730346
 21
2.007887482653823
 31
0.0
  0
LINE
  5
214
330
2
100
AcDbEntity
  8
0
100
AcDbLine
 10
3.961946221730346
 20
2.007887482653823
 30
0.0
 11
4.152005805144566
 21
2.001559522298625
 31
0.0
  0
LINE
  5
215
330
2
100
AcDbEntity
  8
0
100
AcDbLine
 10
4.152005805144566
 20
2.001559522298625
 30
0.0
 11
4.155982232943467
 21
1.998701466638622
 31
0.0
  0
LINE
  5
216
330
2
100
AcDbEntity
  8
0
100
AcDbLine
 10
4.155982232943467
 20
1.998701466638622
 30
0.0
 11
4.259334510335504
 21
1.794146751036685
 31
0.0
  0
LINE
  5
217
330
2
100
AcDbEntity
  8
0
100
AcDbLine
 10
4.259334510335504
 20
1.794146751036685
 30
0.0
 11
4.44738196665871
 21
1.799818889739719
 31
0.0
  0
LINE
  5
218
330
2
100
AcDbEntity
  8
0
100
AcDbLine
 10
4.44738196665871
 20
1.799818889739719
 30
0.0
 11
4.451457463530956
 21
1.797183068146238
 31
0.0
  0
LINE
  5
219
330
2
100
AcDbEntity
  8
0
100
AcDbLine
 10
4.451457463530956
 20
1.797183068146238
 30
0.0
 11
4.563529869408537
 21
1.597307038501468
 31
0.0
  0
LINE
  5
21A
330
2
100
AcDbEntity
  8
0
100
AcDbLine
 10
4.563529869408537
 20
1.597307038501468
 30
0.0
 11
4.749001529721699
 21
1.614964075803934
 31
0.0
  0
LINE
  5
21B
330
2
100
AcDbEntity
  8
0
100
AcDbLine
 10
4.749001529721699
 20
1.614964075803934
 30
0.0
 11
4.753148083005543
 21
1.612565039732346
 31
0.0
  0
LINE
  5
21C
330
2
100
AcDbEntity
  8
0
100
AcDbLine
 10
4.753148083005543
 20
1.612565039732346
 30
0.0
 11
4.873610614905746
 21
1.417957302848031
 31
0.0
  0
LINE
  5
21D
330
2
100
AcDbEntity
  8
0
100
AcDbLine
 10
4.873610614905746
 20
1.417957302848031
 30
0.0
 11
5.055979021788121
 21
1.447534986629352
 31
0.0
  0
LINE
  5
21E
330
2
100
AcDbEntity
  8
0
100
AcDbLine
 10
5.055979021788121
 20
1.447534986629352
 30
0.0
 11
5.060188432698775
 21
1.445378678162545
 31
0.0
  0
LINE
  5
21F
330
2
100
AcDbEntity
  8
0
100
AcDbLine
 10
5.060188432698775
 20
1.445378678162545
 30
0.0
 11
5.188685808356078
 21
1.256622895127785
 31
0.0
  0
LINE
  5
220
330
2
100
AcDbEntity
  8
0
100
AcDbLine
 10
5.188685808356078
 20
1.256622895127785
 30
0.0
 11
5.367370895267131
 21
1.298047618767876
 31
0.0
  0
LINE
  5
221
330
2
100
AcDbEntity
  8
0
100
AcDbLine
 10
5.367370895267131
 20
1.298047618767876
 30
0.0
 11
5.371637014690026
 21
1.29613765761358
 31
0.0
  0
LINE
  5
222
330
2
100
AcDbEntity
  8
0
100
AcDbLine
 10
5.371637014690026
 20
1.29613765761358
 30
0.0
 11
5.507785256040248
 21
1.11379310029847
 31
0.0
  0
LINE
  5
223
330
2
100
AcDbEntity
  8
0
100
AcDbLine
 10
5.507785256040248
 20
1.11379310029847
 30
0.0
 11
5.682269814066112
 21
1.166933665136191
 31
0.0
  0
LINE
  5
224
330
2
100
AcDbEntity
  8
0
100
AcDbLine
 10
5.682269814066112
 20
1.166933665136191
 30
0.0
 11
5.68658444316462
 21
1.16527599342922
 31
0.0
  0
LINE
  5
225
330
2
100
AcDbEntity
  8
0
100
AcDbLine
 10
5.68658444316462
 20
1.16527599342922
 30
0.0
 11
5.829953112190083
 21
0.9899005670668097
 31
0.0
  0
LINE
  5
226
330
2
100
AcDbEntity
  8
0
100
AcDbLine
 10
5.829953112190083
 20
0.9899005670668097
 30
0.0
 11
5.999734963608966
 21
1.05459134374682
 31
0.0
  0
LINE
  5
227
330
2
100
AcDbEntity
  8
0
100
AcDbLine
 10
5.999734963608966
 20
1.05459134374682
 30
0.0
 11
6.004068040051124
 21
1.05319614094895
 31
0.0
  0
LINE
  5
228
330
2
100
AcDbEntity
  8
0
100
AcDbLine
 10
6.004068040051124
 20
1.05319614094895
 30
0.0
 11
6.154267009469342
 21
0.8852922742823839
 31
0.0
  0
LINE
  5
229
330
2
100
AcDbEntity
  8
0
100
AcDbLine
 10
6.154267009469342
 20
0.8852922742823839
 30
0.0
 11
6.318798883035468
 21
0.961358689278045
 31
0.0
  0
LINE
  5
22A
330
2
100
AcDbEntity
  8
0
100
AcDbLine
 10
6.318798883035468
 20
0.961358689278045
 30
0.0
 11
6.32316338834287
 21
0.9602172769197652
 31
0.0
  0
LINE
  5
22B
330
2
100
AcDbEntity
  8
0
100
AcDbLine
 10
6.32316338834287
 20
0.9602172769197652
 30
0.0
 11
6.47971097749773
 21
0.8003038652550859
 31
0.0
  0
LINE
  5
22C
330
2
100
AcDbEntity
  8
0
100
AcDbLine
 10
6.47971097749773
 20
0.8003038652550859
 30
0.0
 11
6.638552869875356
 21
0.8874989256741102
 31
0.0
  0
LINE
  5
22D
330
2
100
AcDbEntity
  8
0
100
AcDbLine
 10
6.638552869875356
 20
0.8874989256741102
 30
0.0
 11
6.642896194876316
 21
0.8866354205289466
 31
0.0
  0
LINE
  5
22E
330
2
100
AcDbEntity
  8
0
100
AcDbLine
 10
6.642896194876316
 20
0.8866354205289466
 30
0.0
 11
6.805352400432102
 21
0.7351765659229982
 31
0.0
  0
LINE
  5
22F
330
2
100
AcDbEntity
  8
0
100
AcDbLine
 10
6.805352400432102
 20
0.7351765659229982
 30
0.0
 11
6.957999400936496
 21
0.8332462498092944
 31
0.0
  0
LINE
  5
230
330
2
100
AcDbEntity
  8
0
100
AcDbLine
 10
6.957999400936496
 20
0.8332462498092944
 30
0.0
 11
6.962333843860036
 21
0.8326516318133327
 31
0.0
  0
LINE
  5
231
330
2
100
AcDbEntity
  8
0
100
AcDbLine
 10
6.962333843860036
 20
0.8326516318133327
 30
0.0
 11
7.130212202527535
 21
0.6901000283662964
 31
0.0
  0
LINE
  5
232
330
2
100
AcDbEntity
  8
0
100
AcDbLine
 10
7.130212202527535
 20
0.6901000283662964
 30
0.0
 11
7.27620312751648
 21
0.7987617560034499
 31
0.0
  0
LINE
  5
233
330
2
100
AcDbEntity
  8
0
100
AcDbLine
 10
7.27620312751648
 20
0.7987617560034499
 30
0.0
 11
7.280519806337165
 21
0.7984349312764511
 31
0.0
  0
LINE
  5
234
330
2
100
AcDbEntity
  8
0
100
AcDbLine
 10
7.280519806337165
 20
0.7984349312764511
 30
0.0
 11
7.453309258317077
 21
0.6652209333322196
 31
0.0
  0
LINE
  5
235
330
2
100
AcDbEntity
  8
0
100
AcDbLine
 10
7.453309258317077
 20
0.6652209333322196
 30
0.0
 11
7.592209570276796
 21
0.7841467658818662
 31
0.0
  0
LINE
  5
236
330
2
100
AcDbEntity
  8
0
100
AcDbLine
 10
7.592209570276796
 20
0.7841467658818662
 30
0.0
 11
7.596498236487603
 21
0.7840859573028269
 31
0.0
  0
LINE
  5
237
330
2
100
AcDbEntity
  8
0
100
AcDbLine
 10
7.596498236487603
 20
0.7840859573028269
 30
0.0
 11
7.773665175192864
 21
0.6606152572812913
 31
0.0
  0
LINE
  5
238
330
2
100
AcDbEntity
  8
0
100
AcDbLine
 10
7.773665175192864
 20
0.6606152572812913
 30
0.0
 11
7.905066299652856
 21
0.7894482908771127
 31
0.0
  0
LINE
  5
239
330
2
100
AcDbEntity
  8
0
100
AcDbLine
 10
7.905066299652856
 20
0.7894482908771127
 30
0.0
 11
7.909316704695012
 21
0.7896517213250883
 31
0.0
  0
LINE
  5
23A
330
2
100
AcDbEntity
  8
0
100
AcDbLine
 10
7.909316704695012
 20
0.7896517213250883
 30
0.0
 11
8.090349387085616
 21
0.6762905220864263
 31
0.0
  0
LINE
  5
23B
330
2
100
AcDbEntity
  8
0
100
AcDbLine
 10
8.090349387085616
 20
0.6762905220864263
 30
0.0
 11
8.213869395652007
 21
0.8146385351634208
 31
0.0
  0
LINE
  5
23C
330
2
100
AcDbEntity
  8
0
100
AcDbLine
 10
8.213869395652007
 20
0.8146385351634208
 30
0.0
 11
8.218049427471372
 21
0.8151187064754017
 31
0.0
  0
LINE
  5
23D
330
2
100
AcDbEntity
  8
0
100
AcDbLine
 10
8.218049427471372
 20
0.8151187064754017
 30
0.0
 11
8.402414930304699
 21
0.7121924962487249
 31
0.0
  0
LINE
  5
23E
330
2
100
AcDbEntity
  8
0
100
AcDbLine
 10
8.402414930304699
 20
0.7121924962487249
 30
0.0
 11
8.517658229872978
 21
0.8596582155870841
 31
0.0
  0
LINE
  5
23F
330
2
100
AcDbEntity
  8
0
100
AcDbLine
 10
8.517658229872978
 20
0.8596582155870841
 30
0.0
 11
8.521778820269119
 21
0.8604020772999644
 31
0.0
  0
LINE
  5
240
330
2
100
AcDbEntity
  8
0
100
AcDbLine
 10
8.521778820269119
 20
0.8604020772999644
 30
0.0
 11
8.708923039892219
 21
0.7682257541611493
 31
0.0
  0
LINE
  5
241
330
2
100
AcDbEntity
  8
0
100
AcDbLine
 10
8.708923039892219
 20
0.7682257541611493
 30
0.0
 11
8.815567826836149
 21
0.9243564334230056
 31
0.0
  0
LINE
  5
242
330
2
100
AcDbEntity
  8
0
100
AcDbLine
 10
8.815567826836149
 20
0.9243564334230056
 30
0.0
 11
8.819596863703059
 21
0.9253697929532144
 31
0.0
  0
LINE
  5
243
330
2
100
AcDbEntity
  8
0
100
AcDbLine
 10
8.819596863703059
 20
0.9253697929532144
 30
0.0
 11
9.008945882741866
 21
0.8442215709537943
 31
0.0
  0
LINE
  5
244
330
2
100
AcDbEntity
  8
0
100
AcDbLine
 10
9.008945882741866
 20
0.8442215709537943
 30
0.0
 11
9.106679918597675
 21
1.008552510590257
 31
0.0
  0
LINE
  5
245
330
2
100
AcDbEntity
  8
0
100
AcDbLine
 10
9.106679918597675
 20
1.008552510590257
 30
0.0
 11
9.110607153480286
 21
1.00983024376213
 31
0.0
  0
LINE
  5
246
330
2
100
AcDbEntity
  8
0
100
AcDbLine
 10
9.110607153480286
 20
1.00983024376213
 30
0.0
 11
9.301634197650967
 21
0.9399396236182468
 31
0.0
  0
LINE
  5
247
330
2
100
AcDbEntity
  8
0
100
AcDbLine
 10
9.301634197650967
 20
0.9399396236182468
 30
0.0
 11
9.390134995603611
 21
1.111992738974286
 31
0.0
  0
LINE
  5
248
330
2
100
AcDbEntity
  8
0
100
AcDbLine
 10
9.390134995603611
 20
1.111992738974286
 30
0.0
 11
9.393948813461681
 21
1.113532385374246
 31
0.0
  0
LINE
  5
249
330
2
100
AcDbEntity
  8
0
100
AcDbLine
 10
9.393948813461681
 20
1.113532385374246
 30
0.0
 11
9.586044437184312
 21
1.05512299829173
 31
0.0
  0
LINE
  5
24A
330
2
100
AcDbEntity
  8
0
100
AcDbLine
 10
9.586044437184312
 20
1.05512299829173
 30
0.0
 11
9.6650899457141
 21
1.234362885531888
 31
0.0
  0
LINE
  5
24B
330
2
100
AcDbEntity
  8
0
100
AcDbLine
 10
9.6650899457141
 20
1.234362885531888
 30
0.0
 11
9.668780098040695
 21
1.236159320932401
 31
0.0
  0
LINE
  5
24C
330
2
100
AcDbEntity
  8
0
100
AcDbLine
 10
9.668780098040695
 20
1.236159320932401
 30
0.0
 11
9.861404545717322
 21
1.189388800311665
 31
0.0
  0
LINE
  5
24D
330
2
100
AcDbEntity
  8
0
100
AcDbLine
 10
9.861404545717322
 20
1.189388800311665
 30
0.0
 11
9.930720104392161
 21
1.375302605863946
 31
0.0
  0
LINE
  5
24E
330
2
100
AcDbEntity
  8
0
100
AcDbLine
 10
9.930720104392161
 20
1.375302605863946
 30
0.0
 11
9.934274976198908
 21
1.377350022744936
 31
0.0
  0
LINE
  5
24F
330
2
100
AcDbEntity
  8
0
100
AcDbLine
 10
9.934274976198908
 20
1.377350022744936
 30
0.0
 11
10.12683110037492
 21
1.342370950331373
 31
0.0
  0
LINE
  5
250
330
2
100
AcDbEntity
  8
0
100
AcDbLine
 10
10.12683110037492
 20
1.342370950331373
 30
0.0
 11
10.18622403692196
 21
1.53439444679444
 31
0.0
  0
LINE
  5
251
330
2
100
AcDbEntity
  8
0
100
AcDbLine
 10
10.18622403692196
 20
1.53439444679444
 30
0.0
 11
10.18963269640938
 21
1.536687379333912
 31
0.0
  0
LINE
  5
252
330
2
100
AcDbEntity
  8
0
100
AcDbLine
 10
10.18963269640938
 20
1.536687379333912
 30
0.0
 11
10.38155136234369
 21
1.513599186026397
 31
0.0
  0
LINE
  5
253
330
2
100
AcDbEntity
  8
0
100
AcDbLine
 10
10.38155136234369
 20
1.513599186026397
 30
0.0
 11
10.43086521598856
 21
1.711150999670952
 31
0.0
  0
LINE
  5
254
330
2
100
AcDbEntity
  8
0
100
AcDbLine
 10
10.43086521598856
 20
1.711150999670952
 30
0.0
 11
10.43411673140898
 21
1.713680634784803
 31
0.0
  0
LINE
  5
255
330
2
100
AcDbEntity
  8
0
100
AcDbLine
 10
10.43411673140898
 20
1.713680634784803
 30
0.0
 11
10.6248171892684
 21
1.702560208221721
 31
0.0
  0
LINE
  5
256
330
2
100
AcDbEntity
  8
0
100
AcDbLine
 10
10.6248171892684
 20
1.702560208221721
 30
0.0
 11
10.6638920829812
 21
1.905055690732643
 31
0.0
  0
LINE
  5
257
330
2
100
AcDbEntity
  8
0
100
AcDbLine
 10
10.6638920829812
 20
1.905055690732643
 30
0.0
 11
10.66697620582769
 21
1.907820251299902
 31
0.0
  0
LINE
  5
258
330
2
100
AcDbEntity
  8
0
100
AcDbLine
 10
10.66697620582769
 20
1.907820251299902
 30
0.0
 11
10.85588658796024
 21
1.908696932237207
 31
0.0
  0
LINE
  5
259
330
2
100
AcDbEntity
  8
0
100
AcDbLine
 10
10.85588658796024
 20
1.908696932237207
 30
0.0
 11
10.88460295560192
 21
2.115532991327575
 31
0.0
  0
LINE
  5
25A
330
2
100
AcDbEntity
  8
0
100
AcDbLine
 10
10.88460295560192
 20
2.115532991327575
 30
0.0
 11
10.88753027602766
 21
2.11850921463857
 31
0.0
  0
LINE
  5
25B
330
2
100
AcDbEntity
  8
0
100
AcDbLine
 10
10.88753027602766
 20
2.11850921463857
 30
0.0
 11
11.07409169619924
 21
2.131380235305527
 31
0.0
  0
LINE
  5
25C
330
2
100
AcDbEntity
  8
0
100
AcDbLine
 10
11.07409169619924
 20
2.131380235305527
 30
0.0
 11
11.09234807737993
 21
2.34194944295528
 31
0.0
  0
LINE
  5
25D
330
2
100
AcDbEntity
  8
0
100
AcDbLine
 10
11.09234807737993
 20
2.34194944295528
 30
0.0
 11
11.09508682492524
 21
2.345143307301432
 31
0.0
  0
LINE
  5
25E
330
2
100
AcDbEntity
  8
0
100
AcDbLine
 10
11.09508682492524
 20
2.345143307301432
 30
0.0
 11
11.27875235348449
 21
2.369966584562498
 31
0.0
  0
LINE
  5
25F
330
2
100
AcDbEntity
  8
0
100
AcDbLine
 10
11.27875235348449
 20
2.369966584562498
 30
0.0
 11
11.28651253675763
 21
2.583626980175385
 31
0.0
  0
LINE
  5
260
330
2
100
AcDbEntity
  8
0
100
AcDbLine
 10
11.28651253675763
 20
2.583626980175385
 30
0.0
 11
11.28907364322207
 21
2.587018740724923
 31
0.0
  0
LINE
  5
261
330
2
100
AcDbEntity
  8
0
100
AcDbLine
 10
11.28907364322207
 20
2.587018740724923
 30
0.0
 11
11.46928883492166
 21
2.623721656534725
 31
0.0
  0
LINE
  5
262
330
2
100
AcDbEntity
  8
0
100
AcDbLine
 10
11.46928883492166
 20
2.623721656534725
 30
0.0
 11
11.46651592565197
 21
2.839846107046735
 31
0.0
  0
LINE
  5
263
330
2
100
AcDbEntity
  8
0
100
AcDbLine
 10
11.46651592565197
 20
2.839846107046735
 30
0.0
 11
11.46888948407109
 21
2.84342746323685
 31
0.0
  0
LINE
  5
264
330
2
100
AcDbEntity
  8
0
100
AcDbLine
 10
11.46888948407109
 20
2.84342746323685
 30
0.0
 11
11.6451159497427
 21
2.89190013375169
 31
0.0
  0
LINE
  5
265
330
2
100
AcDbEntity
  8
0
100
AcDbLine
 10
11.6451159497427
 20
2.89190013375169
 30
0.0
 11
11.6318383020825
 21
3.109833667839507
 31
0.0
  0
LINE
  5
266
330
2
100
AcDbEntity
  8
0
100
AcDbLine
 10
11.6318383020825
 20
3.109833667839507
 30
0.0
 11
11.63397033695881
 21
3.113614664569222
 31
0.0
  0
LINE
  5
267
330
2
100
AcDbEntity
  8
0
100
AcDbLine
 10
11.63397033695881
 20
3.113614664569222
 30
0.0
 11
11.80568642670186
 21
3.173713629366809
 31
0.0
  0
LINE
  5
268
330
2
100
AcDbEntity
  8
0
100
AcDbLine
 10
11.80568642670186
 20
3.173713629366809
 30
0.0
 11
11.78193376144057
 21
3.392807086547345
 31
0.0
  0
LINE
  5
269
330
2
100
AcDbEntity
  8
0
100
AcDbLine
 10
11.78193376144057
 20
3.392807086547345
 30
0.0
 11
11.78387995639936
 21
3.396749975117404
 31
0.0
  0
LINE
  5
26A
330
2
100
AcDbEntity
  8
0
100
AcDbLine
 10
11.78387995639936
 20
3.396749975117404
 30
0.0
 11
11.950560945704
 21
3.468296764782819
 31
0.0
  0
LINE
  5
26B
330
2
100
AcDbEntity
  8
0
100
AcDbLine
 10
11.950560945704
 20
3.468296764782819
 30
0.0
 11
11.91640773540501
 21
3.687898149935734
 31
0.0
  0
LINE
  5
26C
330
2
100
AcDbEntity
  8
0
100
AcDbLine
 10
11.91640773540501
 20
3.687898149935734
 30
0.0
 11
11.91813734482165
 21
3.691999379631726
 31
0.0
  0
LINE
  5
26D
330
2
100
AcDbEntity
  8
0
100
AcDbLine
 10
11.91813734482165
 20
3.691999379631726
 30
0.0
 11
12.07930018655042
 21
3.774779247837735
 31
0.0
  0
LINE
  5
26E
330
2
100
AcDbEntity
  8
0
100
AcDbLine
 10
12.07930018655042
 20
3.774779247837735
 30
0.0
 11
12.03482363679168
 21
3.994246407237596
 31
0.0
  0
LINE
  5
26F
330
2
100
AcDbEntity
  8
0
100
AcDbLine
 10
12.03482363679168
 20
3.994246407237596
 30
0.0
 11
12.03632743704624
 21
3.998494671880791
 31
0.0
  0
LINE
  5
270
330
2
100
AcDbEntity
  8
0
100
AcDbLine
 10
12.03632743704624
 20
3.998494671880791
 30
0.0
 11
12.19148771752836
 21
4.092258717578888
 31
0.0
  0
LINE
  5
271
330
2
100
AcDbEntity
  8
0
100
AcDbLine
 10
12.19148771752836
 20
4.092258717578888
 30
0.0
 11
12.13685556253015
 21
4.31091578257207
 31
0.0
  0
LINE
  5
272
330
2
100
AcDbEntity
  8
0
100
AcDbLine
 10
12.13685556253015
 20
4.31091578257207
 30
0.0
 11
12.13814653509245
 21
4.315292362217647
 31
0.0
  0
LINE
  5
273
330
2
100
AcDbEntity
  8
0
100
AcDbLine
 10
12.13814653509245
 20
4.315292362217647
 30
0.0
 11
12.28684443721896
 21
4.419762035986845
 31
0.0
  0
LINE
  5
274
330
2
100
AcDbEntity
  8
0
100
AcDbLine
 10
12.28684443721896
 20
4.419762035986845
 30
0.0
 11
12.22218307542364
 21
4.636978060672337
 31
0.0
  0
LINE
  5
275
330
2
100
AcDbEntity
  8
0
100
AcDbLine
 10
12.22218307542364
 20
4.636978060672337
 30
0.0
 11
12.2232311579617
 21
4.641483093410614
 31
0.0
  0
LINE
  5
276
330
2
100
AcDbEntity
  8
0
100
AcDbLine
 10
12.2232311579617
 20
4.641483093410614
 30
0.0
 11
12.36502941125592
 21
4.756335784196092
 31
0.0
  0
LINE
  5
277
330
2
100
AcDbEntity
  8
0
100
AcDbLine
 10
12.36502941125592
 20
4.756335784196092
 30
0.0
 11
12.29055713628157
 21
4.971450138247532
 31
0.0
  0
LINE
  5
278
330
2
100
AcDbEntity
  8
0
100
AcDbLine
 10
12.29055713628157
 20
4.971450138247532
 30
0.0
 11
12.29137667669472
 21
4.976062240164099
 31
0.0
  0
LINE
  5
279
330
2
100
AcDbEntity
  8
0
100
AcDbLine
 10
12.29137667669472
 20
4.976062240164099
 30
0.0
 11
12.42582058827527
 21
5.10097844783246
 31
0.0
  0
LINE
  5
27A
330
2
100
AcDbEntity
  8
0
100
AcDbLine
 10
12.42582058827527
 20
5.10097844783246
 30
0.0
 11
12.34178165662753
 21
5.313333440814311
 31
0.0
  0
LINE
  5
27B
330
2
100
AcDbEntity
  8
0
100
AcDbLine
 10
12.34178165662753
 20
5.313333440814311
 30
0.0
 11
12.34234259258373
 21
5.318049402840969
 31
0.0
  0
LINE
  5
27C
330
2
100
AcDbEntity
  8
0
100
AcDbLine
 10
12.34234259258373
 20
5.318049402840969
 30
0.0
 11
12.46907056040308
 21
5.452635246876698
 31
0.0
  0
LINE
  5
27D
330
2
100
AcDbEntity
  8
0
100
AcDbLine
 10
12.46907056040308
 20
5.452635246876698
 30
0.0
 11
12.37566943011439
 21
5.661622226942592
 31
0.0
  0
LINE
  5
27E
330
2
100
AcDbEntity
  8
0
100
AcDbLine
 10
12.37566943011439
 20
5.661622226942592
 30
0.0
 11
12.37600848552966
 21
5.66641333673273
 31
0.0
  0
LINE
  5
27F
330
2
100
AcDbEntity
  8
0
100
AcDbLine
 10
12.37600848552966
 20
5.66641333673273
 30
0.0
 11
12.49462132940472
 21
5.810276444771328
 31
0.0
  0
LINE
  5
280
330
2
100
AcDbEntity
  8
0
100
AcDbLine
 10
12.49462132940472
 20
5.810276444771328
 30
0.0
 11
12.39215435373491
 21
6.015263769810938
 31
0.0
  0
LINE
  5
281
330
2
100
AcDbEntity
  8
0
100
AcDbLine
 10
12.39215435373491
 20
6.015263769810938
 30
0.0
 11
12.39226503784847
 21
6.020116740612548
 31
0.0
  0
LINE
  5
282
330
2
100
AcDbEntity
  8
0
100
AcDbLine
 10
12.39226503784847
 20
6.020116740612548
 30
0.0
 11
12.50239381095883
 21
6.172834563107127
 31
0.0
  0
LWPOLYLINE
  5
283
330
2
100
AcDbEntity
  8
0
100
AcDbPolyline
 90
       30
 70
   128
 43
0.0
 10
7.962497668506698
 20
2.344235946568478
 10
7.373251195455035
 20
2.456140378098147
 10
6.786345485579606
 20
2.645611984194897
 10
6.209973893185916
 20
2.910013085894231
 10
5.652245051353646
 20
3.245625452171417
 10
5.120999765189454
 20
3.647735006901819
 10
4.62368939570632
 20
4.110690166184591
 10
4.1673007041751
 20
4.627999926933715
 10
3.75820417393154
 20
5.192414205787168
 10
3.402193637818775
 20
5.795988518363117
 10
3.10424304677591
 20
6.43025463594118
 10
2.868524917026508
 20
7.086321749077297
 10
2.698370019291085
 20
7.754966982032575
 10
2.596149862266647
 20
8.426811577681391
 10
2.563306071873553
 20
9.092419265862206
 10
2.6002977820838
 20
9.742451133053503
 10
2.706609833550089
 20
10.36777704513023
 10
2.880763705820456
 20
10.95961186593232
 10
3.120275156362222
 20
11.50967053791482
 10
3.42181956356932
 20
12.01020681236692
 10
3.78113490746309
 20
12.45421663244639
 10
4.193199410669487
 20
12.83544954124014
 10
4.652211724593762
 20
13.14856499386597
 10
5.151754222861687
 20
13.38915510807589
 10
5.684779336297715
 20
13.55386053790727
 10
6.243839803125594
 20
13.6403477233909
 10
6.821051432998148
 20
13.64742145361529
 10
7.408344537141373
 20
13.57497076003827
 10
7.997465294939416
 20
13.4240135407531
 10
8.454823838543646
 20
13.25227920680755
  0
LWPOLYLINE
  5
284
330
2
100
AcDbEntity
  8
0
100
AcDbPolyline
 90
        3
 70
   128
 43
0.0
 10
8.547909143393761
 20
13.21133220075771
 10
8.580128456963102
 20
13.19667384988037
 10
8.717424191570994
 20
13.131410066174
  0
LINE
  5
285
330
2
100
AcDbEntity
  8
0
100
AcDbLine
 10
8.943748523094749
 20
13.01368455439404
 30
0.0
 11
8.981693346058392
 21
12.99268439320673
 31
0.0
  0
LINE
  5
286
330
2
100
AcDbEntity
  8
0
100
AcDbLine
 10
12.47588907503621
 20
6.220591121618261
 30
0.0
 11
12.46350373227657
 21
6.118894820929814
 31
0.0
  0
LWPOLYLINE
  5
287
330
2
100
AcDbEntity
  8
0
100
AcDbPolyline
 90
       13
 70
   128
 43
0.0
 10
12.43532507056258
 20
5.928892171423123
 10
12.43157684329417
 20
5.906583179885013
 10
12.29110577400875
 20
5.296926220871926
 10
12.08392466274426
 20
4.724966748675802
 10
11.81292598490953
 20
4.198742995971242
 10
11.48191365155381
 20
3.725637084216582
 10
11.09554117621224
 20
3.31229211918108
 10
10.65922080518763
 20
2.964516548761505
 10
10.17911702632312
 20
2.687166686041694
 10
9.661920418504784
 20
2.484164815301055
 10
9.114902651994471
 20
2.358356911480862
 10
8.545772667530624
 20
2.311491151379238
 10
7.962497668506698
 20
2.344235946568478
  0
LINE
  5
288
330
2
100
AcDbEntity
  8
0
100
AcDbLine
 10
12.47935990890971
 20
6.560471022873215
 30
0.0
 11
12.48032327027377
 21
6.520030959852173
 31
0.0
  0
LINE
  5
289
330
2
100
AcDbEntity
  8
0
100
AcDbLine
 10
12.48012052026532
 20
6.21295704188029
 30
0.0
 11
12.47806979035939
 21
6.139116707917898
 31
0.0
  0
LWPOLYLINE
  5
28A
330
2
100
AcDbEntity
  8
0
100
AcDbPolyline
 90
        3
 70
   128
 43
0.0
 10
8.839265150066546
 20
13.01386780343338
 10
8.941891490296775
 20
12.96007873946207
 10
9.016947589609687
 20
12.91901646249226
  0
LINE
  5
28B
330
2
100
AcDbEntity
  8
0
100
AcDbLine
 10
9.230657694654563
 20
12.79392912416433
 30
0.0
 11
9.276486024880254
 21
12.76549113429051
 31
0.0
  0
LINE
  5
28C
330
2
100
AcDbEntity
  8
0
100
AcDbLine
 10
12.46104545268347
 20
6.590323720249052
 30
0.0
 11
12.45292008028411
 21
6.476473407861501
 31
0.0
  0
LINE
  5
28D
330
2
100
AcDbEntity
  8
0
100
AcDbLine
 10
12.28586399494078
 20
4.422995147586477
 30
0.0
 11
12.13814653509245
 21
4.315292362217647
 31
0.0
  0
LWPOLYLINE
  5
28E
330
2
100
AcDbEntity
  8
0
100
AcDbPolyline
 90
       62
 70
   128
 43
0.0
 10
12.04284908610573
 20
10.20735476884492
 10
12.37732123620166
 20
9.480178428003535
 10
12.64993038434589
 20
8.731545132222958
 10
12.85779660951568
 20
7.969385491134048
 10
12.99868855155252
 20
7.201793517471621
 10
13.07113879252336
 20
6.436892887594138
 10
13.0743341118491
 20
5.682812621828393
 10
13.0083050843829
 20
4.947516387845191
 10
12.87369548830426
 20
4.238820380546164
 10
12.6719638595206
 20
3.564230170292649
 10
12.40522856819781
 20
2.930898921576667
 10
12.07632879743593
 20
2.345541870383911
 10
11.6887729590883
 20
1.814343588856761
 10
11.24663586678645
 20
1.342960340454261
 10
10.75459084794241
 20
0.9363884332500038
 10
10.21791042719672
 20
0.5989157065212721
 10
9.642233001557
 20
0.3341396108725109
 10
9.033669424963111
 20
0.1448656751170445
 10
8.398700864760648
 20
0.0330867731816879
 10
7.744023707303873
 20
-0.000000274974871
 10
7.076599434164891
 20
0.0459443474265583
 10
6.403484496648601
 20
0.1704511386992502
 10
5.73183919761062
 20
0.3721767822921437
 10
5.06876098243545
 20
0.6490037466966287
 10
4.421281705866033
 20
0.9979884980721964
 10
3.79627197923782
 20
1.415434385083396
 10
3.200360548593377
 20
1.896908443788732
 10
2.639849573819585
 20
2.437319748714384
 10
2.12068661562308
 20
3.03093218355733
 10
1.648368982971287
 20
3.671459190295336
 10
1.227932117948947
 20
4.352098126893576
 10
0.8637951846016605
 20
5.06564783948705
 10
0.559849889502531
 20
5.804532561124757
 10
0.3192855738415109
 20
6.560936226280259
 10
0.1446753005619976
 20
7.326825003633627
 10
0.0378679036772652
 20
8.09408809750378
 10
-0.0000003970009443
 20
8.854583721166328
 10
0.0314584759840614
 20
9.600263907984123
 10
0.1319124704990525
 20
10.32321529487594
 10
0.300306671598863
 20
11.01577512031135
 10
0.5348564694304259
 20
11.67060165947156
 10
0.8330557580176213
 20
12.28076221668941
 10
1.191767122153404
 20
12.83977800488665
 10
1.6071699116244
 20
13.34173093016806
 10
2.074882540261087
 20
13.78128927546791
 10
2.589913976313811
 20
14.15381284606166
 10
3.14683250140475
 20
14.45533807288479
 10
3.739745896754391
 20
14.68265890707124
 10
4.362337996274667
 20
14.83338704271226
 10
5.008002600659052
 20
14.905926506226
 10
5.6699456208575
 20
14.89947765392001
 10
6.341096941010317
 20
14.81414280102617
 10
7.014362531832821
 20
14.6508153405672
 10
7.682617960373246
 20
14.41121531181733
 10
8.338781837222407
 20
14.09788752456752
 10
8.975864155728871
 20
13.71416882711778
 10
9.587143079120096
 20
13.26410849983763
 10
10.16611643046346
 20
12.75248794153513
 10
10.70666669428689
 20
12.18472512879193
 10
11.2030681904248
 20
11.56683647031964
 10
11.65003122788505
 20
10.90538011914514
 10
12.04284908610573
 20
10.20735476884492
  0
SPLINE
  5
28F
330
2
100
AcDbEntity
  8
0
100
AcDbSpline
210
0.0
220
0.0
230
1.0
 70
     8
 71
     3
 72
    27
 73
    23
 74
     0
 42
0.000000001
 43
0.0000000001
 40
0.0
 40
0.0
 40
0.0
 40
0.0
 40
0.0036107649485076
 40
0.0930781581074055
 40
0.1412933071630735
 40
0.1894981728929511
 40
0.2371248665917798
 40
0.3138091027044441
 40
0.3577477421893993
 40
0.4016639230283608
 40
0.4903717802521627
 40
0.5376397875139719
 40
0.5849070062409308
 40
0.6337433445319616
 40
0.6825553382605505
 40
0.7189874022392813
 40
0.7561754180049877
 40
0.8004297473967383
 40
0.8446979753357172
 40
0.9327311455670276
 40
0.9794216305921183
 40
1.0
 40
1.0
 40
1.0
 40
1.0
 10
23.45261437113787
 20
13.21425326095568
 30
0.0
 10
23.44536515198357
 20
13.21587733349053
 30
0.0
 10
23.25849506317317
 20
13.25774261199176
 30
0.0
 10
22.97649277474294
 20
13.47314354964771
 30
0.0
 10
22.61570845860426
 20
13.83892915908345
 30
0.0
 10
22.34117122903327
 20
14.18895515170386
 30
0.0
 10
22.02213487321224
 20
14.66449587736517
 30
0.0
 10
21.72784663241603
 20
15.18677925986554
 30
0.0
 10
21.4746930748017
 20
15.71356443453689
 30
0.0
 10
21.23689935379218
 20
16.27798619747919
 30
0.0
 10
21.05872116483978
 20
16.83445391179165
 30
0.0
 10
20.97245487714446
 20
17.34132594739567
 30
0.0
 10
20.96179747681475
 20
17.70293411366095
 30
0.0
 10
21.018555364938
 20
18.02440113448484
 30
0.0
 10
21.13793145980257
 20
18.27587443776891
 30
0.0
 10
21.30377530021187
 20
18.46223302959149
 30
0.0
 10
21.5090059938333
 20
18.60298363379463
 30
0.0
 10
21.77854663099006
 20
18.70316827916811
 30
0.0
 10
22.21794304072016
 20
18.76669247246345
 30
0.0
 10
22.73624938242023
 20
18.69929407715512
 30
0.0
 10
23.19868748870011
 20
18.54793480525784
 30
0.0
 10
23.39313723411287
 20
18.44142837603127
 30
0.0
 10
23.45262180131866
 20
18.40884675020437
 30
0.0
  0
ARC
  5
290
330
2
100
AcDbEntity
  8
0
100
AcDbCircle
 10
22.09026883588318
 20
15.75272089894562
 30
0.0
 40
9.179789264435305
100
AcDbArc
 50
26.47550572219996
 51
56.07534192500057
  0
ARC
  5
291
330
2
100
AcDbEntity
  8
0
100
AcDbCircle
 10
23.51222183021226
 20
19.50167813820941
 30
0.0
 40
5.048550699768775
100
AcDbArc
 50
90.67636244119913
 51
117.5935240172996
  0
LWPOLYLINE
  5
292
330
2
100
AcDbEntity
  8
0
100
AcDbPolyline
 90
       17
 70
   128
 43
0.0
 10
28.43660985686494
 20
10.21231028011798
 10
28.48238933576877
 20
10.23677126488017
 10
29.01906975651444
 20
10.5742456651881
 10
29.5111147753585
 20
10.98081589881319
 10
29.95325186771222
 20
11.45220082074299
 10
30.34082956955513
 20
11.98338482341595
 10
30.66970747676983
 20
12.5687561535148
 10
30.93644276809265
 20
13.20208572865155
 10
31.13817439687625
 20
13.8766776124324
 10
31.27278399295495
 20
14.58537027262487
 10
31.33881302042109
 20
15.3206681801873
 10
31.33561770109539
 20
16.07474844595304
 10
31.26316746012451
 20
16.83965074940975
 10
31.12227551808767
 20
17.60724272307215
 10
30.91443115641326
 20
18.36938975878232
 10
30.64180014477372
 20
19.11803398636244
 10
30.30732799467778
 20
19.84521032720382
  0
SPLINE
  5
293
330
2
100
AcDbEntity
  8
0
100
AcDbSpline
210
0.0
220
0.0
230
1.0
 70
     8
 71
     3
 72
    11
 73
     7
 74
     0
 42
0.000000001
 43
0.0000000001
 40
0.0
 40
0.0
 40
0.0
 40
0.0
 40
0.2006976580581537
 40
0.4676247388062397
 40
0.7339652822449949
 40
1.0
 40
1.0
 40
1.0
 40
1.0
 10
22.8027921963028
 20
16.01370863933373
 30
0.0
 10
22.75524874276632
 20
16.12717960498034
 30
0.0
 10
22.64447268659774
 20
16.39156650010409
 30
0.0
 10
22.61779387902459
 20
16.80201512062215
 30
0.0
 10
22.70349398016649
 20
17.17299297427411
 30
0.0
 10
22.86222489380021
 20
17.29880812039592
 30
0.0
 10
22.94154475872577
 20
17.36167955588064
 30
0.0
  0
LWPOLYLINE
  5
294
330
2
100
AcDbEntity
  8
0
100
AcDbPolyline
 90
       30
 70
   128
 43
0.0
 10
26.62606717324662
 20
12.00236468331606
 10
26.31789461774831
 20
11.87849379088192
 10
25.96364382818733
 20
11.79065901365184
 10
25.5799236605069
 20
11.7429451202577
 10
25.18467030431745
 20
11.73758624117043
 10
24.79633920776142
 20
11.77484605698674
 10
24.43311136127532
 20
11.85297075690897
 10
24.11198197965263
 20
11.96830183088801
 10
23.84792185236671
 20
12.115468923561
 10
23.65331943932348
 20
12.28757001625521
 10
23.5372487420998
 20
12.47657058538371
 10
23.50517358044155
 20
12.67361487500363
 10
23.55853449396248
 20
12.86951898018958
 10
23.69490385526783
 20
13.05508890225124
 10
23.90786039477647
 20
13.22166998973919
 10
24.18745651770761
 20
13.36146805120473
 10
24.52061873548007
 20
13.46794634233141
 10
24.89175857151095
 20
13.53613101898973
 10
25.28356669379974
 20
13.56281143170864
 10
25.67765528372571
 20
13.54677385619666
 10
26.05565642203461
 20
13.48873850758483
 10
26.39985860737113
 20
13.39143730106322
 10
26.69419283551363
 20
13.25940725879259
 10
26.92485502611268
 20
13.09884258935359
 10
27.08110438321245
 20
12.91722864471227
 10
27.15562397220414
 20
12.72306307511376
 10
27.14490623535012
 20
12.52543640767928
 10
27.04947854463359
 20
12.33357637190092
 10
26.87380891547398
 20
12.15645093974474
 10
26.62606717324662
 20
12.00236468331606
  0
LWPOLYLINE
  5
295
330
2
100
AcDbEntity
  8
0
100
AcDbPolyline
 90
       29
 70
   129
 43
0.0
 10
26.55541639419624
 20
12.14169155528132
 10
26.26991654697943
 20
12.02693402663841
 10
25.93521504408477
 20
11.94394640088954
 10
25.56923476149688
 20
11.89843838317623
 10
25.19106628747098
 20
11.89331114239463
 10
24.82021348516508
 20
11.92889394076289
 10
24.47596316418737
 20
12.00293686804585
 10
24.17659507339807
 20
12.11045254677733
 10
23.93839870395916
 20
12.24320514193771
 10
23.77379254965096
 20
12.38877835748843
 10
23.68592050158264
 20
12.53186242170658
 10
23.66420048326155
 20
12.66529294424648
 10
23.70108028125857
 20
12.8006898733716
 10
23.80763876537832
 20
12.94569348271487
 10
23.9914350416714
 20
13.08946452469264
 10
24.24629284493951
 20
13.21689342632666
 10
24.55852121052982
 20
13.31668128051857
 10
24.91116770609064
 20
13.38146841717211
 10
25.2856954147935
 20
13.40697210960321
 10
25.66263626799598
 20
13.39163236734394
 10
26.0225559175051
 20
13.33637310959419
 10
26.34656063060963
 20
13.24478144967217
 10
26.6172239422155
 20
13.12336951366338
 10
26.8197512080131
 20
12.9823896530251
 10
26.94550050866015
 20
12.83622696186077
 10
26.99842938863897
 20
12.69831736965348
 10
26.99125139739268
 20
12.5659608369079
 10
26.92131318784159
 20
12.42534811447906
 10
26.77614432647865
 20
12.27897621497919
  0
LWPOLYLINE
  5
296
330
2
100
AcDbEntity
  8
0
100
AcDbPolyline
 90
       17
 70
   128
 43
0.0
 10
27.21352694403025
 20
31.74187921788645
 10
27.19037159699495
 20
31.88896511234702
 10
27.0886220181077
 20
32.07882954678619
 10
26.9101487340538
 20
32.25396659424568
 10
26.66276299997362
 20
32.40671607997511
 10
26.35724216496758
 20
32.53041987878878
 10
26.00696807004866
 20
32.6196565208157
 10
25.62723920122211
 20
32.67053131025932
 10
25.2346680762093
 20
32.68081228910614
 10
24.84637015923537
 20
32.65007128262845
 10
24.47936705501331
 20
32.57962599479888
 10
24.14967695215828
 20
32.47256622800928
 10
23.8716975768334
 20
32.3335765403209
 10
23.65757800045761
 20
32.16873146752103
 10
23.51668748357241
 20
31.9852299447451
 10
23.4552054011569
 20
31.79108095157995
 10
23.45261210793888
 20
31.74188133162189
  0
ARC
  5
297
330
2
100
AcDbEntity
  8
0
100
AcDbCircle
 10
25.33118882414305
 20
40.94723867597185
 30
0.0
 40
2.513387303479452
100
AcDbArc
 50
70.03314212030005
 51
107.8977165408981
  0
LWPOLYLINE
  5
298
330
2
100
AcDbEntity
  8
0
100
AcDbPolyline
 90
       16
 70
   128
 43
0.0
 10
26.95716589321123
 20
34.28882687238182
 10
26.3300101253499
 20
34.37532954944467
 10
25.68555928800169
 20
34.41986468661465
 10
25.03499383886366
 20
34.42166022821535
 10
24.38958937624076
 20
34.38069132163173
 10
23.76057520920383
 20
34.29765332927597
 10
23.15882843911535
 20
34.17400564117138
 10
22.59481964269336
 20
34.01187892566093
 10
22.07833214738338
 20
33.81408781213131
 10
21.61830633967738
 20
33.5840749082783
 10
21.22272413663605
 20
33.32583117265824
 10
20.89847076698291
 20
33.04382680513108
 10
20.6511753907737
 20
32.74295342008687
 10
20.48509949144785
 20
32.42844637923524
 10
20.40316159289492
 20
32.10574410523096
 10
20.39572560461641
 20
31.89445384778744
  0
SPLINE
  5
299
330
2
100
AcDbEntity
  8
0
100
AcDbSpline
210
0.0
220
0.0
230
1.0
 70
     8
 71
     3
 72
    10
 73
     6
 74
     0
 42
0.000000001
 43
0.0000000001
 40
0.0
 40
0.0
 40
0.0
 40
0.0
 40
0.1947119760560318
 40
0.5972967063662252
 40
1.0
 40
1.0
 40
1.0
 40
1.0
 10
20.67957952001506
 20
31.08899634022833
 30
0.0
 10
20.67905623420815
 20
31.08307556135617
 30
0.0
 10
20.67745100737358
 20
31.064913033344
 30
0.0
 10
20.6539666924894
 20
31.03671353510887
 30
0.0
 10
20.62300472099448
 20
31.01914520368551
 30
0.0
 10
20.60752145596687
 20
31.01035974467262
 30
0.0
  0
SPLINE
  5
29A
330
2
100
AcDbEntity
  8
0
100
AcDbSpline
210
0.0
220
0.0
230
1.0
 70
     8
 71
     3
 72
     9
 73
     5
 74
     0
 42
0.000000001
 43
0.0000000001
 40
0.0
 40
0.0
 40
0.0
 40
0.0
 40
0.6248633841306701
 40
1.0
 40
1.0
 40
1.0
 40
1.0
 10
22.94154475872577
 20
17.36167955588064
 30
0.0
 10
23.03825044497819
 20
17.39767311609161
 30
0.0
 10
23.19301337189695
 20
17.45527540344758
 30
0.0
 10
23.38180006187213
 20
17.37269506983232
 30
0.0
 10
23.45262086187055
 20
17.34171616294255
 30
0.0
  0
LINE
  5
29B
330
2
100
AcDbEntity
  8
0
100
AcDbLine
 10
17.58132446033259
 20
39.20617956271911
 30
0.0
 11
17.59941139925622
 21
39.25252219809708
 31
0.0
  0
LINE
  5
29C
330
2
100
AcDbEntity
  8
0
100
AcDbLine
 10
17.65265419585524
 20
39.32245523044102
 30
0.0
 11
17.6768379824565
 21
39.27859837483154
 31
0.0
  0
LINE
  5
29D
330
2
100
AcDbEntity
  8
0
100
AcDbLine
 10
17.73380372662487
 20
39.38533078670188
 30
0.0
 11
17.73922143865053
 21
39.33991803415859
 31
0.0
  0
LINE
  5
29E
330
2
100
AcDbEntity
  8
0
100
AcDbLine
 10
17.82574153827372
 20
39.39341021154701
 30
0.0
 11
17.83932305470351
 21
39.43839654002772
 31
0.0
  0
LINE
  5
29F
330
2
100
AcDbEntity
  8
0
100
AcDbLine
 10
17.97378968387999
 20
39.4490689271686
 30
0.0
 11
17.96460905498899
 21
39.47932906434711
 31
0.0
  0
ARC
  5
2A0
330
2
100
AcDbEntity
  8
0
100
AcDbCircle
 10
25.20573767440362
 20
40.1425737197289
 30
0.0
 40
2.892394369186143
100
AcDbArc
 50
50.93748679529721
 51
103.8868874769633
  0
ARC
  5
2A1
330
2
100
AcDbEntity
  8
0
100
AcDbCircle
 10
24.28368288513408
 20
12.89250703669204
 30
0.0
 40
0.8544981342368682
100
AcDbArc
 50
193.4474822905142
 51
213.9826504873643
  0
ARC
  5
2A2
330
2
100
AcDbEntity
  8
0
100
AcDbCircle
 10
26.57620266808891
 20
12.76657821506757
 30
0.0
 40
0.6414675763472842
100
AcDbArc
 50
312.9283671048995
 51
353.4843533120227
  0
ARC
  5
2A3
330
2
100
AcDbEntity
  8
0
100
AcDbCircle
 10
23.46993142647806
 20
16.43831603897874
 30
0.0
 40
0.79080098398531
100
AcDbArc
 50
212.4751198091193
 51
268.7450657977321
  0
ENDSEC
  0
SECTION
  2
OBJECTS
  0
DICTIONARY
  5
A
330
0
100
AcDbDictionary
281
     1
  3
ACAD_COLOR
350
3C
  3
ACAD_GROUP
350
33
  3
ACAD_LAYOUT
350
17
  3
ACAD_MATERIAL
350
C
  3
ACAD_MLEADERSTYLE
350
3F
  3
ACAD_MLINESTYLE
350
34
  3
ACAD_PLOTSETTINGS
350
35
  3
ACAD_PLOTSTYLENAME
350
9
  3
ACAD_SCALELIST
350
3D
  3
ACAD_TABLESTYLE
350
3E
  3
ACAD_VISUALSTYLE
350
2C
  3
ACDB_RECOMPOSE_DATA
350
2B3
  3
AcDbVariableDictionary
350
2A5
  3
AcDsDecomposeData
350
2B9
  0
DICTIONARY
  5
1F
330
1E
100
AcDbDictionary
280
     1
281
     1
  3
ACAD_LAYERSTATES
360
20
  0
DICTIONARY
  5
7
330
6
100
AcDbDictionary
280
     1
281
     1
  0
DICTIONARY
  5
3
330
2
100
AcDbDictionary
280
     1
281
     1
  3
ACAD_SORTENTS
360
2A4
  0
DICTIONARY
  5
3C
102
{ACAD_REACTORS
330
A
102
}
330
A
100
AcDbDictionary
281
     1
  0
DICTIONARY
  5
33
102
{ACAD_REACTORS
330
A
102
}
330
A
100
AcDbDictionary
281
     1
  0
DICTIONARY
  5
17
102
{ACAD_REACTORS
330
A
102
}
330
A
100
AcDbDictionary
281
     1
  3
Model
350
16
  3
レイアウト1
350
1D
  0
DICTIONARY
  5
C
102
{ACAD_REACTORS
330
A
102
}
330
A
100
AcDbDictionary
281
     1
  3
ByBlock
350
39
  3
ByLayer
350
36
  3
Global
350
B
  0
DICTIONARY
  5
3F
102
{ACAD_REACTORS
330
A
102
}
330
A
100
AcDbDictionary
281
     1
  0
DICTIONARY
  5
34
102
{ACAD_REACTORS
330
A
102
}
330
A
100
AcDbDictionary
281
     1
  3
Standard
350
40
  0
DICTIONARY
  5
35
102
{ACAD_REACTORS
330
A
102
}
330
A
100
AcDbDictionary
281
     1
  0
ACDBDICTIONARYWDFLT
  5
9
102
{ACAD_REACTORS
330
A
102
}
330
A
100
AcDbDictionary
281
     1
  3
Normal
350
8
100
AcDbDictionaryWithDefault
340
8
  0
DICTIONARY
  5
3D
102
{ACAD_REACTORS
330
A
102
}
330
A
100
AcDbDictionary
281
     1
  3
A0
350
45
  3
A1
350
46
  3
A2
350
47
  3
A3
350
48
  3
A4
350
49
  3
A5
350
4A
  3
A6
350
4B
  3
A7
350
4C
  3
A8
350
4D
  3
A9
350
4E
  3
B0
350
4F
  3
B1
350
50
  3
B2
350
51
  3
B3
350
52
  3
B4
350
53
  3
B5
350
54
  3
B6
350
55
  0
DICTIONARY
  5
3E
102
{ACAD_REACTORS
330
A
102
}
330
A
100
AcDbDictionary
281
     1
  3
Standard
350
41
  0
DICTIONARY
  5
2C
102
{ACAD_REACTORS
330
A
102
}
330
A
100
AcDbDictionary
281
     1
  3
2dWireframe
350
2B
  3
Realistic
350
43
  3
Wireframe
350
44
  0
XRECORD
  5
2B3
102
{ACAD_REACTORS
330
A
102
}
330
A
100
AcDbXrecord
280
     1
 90
        1
330
41
  0
DICTIONARY
  5
2A5
102
{ACAD_REACTORS
330
A
102
}
330
A
100
AcDbDictionary
281
     1
  3
CANNOSCALE
350
2AB
  3
CMLEADERSTYLE
350
2A7
  3
CTABLESTYLE
350
2A6
  3
CVIEWDETAILSTYLE
350
2A8
  3
CVIEWSECTIONSTYLE
350
2A9
  3
LAYEREVAL
350
2AD
  3
LAYERNOTIFY
350
2AE
  3
LIGHTINGUNITS
350
2AC
  3
MSLTSCALE
350
2AA
  3
PSOLHEIGHT
350
2B0
  3
PSOLWIDTH
350
2AF
  3
XCLIPFRAME
350
2B1
  0
DICTIONARY
  5
2B9
102
{ACAD_REACTORS
330
A
102
}
330
A
100
AcDbDictionary
281
     1
  3
AcDsRecords
350
2BB
  3
AcDsSchemas
350
2BA
1001
ACAD
1070
     2
  0
DICTIONARY
  5
20
102
{ACAD_REACTORS
330
1F
102
}
330
1F
100
AcDbDictionary
281
     1
  0
SORTENTSTABLE
  5
2A4
102
{ACAD_REACTORS
330
3
102
}
330
3
100
AcDbSortentsTable
330
2
  0
LAYOUT
  5
16
102
{ACAD_XDICTIONARY
360
18
102
}
102
{ACAD_REACTORS
330
17
102
}
330
17
100
AcDbPlotSettings
  1

  2
none_device
  4
ISO_A4_(210.00_x_297.00_MM)
  6

 40
7.5
 41
20.0
 42
7.5
 43
20.0
 44
210.0
 45
297.0
 46
11.54999923706054
 47
-13.65000009536743
 48
0.0
 49
0.0
140
0.0
141
0.0
142
1.0
143
8.704084754739808
 70
 11952
 72
     1
 73
     0
 74
     0
  7

 75
     0
147
0.1148885871608098
 76
     0
 77
     2
 78
   300
148
0.0
149
0.0
100
AcDbLayout
  1
Model
 70
     1
 71
     0
 10
0.0
 20
0.0
 11
12.0
 21
9.0
 12
0.0
 22
0.0
 32
0.0
 14
0.0
 24
0.0
 34
0.0
 15
0.0
 25
0.0
 35
0.0
146
0.0
 13
0.0
 23
0.0
 33
0.0
 16
1.0
 26
0.0
 36
0.0
 17
0.0
 27
1.0
 37
0.0
 76
     0
330
2
331
2A
1001
ACAD_PSEXT
1000
None
1000
None
1000
Not applicable
1000
The layout will not be plotted unless a new plotter configuration name is selected.
1070
     0
  0
LAYOUT
  5
1D
102
{ACAD_REACTORS
330
17
102
}
330
17
100
AcDbPlotSettings
  1

  2
C:\Documents and Settings\basas\Application Data\Autodesk\AutoCAD 2005\R16.1\enu\plotters\Default Windows System Printer.pc3
  4

  6

 40
0.0
 41
0.0
 42
0.0
 43
0.0
 44
0.0
 45
0.0
 46
0.0
 47
0.0
 48
0.0
 49
0.0
140
0.0
141
0.0
142
1.0
143
1.0
 70
   688
 72
     0
 73
     0
 74
     5
  7

 75
    16
147
1.0
 76
     0
 77
     2
 78
   300
148
0.0
149
0.0
100
AcDbLayout
  1
レイアウト1
 70
     1
 71
     1
 10
0.0
 20
0.0
 11
12.0
 21
9.0
 12
0.0
 22
0.0
 32
0.0
 14
0.0
 24
0.0
 34
0.0
 15
0.0
 25
0.0
 35
0.0
146
0.0
 13
0.0
 23
0.0
 33
0.0
 16
1.0
 26
0.0
 36
0.0
 17
0.0
 27
1.0
 37
0.0
 76
     0
330
1A
  0
MATERIAL
  5
39
102
{ACAD_XDICTIONARY
360
3A
102
}
102
{ACAD_REACTORS
330
C
102
}
330
C
100
AcDbMaterial
  1
ByBlock
  0
MATERIAL
  5
36
102
{ACAD_XDICTIONARY
360
37
102
}
102
{ACAD_REACTORS
330
C
102
}
330
C
100
AcDbMaterial
  1
ByLayer
  0
MATERIAL
  5
B
102
{ACAD_XDICTIONARY
360
D
102
}
102
{ACAD_REACTORS
330
C
102
}
330
C
100
AcDbMaterial
  1
Global
 43
0.0007999999797903
 43
0.0
 43
0.0
 43
0.0
 43
0.0
 43
0.0007999999797903
 43
0.0
 43
0.0
 43
0.0
 43
0.0
 43
1.0
 43
0.0
 43
0.0
 43
0.0
 43
0.0
 43
1.0
 49
0.0007999999797903
 49
0.0
 49
0.0
 49
0.0
 49
0.0
 49
0.0007999999797903
 49
0.0
 49
0.0
 49
0.0
 49
0.0
 49
1.0
 49
0.0
 49
0.0
 49
0.0
 49
0.0
 49
1.0
142
0.0007999999797903
142
0.0
142
0.0
142
0.0
142
0.0
142
0.0007999999797903
142
0.0
142
0.0
142
0.0
142
0.0
142
1.0
142
0.0
142
0.0
142
0.0
142
0.0
142
1.0
144
0.0007999999797903
144
0.0
144
0.0
144
0.0
144
0.0
144
0.0007999999797903
144
0.0
144
0.0
144
0.0
144
0.0
144
1.0
144
0.0
144
0.0
144
0.0
144
0.0
144
1.0
1001
ACAD
1070
    -1
1070
     3
1070
     0
1000

1071
        0
1070
     0
  0
MLINESTYLE
  5
40
102
{ACAD_REACTORS
330
34
102
}
330
34
100
AcDbMlineStyle
  2
STANDARD
 70
     0
  3

 62
   256
 51
90.0
 52
90.0
 71
     2
 49
0.5
 62
   256
  6
BYLAYER
 49
-0.5
 62
   256
  6
BYLAYER
  0
ACDBPLACEHOLDER
  5
8
102
{ACAD_REACTORS
330
9
102
}
330
9
  0
SCALE
  5
45
102
{ACAD_REACTORS
330
3D
102
}
330
3D
100
AcDbScale
 70
     0
300
1:1
140
1.0
141
1.0
290
     1
  0
SCALE
  5
46
102
{ACAD_REACTORS
330
3D
102
}
330
3D
100
AcDbScale
 70
     0
300
1:2
140
1.0
141
2.0
290
     0
  0
SCALE
  5
47
102
{ACAD_REACTORS
330
3D
102
}
330
3D
100
AcDbScale
 70
     0
300
1:4
140
1.0
141
4.0
290
     0
  0
SCALE
  5
48
102
{ACAD_REACTORS
330
3D
102
}
330
3D
100
AcDbScale
 70
     0
300
1:5
140
1.0
141
5.0
290
     0
  0
SCALE
  5
49
102
{ACAD_REACTORS
330
3D
102
}
330
3D
100
AcDbScale
 70
     0
300
1:8
140
1.0
141
8.0
290
     0
  0
SCALE
  5
4A
102
{ACAD_REACTORS
330
3D
102
}
330
3D
100
AcDbScale
 70
     0
300
1:10
140
1.0
141
10.0
290
     0
  0
SCALE
  5
4B
102
{ACAD_REACTORS
330
3D
102
}
330
3D
100
AcDbScale
 70
     0
300
1:16
140
1.0
141
16.0
290
     0
  0
SCALE
  5
4C
102
{ACAD_REACTORS
330
3D
102
}
330
3D
100
AcDbScale
 70
     0
300
1:20
140
1.0
141
20.0
290
     0
  0
SCALE
  5
4D
102
{ACAD_REACTORS
330
3D
102
}
330
3D
100
AcDbScale
 70
     0
300
1:30
140
1.0
141
30.0
290
     0
  0
SCALE
  5
4E
102
{ACAD_REACTORS
330
3D
102
}
330
3D
100
AcDbScale
 70
     0
300
1:40
140
1.0
141
40.0
290
     0
  0
SCALE
  5
4F
102
{ACAD_REACTORS
330
3D
102
}
330
3D
100
AcDbScale
 70
     0
300
1:50
140
1.0
141
50.0
290
     0
  0
SCALE
  5
50
102
{ACAD_REACTORS
330
3D
102
}
330
3D
100
AcDbScale
 70
     0
300
1:100
140
1.0
141
100.0
290
     0
  0
SCALE
  5
51
102
{ACAD_REACTORS
330
3D
102
}
330
3D
100
AcDbScale
 70
     0
300
2:1
140
2.0
141
1.0
290
     0
  0
SCALE
  5
52
102
{ACAD_REACTORS
330
3D
102
}
330
3D
100
AcDbScale
 70
     0
300
4:1
140
4.0
141
1.0
290
     0
  0
SCALE
  5
53
102
{ACAD_REACTORS
330
3D
102
}
330
3D
100
AcDbScale
 70
     0
300
8:1
140
8.0
141
1.0
290
     0
  0
SCALE
  5
54
102
{ACAD_REACTORS
330
3D
102
}
330
3D
100
AcDbScale
 70
     0
300
10:1
140
10.0
141
1.0
290
     0
  0
SCALE
  5
55
102
{ACAD_REACTORS
330
3D
102
}
330
3D
100
AcDbScale
 70
     0
300
100:1
140
100.0
141
1.0
290
     0
  0
TABLESTYLE
  5
41
102
{ACAD_XDICTIONARY
360
42
102
}
102
{ACAD_REACTORS
330
3E
102
}
330
3E
100
AcDbTableStyle
  3
Standard
 70
     0
 71
     0
 40
1.5
 41
1.5
280
     0
281
     0
  7
Standard
140
4.5
170
     2
 62
     0
 63
     7
283
     0
274
    -2
284
     1
 64
     0
275
    -2
285
     1
 65
     0
276
    -2
286
     1
 66
     0
277
    -2
287
     1
 67
     0
278
    -2
288
     1
 68
     0
279
    -2
289
     1
 69
     0
  7
Standard
140
6.0
170
     5
 62
     0
 63
     7
283
     0
274
    -2
284
     1
 64
     0
275
    -2
285
     1
 65
     0
276
    -2
286
     1
 66
     0
277
    -2
287
     1
 67
     0
278
    -2
288
     1
 68
     0
279
    -2
289
     1
 69
     0
  7
Standard
140
4.5
170
     5
 62
     0
 63
     7
283
     0
274
    -2
284
     1
 64
     0
275
    -2
285
     1
 65
     0
276
    -2
286
     1
 66
     0
277
    -2
287
     1
 67
     0
278
    -2
288
     1
 68
     0
279
    -2
289
     1
 69
     0
  0
VISUALSTYLE
  5
2B
102
{ACAD_XDICTIONARY
360
2BD
102
}
102
{ACAD_REACTORS
330
2C
102
}
330
2C
100
AcDbVisualStyle
  2
2dWireframe
 70
     4
 71
     0
 72
     2
 73
     1
 90
        0
 40
-0.6
 41
-30.0
 62
     5
 63
     7
421
 16777215
 74
     1
 91
        4
 64
     7
 65
   257
 75
     1
175
     1
 42
1.0
 92
        0
 66
   257
 43
1.0
 76
     1
 77
     6
 78
     2
 67
     7
 79
     5
170
     0
171
     0
290
     0
174
     0
 93
        1
 44
0.0
173
     0
291
     0
 45
0.0
1001
ACAD
1000
AcDbSavedByObjectVersion
1070
     0
  0
VISUALSTYLE
  5
43
102
{ACAD_XDICTIONARY
360
2C2
102
}
102
{ACAD_REACTORS
330
2C
102
}
330
2C
100
AcDbVisualStyle
  2
Realistic
 70
     8
 71
     2
 72
     3
 73
     0
 90
        2
 40
-0.6
 41
30.0
 62
     5
 63
     7
421
 16777215
 74
     0
 91
        0
 64
     7
 65
   257
 75
     1
175
     1
 42
1.0
 92
        8
 66
   257
 43
1.0
 76
     1
 77
     6
 78
     2
 67
     7
 79
     3
170
     0
171
     0
290
     0
174
     0
 93
       13
 44
0.0
173
     0
291
     0
 45
0.0
1001
ACAD
1000
AcDbSavedByObjectVersion
1070
     0
  0
VISUALSTYLE
  5
44
102
{ACAD_XDICTIONARY
360
2C4
102
}
102
{ACAD_REACTORS
330
2C
102
}
330
2C
100
AcDbVisualStyle
  2
Wireframe
 70
     5
 71
     0
 72
     2
 73
     0
 90
        0
 40
-0.6
 41
-30.0
 62
     5
 63
     7
421
 16777215
 74
     1
 91
        4
 64
     7
 65
   257
 75
     1
175
     1
 42
1.0
 92
        0
 66
   257
 43
1.0
 76
     1
 77
     6
 78
     2
 67
     7
 79
     3
170
     0
171
     0
290
     0
174
     0
 93
        1
 44
0.0
173
     0
291
     0
 45
0.0
1001
ACAD
1000
AcDbSavedByObjectVersion
1070
     0
  0
DICTIONARYVAR
  5
2AB
102
{ACAD_REACTORS
330
2A5
102
}
330
2A5
100
DictionaryVariables
280
     0
  1
1:1
  0
DICTIONARYVAR
  5
2A7
102
{ACAD_REACTORS
330
2A5
102
}
330
2A5
100
DictionaryVariables
280
     0
  1
STANDARD
  0
DICTIONARYVAR
  5
2A6
102
{ACAD_REACTORS
330
2A5
102
}
330
2A5
100
DictionaryVariables
280
     0
  1
STANDARD
  0
DICTIONARYVAR
  5
2A8
102
{ACAD_REACTORS
330
2A5
102
}
330
2A5
100
DictionaryVariables
280
     0
  1

  0
DICTIONARYVAR
  5
2A9
102
{ACAD_REACTORS
330
2A5
102
}
330
2A5
100
DictionaryVariables
280
     0
  1

  0
DICTIONARYVAR
  5
2AD
102
{ACAD_REACTORS
330
2A5
102
}
330
2A5
100
DictionaryVariables
280
     0
  1
0
  0
DICTIONARYVAR
  5
2AE
102
{ACAD_REACTORS
330
2A5
102
}
330
2A5
100
DictionaryVariables
280
     0
  1
0
  0
DICTIONARYVAR
  5
2AC
102
{ACAD_REACTORS
330
2A5
102
}
330
2A5
100
DictionaryVariables
280
     0
  1
2
  0
DICTIONARYVAR
  5
2AA
102
{ACAD_REACTORS
330
2A5
102
}
330
2A5
100
DictionaryVariables
280
     0
  1
1
  0
DICTIONARYVAR
  5
2B0
102
{ACAD_REACTORS
330
2A5
102
}
330
2A5
100
DictionaryVariables
280
     0
  1
80.000000
  0
DICTIONARYVAR
  5
2AF
102
{ACAD_REACTORS
330
2A5
102
}
330
2A5
100
DictionaryVariables
280
     0
  1
5.000000
  0
DICTIONARYVAR
  5
2B1
102
{ACAD_REACTORS
330
2A5
102
}
330
2A5
100
DictionaryVariables
280
     0
  1
2
  0
DICTIONARY
  5
2BB
102
{ACAD_REACTORS
330
2B9
102
}
330
2B9
100
AcDbDictionary
281
     1
  0
DICTIONARY
  5
2BA
102
{ACAD_REACTORS
330
2B9
102
}
330
2B9
100
AcDbDictionary
281
     1
  3
1746103649728
350
2B4
  3
1746103649744
350
2B5
  3
1746103649760
350
2B6
  3
1746103649776
350
2B7
  3
1746103649792
350
2B8
  0
DICTIONARY
  5
18
330
16
100
AcDbDictionary
280
     1
281
     1
  0
DICTIONARY
  5
3A
330
39
100
AcDbDictionary
280
     1
281
     1
  3
ACAD_XREC_ROUNDTRIP
360
2C0
  3
FBXASSET
360
3B
  0
DICTIONARY
  5
37
330
36
100
AcDbDictionary
280
     1
281
     1
  3
ACAD_XREC_ROUNDTRIP
360
2BF
  3
FBXASSET
360
38
  0
DICTIONARY
  5
D
330
B
100
AcDbDictionary
280
     1
281
     1
  3
ACAD_XREC_ROUNDTRIP
360
2BC
  3
BUMPTILE
360
E
  3
DIFFUSETILE
360
F
  3
FBXASSET
360
10
  3
OPACITYTILE
360
11
  3
REFLECTIONTILE
360
12
  0
DICTIONARY
  5
42
330
41
100
AcDbDictionary
280
     1
281
     1
  3
ACAD_ROUNDTRIP_2008_TABLESTYLE_CELLSTYLEMAP
360
2B2
  3
ACAD_XREC_ROUNDTRIP
360
2C1
  0
DICTIONARY
  5
2BD
330
2B
100
AcDbDictionary
280
     1
281
     1
  3
ACAD_XREC_ROUNDTRIP
360
2BE
  0
DICTIONARY
  5
2C2
330
43
100
AcDbDictionary
280
     1
281
     1
  3
ACAD_XREC_ROUNDTRIP
360
2C3
  0
DICTIONARY
  5
2C4
330
44
100
AcDbDictionary
280
     1
281
     1
  3
ACAD_XREC_ROUNDTRIP
360
2C5
  0
XRECORD
  5
2B4
102
{ACAD_REACTORS
330
2BA
102
}
330
2BA
100
AcDbXrecord
280
     1
  1
AcDb_Thumbnail_Schema
102
{ATTRRECORD
341
2B5
  2
AcDbDs::TreatedAsObjectData
280
     1
291
     1
102
ATTRRECORD}
102
{ATTRRECORD
341
2B6
  2
AcDbDs::Legacy
280
     1
291
     1
102
ATTRRECORD}
  2
AcDbDs::ID
280
    10
 91
        8
102
{ATTRRECORD
341
2B7
  2
AcDs:Indexable
280
     1
291
     1
102
ATTRRECORD}
102
{ATTRRECORD
341
2B8
  2
AcDbDs::HandleAttribute
280
     7
282
     1
102
ATTRRECORD}
  2
Thumbnail_Data
280
    15
 91
        0
  0
XRECORD
  5
2B5
102
{ACAD_REACTORS
330
2BA
102
}
330
2BA
100
AcDbXrecord
280
     1
  1
AcDbDs::TreatedAsObjectDataSchema
  2
AcDbDs::TreatedAsObjectData
280
     1
 91
        0
  0
XRECORD
  5
2B6
102
{ACAD_REACTORS
330
2BA
102
}
330
2BA
100
AcDbXrecord
280
     1
  1
AcDbDs::LegacySchema
  2
AcDbDs::Legacy
280
     1
 91
        0
  0
XRECORD
  5
2B7
102
{ACAD_REACTORS
330
2BA
102
}
330
2BA
100
AcDbXrecord
280
     1
  1
AcDbDs::IndexedPropertySchema
  2
AcDs:Indexable
280
     1
 91
        0
  0
XRECORD
  5
2B8
102
{ACAD_REACTORS
330
2BA
102
}
330
2BA
100
AcDbXrecord
280
     1
  1
AcDbDs::HandleAttributeSchema
  2
AcDbDs::HandleAttribute
280
     7
 91
        1
284
     1
  0
XRECORD
  5
2C0
102
{ACAD_REACTORS
330
3A
102
}
330
3A
100
AcDbXrecord
280
     1
102
MATERIAL
148
0.0
149
0.0
149
0.0
 93
        0
 94
       63
282
     0
 72
     1
 77
     1
171
     1
175
     1
179
     1
273
     0
  0
XRECORD
  5
3B
102
{ACAD_REACTORS
330
3A
102
}
330
3A
100
AcDbXrecord
280
     1
 70
     1
 90
429727718
  1
D62C5603-E3A1-4AEA-B7FB-FE5D8D0755AF
310
504B03040A0000080000CC70623B3DEE336E79000000790000001B0000006175746F6465736B2D64657369676E2D7061636B6167652E786D6C3C3F786D6C2076657273696F6E3D22312E302220656E636F64696E673D227574662D3822203F3E3C666F726D6174733E3C666F726D61743E687474703A2F2F736368656D612E
310
6175746F6465736B2E636F6D2F64657369676E2D7061636B6167652F323030393C2F666F726D61743E3C2F666F726D6174733E504B0304140006080800CC70623BD486FD9CA0000000F4000000130000005B436F6E74656E745F54797065735D2E786D6C7D8EC10E82300C865F65E91D8A1E8C310C0EEA1BF002731658846E
310
D98AC1B77784ABF1D8FE5FBFBF75BBCE937A534CCEB38643598122B6FEE978D0B0485F9C41B54DDD7D022595594E1A469170414C76A4D9A4D207E29CF43ECE46F218070CC6BECC4078ACAA135ACF422C856C0E68EA1BF5669944DDD7BCDE7B1F8E415D77AECB980613C2E4AC91FC167A2B244592486606FC29C8FD7F045B9A
310
EF7053A7E60B504B0304140006080800CC70623B853B8169EB0000007C01000008000000636F72652E786D6C8D90416EC3201045AF62CDB6C206821CC7C244919D9CA01740401C94182C03558F5F9C3852BBEB6A467FFE9B197D7EFC9E1EC5975982F5AE035262288C535E5B377690E21535501C055FBC8FBF6C503839990E
310
5619041F179FE64D52DE45E362569DD7661365082642A11EB9E920A89B99642953CC8E702F67A9EE7234257977194EC9EAE275C4EABCCF5EAD5940D4AC6F0E35A568B8F43562CD7046CD199FD07E60174276A7BE677B5EADB0E0D14EEFFB6A31321A0D82627C4084204C3F096B71DD52F6819B16635EADF63F509AF53FA164
310
5DDCD1EDDD17164090FCC8732078B56691CB33A85CD7DCC40F504B0304140006080800CC70623B55019EA25F0000007C00000007000000636E782E786D6C4DCB3B0E80201045D1AD90E915ED2CF8AC45050C11660C8261F98AB1B07AC9C97D42D718D865D3E909258CFD00CCE24AC6E326A164D74DC0B4128928FF32603847
310
2BA13128B1252AC747C6BAB984FC68F0B87FE8960A5C09FE86CFB69FBA01504B0304140006080800CC70623BDBABAAF470010000D40300000C0000006662782F636F72652E786D6CC553D16E823014FD95A6AF4B694182CC941A83FA05FB810A9511A125A5257EFE2E82712ECEB8A7F100CD39F7F69E734AF9FADC366850B6
310
AF8DCE7018308C942E4C59EB2AC3DE1D498AD15A706B8CFB56869196ADCAF00863C12B6B7C374385D14E6907A836A59A41D9F7CA615434B0C8705F7CAA5606D23BA8E84F41278B93AC54100640439DE0BDB320004D43C63716C7C399D30917DCFBBA9CD9BA8469F5B156168B24CED3F7248AC8769F27244EB73B92EED8862C
310
B7F13E0C179B3C8F979C8ECD82BBBABDAA2BAC924E9558448CBD9330242CFA08E3154B5651FCC6D215639C8EE5774DBE2B5F6CF2B5768B68963BB5F5588420E442FC700B1139D4CB01F450C1E918227C2E09DF070D8140C84E1E9AAB8F1340832A9CB13130A5F1376A908D57309505ECF2A0DF179C4E9D30F5B239B87E3823
310
7A79C6F31DE1A8A5AEC08474B03C7837EAE4938639B44E5932B833D2C6B6B279CDC613877FA26EE21F4A2A4C63EC7F29A2F301D1F9F7A0E37D145F504B0304140006080800CC70623B9C113CC27E0000009D0000000B0000006662782F636E782E786D6C4DCCDF0A83201C86E15B91DFB94BFB330DD428C8FB886521330DA7
310
6397BF1A1DECE883878F57749FCDA1B7892F1BBC047A23808C7F84D9FA55424E0BE6803A256208E9EF06C84F9B91703228B1C690F78B66B34CD9A5439DF5CF0BFBF65E35BCA1B8D6A5C6F540381E886698B5741C695F9503EBA150A2F8958E3DC3EA0B504B0304140006080800CC70623B7DF2F77C2A010000120200003100
310
00006662782F41393633353835312D344632462D344230382D423046372D3739314545314133324237412F636F72652E786D6C8D51DB8EC22014FC15C2939B0D2DB4B45643319AE817EC0F6041255A68B86CFCFC856D4D76DF7CE190393373060EDB3DC707F856CE6B6B7A480A0C81328395DA5C7B18C3057510EC3873D686
310
3F34088C18550F330C39BB3A1BA7051AAC09CA84841A2BD5020AEF55806078A44B0FFD7053A328440C89E1EFC52486BBB8AA8214A99D789CF9E05200300FC927E4FB4D5B375D43103D5527440FB843077C5AA3F5861C8F645F5787F59E95B390B318B55CE45AA638FAA2957BD7248B390B7A7CC51F9C124149C82B8C378810
310
84AB2F42B7B8DD56F413775B8C5999E9FF4471926F8AA236A1AE96B8B3CC434E5839373893369E1FAF30EA395917409EB7F26AF8801C171837A4A6AC9C89E9F9C9B1A58BA30FD6A5EF5DDDCF894B9AD9B6A59C957943A9FCAE2FD5BC4DFE03504B0304140006080800CC70623BAD7543B64E01000033030000300000006662
310
782F41393633353835312D344632462D344230382D423046372D3739314545314133324237412F636E782E786D6CD593CD6EC32010845F0571AD6CE3D48AD20813A9873E410FBD12D82434182C7EAAE6EDBB2424CD25871E7B41D6EC30B3FA84F9E67BB2E40B4234DE8DB46F1925E094D7C6ED479AD3AE5951B2113C789FEE
310
6C943839C1488B4C05DF079FE72A69D8C96C13AAD6B8631503449F83828872B949AC57D26200B826A308D316B4064D6E46FCDA41C05550DC9E483A00797BFD207EFB092A45DE9514C1BBD22178396BD39D891265658C238DEA00936C654E5E433CB65A26D9F6EDB5EBC14EBF49A45CB856E66048291F6939A9A81BB5C89177
310
38143CA680F4AA299D66A042CEB3354A2684DC9D8D178FE0D9B8B41CAAD720F880EE7EF93C0C18769E099ECC04D5A102C8049A8A05632F4DDF376CF1DE0F6BB65C2F8627B65A33C6BB62177CEBBDAD973006829F89F22E814B54F4BC2BE347F8AA8F681390B50FA73F804400B5F542E796F19FF974E7F78DB802FE05E20750
310
4B0304140006080800CC70623BE75B7789680500003C100000340000006662782F41393633353835312D344632462D344230382D423046372D3739314545314133324237412F6F626A656374732E786D6CAD575B8F9B3818FD2B887D06C22499CB8AA1CA655245D5B455A356FB305264C061D8018C6C3393D95FBFC7600890
310
A4CD5EF210B0B1BFEBF98E3F7B1FF6596ABC522E1296DF9BAE3D320D9A872C4AF2F8DE2CE5CEBA358D0FBEC719939D65A691938CDE9B6ADAF4BD98B3B2D05311DD91329583D9D5FC0F438434A7A611A644887B5384CF34233629258BA878B12322891DEFF6B66BD70BFB62634E8AE781D082709A4B588AF91C528CDA28B73F
310
1C998EEF39EABBEFA97FBD6A7C7E9553F9D3D79FE442923C3C523610337627CB87ABE99D359D4CC6D6E4FACAB5E6ABF9D2726FC6A3C5F56271377BB88362213924694B38DD99FE47C48627A1E7D49F5A8BB5E1A74C0A599ED3B0F21F1E56366B89112D681E218F0915D0D6F17AD41FBA2A369DCF6335D62ABBD39779D5DDD1
310
11D4D8DE3CBB96B2E04FB8202E41051754A1AA8E8F76B4C6DFE810B580B1547F4B84911149794252234D024EF8BBE963A95AE27B3D310A9D5C215C7960FAEE415ED75694C6AFB17BCACA5D99A60A9AA65F217B0BFC53292ACB92BF283FAD0D3621576592CB5BED907C2FA8E9DF794E35E97BEA31BED21FEB401ABB94C44839
310
DCACBF0E1C5DA8DA5B2F4DFFD32AD86F543D9E565E7056502E157C00AD2671CD534549AB752FCA9CDA00677A313F04E51B22FF19E57B300579E3C97EB29F682D92935CEC18CF901B7B54FD8C51F362B56FC72FE0B3C1EAE335EDCCBF5AEC39ADB17DC238973F804BA5E6F6BFE7AF1FB32E523BE9F3BD571418E3631DCA4D48
310
5250CF639223210A9446CA30052EDF057BD35F8329C1ECD84552BF0DC8D18BE7BCE23BFE6BD960AB4A7DE79923A103BEBD80F911CBAA2C60DB19B01CF164A5583B772EE6D3FFA56666CBCDA74DC97724A48F9A58967497E489C4D979006FD7A05E227A1EBDD0F737C623387A9C844D3709995625106D157315F8B8392CD4E0
310
A0B9A720C4BE9829CEF37EA1E13111214D53925356365ADA634861B52519DD27A00AEB808EAF0628E6F435519D446F45CF2C9CF5214F0A15B2F6D06B79DA3EE3CBF7F56780D2F4E7EF73A0F5E5B02A38D07DC852C6B7C1FBB6664213E0C39E3EBA7FF4E1AD23EA2829407C85E586727488B751B2DB9502BC7B228A3FD68B6E
310
A65A22397E690AA8D158D7E404EC8CDA235CC3B7D1898680131CEC2CDF2638C65196279577750F15884AEE19F94199155B92B13297978469D4F8D358DF0AEF7631E28DC8F0D9F437D5D39A83B2231A1D52D543813A824EF8D44BCFF2FA6A31BD1E8DAD87F1CCB526B3879935BF59CDADD5C37479BB1CDD4CA7B3556B516589
310
EF352754B706114D9C885EC9131DE6EFEB43D99AFE2391C2F958179413D7CFEF6B1B6DB1E7600F00DE6E5C67454A339A4BA2E0FBA85ED26F045D454F463DBFCE484C2F90F2E5E3666003662ED8F755951A7D1BECD5B30B550B2785C8E7320B7292A4838DDA71BBC863ED7613CAF659337A3354231D4FF4A182A54904C2898C
310
98B28C4AD0CE056CCF332A80986E571EE9DBC305BB5FEB7E509220A58D25CF042D712A806AC0AD0C657FDEF80D2D9CEAA2EE4D1C76F60BFE74219A06527D6F82DF6412526107381E55E353090704D085B52408A8913C4ED159D79BDA71BB4BC506F4831350EB6F975CD22D69BF7AC49B91A2C0A9DDA3D5CA36AD20FC478E37
310
E61844E2352865EBCB61A275A65283CAAA9DD27703B4102F5AF51EF5F573B75CBB5AD38BC845F7A49F82A0966A49C2E3EA5EA0ECD326CD965F1DB402C6FA8B51A4658C5C5E2EC9E214602E55810345408596591009A82E7E7FFACA19EEA299B14A0081A705CB3296EBC14CDF658DCD336EA6D1136881AAEB87B81AB9EE53D5
310
F5EB8BC8362082DA24122F98680A4E7930C01A0079749CEA14382A0783E5EBA5A10F8C098456A03D6A4AEB6BB881E2513747552A5DB22C7EDAF83BD5528081A365F7FF06504B0304140006080000CC70623B000000000000000000000000350000006662782F41393633353835312D344632462D344230382D423046372D37
310
39314545314133324237412F76657274696365732E62696E504B0304140006080800CC70623BF270F1330600000004000000360000006662782F41393633353835312D344632462D344230382D423046372D3739314545314133324237412F747269616E676C65732E62696E636660600000504B0304140006080000CC7062
310
3B000000000000000000000000370000006662782F41393633353835312D344632462D344230382D423046372D3739314545314133324237412F617474726962757465732E62696E504B0304140006080800CC70623B08DA0BD19000000041010000360000006662782F41393633353835312D344632462D344230382D4230
310
46372D3739314545314133324237412F6469726563746F72792E786D6C858F410AC3201045AF22B36F53E9A60B35CBEEBAE80D244E44489C6234F4F835464A48035D0DF398FF9F8AF63D0E6CC63039F212F8F9020C7D47C6792B21C5FE7403D62A1188E2E60C98D7234A5830286103A55745067B9D86B8A3CF9C7F90C11DE6
310
07FB144396D7B6A82D282E9A152AD114D5EF2CB866EEE831B8EEA07A7BB5A8D7D61A2BAAEB7FD5F70921FF497D00504B0304140006080800CC70623BEDD1DC58FD000000A00100003B0000006662782F41393633353835312D344632462D344230382D423046372D3739314545314133324237412F7265736F75726365732F
310
636F72652E786D6C8D504B6E833010BD0A9A6D65B00922041947112427E8052C33A156828DFCA97AFC9A40A576D7CDCCE87D344F8F9FBFE667F689CE6B6B3A6039850C8DB2A336530731DC4903D95970676DF82583CCC8193B5861107C72362E3BA4AC096842428D1D7107A5F7182053CF7474E0D507CE32973124857FE48B
310
540F3961CEF244279DE03EB81420DB9EAC1384436FA353E879B1B182C7A8C75DA3C7F453DF353A1075D537A7BA6464B8F535A99AE14A9A2BBD90E350DD183B5CFABE3AF262350B1EF4FC9351399401471025A527C218A1E53BAB5A5AB765F5469B96525EACF23FA6B88CFF34456DC2A1DCE36E360F82A5202F42F062ED2BAD
310
579969AFDD8A6F504B010214000A0000080000CC70623B3DEE336E79000000790000001B00000000000000000000000000000000006175746F6465736B2D64657369676E2D7061636B6167652E786D6C504B01021400140006080800CC70623BD486FD9CA0000000F40000001300000000000000000000000000B20000005B
310
436F6E74656E745F54797065735D2E786D6C504B01021400140006080800CC70623B853B8169EB0000007C010000080000000000000000000000000083010000636F72652E786D6C504B01021400140006080800CC70623B55019EA25F0000007C000000070000000000000000000000000094020000636E782E786D6C504B
310
01021400140006080800CC70623BDBABAAF470010000D40300000C00000000000000000000000000180300006662782F636F72652E786D6C504B01021400140006080800CC70623B9C113CC27E0000009D0000000B00000000000000000000000000B20400006662782F636E782E786D6C504B01021400140006080800CC70
310
623B7DF2F77C2A010000120200003100000000000000000000000000590500006662782F41393633353835312D344632462D344230382D423046372D3739314545314133324237412F636F72652E786D6C504B01021400140006080800CC70623BAD7543B64E010000330300003000000000000000000000000000D2060000
310
6662782F41393633353835312D344632462D344230382D423046372D3739314545314133324237412F636E782E786D6C504B01021400140006080800CC70623BE75B7789680500003C10000034000000000000000000000000006E0800006662782F41393633353835312D344632462D344230382D423046372D3739314545
310
314133324237412F6F626A656374732E786D6C504B01021400140006080000CC70623B0000000000000000000000003500000000000000000000000000280E00006662782F41393633353835312D344632462D344230382D423046372D3739314545314133324237412F76657274696365732E62696E504B01021400140006
310
080800CC70623BF270F133060000000400000036000000000000000000000000007B0E00006662782F41393633353835312D344632462D344230382D423046372D3739314545314133324237412F747269616E676C65732E62696E504B01021400140006080000CC70623B0000000000000000000000003700000000000000
310
000000000000D50E00006662782F41393633353835312D344632462D344230382D423046372D3739314545314133324237412F617474726962757465732E62696E504B01021400140006080800CC70623B08DA0BD1900000004101000036000000000000000000000000002A0F00006662782F41393633353835312D344632
310
462D344230382D423046372D3739314545314133324237412F6469726563746F72792E786D6C504B01021400140006080800CC70623BEDD1DC58FD000000A00100003B000000000000000000000000000E1000006662782F41393633353835312D344632462D344230382D423046372D3739314545314133324237412F7265
310
736F75726365732F636F72652E786D6C504B0506000000000E000E0080040000641100000000
  0
XRECORD
  5
2BF
102
{ACAD_REACTORS
330
37
102
}
330
37
100
AcDbXrecord
280
     1
102
MATERIAL
148
0.0
149
0.0
149
0.0
 93
        0
 94
       63
282
     0
 72
     1
 77
     1
171
     1
175
     1
179
     1
273
     0
  0
XRECORD
  5
38
102
{ACAD_REACTORS
330
37
102
}
330
37
100
AcDbXrecord
280
     1
 70
     1
 90
429727718
  1
30362254-06B7-45E0-A893-8CFA70E3D6BC
310
504B03040A0000080000CC70623B3DEE336E79000000790000001B0000006175746F6465736B2D64657369676E2D7061636B6167652E786D6C3C3F786D6C2076657273696F6E3D22312E302220656E636F64696E673D227574662D3822203F3E3C666F726D6174733E3C666F726D61743E687474703A2F2F736368656D612E
310
6175746F6465736B2E636F6D2F64657369676E2D7061636B6167652F323030393C2F666F726D61743E3C2F666F726D6174733E504B0304140006080800CC70623BD486FD9CA0000000F4000000130000005B436F6E74656E745F54797065735D2E786D6C7D8EC10E82300C865F65E91D8A1E8C310C0EEA1BF002731658846E
310
D98AC1B77784ABF1D8FE5FBFBF75BBCE937A534CCEB38643598122B6FEE978D0B0485F9C41B54DDD7D022595594E1A469170414C76A4D9A4D207E29CF43ECE46F218070CC6BECC4078ACAA135ACF422C856C0E68EA1BF5669944DDD7BCDE7B1F8E415D77AECB980613C2E4AC91FC167A2B244592486606FC29C8FD7F045B9A
310
EF7053A7E60B504B0304140006080800CC70623B1EC5D7A3EB0000007C01000008000000636F72652E786D6C8D90416EC3201045AF82665B6103C6756C6122AB4D4ED00B204C5C94182C03558F5F9C3852BBEB6A467FFE9B197D71FC9E6FE8CBACC17AD7032D0820E3B41FAD9B7A48F1820F808E52ACDEC75F36404ECDA687
310
4D0629A6D5A76597B477D1B89855E747B38B2A041301E95B6E7A08FAD3CCAA50296647B8168BD2573599823EBB0CA76447F43862C7BCCF5EAC59410E4DDD9C7973C2755553CCCFA4C603E3040F1565ED3B1FDE4E432BCA0D9622DAF9795FAF464533826484B498524CD807E51D79ED187F21878E10516EF63F505AC67F42C9
310
BA58B1FDDD071640D2FCC87D2045B96591CB3DA85CB7DCE40F504B0304140006080800CC70623B55019EA25F0000007C00000007000000636E782E786D6C4DCB3B0E80201045D1AD90E915ED2CF8AC45050C11660C8261F98AB1B07AC9C97D42D718D865D3E909258CFD00CCE24AC6E326A164D74DC0B4128928FF32603847
310
2BA13128B1252AC747C6BAB984FC68F0B87FE8960A5C09FE86CFB69FBA01504B0304140006080800CC70623B8C9102E971010000D40300000C0000006662782F636F72652E786D6CC5535B6E833010BC8AE5DF0A6C08340F1947A84D4ED00B38C6A128602363A31CBFCB234A53A551FA553EC09AD9F5CE8C31DB9E9B1AF5CA
310
7695D1198E428A91D2D214952E33ECDD315861B4E5CC1AE3BE9561A445A3323CC098B3D21ADFCE9034DA29ED00D5A6503328BA4E398C640D8B0C77F253352214DE4145770A5B214FA2546114020D759C75CE8200340D19DE981F0F6746269C33EFAB6266AB02A655C74A59CCF365BADC27CB5D902ED22848F6340DF238A141
310
BE88E2F57B92BFEDF23523433367AE6A2EEAA455C2A902F398D2751045018D3FA264435F3771F242571B4A1919CA6F9A7C5B3CD9E42BED16F12C776AEB308F40C848FC700B1139D4891EF410CEC810227CC6846F8386402064270EF5C5C709A05E49676C024C61FC95EA45ED154CA5211D1FF4FB8291A913A68E9B83EBBB33
310
E2A7673CDE118E5AE8124C0807CB8377834E366998436B950D7A7746DAD846D4CFD978E0F04FD455FC5D49D2D4C6FE9722321F10997F0F32DC47FE05504B0304140006080800CC70623BFFEA85907E0000009D0000000B0000006662782F636E782E786D6C4DCCD10A83201886E15B91FFDC95D95A811AB6F23E625948A6C3
310
E9D8E5AF46073BFAE0E1E365ED67B3E8ADC3CB78C7815C7240DA3DFC64DCC221C519D7805AC182F7F1EF06C88D9BE6703008B6049F9E274D7A1E938DBB5AE3D6131B2589BA0D3D965551E0B2EA732C9B9A624AAEB41E3A557677029960D9AFB4EF11165F504B0304140006080800CC70623B4FEEA4082C0100001202000031
310
0000006662782F39464131463745442D413632322D343644302D413938332D3331353338454246344243312F636F72652E786D6C8D515B6EC32010BC0AE2AB55850DD871ED0813254D72825EC00192A2C460F1A872FC42ED48ED5F7E00CDCECCCEB26C731F6FE05B39AFADE921293004CA082BB5B9F43086336A21D870E6AC
310
0D7F68109861543DCC30E4ECE26C9C164858139409093556AA051CBC570102714B8F1E7AF1A5C6A11862480C7F2DA6415C878B2A4891CA89C7990F2E050073937C42DE1DB7E4F87ED8A36D4329AA9B3D46DBAEAD504556557BD81DEBDD0761E52CE42C462D17B996298E3E6BE59E35C962CE821E1FF18553435012728A7187
310
0841987E927A8D9B35ADDF70BBC6989599FE4F1427F9A4286A132ABAC49D651EF234CD5CE04CDA78BA3DC2A8FB645D00B9DF8B57E215725C60BCA2A463E54C4CE327C7A65E1C7DB02E7DEFCBF594B864C5CA6CDBD49C957943E9FA5D5FBAF336F90F504B0304140006080800CC70623BAD7543B64E01000033030000300000
310
006662782F39464131463745442D413632322D343644302D413938332D3331353338454246344243312F636E782E786D6CD593CD6EC32010845F0571AD6CE3D48AD20813A9873E410FBD12D82434182C7EAAE6EDBB2424CD25871E7B41D6EC30B3FA84F9E67BB2E40B4234DE8DB46F1925E094D7C6ED479AD3AE5951B2113C
310
789FEE6C943839C1488B4C05DF079FE72A69D8C96C13AAD6B8631503449F83828872B949AC57D26200B826A308D316B4064D6E46FCDA41C05550DC9E483A00797BFD207EFB092A45DE9514C1BBD22178396BD39D891265658C238DEA00936C654E5E433CB65A26D9F6EDB5EBC14EBF49A45CB856E66048291F6939A9A81BB5
310
C8917738143CA680F4AA299D66A042CEB3354A2684DC9D8D178FE0D9B8B41CAAD720F880EE7EF93C0C18769E099ECC04D5A102C8049A8A05632F4DDF376CF1DE0F6BB65C2F8627B65A33C6BB62177CEBBDAD973006829F89F22E814B54F4BC2BE347F8AA8F681390B50FA73F804400B5F542E796F19FF974E7F78DB802FE05
310
E207504B0304140006080800CC70623B16AB87BA640500003C100000340000006662782F39464131463745442D413632322D343644302D413938332D3331353338454246344243312F6F626A656374732E786D6CAD575B6FA33818FD2B887DE6924B3BED8A326A92B68A663B534DD4D13E548A0C38942D60649B369D5FBFC7
310
600890A493BDE42160637FD7F31D7FF63E6FB3D478A55C242CBF3247B66B1A340F5994E4F19559CA8D75611A9F7D8F33263BCB4C232719BD32D5B4E97B316765A1A722BA21652A07B3B7B33F0D11D29C9A46981221AE4C113ED38CD8A4942CA2E2C58E882476BCD9DA23BB5ED8171B73523C0F841684D35CC252CCE79062D4
310
468DFA43D7747CCF51DF7D4FFDEB5593E3AB9CCA9FBEFE241792E4E19EB28198C968BAB8199F5D5A67D3E9C49A9E8F47D6EC76B6B0469F26EEFC7C3EBFBCBEB98462213924694B38DD98FE1D62C393D073EA4FADC5DAF04326852CCF6958F90F0F2B9BB5C48816348F90C7840A68EB78EDF68723159BCEE7891A6B95DDE9D3
310
BCEAEEE8086A6C6F9E5D4B59F0175C10A7A0820BAA5055C7473B5AE3CFDD452D602CD5DF12616444529E90D448938013FE6EFA58AA96F85E4F8C42275708571E98FE6827AF6B2B4AE3D7D83D64E5A64C53054DD3AF90BD06FEA9149565C94FCA0F6B834DC85599E4F2423B24DF0B6AFA979E534DFA9E7A4CC6FA631D486393
310
921829879BF5D781A373557BCB85E97FB90DB62B558F8795179C15944B051F40AB495CF35451D26A4727654E6D8033BD98EF82F21D91FF8AF2DD9982BCF1643BDD4EB516C9492E368C67C88DED563FC36D5EACF66DFF057C3658BDBFA69DF9578B3DA735B64F18C7F20770A9D45CFCF7FCF563D6456A277DBEF78A02637CA2
310
43B90A490AEAB94F72244481D24819A6C0E59B606BFA4B3025981DBB48EAB701D97BF19C577CC77F2D1B6C55A9EF3C732474C0B727303F625995056C3B02963D9EAC146BE78EC5FCEC7FA999EBC5EACBAAE41B12D27B4D2C0BBA49F244E2ECDC81B76B502F113D8F5EE8FB1BE3111CDD4FC2AA9B844CAB1288B68AB90A7CDC
310
1C166AB0D3DC5310625FCC14E779BFD0709F8890A629C9292B1B2DED31A4B0DA928CEE135085754027E3018A397D4D5427D15BD1330B677DC8934285AC3DF45A9EB68FF8F2B8FC0A509AFEECFD0FF2DE25CC6047F7214B195F07EFEB9A094D800F7BFAE8FED187B78EA8A3A400F115961BCAD1215E47C966530AF0EE8128FE
310
58CEBB996A8964FFA529A046635D9353B0336A8F700DDF46271A024E70B0B37C9DE01847591E54DED53D54202AB947E4076556AC49C6CA5C9E1226B7F1A7B1BE15DEED62C41B91E1B3E9AFAAA735036547343A925075041DF0A9979E893B391F8FCFA6967B3EFB644DCF6E5CEBFAE272625DCC6FAF3FB93793C5F90CE1EF57
310
407342756B10D1C489E8953CD1617E5CEECAD6F4EF8914CE5D5D504E5C3F1F9736DA62CFC11E00BCDDB8CC8A9466349744C1F75EBDA4DF09BA8A9E8C7A7E9991989E20E5DBDD6A6003664ED8F7A04A8DBE0DF6EAD9B9AA858342E47399053949D2C146EDB85DE4B176BB0965FBAC19BD19AA918E27FA50C1D22402E144464C
310
59462568E704B6E71915404CB72B8FF4EDE184DDAF753F284990D2C6926782963815403548A70C657FDEF80D2D9CEAA2AE4C1C76F60BFE74219A06527D6582DF6412526107381E55E353090704D085B52408D0933C4ED159D79BDA71BB4BC506F4831350EB6F979CD22D69BF7AC49B91A2C0A9DDA3D5CA36AD20FC478E37E6
310
1844E2352865EBCB6EA275A652E3836BE04EFB400BF1A2556F515F1FBB35B2AB35BD889C744FFA1004B5544B121E57F70215746DD2F5E2C1412B602CBF19455AC6C8E5E9922C4E01E65215385004546899059180EAFCF7A707CE7017CD8CDB0410789AB32C63B91E5CEBBBACB17AC6CD347A022D5075FD106377347AAABA7E
310
7D11590744509B44E205134DC1290F06580320F78E537D3D73540E06CB970B431F185308AD40BBD794D6D77003C5A36E8EAA54BA64597CD8F83BD552A080A365F7FF06504B0304140006080000CC70623B000000000000000000000000350000006662782F39464131463745442D413632322D343644302D413938332D3331
310
353338454246344243312F76657274696365732E62696E504B0304140006080800CC70623BF270F1330600000004000000360000006662782F39464131463745442D413632322D343644302D413938332D3331353338454246344243312F747269616E676C65732E62696E636660600000504B0304140006080000CC70623B
310
000000000000000000000000370000006662782F39464131463745442D413632322D343644302D413938332D3331353338454246344243312F617474726962757465732E62696E504B0304140006080800CC70623B08DA0BD19000000041010000360000006662782F39464131463745442D413632322D343644302D413938
310
332D3331353338454246344243312F6469726563746F72792E786D6C858F410AC3201045AF22B36F53E9A60B35CBEEBAE80D244E44489C6234F4F835464A48035D0DF398FF9F8AF63D0E6CC63039F212F8F9020C7D47C6792B21C5FE7403D62A1188E2E60C98D7234A5830286103A55745067B9D86B8A3CF9C7F90C11DE607
310
FB144396D7B6A82D282E9A152AD114D5EF2CB866EEE831B8EEA07A7BB5A8D7D61A2BAAEB7FD5F70921FF497D00504B0304140006080800CC70623B0D6EF93BFE000000A00100003B0000006662782F39464131463745442D413632322D343644302D413938332D3331353338454246344243312F7265736F75726365732F63
310
6F72652E786D6C8D50596E833010BD0A9ADFCA60B334011947A8694ED00B586642AC041B79A97AFC9A40A5F6AF3F33A3B7689E1E3F7DCD8FEC139DD7D6F4C0720A191A65476DA61E62B892236427C19DB5E1970C322367EC618541F0C9D9B8EC90B226A009093576C41D94DE63804C3DD2D18357379C652E63480A7FCF17A9
310
EE72C29CE5894E3AC17D702940B63D59270887DE46A7D0F36263058F518FBB468FE9A7BE6A7420864373B8D4873369AA8691FA421B3294352543C5CAF65C0F6FEF43CB8BD52C78D0F34F46E550061C419494B6843142CB0F5677F4B52BEB177AEC28E5C52AFF638ACBF84F53D42654E51E77B379102C05791282176B5F693D
310
CB4C7BED567C03504B010214000A0000080000CC70623B3DEE336E79000000790000001B00000000000000000000000000000000006175746F6465736B2D64657369676E2D7061636B6167652E786D6C504B01021400140006080800CC70623BD486FD9CA0000000F40000001300000000000000000000000000B20000005B
310
436F6E74656E745F54797065735D2E786D6C504B01021400140006080800CC70623B1EC5D7A3EB0000007C010000080000000000000000000000000083010000636F72652E786D6C504B01021400140006080800CC70623B55019EA25F0000007C000000070000000000000000000000000094020000636E782E786D6C504B
310
01021400140006080800CC70623B8C9102E971010000D40300000C00000000000000000000000000180300006662782F636F72652E786D6C504B01021400140006080800CC70623BFFEA85907E0000009D0000000B00000000000000000000000000B30400006662782F636E782E786D6C504B01021400140006080800CC70
310
623B4FEEA4082C0100001202000031000000000000000000000000005A0500006662782F39464131463745442D413632322D343644302D413938332D3331353338454246344243312F636F72652E786D6C504B01021400140006080800CC70623BAD7543B64E010000330300003000000000000000000000000000D5060000
310
6662782F39464131463745442D413632322D343644302D413938332D3331353338454246344243312F636E782E786D6C504B01021400140006080800CC70623B16AB87BA640500003C1000003400000000000000000000000000710800006662782F39464131463745442D413632322D343644302D413938332D3331353338
310
454246344243312F6F626A656374732E786D6C504B01021400140006080000CC70623B0000000000000000000000003500000000000000000000000000270E00006662782F39464131463745442D413632322D343644302D413938332D3331353338454246344243312F76657274696365732E62696E504B01021400140006
310
080800CC70623BF270F133060000000400000036000000000000000000000000007A0E00006662782F39464131463745442D413632322D343644302D413938332D3331353338454246344243312F747269616E676C65732E62696E504B01021400140006080000CC70623B0000000000000000000000003700000000000000
310
000000000000D40E00006662782F39464131463745442D413632322D343644302D413938332D3331353338454246344243312F617474726962757465732E62696E504B01021400140006080800CC70623B08DA0BD190000000410100003600000000000000000000000000290F00006662782F39464131463745442D413632
310
322D343644302D413938332D3331353338454246344243312F6469726563746F72792E786D6C504B01021400140006080800CC70623B0D6EF93BFE000000A00100003B000000000000000000000000000D1000006662782F39464131463745442D413632322D343644302D413938332D3331353338454246344243312F7265
310
736F75726365732F636F72652E786D6C504B0506000000000E000E0080040000641100000000
  0
XRECORD
  5
2BC
102
{ACAD_REACTORS
330
D
102
}
330
D
100
AcDbXrecord
280
     1
102
MATERIAL
148
0.0
149
0.0
149
0.0
 93
        0
 94
       63
282
     0
 72
     1
 77
     1
171
     1
175
     1
179
     1
273
     0
  0
XRECORD
  5
E
102
{ACAD_REACTORS
330
D
102
}
330
D
100
AcDbXrecord
280
     1
270
     1
271
     1
  0
XRECORD
  5
F
102
{ACAD_REACTORS
330
D
102
}
330
D
100
AcDbXrecord
280
     1
270
     1
271
     1
  0
XRECORD
  5
10
102
{ACAD_REACTORS
330
D
102
}
330
D
100
AcDbXrecord
280
     1
 70
     0
 90
1673772943
  1
ECE7A1D2-D628-4531-984C-D00F80459256
310
504B03040A0000080000CC70623B3DEE336E79000000790000001B0000006175746F6465736B2D64657369676E2D7061636B6167652E786D6C3C3F786D6C2076657273696F6E3D22312E302220656E636F64696E673D227574662D3822203F3E3C666F726D6174733E3C666F726D61743E687474703A2F2F736368656D612E
310
6175746F6465736B2E636F6D2F64657369676E2D7061636B6167652F323030393C2F666F726D61743E3C2F666F726D6174733E504B0304140006080800CC70623BD486FD9CA0000000F4000000130000005B436F6E74656E745F54797065735D2E786D6C7D8EC10E82300C865F65E91D8A1E8C310C0EEA1BF002731658846E
310
D98AC1B77784ABF1D8FE5FBFBF75BBCE937A534CCEB38643598122B6FEE978D0B0485F9C41B54DDD7D022595594E1A469170414C76A4D9A4D207E29CF43ECE46F218070CC6BECC4078ACAA135ACF422C856C0E68EA1BF5669944DDD7BCDE7B1F8E415D77AECB980613C2E4AC91FC167A2B244592486606FC29C8FD7F045B9A
310
EF7053A7E60B504B0304140006080800CC70623BD9DDAED0EC0000007C01000008000000636F72652E786D6C8D90416EC3201045AF82665B61836D9CD8C2444DD39CA01740405C94182C03558F5F9C3852BBEB6A467FFE9B197D7EF89E6EE8CB2CC17A37002D0820E394D7D68D03A478C17B4007C117EFE32F1B20272733C0
310
2A83E0E3E2D3BC49CABB685CCCAAF3DA6CA20CC14440EA969B0182FA34932C648AD911AEC52CD5558EA6A0CF2EC329598D1E47ACCEFBECC59A050463A7EA5833865FEBDD0E37353BE3EE8DBDE3F6786A48D375FBF6CC78B9C282473B3DEFABC5C86834888A900E538A49F5419B9EB47DD5BC907D4F082F57FB1F28CDFA9F50
310
B22ED6D5F6EE030B20687EE43E10BC5CB3C8E51E54AE6B6EE207504B0304140006080800CC70623B55019EA25F0000007C00000007000000636E782E786D6C4DCB3B0E80201045D1AD90E915ED2CF8AC45050C11660C8261F98AB1B07AC9C97D42D718D865D3E909258CFD00CCE24AC6E326A164D74DC0B4128928FF326038
310
472BA13128B1252AC747C6BAB984FC68F0B87FE8960A5C09FE86CFB69FBA01504B0304140006080800CC70623BA24EB22D72010000D40300000C0000006662782F636F72652E786D6CC5535B6E833010BC8AE5DF0A6C5E49888CA3A6694ED00B38E05014B091B1518EDFE511A5A9D228FD2A1F60CDEC7A67C6986DCE4D8D7A
310
69BA4AAB0C073EC548AA5C17952A33ECECD15B61B4E1CC686DBF9561A44423333CC098B3D268D7CE50AE9595CA02AA74216750749DB418E5352C32DCE59FB211BE70162ABA93DF8AFC244AE9073ED050C759670D0840D390E18DF9F1706664C23973AE2A66B62A605A75ACA4C13C4976E1364A12EF355A2EBD384AF65EFA96
310
BC7B8BED2EA6719AAE16FB8491A199335B351775B991C2CA02F390D2D40B028F861F41BCA68B7518BFD0D59A524686F29B26D7164F36B94AD9289CE54E6D1DE6010819891F6E21228B3AD1831EC219194284CF98F06DD01008846CC5A1BEF83801D4CBDC6A1303536877A57A513B0953A94FC707FDBE6064EA84A9E3E6E0FA
310
EE8CF0E9198F7784A316AA0413C2C2F2E0ECA0934D1AE6D05A69BCDE9E91D2A611F573361E38FC1375157F5752AE6B6DFE4B11990F88CCBF0719EE23FF02504B0304140006080800CC70623B408A7D3B7C0000009D0000000B0000006662782F636E782E786D6C4DCCD10A83201886E15B91FFDC552A92A0064DBC8F581632
310
D3703A76F9ABD1C18E3E78F878E5F0D9027ABBFCF2292AE86E2D20171F69F6715550CB827B40839639A5F2770314A7CD293819B45C73AAFB45B35BA61ACAA1C1C7E7855C58C15BC331339661262CC762340413D68D77DA5B42298546CBE6573AF60CEB2F504B0304140006080800CC70623B449FB9BD290100001202000031
310
0000006662782F36394639363044362D344446342D343946362D394244322D3234314243333846323333332F636F72652E786D6C8D515B6EC32010BC0AE22B55850D98B871848994463E412FE002495162B07854397EA176A4F62F3F2C9A9D991D587EB84F37F0AD7D30CEF6905418026DA553C65E7A98E219ED203808EE9D
310
8B7F6810D871D23D2C3014FCE25D9A57483A1BB58D19B54EE9151C43D0110279CB971E06F9A5A7B11A53CC8C70ADE6515EC78BAE4895DB992778883E0700CB907242D17643D7E2538BD869608875438BBAE38922CAC8F1BDD90DB4691A5E2F42C153326A951B95E398B3D1FE599322163C9AE9115F7A3D46ADA0A018778810
310
84E907617BDCEE297BC5BB3DC6BC2EF47FA234AB2745C9D8D8D035EE220B50105E2F0DC1954B9FB747187D9F9D8FA0CCDB042D5FA0C015C65B42DF78BD10F3F3B363CB56C7109DCFDFBBB97E662ED92EB62D13BC2E1BCAE5777DB9966D8A1F504B0304140006080800CC70623BAD7543B64E01000033030000300000006662
310
782F36394639363044362D344446342D343946362D394244322D3234314243333846323333332F636E782E786D6CD593CD6EC32010845F0571AD6CE3D48AD20813A9873E410FBD12D82434182C7EAAE6EDBB2424CD25871E7B41D6EC30B3FA84F9E67BB2E40B4234DE8DB46F1925E094D7C6ED479AD3AE5951B2113C789FEE
310
6C943839C1488B4C05DF079FE72A69D8C96C13AAD6B8631503449F83828872B949AC57D26200B826A308D316B4064D6E46FCDA41C05550DC9E483A00797BFD207EFB092A45DE9514C1BBD22178396BD39D891265658C238DEA00936C654E5E433CB65A26D9F6EDB5EBC14EBF49A45CB856E66048291F6939A9A81BB5C89177
310
38143CA680F4AA299D66A042CEB3354A2684DC9D8D178FE0D9B8B41CAAD720F880EE7EF93C0C18769E099ECC04D5A102C8049A8A05632F4DDF376CF1DE0F6BB65C2F8627B65A33C6BB62177CEBBDAD973006829F89F22E814B54F4BC2BE347F8AA8F681390B50FA73F804400B5F542E796F19FF974E7F78DB802FE05E20750
310
4B0304140006080800CC70623B8D05915C650500003B100000340000006662782F36394639363044362D344446342D343946362D394244322D3234314243333846323333332F6F626A656374732E786D6CAD575B6FA33814FE2B887D06429276DA1565D4266D158D3A339A6846FB502932E050B66023DB74D2FDF5FB190C01
310
9276B2973C046C8ECFF53B17071F77456EBD502133CEAE6CDF9DD81665314F32965ED995DA3A17B6F5310C04E7AA47665B8C14F4CAD6DB7618A48257A5D94AE89654B91AEDDEDDFC61C998326A5B714EA4BCB265FC440BE2924AF184CA6737218AB8E976E7FA6E4338649B0A523E8D98964450A6A029F619B8588D52FE7039
310
B1BD30F0F4F730D0FF866AF6369557DB33949F31A9088B0F848DD8CCFCF9F2767A76E99CCDE733677E3EF59D9BBB9BA5E37F984D16E78BC5E5F5ED25044B25C0C96822E8D60EEFE11B91C581D77CEA34368A1F5329E68CD1B8B61F16D63A1B8E092D294B10C78C4A48EB593D192E7DED9BDEE7995E1B91FDEDD3ACEA9FE831
310
6A756F9F7D4D79F4274C90A7A04248AA51D5F8C718DAE06FB2F75AC4796EBE65D22A88A22223B995679120E2D50E41AA49C260C046A35368846B0BECD0DFF3EBEB8AD4F835768F69B9ADF25C43D30E6B646F807FAA64AD59F61715C7A54127C4AACA98BA3006A9D792DAE165E0D59B61A01FB3A9F9D838D2DAE62445C86166
310
F37564E842E7DE6A69879FEEA2DD5AE7E371E1A5E025154AC307D06A03D73EB5978C58FFA4C8E9033066E0F3BD53BEC1F39F91BE7B55103791EDE6BBB991A2046172CB4581D8B893FA674DDA17A77B3B7C413D1B511FD2743BFF8A38F03A658705E3ADF8015C3A3417FF3D7E439FF591DA0B5F18BC20C1B8981957AE6392A3
310
F43C640C01D1A0B4728E2DD4F26DB4B3C3152A252A3B4E913CEC1C72F012782FF88EFF8637AA552DBEF76408E8A8DE9E50F9E1CB3A2DA0DB1B6039A893B56063DC5B3E3FFB5F72E67AB9FEB4AEC496C4F4C1149625DD662C53E89D7BF0F6151A046260D1337DFDC94502430F83B0EE07A130A224BCAD7DAE1D9FB6CD422FF6
310
920702629C4BB9AE79C12F243C6432A6794E18E5552BA56B431AAB5D91317302B2B071E86C3A42B1A02F999E24061403B5D0EB639195DA655DD3EBEAB4FB862DDF579F014AD0E73C22F99E28DA57FB98E75C6CA2D74D53086D600F4786E0FE3144B771A8A7B900F03594DB8A633CBC49B2EDB69228BB479CF863B5E807AAAB
310
23872F6DFEB4129B949CA33823F58830E86D65621E10047D9DB34D862E8EAC3C2ABC2F7B2C40D67CDFE01F5545B92105AF983AC54D93D69E56FB8E797F88913F898A9FEC705D3F9D1B54EC8426FB500D40A03BD0119B06E1B95DDC7EB8F6975367793EBD70E66733DFB9BC982F9CE564727731999F5D4ECFCE3B8D6A4DC2A0
310
6D50FD148437D110834A64C6CDDF57FBACB5C307A2A477DFE4939736CFEF2B175371E0E10CF0DD1D5C15654E0BCA14D1E87DD02FF93782A162C0A3D95F1524A52770F972BF1EE9809D13CE7DD599467F8ECE9ADD85CE85A34CD45355448C64F9E8A031DC2D596ACC6E5DD93D9B82DE2EF5CAF81363A8E47996A0DE24564A79
310
4115AACE09C55E14540231FDA13C319787134EBF34E3A022514E5B4D9E0826E25C02D5805B15ABE1BEF51B26383D445DD9E875EE33FE4C22DA16427D65A3BCA92CA6D28DD01DF5DC53330704308475351050232CCD31583787BA75774AFB06E5070DD0C8EF484E19968C5D83BA5B90B244D31E54D55A372320FE4786B7EA58
310
44E135AA5467CB7EA333A61683CC6A8C3257034C10CF46F40EF9F5BE59BE5BD30C3C72D235E95D10345C1D45445A5F0BB47E46A5EBE5570F9380B5FA629579952296A773720405982B9DE04011506178964401AA8BDF1FBF0A8EAB6861DD6580C0E38217056766716DAEB2D6FA0917D3E4116581EADB879C4E7CFFB11EFACD
310
3D641311495D92C8676CB409A72D18610D803CE8A626049E8EC1887CB5B44CC39883690DDA8399B4B9855B481E7D71D4A9D22F96E5BB73BF5793020C02137BF837504B0304140006080000CC70623B000000000000000000000000350000006662782F36394639363044362D344446342D343946362D394244322D32343142
310
43333846323333332F76657274696365732E62696E504B0304140006080800CC70623BF270F1330600000004000000360000006662782F36394639363044362D344446342D343946362D394244322D3234314243333846323333332F747269616E676C65732E62696E636660600000504B0304140006080000CC70623B0000
310
00000000000000000000370000006662782F36394639363044362D344446342D343946362D394244322D3234314243333846323333332F617474726962757465732E62696E504B0304140006080800CC70623B08DA0BD19000000041010000360000006662782F36394639363044362D344446342D343946362D394244322D
310
3234314243333846323333332F6469726563746F72792E786D6C858F410AC3201045AF22B36F53E9A60B35CBEEBAE80D244E44489C6234F4F835464A48035D0DF398FF9F8AF63D0E6CC63039F212F8F9020C7D47C6792B21C5FE7403D62A1188E2E60C98D7234A5830286103A55745067B9D86B8A3CF9C7F90C11DE607FB14
310
4396D7B6A82D282E9A152AD114D5EF2CB866EEE831B8EEA07A7BB5A8D7D61A2BAAEB7FD5F70921FF497D00504B0304140006080800CC70623BCA768048FE000000A00100003B0000006662782F36394639363044362D344446342D343946362D394244322D3234314243333846323333332F7265736F75726365732F636F72
310
652E786D6C8D50596E833010BD0A9ADFCA60D600328E9AA639412F609909B1126CE4A5EAF16B0295DABFFECC8CDEA2797AECF8353F924FB44E193D409E5248504B332A3D0D10FC95B4901C39B3C6F85F3248B49871801506CE266BC2B243D2688FDA47549B11775038871E12F988C7004EDE7016A9083E2ADC3D5D84BC8B09
310
D33C8D74D471E6BC8D0192EDC93A815B742658898E651BCB59086ADC356A8C3FD555A1055ED7E7E254D615792D0F075295F585746FF53B694EE78A565DD736979A65AB9933AFE69F8CD2A2F038022F28ED489E135A7CE4554F9BBEA85E68DB53CAB255FEC71496F19FA6A0B42F8B3DEE6673C0F318E4497096AD7DC5F52C33
310
EEB55BFE0D504B010214000A0000080000CC70623B3DEE336E79000000790000001B00000000000000000000000000000000006175746F6465736B2D64657369676E2D7061636B6167652E786D6C504B01021400140006080800CC70623BD486FD9CA0000000F40000001300000000000000000000000000B20000005B436F
310
6E74656E745F54797065735D2E786D6C504B01021400140006080800CC70623BD9DDAED0EC0000007C010000080000000000000000000000000083010000636F72652E786D6C504B01021400140006080800CC70623B55019EA25F0000007C000000070000000000000000000000000095020000636E782E786D6C504B0102
310
1400140006080800CC70623BA24EB22D72010000D40300000C00000000000000000000000000190300006662782F636F72652E786D6C504B01021400140006080800CC70623B408A7D3B7C0000009D0000000B00000000000000000000000000B50400006662782F636E782E786D6C504B01021400140006080800CC70623B
310
449FB9BD290100001202000031000000000000000000000000005A0500006662782F36394639363044362D344446342D343946362D394244322D3234314243333846323333332F636F72652E786D6C504B01021400140006080800CC70623BAD7543B64E010000330300003000000000000000000000000000D20600006662
310
782F36394639363044362D344446342D343946362D394244322D3234314243333846323333332F636E782E786D6C504B01021400140006080800CC70623B8D05915C650500003B10000034000000000000000000000000006E0800006662782F36394639363044362D344446342D343946362D394244322D32343142433338
310
46323333332F6F626A656374732E786D6C504B01021400140006080000CC70623B0000000000000000000000003500000000000000000000000000250E00006662782F36394639363044362D344446342D343946362D394244322D3234314243333846323333332F76657274696365732E62696E504B010214001400060808
310
00CC70623BF270F13306000000040000003600000000000000000000000000780E00006662782F36394639363044362D344446342D343946362D394244322D3234314243333846323333332F747269616E676C65732E62696E504B01021400140006080000CC70623B00000000000000000000000037000000000000000000
310
00000000D20E00006662782F36394639363044362D344446342D343946362D394244322D3234314243333846323333332F617474726962757465732E62696E504B01021400140006080800CC70623B08DA0BD190000000410100003600000000000000000000000000270F00006662782F36394639363044362D344446342D
310
343946362D394244322D3234314243333846323333332F6469726563746F72792E786D6C504B01021400140006080800CC70623BCA768048FE000000A00100003B000000000000000000000000000B1000006662782F36394639363044362D344446342D343946362D394244322D3234314243333846323333332F7265736F
310
75726365732F636F72652E786D6C504B0506000000000E000E0080040000621100000000
  0
XRECORD
  5
11
102
{ACAD_REACTORS
330
D
102
}
330
D
100
AcDbXrecord
280
     1
270
     1
271
     1
  0
XRECORD
  5
12
102
{ACAD_REACTORS
330
D
102
}
330
D
100
AcDbXrecord
280
     1
270
     1
271
     1
  0
CELLSTYLEMAP
  5
2B2
102
{ACAD_REACTORS
330
42
102
}
330
42
100
AcDbCellStyleMap
 90
        3
300
CELLSTYLE
  1
TABLEFORMAT_BEGIN
 90
        5
170
     1
 91
        0
 92
    32768
 62
   257
 93
        1
300
CONTENTFORMAT
  1
CONTENTFORMAT_BEGIN
 90
        0
 91
        0
 92
      512
 93
        0
300

 40
0.0
140
1.0
 94
        5
 62
     0
340
22
144
6.0
309
CONTENTFORMAT_END
171
     1
301
MARGIN
  1
CELLMARGIN_BEGIN
 40
1.5
 40
1.5
 40
1.5
 40
1.5
 40
4.5
 40
4.5
309
CELLMARGIN_END
 94
        6
 95
        1
302
GRIDFORMAT
  1
GRIDFORMAT_BEGIN
 90
        0
 91
        1
 62
     0
 92
       -2
340
25
 93
        0
 40
1.125
309
GRIDFORMAT_END
 95
        2
302
GRIDFORMAT
  1
GRIDFORMAT_BEGIN
 90
        0
 91
        1
 62
     0
 92
       -2
340
25
 93
        0
 40
1.125
309
GRIDFORMAT_END
 95
        4
302
GRIDFORMAT
  1
GRIDFORMAT_BEGIN
 90
        0
 91
        1
 62
     0
 92
       -2
340
25
 93
        0
 40
1.125
309
GRIDFORMAT_END
 95
        8
302
GRIDFORMAT
  1
GRIDFORMAT_BEGIN
 90
        0
 91
        1
 62
     0
 92
       -2
340
25
 93
        0
 40
1.125
309
GRIDFORMAT_END
 95
       16
302
GRIDFORMAT
  1
GRIDFORMAT_BEGIN
 90
        0
 91
        1
 62
     0
 92
       -2
340
25
 93
        0
 40
1.125
309
GRIDFORMAT_END
 95
       32
302
GRIDFORMAT
  1
GRIDFORMAT_BEGIN
 90
        0
 91
        1
 62
     0
 92
       -2
340
25
 93
        0
 40
1.125
309
GRIDFORMAT_END
309
TABLEFORMAT_END
  1
CELLSTYLE_BEGIN
 90
        1
 91
        1
300
_TITLE
309
CELLSTYLE_END
300
CELLSTYLE
  1
TABLEFORMAT_BEGIN
 90
        5
170
     1
 91
        0
 92
        0
 62
   257
 93
        1
300
CONTENTFORMAT
  1
CONTENTFORMAT_BEGIN
 90
        0
 91
        0
 92
      512
 93
        0
300

 40
0.0
140
1.0
 94
        5
 62
     0
340
22
144
4.5
309
CONTENTFORMAT_END
171
     1
301
MARGIN
  1
CELLMARGIN_BEGIN
 40
1.5
 40
1.5
 40
1.5
 40
1.5
 40
4.5
 40
4.5
309
CELLMARGIN_END
 94
        6
 95
        1
302
GRIDFORMAT
  1
GRIDFORMAT_BEGIN
 90
        0
 91
        1
 62
     0
 92
       -2
340
25
 93
        0
 40
1.125
309
GRIDFORMAT_END
 95
        2
302
GRIDFORMAT
  1
GRIDFORMAT_BEGIN
 90
        0
 91
        1
 62
     0
 92
       -2
340
25
 93
        0
 40
1.125
309
GRIDFORMAT_END
 95
        4
302
GRIDFORMAT
  1
GRIDFORMAT_BEGIN
 90
        0
 91
        1
 62
     0
 92
       -2
340
25
 93
        0
 40
1.125
309
GRIDFORMAT_END
 95
        8
302
GRIDFORMAT
  1
GRIDFORMAT_BEGIN
 90
        0
 91
        1
 62
     0
 92
       -2
340
25
 93
        0
 40
1.125
309
GRIDFORMAT_END
 95
       16
302
GRIDFORMAT
  1
GRIDFORMAT_BEGIN
 90
        0
 91
        1
 62
     0
 92
       -2
340
25
 93
        0
 40
1.125
309
GRIDFORMAT_END
 95
       32
302
GRIDFORMAT
  1
GRIDFORMAT_BEGIN
 90
        0
 91
        1
 62
     0
 92
       -2
340
25
 93
        0
 40
1.125
309
GRIDFORMAT_END
309
TABLEFORMAT_END
  1
CELLSTYLE_BEGIN
 90
        2
 91
        1
300
_HEADER
309
CELLSTYLE_END
300
CELLSTYLE
  1
TABLEFORMAT_BEGIN
 90
        5
170
     1
 91
        0
 92
        0
 62
   257
 93
        1
300
CONTENTFORMAT
  1
CONTENTFORMAT_BEGIN
 90
        0
 91
        0
 92
      512
 93
        0
300

 40
0.0
140
1.0
 94
        2
 62
     0
340
22
144
4.5
309
CONTENTFORMAT_END
171
     1
301
MARGIN
  1
CELLMARGIN_BEGIN
 40
1.5
 40
1.5
 40
1.5
 40
1.5
 40
4.5
 40
4.5
309
CELLMARGIN_END
 94
        6
 95
        1
302
GRIDFORMAT
  1
GRIDFORMAT_BEGIN
 90
        0
 91
        1
 62
     0
 92
       -2
340
25
 93
        0
 40
1.125
309
GRIDFORMAT_END
 95
        2
302
GRIDFORMAT
  1
GRIDFORMAT_BEGIN
 90
        0
 91
        1
 62
     0
 92
       -2
340
25
 93
        0
 40
1.125
309
GRIDFORMAT_END
 95
        4
302
GRIDFORMAT
  1
GRIDFORMAT_BEGIN
 90
        0
 91
        1
 62
     0
 92
       -2
340
25
 93
        0
 40
1.125
309
GRIDFORMAT_END
 95
        8
302
GRIDFORMAT
  1
GRIDFORMAT_BEGIN
 90
        0
 91
        1
 62
     0
 92
       -2
340
25
 93
        0
 40
1.125
309
GRIDFORMAT_END
 95
       16
302
GRIDFORMAT
  1
GRIDFORMAT_BEGIN
 90
        0
 91
        1
 62
     0
 92
       -2
340
25
 93
        0
 40
1.125
309
GRIDFORMAT_END
 95
       32
302
GRIDFORMAT
  1
GRIDFORMAT_BEGIN
 90
        0
 91
        1
 62
     0
 92
       -2
340
25
 93
        0
 40
1.125
309
GRIDFORMAT_END
309
TABLEFORMAT_END
  1
CELLSTYLE_BEGIN
 90
        3
 91
        2
300
_DATA
309
CELLSTYLE_END
  0
XRECORD
  5
2C1
102
{ACAD_REACTORS
330
42
102
}
330
42
100
AcDbXrecord
280
     1
102
ACAD_ROUNDTRIP_PRE2007_TABLESTYLE
 90
      512
 91
        0
  1

 92
      512
 93
        0
  2

 94
      512
 95
        0
  3

  0
XRECORD
  5
2BE
102
{ACAD_REACTORS
330
2BD
102
}
330
2BD
100
AcDbXrecord
280
     1
102
RTVSPost2010Prop28
280
     1
102
RTVSPost2010PropOp28
 70
     1
102
RTVSPost2010Prop29
280
     1
102
RTVSPost2010PropOp29
 70
     1
102
RTVSPost2010Prop30
280
     0
102
RTVSPost2010PropOp30
 70
     1
102
RTVSPost2010Prop31
280
     0
102
RTVSPost2010PropOp31
 70
     1
102
RTVSPost2010Prop32
280
     0
102
RTVSPost2010PropOp32
 70
     1
102
RTVSPost2010Prop33
280
     0
102
RTVSPost2010PropOp33
 70
     1
102
RTVSPost2010Prop34
280
     0
102
RTVSPost2010PropOp34
 70
     1
102
RTVSPost2010Prop35
280
     0
102
RTVSPost2010PropOp35
 70
     1
102
RTVSPost2010Prop36
280
     0
102
RTVSPost2010PropOp36
 70
     1
102
RTVSPost2010Prop37
 90
       50
102
RTVSPost2010PropOp37
 70
     1
102
RTVSPost2010Prop38
140
0.0
102
RTVSPost2010PropOp38
 70
     1
102
RTVSPost2010Prop39
140
1.0
102
RTVSPost2010PropOp39
 70
     1
102
RTVSPost2010Prop40
 90
        0
102
RTVSPost2010PropOp40
 70
     1
102
RTVSPost2010Prop41ColorIndex
 90
       18
102
RTVSPost2010Prop41ColorRGB
 90
        0
102
RTVSPost2010PropOp41
 70
     1
102
RTVSPost2010Prop42
 90
       50
102
RTVSPost2010PropOp42
 70
     1
102
RTVSPost2010Prop43
 90
        3
102
RTVSPost2010PropOp43
 70
     1
102
RTVSPost2010Prop44ColorIndex
 90
        5
102
RTVSPost2010Prop44ColorRGB
 90
      255
102
RTVSPost2010PropOp44
 70
     1
102
RTVSPost2010Prop45
280
     0
102
RTVSPost2010PropOp45
 70
     1
102
RTVSPost2010Prop46
 90
       50
102
RTVSPost2010PropOp46
 70
     1
102
RTVSPost2010Prop47
 90
       50
102
RTVSPost2010PropOp47
 70
     1
102
RTVSPost2010Prop48
 90
       50
102
RTVSPost2010PropOp48
 70
     1
102
RTVSPost2010Prop49
280
     0
102
RTVSPost2010PropOp49
 70
     1
102
RTVSPost2010Prop50
 90
       50
102
RTVSPost2010PropOp50
 70
     1
102
RTVSPost2010Prop51ColorIndex
 90
      256
102
RTVSPost2010Prop51ColorRGB
 90
-16777216
102
RTVSPost2010PropOp51
 70
     0
102
RTVSPost2010Prop52
140
1.0
102
RTVSPost2010PropOp52
 70
     0
102
RTVSPost2010Prop53
 90
        2
102
RTVSPost2010PropOp53
 70
     1
102
RTVSPost2010Prop54
  1
strokes_ogs.tif
102
RTVSPost2010PropOp54
 70
     1
102
RTVSPost2010Prop55
280
     0
102
RTVSPost2010PropOp55
 70
     1
102
RTVSPost2010Prop56
140
1.0
102
RTVSPost2010PropOp56
 70
     1
102
RTVSPost2010Prop57
140
1.0
102
RTVSPost2010PropOp57
 70
     1
102
RTVSPropertyOp0
 70
     1
102
RTVSPropertyOp1
 70
     1
102
RTVSPropertyOp2
 70
     1
102
RTVSPropertyOp3
 70
     1
102
RTVSPropertyOp4
 70
     1
102
RTVSPropertyOp5
 70
     1
102
RTVSPropertyOp6
 70
     1
102
RTVSPropertyOp7
 70
     1
102
RTVSPropertyOp8
 70
     1
102
RTVSPropertyOp9
 70
     1
102
RTVSPropertyOp10
 70
     1
102
RTVSPropertyOp11
 70
     1
102
RTVSPropertyOp12
 70
     1
102
RTVSPropertyOp13
 70
     1
102
RTVSPropertyOp14
 70
     1
102
RTVSPropertyOp15
 70
     1
102
RTVSPropertyOp16
 70
     1
102
RTVSPropertyOp17
 70
     1
102
RTVSPropertyOp18
 70
     1
102
RTVSPropertyOp19
 70
     1
102
RTVSPropertyOp20
 70
     1
102
RTVSPropertyOp21
 70
     1
102
RTVSPropertyOp22
 70
     1
102
RTVSPropertyOp23
 70
     1
102
RTVSPropertyOp24
 70
     1
102
RTVSPropertyOp25
 70
     1
102
RTVSPropertyOp26
 70
     1
102
RTVSPropertyOp27
 70
     1
102
RTVSPropertyOp28
 70
     1
102
RTVSPropertyOp29
 70
     1
102
RTVSPropertyOp30
 70
     1
102
RTVSPropertyOp31
 70
     1
102
RTVSPropertyOp32
 70
     1
102
RTVSPropertyOp33
 70
     1
102
RTVSPropertyOp34
 70
     1
102
RTVSPropertyOp35
 70
     1
102
RTVSPropertyOp36
 70
     1
102
RTVSPropertyOp37
 70
     1
102
RTVSPropertyOp38
 70
     1
102
RTVSPropertyOp39
 70
     1
102
RTVSPropertyOp40
 70
     1
102
RTVSPropertyOp41
 70
     1
102
RTVSPropertyOp42
 70
     1
102
RTVSPropertyOp43
 70
     1
102
RTVSPropertyOp44
 70
     1
102
RTVSPropertyOp45
 70
     1
102
RTVSPropertyOp46
 70
     1
102
RTVSPropertyOp47
 70
     1
102
RTVSPropertyOp48
 70
     1
102
RTVSPropertyOp49
 70
     1
102
RTVSPropertyOp50
 70
     1
102
RTVSPropertyOp51
 70
     0
102
RTVSPropertyOp52
 70
     0
102
RTVSPropertyOp53
 70
     1
102
RTVSPropertyOp54
 70
     1
102
RTVSPropertyOp55
 70
     1
102
RTVSPropertyOp56
 70
     1
102
RTVSPropertyOp57
 70
     1
102
RTVSPropertyOp58
 70
     1
102
RTVSPropertyOp59
 70
     1
102
RTVSPropertyOp60
 70
     1
102
RTVSPropertyOp61
 70
     1
102
RTVSPropertyOp62
 70
     1
  0
XRECORD
  5
2C3
102
{ACAD_REACTORS
330
2C2
102
}
330
2C2
100
AcDbXrecord
280
     1
102
RTVSPost2010Prop28
280
     0
102
RTVSPost2010PropOp28
 70
     1
102
RTVSPost2010Prop29
280
     1
102
RTVSPost2010PropOp29
 70
     1
102
RTVSPost2010Prop30
280
     1
102
RTVSPost2010PropOp30
 70
     1
102
RTVSPost2010Prop31
280
     0
102
RTVSPost2010PropOp31
 70
     1
102
RTVSPost2010Prop32
280
     0
102
RTVSPost2010PropOp32
 70
     1
102
RTVSPost2010Prop33
280
     0
102
RTVSPost2010PropOp33
 70
     1
102
RTVSPost2010Prop34
280
     0
102
RTVSPost2010PropOp34
 70
     1
102
RTVSPost2010Prop35
280
     0
102
RTVSPost2010PropOp35
 70
     1
102
RTVSPost2010Prop36
280
     0
102
RTVSPost2010PropOp36
 70
     1
102
RTVSPost2010Prop37
 90
       50
102
RTVSPost2010PropOp37
 70
     1
102
RTVSPost2010Prop38
140
0.0
102
RTVSPost2010PropOp38
 70
     1
102
RTVSPost2010Prop39
140
1.0
102
RTVSPost2010PropOp39
 70
     1
102
RTVSPost2010Prop40
 90
        0
102
RTVSPost2010PropOp40
 70
     1
102
RTVSPost2010Prop41ColorIndex
 90
       18
102
RTVSPost2010Prop41ColorRGB
 90
        0
102
RTVSPost2010PropOp41
 70
     1
102
RTVSPost2010Prop42
 90
       50
102
RTVSPost2010PropOp42
 70
     1
102
RTVSPost2010Prop43
 90
        3
102
RTVSPost2010PropOp43
 70
     1
102
RTVSPost2010Prop44ColorIndex
 90
        5
102
RTVSPost2010Prop44ColorRGB
 90
      255
102
RTVSPost2010PropOp44
 70
     1
102
RTVSPost2010Prop45
280
     0
102
RTVSPost2010PropOp45
 70
     1
102
RTVSPost2010Prop46
 90
       50
102
RTVSPost2010PropOp46
 70
     1
102
RTVSPost2010Prop47
 90
       50
102
RTVSPost2010PropOp47
 70
     1
102
RTVSPost2010Prop48
 90
       50
102
RTVSPost2010PropOp48
 70
     1
102
RTVSPost2010Prop49
280
     0
102
RTVSPost2010PropOp49
 70
     1
102
RTVSPost2010Prop50
 90
       50
102
RTVSPost2010PropOp50
 70
     1
102
RTVSPost2010Prop51ColorIndex
 90
      256
102
RTVSPost2010Prop51ColorRGB
 90
-16777216
102
RTVSPost2010PropOp51
 70
     0
102
RTVSPost2010Prop52
140
1.0
102
RTVSPost2010PropOp52
 70
     0
102
RTVSPost2010Prop53
 90
        2
102
RTVSPost2010PropOp53
 70
     1
102
RTVSPost2010Prop54
  1
strokes_ogs.tif
102
RTVSPost2010PropOp54
 70
     1
102
RTVSPost2010Prop55
280
     0
102
RTVSPost2010PropOp55
 70
     1
102
RTVSPost2010Prop56
140
1.0
102
RTVSPost2010PropOp56
 70
     1
102
RTVSPost2010Prop57
140
1.0
102
RTVSPost2010PropOp57
 70
     1
102
RTVSPropertyOp0
 70
     1
102
RTVSPropertyOp1
 70
     1
102
RTVSPropertyOp2
 70
     1
102
RTVSPropertyOp3
 70
     1
102
RTVSPropertyOp4
 70
     1
102
RTVSPropertyOp5
 70
     1
102
RTVSPropertyOp6
 70
     1
102
RTVSPropertyOp7
 70
     1
102
RTVSPropertyOp8
 70
     1
102
RTVSPropertyOp9
 70
     1
102
RTVSPropertyOp10
 70
     1
102
RTVSPropertyOp11
 70
     1
102
RTVSPropertyOp12
 70
     1
102
RTVSPropertyOp13
 70
     1
102
RTVSPropertyOp14
 70
     1
102
RTVSPropertyOp15
 70
     1
102
RTVSPropertyOp16
 70
     1
102
RTVSPropertyOp17
 70
     1
102
RTVSPropertyOp18
 70
     1
102
RTVSPropertyOp19
 70
     1
102
RTVSPropertyOp20
 70
     1
102
RTVSPropertyOp21
 70
     1
102
RTVSPropertyOp22
 70
     1
102
RTVSPropertyOp23
 70
     1
102
RTVSPropertyOp24
 70
     1
102
RTVSPropertyOp25
 70
     1
102
RTVSPropertyOp26
 70
     1
102
RTVSPropertyOp27
 70
     1
102
RTVSPropertyOp28
 70
     1
102
RTVSPropertyOp29
 70
     1
102
RTVSPropertyOp30
 70
     1
102
RTVSPropertyOp31
 70
     1
102
RTVSPropertyOp32
 70
     1
102
RTVSPropertyOp33
 70
     1
102
RTVSPropertyOp34
 70
     1
102
RTVSPropertyOp35
 70
     1
102
RTVSPropertyOp36
 70
     1
102
RTVSPropertyOp37
 70
     1
102
RTVSPropertyOp38
 70
     1
102
RTVSPropertyOp39
 70
     1
102
RTVSPropertyOp40
 70
     1
102
RTVSPropertyOp41
 70
     1
102
RTVSPropertyOp42
 70
     1
102
RTVSPropertyOp43
 70
     1
102
RTVSPropertyOp44
 70
     1
102
RTVSPropertyOp45
 70
     1
102
RTVSPropertyOp46
 70
     1
102
RTVSPropertyOp47
 70
     1
102
RTVSPropertyOp48
 70
     1
102
RTVSPropertyOp49
 70
     1
102
RTVSPropertyOp50
 70
     1
102
RTVSPropertyOp51
 70
     0
102
RTVSPropertyOp52
 70
     0
102
RTVSPropertyOp53
 70
     1
102
RTVSPropertyOp54
 70
     1
102
RTVSPropertyOp55
 70
     1
102
RTVSPropertyOp56
 70
     1
102
RTVSPropertyOp57
 70
     1
102
RTVSPropertyOp58
 70
     1
102
RTVSPropertyOp59
 70
     1
102
RTVSPropertyOp60
 70
     1
102
RTVSPropertyOp61
 70
     1
102
RTVSPropertyOp62
 70
     1
  0
XRECORD
  5
2C5
102
{ACAD_REACTORS
330
2C4
102
}
330
2C4
100
AcDbXrecord
280
     1
102
RTVSPost2010Prop28
280
     0
102
RTVSPost2010PropOp28
 70
     1
102
RTVSPost2010Prop29
280
     1
102
RTVSPost2010PropOp29
 70
     1
102
RTVSPost2010Prop30
280
     1
102
RTVSPost2010PropOp30
 70
     1
102
RTVSPost2010Prop31
280
     0
102
RTVSPost2010PropOp31
 70
     1
102
RTVSPost2010Prop32
280
     0
102
RTVSPost2010PropOp32
 70
     1
102
RTVSPost2010Prop33
280
     0
102
RTVSPost2010PropOp33
 70
     1
102
RTVSPost2010Prop34
280
     0
102
RTVSPost2010PropOp34
 70
     1
102
RTVSPost2010Prop35
280
     0
102
RTVSPost2010PropOp35
 70
     1
102
RTVSPost2010Prop36
280
     0
102
RTVSPost2010PropOp36
 70
     1
102
RTVSPost2010Prop37
 90
       50
102
RTVSPost2010PropOp37
 70
     1
102
RTVSPost2010Prop38
140
0.0
102
RTVSPost2010PropOp38
 70
     1
102
RTVSPost2010Prop39
140
1.0
102
RTVSPost2010PropOp39
 70
     1
102
RTVSPost2010Prop40
 90
        0
102
RTVSPost2010PropOp40
 70
     1
102
RTVSPost2010Prop41ColorIndex
 90
       18
102
RTVSPost2010Prop41ColorRGB
 90
        0
102
RTVSPost2010PropOp41
 70
     1
102
RTVSPost2010Prop42
 90
       50
102
RTVSPost2010PropOp42
 70
     1
102
RTVSPost2010Prop43
 90
        3
102
RTVSPost2010PropOp43
 70
     1
102
RTVSPost2010Prop44ColorIndex
 90
        5
102
RTVSPost2010Prop44ColorRGB
 90
      255
102
RTVSPost2010PropOp44
 70
     1
102
RTVSPost2010Prop45
280
     0
102
RTVSPost2010PropOp45
 70
     1
102
RTVSPost2010Prop46
 90
       50
102
RTVSPost2010PropOp46
 70
     1
102
RTVSPost2010Prop47
 90
       50
102
RTVSPost2010PropOp47
 70
     1
102
RTVSPost2010Prop48
 90
       50
102
RTVSPost2010PropOp48
 70
     1
102
RTVSPost2010Prop49
280
     0
102
RTVSPost2010PropOp49
 70
     1
102
RTVSPost2010Prop50
 90
       50
102
RTVSPost2010PropOp50
 70
     1
102
RTVSPost2010Prop51ColorIndex
 90
      256
102
RTVSPost2010Prop51ColorRGB
 90
-16777216
102
RTVSPost2010PropOp51
 70
     0
102
RTVSPost2010Prop52
140
1.0
102
RTVSPost2010PropOp52
 70
     0
102
RTVSPost2010Prop53
 90
        2
102
RTVSPost2010PropOp53
 70
     1
102
RTVSPost2010Prop54
  1
strokes_ogs.tif
102
RTVSPost2010PropOp54
 70
     1
102
RTVSPost2010Prop55
280
     0
102
RTVSPost2010PropOp55
 70
     1
102
RTVSPost2010Prop56
140
1.0
102
RTVSPost2010PropOp56
 70
     1
102
RTVSPost2010Prop57
140
1.0
102
RTVSPost2010PropOp57
 70
     1
102
RTVSPropertyOp0
 70
     1
102
RTVSPropertyOp1
 70
     1
102
RTVSPropertyOp2
 70
     1
102
RTVSPropertyOp3
 70
     1
102
RTVSPropertyOp4
 70
     1
102
RTVSPropertyOp5
 70
     1
102
RTVSPropertyOp6
 70
     1
102
RTVSPropertyOp7
 70
     1
102
RTVSPropertyOp8
 70
     1
102
RTVSPropertyOp9
 70
     1
102
RTVSPropertyOp10
 70
     1
102
RTVSPropertyOp11
 70
     1
102
RTVSPropertyOp12
 70
     1
102
RTVSPropertyOp13
 70
     1
102
RTVSPropertyOp14
 70
     1
102
RTVSPropertyOp15
 70
     1
102
RTVSPropertyOp16
 70
     1
102
RTVSPropertyOp17
 70
     1
102
RTVSPropertyOp18
 70
     1
102
RTVSPropertyOp19
 70
     1
102
RTVSPropertyOp20
 70
     1
102
RTVSPropertyOp21
 70
     1
102
RTVSPropertyOp22
 70
     1
102
RTVSPropertyOp23
 70
     1
102
RTVSPropertyOp24
 70
     1
102
RTVSPropertyOp25
 70
     1
102
RTVSPropertyOp26
 70
     1
102
RTVSPropertyOp27
 70
     1
102
RTVSPropertyOp28
 70
     1
102
RTVSPropertyOp29
 70
     1
102
RTVSPropertyOp30
 70
     1
102
RTVSPropertyOp31
 70
     1
102
RTVSPropertyOp32
 70
     1
102
RTVSPropertyOp33
 70
     1
102
RTVSPropertyOp34
 70
     1
102
RTVSPropertyOp35
 70
     1
102
RTVSPropertyOp36
 70
     1
102
RTVSPropertyOp37
 70
     1
102
RTVSPropertyOp38
 70
     1
102
RTVSPropertyOp39
 70
     1
102
RTVSPropertyOp40
 70
     1
102
RTVSPropertyOp41
 70
     1
102
RTVSPropertyOp42
 70
     1
102
RTVSPropertyOp43
 70
     1
102
RTVSPropertyOp44
 70
     1
102
RTVSPropertyOp45
 70
     1
102
RTVSPropertyOp46
 70
     1
102
RTVSPropertyOp47
 70
     1
102
RTVSPropertyOp48
 70
     1
102
RTVSPropertyOp49
 70
     1
102
RTVSPropertyOp50
 70
     1
102
RTVSPropertyOp51
 70
     0
102
RTVSPropertyOp52
 70
     0
102
RTVSPropertyOp53
 70
     1
102
RTVSPropertyOp54
 70
     1
102
RTVSPropertyOp55
 70
     1
102
RTVSPropertyOp56
 70
     1
102
RTVSPropertyOp57
 70
     1
102
RTVSPropertyOp58
 70
     1
102
RTVSPropertyOp59
 70
     1
102
RTVSPropertyOp60
 70
     1
102
RTVSPropertyOp61
 70
     1
102
RTVSPropertyOp62
 70
     1
  0
ENDSEC
  0
EOF
