  0
SECTION
  2
HEADER
  9
$ACADVER
  1
AC1018
  9
$ACADMAINTVER
 70
   104
  9
$DWGCODEPAGE
  3
ANSI_932
  9
$INSBASE
 10
0.0
 20
0.0
 30
0.0
  9
$EXTMIN
 10
-0.0128170472988813
 20
0.7709625102900191
 30
-0.0015258207003583
  9
$EXTMAX
 10
50.00701902426818
 20
36.8045368323626
 30
0.0000000349246037
  9
$LIMMIN
 10
-4.60306033429515
 20
-5.995307886036698
  9
$LIMMAX
 10
55.80503116821183
 20
41.36302444693524
  9
$ORTHOMODE
 70
     0
  9
$REGENMODE
 70
     1
  9
$FILLMODE
 70
     1
  9
$QTEXTMODE
 70
     0
  9
$MIRRTEXT
 70
     0
  9
$LTSCALE
 40
1.0
  9
$ATTMODE
 70
     1
  9
$TEXTSIZE
 40
2.5
  9
$TRACEWID
 40
1.0
  9
$TEXTSTYLE
  7
Standard
  9
$CLAYER
  8
0
  9
$CELTYPE
  6
ByLayer
  9
$CECOLOR
 62
   256
  9
$CELTSCALE
 40
1.0
  9
$DISPSILH
 70
     0
  9
$DIMSCALE
 40
1.0
  9
$DIMASZ
 40
2.5
  9
$DIMEXO
 40
0.625
  9
$DIMDLI
 40
3.75
  9
$DIMRND
 40
0.0
  9
$DIMDLE
 40
0.0
  9
$DIMEXE
 40
1.25
  9
$DIMTP
 40
0.0
  9
$DIMTM
 40
0.0
  9
$DIMTXT
 40
2.5
  9
$DIMCEN
 40
2.5
  9
$DIMTSZ
 40
0.0
  9
$DIMTOL
 70
     0
  9
$DIMLIM
 70
     0
  9
$DIMTIH
 70
     0
  9
$DIMTOH
 70
     0
  9
$DIMSE1
 70
     0
  9
$DIMSE2
 70
     0
  9
$DIMTAD
 70
     1
  9
$DIMZIN
 70
     8
  9
$DIMBLK
  1

  9
$DIMASO
 70
     1
  9
$DIMSHO
 70
     1
  9
$DIMPOST
  1

  9
$DIMAPOST
  1

  9
$DIMALT
 70
     0
  9
$DIMALTD
 70
     3
  9
$DIMALTF
 40
0.03937007874016
  9
$DIMLFAC
 40
1.0
  9
$DIMTOFL
 70
     1
  9
$DIMTVP
 40
0.0
  9
$DIMTIX
 70
     0
  9
$DIMSOXD
 70
     0
  9
$DIMSAH
 70
     0
  9
$DIMBLK1
  1

  9
$DIMBLK2
  1

  9
$DIMSTYLE
  2
ISO-25
  9
$DIMCLRD
 70
     0
  9
$DIMCLRE
 70
     0
  9
$DIMCLRT
 70
     0
  9
$DIMTFAC
 40
1.0
  9
$DIMGAP
 40
0.625
  9
$DIMJUST
 70
     0
  9
$DIMSD1
 70
     0
  9
$DIMSD2
 70
     0
  9
$DIMTOLJ
 70
     0
  9
$DIMTZIN
 70
     8
  9
$DIMALTZ
 70
     0
  9
$DIMALTTZ
 70
     0
  9
$DIMUPT
 70
     0
  9
$DIMDEC
 70
     2
  9
$DIMTDEC
 70
     2
  9
$DIMALTU
 70
     2
  9
$DIMALTTD
 70
     3
  9
$DIMTXSTY
  7
Standard
  9
$DIMAUNIT
 70
     0
  9
$DIMADEC
 70
     0
  9
$DIMALTRND
 40
0.0
  9
$DIMAZIN
 70
     0
  9
$DIMDSEP
 70
    44
  9
$DIMATFIT
 70
     3
  9
$DIMFRAC
 70
     0
  9
$DIMLDRBLK
  1

  9
$DIMLUNIT
 70
     2
  9
$DIMLWD
 70
    -2
  9
$DIMLWE
 70
    -2
  9
$DIMTMOVE
 70
     0
  9
$LUNITS
 70
     2
  9
$LUPREC
 70
     4
  9
$SKETCHINC
 40
1.0
  9
$FILLETRAD
 40
0.0
  9
$AUNITS
 70
     0
  9
$AUPREC
 70
     0
  9
$MENU
  1
.
  9
$ELEVATION
 40
0.0
  9
$PELEVATION
 40
0.0
  9
$THICKNESS
 40
0.0
  9
$LIMCHECK
 70
     0
  9
$CHAMFERA
 40
0.0
  9
$CHAMFERB
 40
0.0
  9
$CHAMFERC
 40
0.0
  9
$CHAMFERD
 40
0.0
  9
$SKPOLY
 70
     0
  9
$TDCREATE
 40
2458646.461956019
  9
$TDUCREATE
 40
2458646.128622685
  9
$TDUPDATE
 40
2458646.554826389
  9
$TDUUPDATE
 40
2458646.221493056
  9
$TDINDWG
 40
0.0929861111
  9
$TDUSRTIMER
 40
0.0929861111
  9
$USRTIMER
 70
     1
  9
$ANGBASE
 50
0.0
  9
$ANGDIR
 70
     0
  9
$PDMODE
 70
     0
  9
$PDSIZE
 40
0.0
  9
$PLINEWID
 40
0.0
  9
$SPLFRAME
 70
     0
  9
$SPLINETYPE
 70
     6
  9
$SPLINESEGS
 70
     8
  9
$HANDSEED
  5
2BC
  9
$SURFTAB1
 70
     6
  9
$SURFTAB2
 70
     6
  9
$SURFTYPE
 70
     6
  9
$SURFU
 70
     6
  9
$SURFV
 70
     6
  9
$UCSBASE
  2

  9
$UCSNAME
  2

  9
$UCSORG
 10
0.0
 20
0.0
 30
0.0
  9
$UCSXDIR
 10
1.0
 20
0.0
 30
0.0
  9
$UCSYDIR
 10
0.0
 20
1.0
 30
0.0
  9
$UCSORTHOREF
  2

  9
$UCSORTHOVIEW
 70
     0
  9
$UCSORGTOP
 10
0.0
 20
0.0
 30
0.0
  9
$UCSORGBOTTOM
 10
0.0
 20
0.0
 30
0.0
  9
$UCSORGLEFT
 10
0.0
 20
0.0
 30
0.0
  9
$UCSORGRIGHT
 10
0.0
 20
0.0
 30
0.0
  9
$UCSORGFRONT
 10
0.0
 20
0.0
 30
0.0
  9
$UCSORGBACK
 10
0.0
 20
0.0
 30
0.0
  9
$PUCSBASE
  2

  9
$PUCSNAME
  2

  9
$PUCSORG
 10
0.0
 20
0.0
 30
0.0
  9
$PUCSXDIR
 10
1.0
 20
0.0
 30
0.0
  9
$PUCSYDIR
 10
0.0
 20
1.0
 30
0.0
  9
$PUCSORTHOREF
  2

  9
$PUCSORTHOVIEW
 70
     0
  9
$PUCSORGTOP
 10
0.0
 20
0.0
 30
0.0
  9
$PUCSORGBOTTOM
 10
0.0
 20
0.0
 30
0.0
  9
$PUCSORGLEFT
 10
0.0
 20
0.0
 30
0.0
  9
$PUCSORGRIGHT
 10
0.0
 20
0.0
 30
0.0
  9
$PUCSORGFRONT
 10
0.0
 20
0.0
 30
0.0
  9
$PUCSORGBACK
 10
0.0
 20
0.0
 30
0.0
  9
$USERI1
 70
     0
  9
$USERI2
 70
     0
  9
$USERI3
 70
     0
  9
$USERI4
 70
     0
  9
$USERI5
 70
     0
  9
$USERR1
 40
0.0
  9
$USERR2
 40
0.0
  9
$USERR3
 40
0.0
  9
$USERR4
 40
0.0
  9
$USERR5
 40
0.0
  9
$WORLDVIEW
 70
     1
  9
$SHADEDGE
 70
     3
  9
$SHADEDIF
 70
    70
  9
$TILEMODE
 70
     1
  9
$MAXACTVP
 70
    64
  9
$PINSBASE
 10
0.0
 20
0.0
 30
0.0
  9
$PLIMCHECK
 70
     0
  9
$PEXTMIN
 10
0.0
 20
0.0
 30
0.0
  9
$PEXTMAX
 10
0.0
 20
0.0
 30
0.0
  9
$PLIMMIN
 10
0.0
 20
0.0
  9
$PLIMMAX
 10
12.0
 20
9.0
  9
$UNITMODE
 70
     0
  9
$VISRETAIN
 70
     1
  9
$PLINEGEN
 70
     0
  9
$PSLTSCALE
 70
     1
  9
$TREEDEPTH
 70
  3020
  9
$CMLSTYLE
  2
Standard
  9
$CMLJUST
 70
     0
  9
$CMLSCALE
 40
20.0
  9
$PROXYGRAPHICS
 70
     1
  9
$MEASUREMENT
 70
     1
  9
$CELWEIGHT
370
    -1
  9
$ENDCAPS
280
     0
  9
$JOINSTYLE
280
     0
  9
$LWDISPLAY
290
     0
  9
$INSUNITS
 70
     4
  9
$HYPERLINKBASE
  1

  9
$STYLESHEET
  1

  9
$XEDIT
290
     1
  9
$CEPSNTYPE
380
     0
  9
$PSTYLEMODE
290
     1
  9
$FINGERPRINTGUID
  2
{A5F8B16C-7B7A-314A-AC36-ADA6608ACC22}
  9
$VERSIONGUID
  2
{7F6356A0-355A-9F4A-B1DC-8C4110A29019}
  9
$EXTNAMES
290
     1
  9
$PSVPSCALE
 40
0.0
  9
$OLESTARTUP
290
     0
  9
$SORTENTS
280
   127
  9
$INDEXCTL
280
     0
  9
$HIDETEXT
280
     1
  9
$XCLIPFRAME
290
     0
  9
$HALOGAP
280
     0
  9
$OBSCOLOR
 70
   257
  9
$OBSLTYPE
280
     0
  9
$INTERSECTIONDISPLAY
280
     0
  9
$INTERSECTIONCOLOR
 70
   257
  9
$DIMASSOC
280
     2
  9
$PROJECTNAME
  1

  0
ENDSEC
  0
SECTION
  2
CLASSES
  0
CLASS
  1
ACDBDICTIONARYWDFLT
  2
AcDbDictionaryWithDefault
  3
ObjectDBX Classes
 90
        0
 91
        1
280
     0
281
     0
  0
CLASS
  1
DICTIONARYVAR
  2
AcDbDictionaryVar
  3
ObjectDBX Classes
 90
        0
 91
       12
280
     0
281
     0
  0
CLASS
  1
TABLESTYLE
  2
AcDbTableStyle
  3
ObjectDBX Classes
 90
     4095
 91
        1
280
     0
281
     0
  0
CLASS
  1
MATERIAL
  2
AcDbMaterial
  3
ObjectDBX Classes
 90
     1153
 91
        3
280
     0
281
     0
  0
CLASS
  1
VISUALSTYLE
  2
AcDbVisualStyle
  3
ObjectDBX Classes
 90
     4095
 91
        3
280
     0
281
     0
  0
CLASS
  1
SCALE
  2
AcDbScale
  3
ObjectDBX Classes
 90
     1153
 91
       17
280
     0
281
     0
  0
CLASS
  1
MLEADERSTYLE
  2
AcDbMLeaderStyle
  3
ACDB_MLEADERSTYLE_CLASS
 90
     4095
 91
        0
280
     0
281
     0
  0
CLASS
  1
CELLSTYLEMAP
  2
AcDbCellStyleMap
  3
ObjectDBX Classes
 90
     1152
 91
        1
280
     0
281
     0
  0
CLASS
  1
EXACXREFPANELOBJECT
  2
ExAcXREFPanelObject
  3
EXAC_ESW
 90
     1025
 91
        0
280
     1
281
     0
  0
CLASS
  1
NPOCOLLECTION
  2
AcDbImpNonPersistentObjectsCollection
  3
ObjectDBX Classes
 90
     1153
 91
        0
280
     0
281
     0
  0
CLASS
  1
LAYER_INDEX
  2
AcDbLayerIndex
  3
ObjectDBX Classes
 90
        0
 91
        0
280
     0
281
     0
  0
CLASS
  1
SPATIAL_INDEX
  2
AcDbSpatialIndex
  3
ObjectDBX Classes
 90
        0
 91
        0
280
     0
281
     0
  0
CLASS
  1
IDBUFFER
  2
AcDbIdBuffer
  3
ObjectDBX Classes
 90
        0
 91
        0
280
     0
281
     0
  0
CLASS
  1
ACDBSECTIONVIEWSTYLE
  2
AcDbSectionViewStyle
  3
ObjectDBX Classes
 90
     1025
 91
        0
280
     0
281
     0
  0
CLASS
  1
ACDBDETAILVIEWSTYLE
  2
AcDbDetailViewStyle
  3
ObjectDBX Classes
 90
     1025
 91
        0
280
     0
281
     0
  0
CLASS
  1
SORTENTSTABLE
  2
AcDbSortentsTable
  3
ObjectDBX Classes
 90
        0
 91
        2
280
     0
281
     0
  0
CLASS
  1
DIMASSOC
  2
AcDbDimAssoc
  3
"AcDbDimAssoc|Product Desc:     AcDim ARX App For Dimension|Company:          Autodesk, Inc.|WEB Address:      www.autodesk.com"
 90
        0
 91
        0
280
     0
281
     0
  0
ENDSEC
  0
SECTION
  2
TABLES
  0
TABLE
  2
VPORT
  5
29
330
0
100
AcDbSymbolTable
 70
     1
  0
VPORT
  5
2A
330
29
100
AcDbSymbolTableRecord
100
AcDbViewportTableRecord
  2
*Active
 70
     0
 10
0.0
 20
0.0
 11
1.0
 21
1.0
 12
25.60098541695833
 22
17.68385828044927
 13
0.0
 23
0.0
 14
10.0
 24
10.0
 15
10.0
 25
10.0
 16
0.0
 26
0.0
 36
1.0
 17
0.0
 27
0.0
 37
0.0
 40
47.78562555702883
 41
2.396084337349397
 42
50.0
 43
0.0
 44
0.0
 50
0.0
 51
0.0
 71
     0
 72
  1000
 73
     1
 74
     3
 75
     0
 76
     1
 77
     0
 78
     0
281
     0
 65
     1
110
0.0
120
0.0
130
0.0
111
1.0
121
0.0
131
0.0
112
0.0
122
1.0
132
0.0
 79
     0
146
0.0
1001
ACAD_NAV_VCDISPLAY
1070
     3
  0
ENDTAB
  0
TABLE
  2
LTYPE
  5
24
330
0
100
AcDbSymbolTable
 70
     1
  0
LTYPE
  5
25
330
24
100
AcDbSymbolTableRecord
100
AcDbLinetypeTableRecord
  2
ByBlock
 70
     0
  3

 72
    65
 73
     0
 40
0.0
  0
LTYPE
  5
26
330
24
100
AcDbSymbolTableRecord
100
AcDbLinetypeTableRecord
  2
ByLayer
 70
     0
  3

 72
    65
 73
     0
 40
0.0
  0
LTYPE
  5
14
330
24
100
AcDbSymbolTableRecord
100
AcDbLinetypeTableRecord
  2
Continuous
 70
     0
  3
Solid line
 72
    65
 73
     0
 40
0.0
  0
ENDTAB
  0
TABLE
  2
LAYER
  5
1E
102
{ACAD_XDICTIONARY
360
1F
102
}
330
0
100
AcDbSymbolTable
 70
     1
  0
LAYER
  5
6
102
{ACAD_XDICTIONARY
360
7
102
}
330
1E
100
AcDbSymbolTableRecord
100
AcDbLayerTableRecord
  2
0
 70
     0
 62
     7
  6
Continuous
370
    -3
390
8
  0
ENDTAB
  0
TABLE
  2
STYLE
  5
21
330
0
100
AcDbSymbolTable
 70
     1
  0
STYLE
  5
22
330
21
100
AcDbSymbolTableRecord
100
AcDbTextStyleTableRecord
  2
Standard
 70
     0
 40
0.0
 41
1.0
 50
0.0
 71
     0
 42
2.5
  3
arial.ttf
  4

1001
ACAD
1000
Arial
1071
       34
  0
ENDTAB
  0
TABLE
  2
VIEW
  5
27
330
0
100
AcDbSymbolTable
 70
     0
  0
ENDTAB
  0
TABLE
  2
UCS
  5
28
330
0
100
AcDbSymbolTable
 70
     0
  0
ENDTAB
  0
TABLE
  2
APPID
  5
2E
330
0
100
AcDbSymbolTable
 70
     6
  0
APPID
  5
13
330
2E
100
AcDbSymbolTableRecord
100
AcDbRegAppTableRecord
  2
ACAD
 70
     0
  0
APPID
  5
19
330
2E
100
AcDbSymbolTableRecord
100
AcDbRegAppTableRecord
  2
ACAD_PSEXT
 70
     0
  0
APPID
  5
32
330
2E
100
AcDbSymbolTableRecord
100
AcDbRegAppTableRecord
  2
AcadAnnotative
 70
     0
  0
APPID
  5
33
330
2E
100
AcDbSymbolTableRecord
100
AcDbRegAppTableRecord
  2
ACAD_DSTYLE_DIMJAG
 70
     0
  0
APPID
  5
34
330
2E
100
AcDbSymbolTableRecord
100
AcDbRegAppTableRecord
  2
ACAD_DSTYLE_DIMTALN
 70
     0
  0
APPID
  5
2D
330
2E
100
AcDbSymbolTableRecord
100
AcDbRegAppTableRecord
  2
ACAD_NAV_VCDISPLAY
 70
     0
  0
ENDTAB
  0
TABLE
  2
DIMSTYLE
  5
2F
330
0
100
AcDbSymbolTable
 70
     2
100
AcDbDimStyleTable
 71
     2
340
30
340
31
  0
DIMSTYLE
105
31
330
2F
100
AcDbSymbolTableRecord
100
AcDbDimStyleTableRecord
  2
Annotative
 70
     0
 40
0.0
 41
2.5
 42
0.625
 43
3.75
 44
1.25
 73
     0
 74
     0
 77
     1
 78
     8
140
2.5
141
2.5
143
0.03937007874016
147
0.625
171
     3
172
     1
271
     2
272
     2
274
     3
278
    44
283
     0
284
     8
340
22
1001
AcadAnnotative
1000
AnnotativeData
1002
{
1070
     1
1070
     1
1002
}
1001
ACAD_DSTYLE_DIMJAG
1070
   388
1040
1.5
1001
ACAD_DSTYLE_DIMTALN
1070
   392
1070
     0
  0
DIMSTYLE
105
30
330
2F
100
AcDbSymbolTableRecord
100
AcDbDimStyleTableRecord
  2
ISO-25
 70
     0
 41
2.5
 42
0.625
 43
3.75
 44
1.25
 73
     0
 74
     0
 77
     1
 78
     8
140
2.5
141
2.5
143
0.03937007874016
147
0.625
171
     3
172
     1
271
     2
272
     2
274
     3
278
    44
283
     0
284
     8
340
22
  0
ENDTAB
  0
TABLE
  2
BLOCK_RECORD
  5
1
330
0
100
AcDbSymbolTable
 70
     0
  0
BLOCK_RECORD
  5
2
102
{ACAD_XDICTIONARY
360
3
102
}
330
1
100
AcDbSymbolTableRecord
100
AcDbBlockTableRecord
  2
*Model_Space
340
16
  0
BLOCK_RECORD
  5
1A
330
1
100
AcDbSymbolTableRecord
100
AcDbBlockTableRecord
  2
*Paper_Space
340
1D
  0
ENDTAB
  0
ENDSEC
  0
SECTION
  2
BLOCKS
  0
BLOCK
  5
5
330
2
100
AcDbEntity
  8
0
100
AcDbBlockBegin
  2
*Model_Space
 70
     0
 10
0.0
 20
0.0
 30
0.0
  3
*Model_Space
  1

  0
ENDBLK
  5
15
330
2
100
AcDbEntity
  8
0
100
AcDbBlockEnd
  0
BLOCK
  5
1B
330
1A
100
AcDbEntity
 67
     1
  8
0
100
AcDbBlockBegin
  2
*Paper_Space
 70
     0
 10
0.0
 20
0.0
 30
0.0
  3
*Paper_Space
  1

  0
ENDBLK
  5
1C
330
1A
100
AcDbEntity
 67
     1
  8
0
100
AcDbBlockEnd
  0
ENDSEC
  0
SECTION
  2
ENTITIES
  0
LINE
  5
59
330
2
100
AcDbEntity
  8
0
100
AcDbLine
 10
8.539521759067216
 20
1.293840638845982
 30
0.0
 11
23.87680017973633
 21
9.387062176492404
 31
0.0
  0
LINE
  5
5A
330
2
100
AcDbEntity
  8
0
100
AcDbLine
 10
17.77794333384101
 20
20.94486886511731
 30
0.0
 11
9.470484939737028
 21
16.5611543203033
 31
0.0
  0
LINE
  5
5B
330
2
100
AcDbEntity
  8
0
100
AcDbLine
 10
9.470482755616114
 20
16.56115845937154
 30
0.0
 11
2.44066491317187
 21
12.85164803015042
 31
0.0
  0
LINE
  5
5C
330
2
100
AcDbEntity
  8
0
100
AcDbLine
 10
19.83159358578852
 20
26.9252071693083
 30
0.0
 11
19.83159358578852
 21
10.92990392469277
 31
0.0
  0
LINE
  5
5D
330
2
100
AcDbEntity
  8
0
100
AcDbLine
 10
22.98973803216375
 20
10.92991132946513
 30
0.0
 11
22.98973803216375
 21
26.92521457408066
 31
0.0
  0
LINE
  5
5E
330
2
100
AcDbEntity
  8
0
100
AcDbLine
 10
22.57464039039343
 20
36.36895544432317
 30
0.0
 11
22.37034937864354
 21
36.5134089241061
 31
0.0
  0
LINE
  5
5F
330
2
100
AcDbEntity
  8
0
100
AcDbLine
 10
20.45097700399564
 20
36.51341109352181
 30
0.0
 11
20.38623251133488
 21
36.46762362301927
 31
0.0
  0
LINE
  5
60
330
2
100
AcDbEntity
  8
0
100
AcDbLine
 10
19.53866077537324
 20
36.23620780520045
 30
0.0
 11
19.53866077537324
 21
36.12303350303373
 31
0.0
  0
SPLINE
  5
61
330
2
100
AcDbEntity
  8
0
100
AcDbSpline
210
0.0
220
0.0
230
1.0
 70
     8
 71
     3
 72
    15
 73
    11
 74
     0
 42
0.000000001
 43
0.0000000001
 40
0.0
 40
0.0
 40
0.0
 40
0.0
 40
0.0715217484842651
 40
0.2068990241779319
 40
0.3413104890540076
 40
0.4750334685675607
 40
0.6085743328119225
 40
0.7423963387903897
 40
0.8769897532396871
 40
1.0
 40
1.0
 40
1.0
 40
1.0
 10
21.66625869103601
 20
35.76958052287238
 30
0.0
 10
21.61904519392005
 20
35.79051426834015
 30
0.0
 10
21.48246538863917
 20
35.85107167362533
 30
0.0
 10
21.22682028588705
 20
35.92681258877675
 30
0.0
 10
20.899454317601
 20
35.98402455154916
 30
0.0
 10
20.55828723651531
 20
36.00534749796937
 30
0.0
 10
20.21622521565652
 20
35.9911690487273
 30
0.0
 10
19.88629701573857
 20
35.94101125566202
 30
0.0
 10
19.5861979477684
 20
35.8611587290408
 30
0.0
 10
19.41768476585499
 20
35.78428120419885
 30
0.0
 10
19.33721677874565
 20
35.74757084357461
 30
0.0
  0
LINE
  5
62
330
2
100
AcDbEntity
  8
0
100
AcDbLine
 10
22.01309552764224
 20
35.60520229905801
 30
0.0
 11
21.66625869102977
 21
35.76958052285658
 31
0.0
  0
LINE
  5
63
330
2
100
AcDbEntity
  8
0
100
AcDbLine
 10
19.33721677873817
 20
35.74757084355462
 30
0.0
 11
18.84284831772227
 21
35.49576001631798
 31
0.0
  0
SPLINE
  5
64
330
2
100
AcDbEntity
  8
0
100
AcDbSpline
210
0.0
220
0.0
230
1.0
 70
     8
 71
     3
 72
    11
 73
     7
 74
     0
 42
0.000000001
 43
0.0000000001
 40
0.0
 40
0.0
 40
0.0
 40
0.0
 40
0.2595475443108277
 40
0.5502336646774896
 40
0.8459100627311833
 40
1.0
 40
1.0
 40
1.0
 40
1.0
 10
18.66568987520254
 20
35.12721295193731
 30
0.0
 10
18.66724194477498
 20
35.09732460989032
 30
0.0
 10
18.6705322896362
 20
35.03396214572498
 30
0.0
 10
18.72204552813385
 20
34.94989564437479
 30
0.0
 10
18.7825049979693
 20
34.89305759941219
 30
0.0
 10
18.82648630799004
 20
34.86820083034659
 30
0.0
 10
18.84155430390218
 20
34.85968490177383
 30
0.0
  0
LINE
  5
65
330
2
100
AcDbEntity
  8
0
100
AcDbLine
 10
18.66153675300907
 20
35.22539893250469
 30
0.0
 11
18.66153675300907
 21
35.13052592605045
 31
0.0
  0
SPLINE
  5
66
330
2
100
AcDbEntity
  8
0
100
AcDbSpline
210
0.0
220
0.0
230
1.0
 70
     8
 71
     3
 72
    11
 73
     7
 74
     0
 42
0.000000001
 43
0.0000000001
 40
0.0
 40
0.0
 40
0.0
 40
0.0
 40
0.3050385959534879
 40
0.6286221293491731
 40
0.9350097739744928
 40
1.0
 40
1.0
 40
1.0
 40
1.0
 10
18.84284831773421
 20
35.49576001630766
 30
0.0
 10
18.81298430040634
 20
35.4779230109194
 30
0.0
 10
18.75144067146008
 20
35.44116459261726
 30
0.0
 10
18.6888481110972
 20
35.3549077843258
 30
0.0
 10
18.65742422932524
 20
35.27591066027261
 30
0.0
 10
18.66415661765305
 20
35.23355620134146
 30
0.0
 10
18.66533476927082
 20
35.22614427382324
 30
0.0
  0
LINE
  5
67
330
2
100
AcDbEntity
  8
0
100
AcDbLine
 10
18.84155430388057
 20
34.85968490176003
 30
0.0
 11
18.9810054037001
 21
34.78731078121081
 31
0.0
  0
SPLINE
  5
68
330
2
100
AcDbEntity
  8
0
100
AcDbSpline
210
0.0
220
0.0
230
1.0
 70
     8
 71
     3
 72
    11
 73
     7
 74
     0
 42
0.000000001
 43
0.0000000001
 40
0.0
 40
0.0
 40
0.0
 40
0.0
 40
0.2233296042130067
 40
0.4851870008933536
 40
0.7430464142050619
 40
1.0
 40
1.0
 40
1.0
 40
1.0
 10
15.89896987970937
 20
25.8163733682886
 30
0.0
 10
15.90418707323298
 20
25.76662477506521
 30
0.0
 10
15.91552150642505
 20
25.65854519094664
 30
0.0
 10
16.00066121805904
 20
25.51418898668649
 30
0.0
 10
16.11836853781829
 20
25.39160703074562
 30
0.0
 10
16.21677878334819
 20
25.33645014079937
 30
0.0
 10
16.26589732835729
 20
25.30892022085249
 30
0.0
  0
LINE
  5
69
330
2
100
AcDbEntity
  8
0
100
AcDbLine
 10
15.48156897989116
 20
31.5878070498451
 30
0.0
 11
15.89310602401956
 21
25.81587007563704
 31
0.0
  0
LINE
  5
6A
330
2
100
AcDbEntity
  8
0
100
AcDbLine
 10
16.25849815858899
 20
25.31247859982393
 30
0.0
 11
19.83158946210392
 21
23.52593294804472
 31
0.0
  0
LINE
  5
6B
330
2
100
AcDbEntity
  8
0
100
AcDbLine
 10
22.98973745846778
 20
21.94685894988456
 30
0.0
 11
40.62300124092775
 21
13.13022705863276
 31
0.0
  0
SPLINE
  5
6C
330
2
100
AcDbEntity
  8
0
100
AcDbSpline
210
0.0
220
0.0
230
1.0
 70
     8
 71
     3
 72
    11
 73
     7
 74
     0
 42
0.000000001
 43
0.0000000001
 40
0.0
 40
0.0
 40
0.0
 40
0.0
 40
0.2221612048116317
 40
0.5079283938937801
 40
0.7814742409977033
 40
1.0
 40
1.0
 40
1.0
 40
1.0
 10
49.1632786015559
 20
16.89946927987535
 30
0.0
 10
49.20585500077945
 20
16.92295602354076
 30
0.0
 10
49.30319765830495
 20
16.97665389575867
 30
0.0
 10
49.42443682840585
 20
17.0973185272562
 30
0.0
 10
49.5135375858123
 20
17.24851520145121
 30
0.0
 10
49.52582383794997
 20
17.35789082557314
 30
0.0
 10
49.53128008159479
 20
17.4064638197899
 30
0.0
  0
LINE
  5
6D
330
2
100
AcDbEntity
  8
0
100
AcDbLine
 10
49.53612068140747
 20
17.40644024546131
 30
0.0
 11
49.99504218898714
 21
23.84320699173442
 31
0.0
  0
LINE
  5
6E
330
2
100
AcDbEntity
  8
0
100
AcDbLine
 10
41.62505789851334
 20
13.13022433338103
 30
0.0
 11
49.17068236122195
 21
16.90303656473532
 31
0.0
  0
SPLINE
  5
6F
330
2
100
AcDbEntity
  8
0
100
AcDbSpline
210
0.0
220
0.0
230
1.0
 70
     8
 71
     3
 72
    12
 73
     8
 74
     0
 42
0.000000001
 43
0.0000000001
 40
0.0
 40
0.0
 40
0.0
 40
0.0
 40
0.1348736014151179
 40
0.3552539105465785
 40
0.5762388254363852
 40
0.8026880471397731
 40
1.0
 40
1.0
 40
1.0
 40
1.0
 10
40.61544257289583
 20
13.13414785305519
 30
0.0
 10
40.65692668471085
 20
13.11538900976361
 30
0.0
 10
40.76619486464553
 20
13.06597865542649
 30
0.0
 10
40.96666579428354
 20
13.02378418284621
 30
0.0
 10
41.20900443119254
 20
13.01702855874336
 30
0.0
 10
41.43900180476272
 20
13.05113673711037
 30
0.0
 10
41.57109943077673
 20
13.10776239905338
 30
0.0
 10
41.63260681305127
 20
13.13412847648245
 30
0.0
  0
LINE
  5
70
330
2
100
AcDbEntity
  8
0
100
AcDbLine
 10
10.49631945896102
 20
5.994982716932732
 30
0.0
 11
10.40293294586713
 21
6.16323939371648
 31
0.0
  0
LINE
  5
71
330
2
100
AcDbEntity
  8
0
100
AcDbLine
 10
10.40293294586713
 20
6.16323939371648
 30
0.0
 11
10.40282895644271
 21
6.167352713594678
 31
0.0
  0
LINE
  5
72
330
2
100
AcDbEntity
  8
0
100
AcDbLine
 10
10.40282895644271
 20
6.167352713594678
 30
0.0
 11
10.48791783118305
 21
6.302644189260266
 31
0.0
  0
LINE
  5
73
330
2
100
AcDbEntity
  8
0
100
AcDbLine
 10
10.48791783118305
 20
6.302644189260266
 30
0.0
 11
10.38744598119754
 21
6.466530229945173
 31
0.0
  0
LINE
  5
74
330
2
100
AcDbEntity
  8
0
100
AcDbLine
 10
10.38744598119754
 20
6.466530229945173
 30
0.0
 11
10.38714032401516
 21
6.470676494476141
 31
0.0
  0
LINE
  5
75
330
2
100
AcDbEntity
  8
0
100
AcDbLine
 10
10.38714032401516
 20
6.470676494476141
 30
0.0
 11
10.4645831796291
 21
6.612613235679861
 31
0.0
  0
LINE
  5
76
330
2
100
AcDbEntity
  8
0
100
AcDbLine
 10
10.4645831796291
 20
6.612613235679861
 30
0.0
 11
10.3573600498001
 21
6.771622470079295
 31
0.0
  0
LINE
  5
77
330
2
100
AcDbEntity
  8
0
100
AcDbLine
 10
10.3573600498001
 20
6.771622470079295
 30
0.0
 11
10.35684842183535
 21
6.775791095640169
 31
0.0
  0
LINE
  5
78
330
2
100
AcDbEntity
  8
0
100
AcDbLine
 10
10.35684842183535
 20
6.775791095640169
 30
0.0
 11
10.42641734216787
 21
6.923947931310335
 31
0.0
  0
LINE
  5
79
330
2
100
AcDbEntity
  8
0
100
AcDbLine
 10
10.42641734216787
 20
6.923947931310335
 30
0.0
 11
10.31272492308662
 21
7.077624404882687
 31
0.0
  0
LINE
  5
7A
330
2
100
AcDbEntity
  8
0
100
AcDbLine
 10
10.31272492308662
 20
7.077624404882687
 30
0.0
 11
10.31202195463143
 21
7.081795914910079
 31
0.0
  0
LINE
  5
7B
330
2
100
AcDbEntity
  8
0
100
AcDbLine
 10
10.31202195463143
 20
7.081795914910079
 30
0.0
 11
10.37351857091586
 21
7.235730034545563
 31
0.0
  0
LINE
  5
7C
330
2
100
AcDbEntity
  8
0
100
AcDbLine
 10
10.37351857091586
 20
7.235730034545563
 30
0.0
 11
10.25371645084235
 21
7.383604323701379
 31
0.0
  0
LINE
  5
7D
330
2
100
AcDbEntity
  8
0
100
AcDbLine
 10
10.25371645084235
 20
7.383604323701379
 30
0.0
 11
10.2528001965241
 21
7.387777672866419
 31
0.0
  0
LINE
  5
7E
330
2
100
AcDbEntity
  8
0
100
AcDbLine
 10
10.2528001965241
 20
7.387777672866419
 30
0.0
 11
10.30603847528416
 21
7.547024326474137
 31
0.0
  0
LINE
  5
7F
330
2
100
AcDbEntity
  8
0
100
AcDbLine
 10
10.30603847528416
 20
7.547024326474137
 30
0.0
 11
10.18047060815312
 21
7.688664341638844
 31
0.0
  0
LINE
  5
80
330
2
100
AcDbEntity
  8
0
100
AcDbLine
 10
10.18047060815312
 20
7.688664341638844
 30
0.0
 11
10.17937491825396
 21
7.692814114732136
 31
0.0
  0
LINE
  5
81
330
2
100
AcDbEntity
  8
0
100
AcDbLine
 10
10.17937491825396
 20
7.692814114732136
 30
0.0
 11
10.22420023802244
 21
7.856900277332284
 31
0.0
  0
LINE
  5
82
330
2
100
AcDbEntity
  8
0
100
AcDbLine
 10
10.22420023802244
 20
7.856900277332284
 30
0.0
 11
10.09325045238081
 21
7.991878317422084
 31
0.0
  0
LINE
  5
83
330
2
100
AcDbEntity
  8
0
100
AcDbLine
 10
10.09325045238081
 20
7.991878317422084
 30
0.0
 11
10.09195452909431
 21
7.996001232092615
 31
0.0
  0
LINE
  5
84
330
2
100
AcDbEntity
  8
0
100
AcDbLine
 10
10.09195452909431
 20
7.996001232092615
 30
0.0
 11
10.12822646822795
 21
8.164438493025297
 31
0.0
  0
LINE
  5
85
330
2
100
AcDbEntity
  8
0
100
AcDbLine
 10
10.12822646822795
 20
8.164438493025297
 30
0.0
 11
9.992280887537262
 21
8.292351985361364
 31
0.0
  0
LINE
  5
86
330
2
100
AcDbEntity
  8
0
100
AcDbLine
 10
9.992280887537262
 20
8.292351985361364
 30
0.0
 11
9.990801369134681
 21
8.296429569166127
 31
0.0
  0
LINE
  5
87
330
2
100
AcDbEntity
  8
0
100
AcDbLine
 10
9.990801369134681
 20
8.296429569166127
 30
0.0
 11
10.0183945666195
 21
8.46872580512668
 31
0.0
  0
LINE
  5
88
330
2
100
AcDbEntity
  8
0
100
AcDbLine
 10
10.0183945666195
 20
8.46872580512668
 30
0.0
 11
9.877878328322392
 21
8.589184567381417
 31
0.0
  0
LINE
  5
89
330
2
100
AcDbEntity
  8
0
100
AcDbLine
 10
9.877878328322392
 20
8.589184567381417
 30
0.0
 11
9.876213637031026
 21
8.593207599279864
 31
0.0
  0
LINE
  5
8A
330
2
100
AcDbEntity
  8
0
100
AcDbLine
 10
9.876213637031026
 20
8.593207599279864
 30
0.0
 11
9.895073588093481
 21
8.768834172240628
 31
0.0
  0
LINE
  5
8B
330
2
100
AcDbEntity
  8
0
100
AcDbLine
 10
9.895073588093481
 20
8.768834172240628
 30
0.0
 11
9.75037668833858
 21
8.881493962193861
 31
0.0
  0
LINE
  5
8C
330
2
100
AcDbEntity
  8
0
100
AcDbLine
 10
9.75037668833858
 20
8.881493962193861
 30
0.0
 11
9.748544179614988
 21
8.885447138922971
 31
0.0
  0
LINE
  5
8D
330
2
100
AcDbEntity
  8
0
100
AcDbLine
 10
9.748544179614988
 20
8.885447138922971
 30
0.0
 11
9.758596729066981
 21
9.063885440472754
 31
0.0
  0
LINE
  5
8E
330
2
100
AcDbEntity
  8
0
100
AcDbLine
 10
9.758596729066981
 20
9.063885440472754
 30
0.0
 11
9.610165103147025
 21
9.16840169843301
 31
0.0
  0
LINE
  5
8F
330
2
100
AcDbEntity
  8
0
100
AcDbLine
 10
9.610165103147025
 20
9.16840169843301
 30
0.0
 11
9.608164346741036
 21
9.172273562017181
 31
0.0
  0
LINE
  5
90
330
2
100
AcDbEntity
  8
0
100
AcDbLine
 10
9.608164346741036
 20
9.172273562017181
 30
0.0
 11
9.609371054297305
 21
9.352998860226721
 31
0.0
  0
LINE
  5
91
330
2
100
AcDbEntity
  8
0
100
AcDbLine
 10
9.609371054297305
 20
9.352998860226721
 30
0.0
 11
9.457651211288036
 21
9.449059726604893
 31
0.0
  0
LINE
  5
92
330
2
100
AcDbEntity
  8
0
100
AcDbLine
 10
9.457651211288036
 20
9.449059726604893
 30
0.0
 11
9.455482207156093
 21
9.452844655651608
 31
0.0
  0
LINE
  5
93
330
2
100
AcDbEntity
  8
0
100
AcDbLine
 10
9.455482207156093
 20
9.452844655651608
 30
0.0
 11
9.447859567729247
 21
9.635306102837155
 31
0.0
  0
LINE
  5
94
330
2
100
AcDbEntity
  8
0
100
AcDbLine
 10
9.447859567729247
 20
9.635306102837155
 30
0.0
 11
9.293297442923377
 21
9.722626222753122
 31
0.0
  0
LINE
  5
95
330
2
100
AcDbEntity
  8
0
100
AcDbLine
 10
9.293297442923377
 20
9.722626222753122
 30
0.0
 11
9.290979267784159
 21
9.726301342476171
 31
0.0
  0
LINE
  5
96
330
2
100
AcDbEntity
  8
0
100
AcDbLine
 10
9.290979267784159
 20
9.726301342476171
 30
0.0
 11
9.274544349939269
 21
9.909958305181168
 31
0.0
  0
LINE
  5
97
330
2
100
AcDbEntity
  8
0
100
AcDbLine
 10
9.274544349939269
 20
9.909958305181168
 30
0.0
 11
9.117603664423427
 21
9.98827808096011
 31
0.0
  0
LINE
  5
98
330
2
100
AcDbEntity
  8
0
100
AcDbLine
 10
9.117603664423427
 20
9.98827808096011
 30
0.0
 11
9.115118819374531
 21
9.99184738000561
 31
0.0
  0
LINE
  5
99
330
2
100
AcDbEntity
  8
0
100
AcDbLine
 10
9.115118819374531
 20
9.99184738000561
 30
0.0
 11
9.089926414820292
 21
10.17615129470127
 31
0.0
  0
LINE
  5
9A
330
2
100
AcDbEntity
  8
0
100
AcDbLine
 10
9.089926414820292
 20
10.17615129470127
 30
0.0
 11
8.931068881614535
 21
10.24523691627915
 31
0.0
  0
LINE
  5
9B
330
2
100
AcDbEntity
  8
0
100
AcDbLine
 10
8.931068881614535
 20
10.24523691627915
 30
0.0
 11
8.928455806854163
 21
10.24867446359055
 31
0.0
  0
LINE
  5
9C
330
2
100
AcDbEntity
  8
0
100
AcDbLine
 10
8.928455806854163
 20
10.24867446359055
 30
0.0
 11
8.894562571832738
 21
10.43307919426166
 31
0.0
  0
LINE
  5
9D
330
2
100
AcDbEntity
  8
0
100
AcDbLine
 10
8.894562571832738
 20
10.43307919426166
 30
0.0
 11
8.734265681684647
 21
10.4927272261391
 31
0.0
  0
LINE
  5
9E
330
2
100
AcDbEntity
  8
0
100
AcDbLine
 10
8.734265681684647
 20
10.4927272261391
 30
0.0
 11
8.731526385279243
 21
10.49602559359541
 31
0.0
  0
LINE
  5
9F
330
2
100
AcDbEntity
  8
0
100
AcDbLine
 10
8.731526385279243
 20
10.49602559359541
 30
0.0
 11
8.689046206188802
 21
10.67997971093427
 31
0.0
  0
LINE
  5
A0
330
2
100
AcDbEntity
  8
0
100
AcDbLine
 10
8.689046206188802
 20
10.67997971093427
 30
0.0
 11
8.527802080007164
 21
10.72999965412866
 31
0.0
  0
LINE
  5
A1
330
2
100
AcDbEntity
  8
0
100
AcDbLine
 10
8.527802080007164
 20
10.72999965412866
 30
0.0
 11
8.524920784229337
 21
10.73316369096346
 31
0.0
  0
LINE
  5
A2
330
2
100
AcDbEntity
  8
0
100
AcDbLine
 10
8.524920784229337
 20
10.73316369096346
 30
0.0
 11
8.47397012923051
 21
10.91611574109405
 31
0.0
  0
LINE
  5
A3
330
2
100
AcDbEntity
  8
0
100
AcDbLine
 10
8.47397012923051
 20
10.91611574109405
 30
0.0
 11
8.312248655747115
 21
10.95637080675994
 31
0.0
  0
LINE
  5
A4
330
2
100
AcDbEntity
  8
0
100
AcDbLine
 10
8.312248655747115
 20
10.95637080675994
 30
0.0
 11
8.309246445425566
 21
10.9593814529819
 31
0.0
  0
LINE
  5
A5
330
2
100
AcDbEntity
  8
0
100
AcDbLine
 10
8.309246445425566
 20
10.9593814529819
 30
0.0
 11
8.249999873248125
 21
11.14078074037842
 31
0.0
  0
LINE
  5
A6
330
2
100
AcDbEntity
  8
0
100
AcDbLine
 10
8.249999873248125
 20
11.14078074037842
 30
0.0
 11
8.088283419974477
 21
11.17114600040921
 31
0.0
  0
LINE
  5
A7
330
2
100
AcDbEntity
  8
0
100
AcDbLine
 10
8.088283419974477
 20
11.17114600040921
 30
0.0
 11
8.085182527242656
 21
11.17398758048465
 31
0.0
  0
LINE
  5
A8
330
2
100
AcDbEntity
  8
0
100
AcDbLine
 10
8.085182527242656
 20
11.17398758048465
 30
0.0
 11
8.017799392759162
 21
11.35329847321273
 31
0.0
  0
LINE
  5
A9
330
2
100
AcDbEntity
  8
0
100
AcDbLine
 10
8.017799392759162
 20
11.35329847321273
 30
0.0
 11
7.856564302876684
 21
11.3736896433545
 31
0.0
  0
LINE
  5
AA
330
2
100
AcDbEntity
  8
0
100
AcDbLine
 10
7.856564302876684
 20
11.3736896433545
 30
0.0
 11
7.853349954127533
 21
11.37636469783724
 31
0.0
  0
LINE
  5
AB
330
2
100
AcDbEntity
  8
0
100
AcDbLine
 10
7.853349954127533
 20
11.37636469783724
 30
0.0
 11
7.778048419965053
 21
11.5530470594257
 31
0.0
  0
LINE
  5
AC
330
2
100
AcDbEntity
  8
0
100
AcDbLine
 10
7.778048419965053
 20
11.5530470594257
 30
0.0
 11
7.617781794259851
 21
11.56339647705566
 31
0.0
  0
LINE
  5
AD
330
2
100
AcDbEntity
  8
0
100
AcDbLine
 10
7.617781794259851
 20
11.56339647705566
 30
0.0
 11
7.614476938855689
 21
11.56589531035363
 31
0.0
  0
LINE
  5
AE
330
2
100
AcDbEntity
  8
0
100
AcDbLine
 10
7.614476938855689
 20
11.56589531035363
 30
0.0
 11
7.531460250501275
 21
11.73942983284811
 31
0.0
  0
LINE
  5
AF
330
2
100
AcDbEntity
  8
0
100
AcDbLine
 10
7.531460250501275
 20
11.73942983284811
 30
0.0
 11
7.37264058379773
 21
11.7397091882278
 31
0.0
  0
LINE
  5
B0
330
2
100
AcDbEntity
  8
0
100
AcDbLine
 10
7.37264058379773
 20
11.7397091882278
 30
0.0
 11
7.369268457992341
 21
11.74201100540955
 31
0.0
  0
LINE
  5
B1
330
2
100
AcDbEntity
  8
0
100
AcDbLine
 10
7.369268457992341
 20
11.74201100540955
 30
0.0
 11
7.27878059613286
 21
11.91188319946595
 31
0.0
  0
LINE
  5
B2
330
2
100
AcDbEntity
  8
0
100
AcDbLine
 10
7.27878059613286
 20
11.91188319946595
 30
0.0
 11
7.121895419467302
 21
11.90208275461865
 31
0.0
  0
LINE
  5
B3
330
2
100
AcDbEntity
  8
0
100
AcDbLine
 10
7.121895419467302
 20
11.90208275461865
 30
0.0
 11
7.118442683937044
 21
11.90419924553398
 31
0.0
  0
LINE
  5
B4
330
2
100
AcDbEntity
  8
0
100
AcDbLine
 10
7.118442683937044
 20
11.90419924553398
 30
0.0
 11
7.020768077567469
 21
12.06989086507999
 31
0.0
  0
LINE
  5
B5
330
2
100
AcDbEntity
  8
0
100
AcDbLine
 10
7.020768077567469
 20
12.06989086507999
 30
0.0
 11
6.86627566152305
 21
12.05004826730983
 31
0.0
  0
LINE
  5
B6
330
2
100
AcDbEntity
  8
0
100
AcDbLine
 10
6.86627566152305
 20
12.05004826730983
 30
0.0
 11
6.862766556554958
 21
12.05196194974018
 31
0.0
  0
LINE
  5
B7
330
2
100
AcDbEntity
  8
0
100
AcDbLine
 10
6.862766556554958
 20
12.05196194974018
 30
0.0
 11
6.758193363955342
 21
12.21298621568624
 31
0.0
  0
LINE
  5
B8
330
2
100
AcDbEntity
  8
0
100
AcDbLine
 10
6.758193363955342
 20
12.21298621568624
 30
0.0
 11
6.606540361053548
 21
12.18316571619435
 31
0.0
  0
LINE
  5
B9
330
2
100
AcDbEntity
  8
0
100
AcDbLine
 10
6.606540361053548
 20
12.18316571619435
 30
0.0
 11
6.602980623999151
 21
12.18487102668301
 31
0.0
  0
LINE
  5
BA
330
2
100
AcDbEntity
  8
0
100
AcDbLine
 10
6.602980623999151
 20
12.18487102668301
 30
0.0
 11
6.491837595116288
 21
12.34073466419431
 31
0.0
  0
LINE
  5
BB
330
2
100
AcDbEntity
  8
0
100
AcDbLine
 10
6.491837595116288
 20
12.34073466419431
 30
0.0
 11
6.34349418093689
 21
12.30101640203095
 31
0.0
  0
LINE
  5
BC
330
2
100
AcDbEntity
  8
0
100
AcDbLine
 10
6.34349418093689
 20
12.30101640203095
 30
0.0
 11
6.339890553180818
 21
12.3025167112703
 31
0.0
  0
LINE
  5
BD
330
2
100
AcDbEntity
  8
0
100
AcDbLine
 10
6.339890553180818
 20
12.3025167112703
 30
0.0
 11
6.222472874570956
 21
12.45277317446218
 31
0.0
  0
LINE
  5
BE
330
2
100
AcDbEntity
  8
0
100
AcDbLine
 10
6.222472874570956
 20
12.45277317446218
 30
0.0
 11
6.077876521803498
 21
12.40328014197839
 31
0.0
  0
LINE
  5
BF
330
2
100
AcDbEntity
  8
0
100
AcDbLine
 10
6.077876521803498
 20
12.40328014197839
 30
0.0
 11
6.0742539608181
 21
12.40455832625536
 31
0.0
  0
LINE
  5
C0
330
2
100
AcDbEntity
  8
0
100
AcDbLine
 10
6.0742539608181
 20
12.40455832625536
 30
0.0
 11
5.950933986325303
 21
12.54875019576662
 31
0.0
  0
LINE
  5
C1
330
2
100
AcDbEntity
  8
0
100
AcDbLine
 10
5.950933986325303
 20
12.54875019576662
 30
0.0
 11
5.810525610139813
 21
12.48962397075326
 31
0.0
  0
LINE
  5
C2
330
2
100
AcDbEntity
  8
0
100
AcDbLine
 10
5.810525610139813
 20
12.48962397075326
 30
0.0
 11
5.806872928070132
 21
12.49068998502105
 31
0.0
  0
LINE
  5
C3
330
2
100
AcDbEntity
  8
0
100
AcDbLine
 10
5.806872928070132
 20
12.49068998502105
 30
0.0
 11
5.678025880148909
 21
12.62838244598177
 31
0.0
  0
LINE
  5
C4
330
2
100
AcDbEntity
  8
0
100
AcDbLine
 10
5.678025880148909
 20
12.62838244598177
 30
0.0
 11
5.542210824127709
 21
12.55980321452906
 31
0.0
  0
LINE
  5
C5
330
2
100
AcDbEntity
  8
0
100
AcDbLine
 10
5.542210824127709
 20
12.55980321452906
 30
0.0
 11
5.538535192652178
 21
12.5606550232343
 31
0.0
  0
LINE
  5
C6
330
2
100
AcDbEntity
  8
0
100
AcDbLine
 10
5.538535192652178
 20
12.5606550232343
 30
0.0
 11
5.404557522031461
 21
12.69143230713136
 31
0.0
  0
LINE
  5
C7
330
2
100
AcDbEntity
  8
0
100
AcDbLine
 10
5.404557522031461
 20
12.69143230713136
 30
0.0
 11
5.273723630810941
 21
12.61361797250523
 31
0.0
  0
LINE
  5
C8
330
2
100
AcDbEntity
  8
0
100
AcDbLine
 10
5.273723630810941
 20
12.61361797250523
 30
0.0
 11
5.270069801262268
 21
12.61423561076777
 31
0.0
  0
LINE
  5
C9
330
2
100
AcDbEntity
  8
0
100
AcDbLine
 10
5.270069801262268
 20
12.61423561076777
 30
0.0
 11
5.131323247670662
 21
12.7377252935371
 31
0.0
  0
LINE
  5
CA
330
2
100
AcDbEntity
  8
0
100
AcDbLine
 10
5.131323247670662
 20
12.7377252935371
 30
0.0
 11
5.005912583856361
 21
12.65087984302172
 31
0.0
  0
LINE
  5
CB
330
2
100
AcDbEntity
  8
0
100
AcDbLine
 10
5.005912583856361
 20
12.65087984302172
 30
0.0
 11
5.002269942162643
 21
12.65127355264276
 31
0.0
  0
LINE
  5
CC
330
2
100
AcDbEntity
  8
0
100
AcDbLine
 10
5.002269942162643
 20
12.65127355264276
 30
0.0
 11
4.859173618799814
 21
12.76710361002136
 31
0.0
  0
LINE
  5
CD
330
2
100
AcDbEntity
  8
0
100
AcDbLine
 10
4.859173618799814
 20
12.76710361002136
 30
0.0
 11
4.739516366752636
 21
12.67151054528915
 31
0.0
  0
LINE
  5
CE
330
2
100
AcDbEntity
  8
0
100
AcDbLine
 10
4.739516366752636
 20
12.67151054528915
 30
0.0
 11
4.735911304626034
 21
12.6716695412206
 31
0.0
  0
LINE
  5
CF
330
2
100
AcDbEntity
  8
0
100
AcDbLine
 10
4.735911304626034
 20
12.6716695412206
 30
0.0
 11
4.588921617497963
 21
12.77948228942737
 31
0.0
  0
LINE
  5
D0
330
2
100
AcDbEntity
  8
0
100
AcDbLine
 10
4.588921617497963
 20
12.77948228942737
 30
0.0
 11
4.475381811861042
 21
12.67542218255518
 31
0.0
  0
LINE
  5
D1
330
2
100
AcDbEntity
  8
0
100
AcDbLine
 10
4.475381811861042
 20
12.67542218255518
 30
0.0
 11
4.471804575904268
 21
12.6753571368048
 31
0.0
  0
LINE
  5
D2
330
2
100
AcDbEntity
  8
0
100
AcDbLine
 10
4.471804575904268
 20
12.6753571368048
 30
0.0
 11
4.321342072537571
 21
12.7748376628553
 31
0.0
  0
LINE
  5
D3
330
2
100
AcDbEntity
  8
0
100
AcDbLine
 10
4.321342072537571
 20
12.7748376628553
 30
0.0
 11
4.214260511743714
 21
12.66262031300562
 31
0.0
  0
LINE
  5
D4
330
2
100
AcDbEntity
  8
0
100
AcDbLine
 10
4.214260511743714
 20
12.66262031300562
 30
0.0
 11
4.210738067452006
 21
12.66232353813493
 31
0.0
  0
LINE
  5
D5
330
2
100
AcDbEntity
  8
0
100
AcDbLine
 10
4.210738067452006
 20
12.66232353813493
 30
0.0
 11
4.057241654863203
 21
12.75318016233639
 31
0.0
  0
LINE
  5
D6
330
2
100
AcDbEntity
  8
0
100
AcDbLine
 10
4.057241654863203
 20
12.75318016233639
 30
0.0
 11
3.956954547472752
 21
12.63312993802211
 31
0.0
  0
LINE
  5
D7
330
2
100
AcDbEntity
  8
0
100
AcDbLine
 10
3.956954547472752
 20
12.63312993802211
 30
0.0
 11
3.953477141361686
 21
12.63261210612602
 31
0.0
  0
LINE
  5
D8
330
2
100
AcDbEntity
  8
0
100
AcDbLine
 10
3.953477141361686
 20
12.63261210612602
 30
0.0
 11
3.79744051831945
 21
12.71455787909817
 31
0.0
  0
LINE
  5
D9
330
2
100
AcDbEntity
  8
0
100
AcDbLine
 10
3.79744051831945
 20
12.71455787909817
 30
0.0
 11
3.704239608408094
 21
12.58703893209742
 31
0.0
  0
LINE
  5
DA
330
2
100
AcDbEntity
  8
0
100
AcDbLine
 10
3.704239608408094
 20
12.58703893209742
 30
0.0
 11
3.700816133374641
 21
12.58630448960257
 31
0.0
  0
LINE
  5
DB
330
2
100
AcDbEntity
  8
0
100
AcDbLine
 10
3.700816133374641
 20
12.58630448960257
 30
0.0
 11
3.542676198872501
 21
12.65910593243074
 31
0.0
  0
LINE
  5
DC
330
2
100
AcDbEntity
  8
0
100
AcDbLine
 10
3.542676198872501
 20
12.65910593243074
 30
0.0
 11
3.456827699347596
 21
12.52450487269214
 31
0.0
  0
LINE
  5
DD
330
2
100
AcDbEntity
  8
0
100
AcDbLine
 10
3.456827699347596
 20
12.52450487269214
 30
0.0
 11
3.453504054159876
 21
12.52353442850151
 31
0.0
  0
LINE
  5
DE
330
2
100
AcDbEntity
  8
0
100
AcDbLine
 10
3.453504054159876
 20
12.52353442850151
 30
0.0
 11
3.293731557517124
 21
12.58697630279615
 31
0.0
  0
LINE
  5
DF
330
2
100
AcDbEntity
  8
0
100
AcDbLine
 10
3.293731557517124
 20
12.58697630279615
 30
0.0
 11
3.21549307528069
 21
12.44569792303196
 31
0.0
  0
LINE
  5
E0
330
2
100
AcDbEntity
  8
0
100
AcDbLine
 10
3.21549307528069
 20
12.44569792303196
 30
0.0
 11
3.212260080150195
 21
12.44450524685004
 31
0.0
  0
LINE
  5
E1
330
2
100
AcDbEntity
  8
0
100
AcDbLine
 10
3.212260080150195
 20
12.44450524685004
 30
0.0
 11
3.051324049511139
 21
12.49840105603991
 31
0.0
  0
LINE
  5
E2
330
2
100
AcDbEntity
  8
0
100
AcDbLine
 10
3.051324049511139
 20
12.49840105603991
 30
0.0
 11
2.980960650035143
 21
12.35084676154261
 31
0.0
  0
LINE
  5
E3
330
2
100
AcDbEntity
  8
0
100
AcDbLine
 10
2.980960650035143
 20
12.35084676154261
 30
0.0
 11
2.977809125260549
 21
12.34944562289962
 31
0.0
  0
LINE
  5
E4
330
2
100
AcDbEntity
  8
0
100
AcDbLine
 10
2.977809125260549
 20
12.34944562289962
 30
0.0
 11
2.816209283549671
 21
12.39362553338368
 31
0.0
  0
LINE
  5
E5
330
2
100
AcDbEntity
  8
0
100
AcDbLine
 10
2.816209283549671
 20
12.39362553338368
 30
0.0
 11
2.753902840688133
 21
12.24024824668798
 31
0.0
  0
LINE
  5
E6
330
2
100
AcDbEntity
  8
0
100
AcDbLine
 10
2.753902840688133
 20
12.24024824668798
 30
0.0
 11
2.750860325460571
 21
12.23863405579859
 31
0.0
  0
LINE
  5
E7
330
2
100
AcDbEntity
  8
0
100
AcDbLine
 10
2.750860325460571
 20
12.23863405579859
 30
0.0
 11
2.589074593719224
 21
12.27297091621339
 31
0.0
  0
LINE
  5
E8
330
2
100
AcDbEntity
  8
0
100
AcDbLine
 10
2.589074593719224
 20
12.27297091621339
 30
0.0
 11
2.535012145025161
 21
12.11423026791457
 31
0.0
  0
LINE
  5
E9
330
2
100
AcDbEntity
  8
0
100
AcDbLine
 10
2.535012145025161
 20
12.11423026791457
 30
0.0
 11
2.532087245437221
 21
12.11240732775972
 31
0.0
  0
LINE
  5
EA
330
2
100
AcDbEntity
  8
0
100
AcDbLine
 10
2.532087245437221
 20
12.11240732775972
 30
0.0
 11
2.370606166801429
 21
12.136794351423
 31
0.0
  0
LINE
  5
EB
330
2
100
AcDbEntity
  8
0
100
AcDbLine
 10
2.370606166801429
 20
12.136794351423
 30
0.0
 11
2.324943768112615
 21
11.97316408368617
 31
0.0
  0
LINE
  5
EC
330
2
100
AcDbEntity
  8
0
100
AcDbLine
 10
2.324943768112615
 20
11.97316408368617
 30
0.0
 11
2.322127878115312
 21
11.97114645073122
 31
0.0
  0
LINE
  5
ED
330
2
100
AcDbEntity
  8
0
100
AcDbLine
 10
2.322127878115312
 20
11.97114645073122
 30
0.0
 11
2.161433389802876
 21
11.98550777182161
 31
0.0
  0
LINE
  5
EE
330
2
100
AcDbEntity
  8
0
100
AcDbLine
 10
2.161433389802876
 20
11.98550777182161
 30
0.0
 11
2.124312753600198
 21
11.81747694074732
 31
0.0
  0
LINE
  5
EF
330
2
100
AcDbEntity
  8
0
100
AcDbLine
 10
2.124312753600198
 20
11.81747694074732
 30
0.0
 11
2.121651198222156
 21
11.81525336924494
 31
0.0
  0
LINE
  5
F0
330
2
100
AcDbEntity
  8
0
100
AcDbLine
 10
2.121651198222156
 20
11.81525336924494
 30
0.0
 11
1.962200566782883
 21
11.81955999128777
 31
0.0
  0
LINE
  5
F1
330
2
100
AcDbEntity
  8
0
100
AcDbLine
 10
1.962200566782883
 20
11.81955999128777
 30
0.0
 11
1.9337301288739
 21
11.6476306171108
 31
0.0
  0
LINE
  5
F2
330
2
100
AcDbEntity
  8
0
100
AcDbLine
 10
1.9337301288739
 20
11.6476306171108
 30
0.0
 11
1.931195942663437
 21
11.64522153259678
 31
0.0
  0
LINE
  5
F3
330
2
100
AcDbEntity
  8
0
100
AcDbLine
 10
1.931195942663437
 20
11.64522153259678
 30
0.0
 11
1.773491185936338
 21
11.63944698011242
 31
0.0
  0
LINE
  5
F4
330
2
100
AcDbEntity
  8
0
100
AcDbLine
 10
1.773491185936338
 20
11.63944698011242
 30
0.0
 11
1.753763891423496
 21
11.46412739119644
 31
0.0
  0
LINE
  5
F5
330
2
100
AcDbEntity
  8
0
100
AcDbLine
 10
1.753763891423496
 20
11.46412739119644
 30
0.0
 11
1.751384039788738
 21
11.46153353834292
 31
0.0
  0
LINE
  5
F6
330
2
100
AcDbEntity
  8
0
100
AcDbLine
 10
1.751384039788738
 20
11.46153353834292
 30
0.0
 11
1.595880129452797
 21
11.44570256620232
 31
0.0
  0
LINE
  5
F7
330
2
100
AcDbEntity
  8
0
100
AcDbLine
 10
1.595880129452797
 20
11.44570256620232
 30
0.0
 11
1.584953925502995
 21
11.2675160050888
 31
0.0
  0
LINE
  5
F8
330
2
100
AcDbEntity
  8
0
100
AcDbLine
 10
1.584953925502995
 20
11.2675160050888
 30
0.0
 11
1.582718655046629
 21
11.26475367738321
 31
0.0
  0
LINE
  5
F9
330
2
100
AcDbEntity
  8
0
100
AcDbLine
 10
1.582718655046629
 20
11.26475367738321
 30
0.0
 11
1.429878595003184
 21
11.23891192094228
 31
0.0
  0
LINE
  5
FA
330
2
100
AcDbEntity
  8
0
100
AcDbLine
 10
1.429878595003184
 20
11.23891192094228
 30
0.0
 11
1.427793069293616
 21
11.05838650401806
 31
0.0
  0
LINE
  5
FB
330
2
100
AcDbEntity
  8
0
100
AcDbLine
 10
1.427793069293616
 20
11.05838650401806
 30
0.0
 11
1.425729919250376
 21
11.05545392226251
 31
0.0
  0
LINE
  5
FC
330
2
100
AcDbEntity
  8
0
100
AcDbLine
 10
1.425729919250376
 20
11.05545392226251
 30
0.0
 11
1.27600351752292
 21
11.01968407484698
 31
0.0
  0
LINE
  5
FD
330
2
100
AcDbEntity
  8
0
100
AcDbLine
 10
1.27600351752292
 20
11.01968407484698
 30
0.0
 11
1.282744326696697
 21
10.83737172548657
 31
0.0
  0
LINE
  5
FE
330
2
100
AcDbEntity
  8
0
100
AcDbLine
 10
1.282744326696697
 20
10.83737172548657
 30
0.0
 11
1.280860755636579
 21
10.83427261900958
 31
0.0
  0
LINE
  5
FF
330
2
100
AcDbEntity
  8
0
100
AcDbLine
 10
1.280860755636579
 20
10.83427261900958
 30
0.0
 11
1.13470298386049
 21
10.78867963073417
 31
0.0
  0
LINE
  5
100
330
2
100
AcDbEntity
  8
0
100
AcDbLine
 10
1.13470298386049
 20
10.78867963073417
 30
0.0
 11
1.150273570354663
 21
10.60510725699098
 31
0.0
  0
LINE
  5
101
330
2
100
AcDbEntity
  8
0
100
AcDbLine
 10
1.150273570354663
 20
10.60510725699098
 30
0.0
 11
1.148541465216276
 21
10.60187272041748
 31
0.0
  0
LINE
  5
102
330
2
100
AcDbEntity
  8
0
100
AcDbLine
 10
1.148541465216276
 20
10.60187272041748
 30
0.0
 11
1.006409589941386
 21
10.54657955318423
 31
0.0
  0
LINE
  5
103
330
2
100
AcDbEntity
  8
0
100
AcDbLine
 10
1.006409589941386
 20
10.54657955318423
 30
0.0
 11
1.030738236884479
 21
10.36231123695335
 31
0.0
  0
LINE
  5
104
330
2
100
AcDbEntity
  8
0
100
AcDbLine
 10
1.030738236884479
 20
10.36231123695335
 30
0.0
 11
1.029202922783558
 21
10.3589300244925
 31
0.0
  0
LINE
  5
105
330
2
100
AcDbEntity
  8
0
100
AcDbLine
 10
1.029202922783558
 20
10.3589300244925
 30
0.0
 11
0.8914830674713728
 21
10.2941171816886
 31
0.0
  0
LINE
  5
106
330
2
100
AcDbEntity
  8
0
100
AcDbLine
 10
0.8914830674713728
 20
10.2941171816886
 30
0.0
 11
0.9245158438293287
 21
10.10969480017499
 31
0.0
  0
LINE
  5
107
330
2
100
AcDbEntity
  8
0
100
AcDbLine
 10
0.9245158438293287
 20
10.10969480017499
 30
0.0
 11
0.9231664198025063
 21
10.10618263161831
 31
0.0
  0
LINE
  5
108
330
2
100
AcDbEntity
  8
0
100
AcDbLine
 10
0.9231664198025063
 20
10.10618263161831
 30
0.0
 11
0.7903020813854666
 21
10.03203233192516
 31
0.0
  0
LINE
  5
109
330
2
100
AcDbEntity
  8
0
100
AcDbLine
 10
0.7903020813854666
 20
10.03203233192516
 30
0.0
 11
0.8319265351306471
 21
9.848010842339892
 31
0.0
  0
LINE
  5
10A
330
2
100
AcDbEntity
  8
0
100
AcDbLine
 10
0.8319265351306471
 20
9.848010842339892
 30
0.0
 11
0.8307521001709018
 21
9.844389058827912
 31
0.0
  0
LINE
  5
10B
330
2
100
AcDbEntity
  8
0
100
AcDbLine
 10
0.8307521001709018
 20
9.844389058827912
 30
0.0
 11
0.7031311233725574
 21
9.7611248270347
 31
0.0
  0
LINE
  5
10C
330
2
100
AcDbEntity
  8
0
100
AcDbLine
 10
0.7031311233725574
 20
9.7611248270347
 30
0.0
 11
0.753233081302366
 21
9.57804839853501
 31
0.0
  0
LINE
  5
10D
330
2
100
AcDbEntity
  8
0
100
AcDbLine
 10
0.753233081302366
 20
9.57804839853501
 30
0.0
 11
0.7522594535130791
 21
9.574314360369461
 31
0.0
  0
LINE
  5
10E
330
2
100
AcDbEntity
  8
0
100
AcDbLine
 10
0.7522594535130791
 20
9.574314360369461
 30
0.0
 11
0.630249028478448
 21
9.482190239101541
 31
0.0
  0
LINE
  5
10F
330
2
100
AcDbEntity
  8
0
100
AcDbLine
 10
0.630249028478448
 20
9.482190239101541
 30
0.0
 11
0.6886747297131198
 21
9.300610038802584
 31
0.0
  0
LINE
  5
110
330
2
100
AcDbEntity
  8
0
100
AcDbLine
 10
0.6886747297131198
 20
9.300610038802584
 30
0.0
 11
0.6878892868687811
 21
9.296781415731327
 31
0.0
  0
LINE
  5
111
330
2
100
AcDbEntity
  8
0
100
AcDbLine
 10
0.6878892868687811
 20
9.296781415731327
 30
0.0
 11
0.5718732421883956
 21
9.196066703831418
 31
0.0
  0
LINE
  5
112
330
2
100
AcDbEntity
  8
0
100
AcDbLine
 10
0.5718732421883956
 20
9.196066703831418
 30
0.0
 11
0.6384471238778018
 21
9.016522997754323
 31
0.0
  0
LINE
  5
113
330
2
100
AcDbEntity
  8
0
100
AcDbLine
 10
0.6384471238778018
 20
9.016522997754323
 30
0.0
 11
0.6378573245919613
 21
9.012609140541993
 31
0.0
  0
LINE
  5
114
330
2
100
AcDbEntity
  8
0
100
AcDbLine
 10
0.6378573245919613
 20
9.012609140541993
 30
0.0
 11
0.5281603940796959
 21
8.903612721524257
 31
0.0
  0
LINE
  5
115
330
2
100
AcDbEntity
  8
0
100
AcDbLine
 10
0.5281603940796959
 20
8.903612721524257
 30
0.0
 11
0.6027023035012188
 21
8.726630742765467
 31
0.0
  0
LINE
  5
116
330
2
100
AcDbEntity
  8
0
100
AcDbLine
 10
0.6027023035012188
 20
8.726630742765467
 30
0.0
 11
0.6023150325607701
 21
8.72264352595976
 31
0.0
  0
LINE
  5
117
330
2
100
AcDbEntity
  8
0
100
AcDbLine
 10
0.6023150325607701
 20
8.72264352595976
 30
0.0
 11
0.499274572256034
 21
8.605684720640459
 31
0.0
  0
LINE
  5
118
330
2
100
AcDbEntity
  8
0
100
AcDbLine
 10
0.499274572256034
 20
8.605684720640459
 30
0.0
 11
0.5815291975092674
 21
8.431810011829737
 31
0.0
  0
LINE
  5
119
330
2
100
AcDbEntity
  8
0
100
AcDbLine
 10
0.5815291975092674
 20
8.431810011829737
 30
0.0
 11
0.5813490447866498
 21
8.427757351824785
 31
0.0
  0
LINE
  5
11A
330
2
100
AcDbEntity
  8
0
100
AcDbLine
 10
0.5813490447866498
 20
8.427757351824785
 30
0.0
 11
0.4852788875399005
 21
8.303181754029106
 31
0.0
  0
LINE
  5
11B
330
2
100
AcDbEntity
  8
0
100
AcDbLine
 10
0.4852788875399005
 20
8.303181754029106
 30
0.0
 11
0.5750230457880314
 21
8.132926465338321
 31
0.0
  0
LINE
  5
11C
330
2
100
AcDbEntity
  8
0
100
AcDbLine
 10
0.5750230457880314
 20
8.132926465338321
 30
0.0
 11
0.5750368154053986
 21
8.128825745077557
 31
0.0
  0
LINE
  5
11D
330
2
100
AcDbEntity
  8
0
100
AcDbLine
 10
0.5750368154053986
 20
8.128825745077557
 30
0.0
 11
0.4862066166046217
 21
7.997016064536555
 31
0.0
  0
LINE
  5
11E
330
2
100
AcDbEntity
  8
0
100
AcDbLine
 10
0.4862066166046217
 20
7.997016064536555
 30
0.0
 11
0.5831763898547261
 21
7.830881905873248
 31
0.0
  0
LINE
  5
11F
330
2
100
AcDbEntity
  8
0
100
AcDbLine
 10
0.5831763898547261
 20
7.830881905873248
 30
0.0
 11
0.5833898191635344
 21
7.826744426208406
 31
0.0
  0
LINE
  5
120
330
2
100
AcDbEntity
  8
0
100
AcDbLine
 10
0.5833898191635344
 20
7.826744426208406
 30
0.0
 11
0.5020789875504239
 21
7.688086754148477
 31
0.0
  0
LINE
  5
121
330
2
100
AcDbEntity
  8
0
100
AcDbLine
 10
0.5020789875504239
 20
7.688086754148477
 30
0.0
 11
0.6059691490009818
 21
7.52657595122389
 31
0.0
  0
LINE
  5
122
330
2
100
AcDbEntity
  8
0
100
AcDbLine
 10
0.6059691490009818
 20
7.52657595122389
 30
0.0
 11
0.6063868278736707
 21
7.522412439223578
 31
0.0
  0
LINE
  5
123
330
2
100
AcDbEntity
  8
0
100
AcDbLine
 10
0.6063868278736707
 20
7.522412439223578
 30
0.0
 11
0.5328460855197493
 21
7.377316558117738
 31
0.0
  0
LINE
  5
124
330
2
100
AcDbEntity
  8
0
100
AcDbLine
 10
0.5328460855197493
 20
7.377316558117738
 30
0.0
 11
0.6433496870200856
 21
7.220912116478593
 31
0.0
  0
LINE
  5
125
330
2
100
AcDbEntity
  8
0
100
AcDbLine
 10
0.6433496870200856
 20
7.220912116478593
 30
0.0
 11
0.6439566983602953
 21
7.21674190526048
 31
0.0
  0
LINE
  5
126
330
2
100
AcDbEntity
  8
0
100
AcDbLine
 10
0.6439566983602953
 20
7.21674190526048
 30
0.0
 11
0.5783908685689396
 21
7.065645420702251
 31
0.0
  0
LINE
  5
127
330
2
100
AcDbEntity
  8
0
100
AcDbLine
 10
0.5783908685689396
 20
7.065645420702251
 30
0.0
 11
0.695177438997304
 21
6.914812962995466
 31
0.0
  0
LINE
  5
128
330
2
100
AcDbEntity
  8
0
100
AcDbLine
 10
0.695177438997304
 20
6.914812962995466
 30
0.0
 11
0.6959955846883373
 21
6.910634215382121
 31
0.0
  0
LINE
  5
129
330
2
100
AcDbEntity
  8
0
100
AcDbLine
 10
0.6959955846883373
 20
6.910634215382121
 30
0.0
 11
0.6385962948850779
 21
6.753993431445191
 31
0.0
  0
LINE
  5
12A
330
2
100
AcDbEntity
  8
0
100
AcDbLine
 10
0.6385962948850779
 20
6.753993431445191
 30
0.0
 11
0.7613324943350041
 21
6.609178786413692
 31
0.0
  0
LINE
  5
12B
330
2
100
AcDbEntity
  8
0
100
AcDbLine
 10
0.7613324943350041
 20
6.609178786413692
 30
0.0
 11
0.7623290715301416
 21
6.605020302202708
 31
0.0
  0
LINE
  5
12C
330
2
100
AcDbEntity
  8
0
100
AcDbLine
 10
0.7623290715301416
 20
6.605020302202708
 30
0.0
 11
0.7132948338838716
 21
6.443285038062087
 31
0.0
  0
LINE
  5
12D
330
2
100
AcDbEntity
  8
0
100
AcDbLine
 10
0.7132948338838716
 20
6.443285038062087
 30
0.0
 11
0.8415893752819926
 21
6.304930536994516
 31
0.0
  0
LINE
  5
12E
330
2
100
AcDbEntity
  8
0
100
AcDbLine
 10
0.8415893752819926
 20
6.304930536994516
 30
0.0
 11
0.8427850384290504
 21
6.300795526705208
 31
0.0
  0
LINE
  5
12F
330
2
100
AcDbEntity
  8
0
100
AcDbLine
 10
0.8427850384290504
 20
6.300795526705208
 30
0.0
 11
0.8022449432823062
 21
6.134458454749577
 31
0.0
  0
LINE
  5
130
330
2
100
AcDbEntity
  8
0
100
AcDbLine
 10
0.8022449432823062
 20
6.134458454749577
 30
0.0
 11
0.9357398161413472
 21
6.002965178018366
 31
0.0
  0
LINE
  5
131
330
2
100
AcDbEntity
  8
0
100
AcDbLine
 10
0.9357398161413472
 20
6.002965178018366
 30
0.0
 11
0.9371179269254522
 21
5.998869303506296
 31
0.0
  0
LINE
  5
132
330
2
100
AcDbEntity
  8
0
100
AcDbLine
 10
0.9371179269254522
 20
5.998869303506296
 30
0.0
 11
0.9051683616869153
 21
5.828439157824808
 31
0.0
  0
LINE
  5
133
330
2
100
AcDbEntity
  8
0
100
AcDbLine
 10
0.9051683616869153
 20
5.828439157824808
 30
0.0
 11
1.04346768906107
 21
5.704199179952194
 31
0.0
  0
LINE
  5
134
330
2
100
AcDbEntity
  8
0
100
AcDbLine
 10
1.04346768906107
 20
5.704199179952194
 30
0.0
 11
1.045030542440231
 21
5.700152020763471
 31
0.0
  0
LINE
  5
135
330
2
100
AcDbEntity
  8
0
100
AcDbLine
 10
1.045030542440231
 20
5.700152020763471
 30
0.0
 11
1.021789122793081
 21
5.526128294845827
 31
0.0
  0
LINE
  5
136
330
2
100
AcDbEntity
  8
0
100
AcDbLine
 10
1.021789122793081
 20
5.526128294845827
 30
0.0
 11
1.164457440015745
 21
5.409523823785832
 31
0.0
  0
LINE
  5
137
330
2
100
AcDbEntity
  8
0
100
AcDbLine
 10
1.164457440015745
 20
5.409523823785832
 30
0.0
 11
1.166205035989988
 21
5.40553100140013
 31
0.0
  0
LINE
  5
138
330
2
100
AcDbEntity
  8
0
100
AcDbLine
 10
1.166205035989988
 20
5.40553100140013
 30
0.0
 11
1.151754953377923
 21
5.228428389674729
 31
0.0
  0
LINE
  5
139
330
2
100
AcDbEntity
  8
0
100
AcDbLine
 10
1.151754953377923
 20
5.228428389674729
 30
0.0
 11
1.298374007880443
 21
5.11979946690381
 31
0.0
  0
LINE
  5
13A
330
2
100
AcDbEntity
  8
0
100
AcDbLine
 10
1.298374007880443
 20
5.11979946690381
 30
0.0
 11
1.300271922341004
 21
5.115894541836745
 31
0.0
  0
LINE
  5
13B
330
2
100
AcDbEntity
  8
0
100
AcDbLine
 10
1.300271922341004
 20
5.115894541836745
 30
0.0
 11
1.294641289825416
 21
4.936245350674597
 31
0.0
  0
LINE
  5
13C
330
2
100
AcDbEntity
  8
0
100
AcDbLine
 10
1.294641289825416
 20
4.936245350674597
 30
0.0
 11
1.444773895722673
 21
4.835919740314858
 31
0.0
  0
LINE
  5
13D
330
2
100
AcDbEntity
  8
0
100
AcDbLine
 10
1.444773895722673
 20
4.835919740314858
 30
0.0
 11
1.446858847692745
 21
4.832089974512717
 31
0.0
  0
LINE
  5
13E
330
2
100
AcDbEntity
  8
0
100
AcDbLine
 10
1.446858847692745
 20
4.832089974512717
 30
0.0
 11
1.450076351987385
 21
4.650425301951392
 31
0.0
  0
LINE
  5
13F
330
2
100
AcDbEntity
  8
0
100
AcDbLine
 10
1.450076351987385
 20
4.650425301951392
 30
0.0
 11
1.603266963948036
 21
4.558704724027974
 31
0.0
  0
LINE
  5
140
330
2
100
AcDbEntity
  8
0
100
AcDbLine
 10
1.603266963948036
 20
4.558704724027974
 30
0.0
 11
1.605520593894208
 21
4.554967729389864
 31
0.0
  0
LINE
  5
141
330
2
100
AcDbEntity
  8
0
100
AcDbLine
 10
1.605520593894208
 20
4.554967729389864
 30
0.0
 11
1.617543778667932
 21
4.371846612589981
 31
0.0
  0
LINE
  5
142
330
2
100
AcDbEntity
  8
0
100
AcDbLine
 10
1.617543778667932
 20
4.371846612589981
 30
0.0
 11
1.77335578454643
 21
4.288994291912566
 31
0.0
  0
LINE
  5
143
330
2
100
AcDbEntity
  8
0
100
AcDbLine
 10
1.77335578454643
 20
4.288994291912566
 30
0.0
 11
1.77575743806449
 21
4.285369343533104
 31
0.0
  0
LINE
  5
144
330
2
100
AcDbEntity
  8
0
100
AcDbLine
 10
1.77575743806449
 20
4.285369343533104
 30
0.0
 11
1.796577697224757
 21
4.101321098459293
 31
0.0
  0
LINE
  5
145
330
2
100
AcDbEntity
  8
0
100
AcDbLine
 10
1.796577697224757
 20
4.101321098459293
 30
0.0
 11
1.95453948707075
 21
4.027589877552755
 31
0.0
  0
LINE
  5
146
330
2
100
AcDbEntity
  8
0
100
AcDbLine
 10
1.95453948707075
 20
4.027589877552755
 30
0.0
 11
1.957088590421154
 21
4.024085120738162
 31
0.0
  0
LINE
  5
147
330
2
100
AcDbEntity
  8
0
100
AcDbLine
 10
1.957088590421154
 20
4.024085120738162
 30
0.0
 11
1.986639944535101
 21
3.839663959842186
 31
0.0
  0
LINE
  5
148
330
2
100
AcDbEntity
  8
0
100
AcDbLine
 10
1.986639944535101
 20
3.839663959842186
 30
0.0
 11
2.14628220339988
 21
3.775269794237747
 31
0.0
  0
LINE
  5
149
330
2
100
AcDbEntity
  8
0
100
AcDbLine
 10
2.14628220339988
 20
3.775269794237747
 30
0.0
 11
2.148958675830751
 21
3.771899169581616
 31
0.0
  0
LINE
  5
14A
330
2
100
AcDbEntity
  8
0
100
AcDbLine
 10
2.148958675830751
 20
3.771899169581616
 30
0.0
 11
2.187156212105451
 21
3.587655460202049
 31
0.0
  0
LINE
  5
14B
330
2
100
AcDbEntity
  8
0
100
AcDbLine
 10
2.187156212105451
 20
3.587655460202049
 30
0.0
 11
2.347994134117312
 21
3.532795317097139
 31
0.0
  0
LINE
  5
14C
330
2
100
AcDbEntity
  8
0
100
AcDbLine
 10
2.347994134117312
 20
3.532795317097139
 30
0.0
 11
2.350814040291088
 21
3.529559740204231
 31
0.0
  0
LINE
  5
14D
330
2
100
AcDbEntity
  8
0
100
AcDbLine
 10
2.350814040291088
 20
3.529559740204231
 30
0.0
 11
2.39753383203957
 21
3.346045512918765
 31
0.0
  0
LINE
  5
14E
330
2
100
AcDbEntity
  8
0
100
AcDbLine
 10
2.39753383203957
 20
3.346045512918765
 30
0.0
 11
2.559085480024267
 21
3.300885380801189
 31
0.0
  0
LINE
  5
14F
330
2
100
AcDbEntity
  8
0
100
AcDbLine
 10
2.559085480024267
 20
3.300885380801189
 30
0.0
 11
2.562027591666576
 21
3.297798218525576
 31
0.0
  0
LINE
  5
150
330
2
100
AcDbEntity
  8
0
100
AcDbLine
 10
2.562027591666576
 20
3.297798218525576
 30
0.0
 11
2.617142269851877
 21
3.115556666032216
 31
0.0
  0
LINE
  5
151
330
2
100
AcDbEntity
  8
0
100
AcDbLine
 10
2.617142269851877
 20
3.115556666032216
 30
0.0
 11
2.778913084496839
 21
3.08023654727236
 31
0.0
  0
LINE
  5
152
330
2
100
AcDbEntity
  8
0
100
AcDbLine
 10
2.778913084496839
 20
3.08023654727236
 30
0.0
 11
2.781974532953729
 21
3.07730760815933
 31
0.0
  0
LINE
  5
153
330
2
100
AcDbEntity
  8
0
100
AcDbLine
 10
2.781974532953729
 20
3.07730760815933
 30
0.0
 11
2.845317140687573
 21
2.896880488785575
 31
0.0
  0
LINE
  5
154
330
2
100
AcDbEntity
  8
0
100
AcDbLine
 10
2.845317140687573
 20
2.896880488785575
 30
0.0
 11
3.006837233261038
 21
2.871501948474259
 31
0.0
  0
LINE
  5
155
330
2
100
AcDbEntity
  8
0
100
AcDbLine
 10
3.006837233261038
 20
2.871501948474259
 30
0.0
 11
3.010014002399492
 21
2.868734845893433
 31
0.0
  0
LINE
  5
156
330
2
100
AcDbEntity
  8
0
100
AcDbLine
 10
3.010014002399492
 20
2.868734845893433
 30
0.0
 11
3.081377995247099
 21
2.690670915837565
 31
0.0
  0
LINE
  5
157
330
2
100
AcDbEntity
  8
0
100
AcDbLine
 10
3.081377995247099
 20
2.690670915837565
 30
0.0
 11
3.24218321436871
 21
2.675300353246818
 31
0.0
  0
LINE
  5
158
330
2
100
AcDbEntity
  8
0
100
AcDbLine
 10
3.24218321436871
 20
2.675300353246818
 30
0.0
 11
3.245434568989037
 21
2.672717060057726
 31
0.0
  0
LINE
  5
159
330
2
100
AcDbEntity
  8
0
100
AcDbLine
 10
3.245434568989037
 20
2.672717060057726
 30
0.0
 11
3.32464553153574
 21
2.497531682972917
 31
0.0
  0
LINE
  5
15A
330
2
100
AcDbEntity
  8
0
100
AcDbLine
 10
3.32464553153574
 20
2.497531682972917
 30
0.0
 11
3.484226400796542
 21
2.492227068095567
 31
0.0
  0
LINE
  5
15B
330
2
100
AcDbEntity
  8
0
100
AcDbLine
 10
3.484226400796542
 20
2.492227068095567
 30
0.0
 11
3.487583896353529
 21
2.489815075113032
 31
0.0
  0
LINE
  5
15C
330
2
100
AcDbEntity
  8
0
100
AcDbLine
 10
3.487583896353529
 20
2.489815075113032
 30
0.0
 11
3.574353813808623
 21
2.318055801695522
 31
0.0
  0
LINE
  5
15D
330
2
100
AcDbEntity
  8
0
100
AcDbLine
 10
3.574353813808623
 20
2.318055801695522
 30
0.0
 11
3.732263393839073
 21
2.322818881538124
 31
0.0
  0
LINE
  5
15E
330
2
100
AcDbEntity
  8
0
100
AcDbLine
 10
3.732263393839073
 20
2.322818881538124
 30
0.0
 11
3.73568572143709
 21
2.320605496209761
 31
0.0
  0
LINE
  5
15F
330
2
100
AcDbEntity
  8
0
100
AcDbLine
 10
3.73568572143709
 20
2.320605496209761
 30
0.0
 11
3.829797148315242
 21
2.152763364402948
 31
0.0
  0
LINE
  5
160
330
2
100
AcDbEntity
  8
0
100
AcDbLine
 10
3.829797148315242
 20
2.152763364402948
 30
0.0
 11
3.985543174717273
 21
2.167590267410869
 31
0.0
  0
LINE
  5
161
330
2
100
AcDbEntity
  8
0
100
AcDbLine
 10
3.985543174717273
 20
2.167590267410869
 30
0.0
 11
3.989025170700778
 21
2.165575718605214
 31
0.0
  0
LINE
  5
162
330
2
100
AcDbEntity
  8
0
100
AcDbLine
 10
3.989025170700778
 20
2.165575718605214
 30
0.0
 11
4.090182059945397
 21
2.002157543949174
 31
0.0
  0
LINE
  5
163
330
2
100
AcDbEntity
  8
0
100
AcDbLine
 10
4.090182059945397
 20
2.002157543949174
 30
0.0
 11
4.243322183265488
 21
2.026994602500636
 31
0.0
  0
LINE
  5
164
330
2
100
AcDbEntity
  8
0
100
AcDbLine
 10
4.243322183265488
 20
2.026994602500636
 30
0.0
 11
4.246856962847586
 21
2.025183879978421
 31
0.0
  0
LINE
  5
165
330
2
100
AcDbEntity
  8
0
100
AcDbLine
 10
4.246856962847586
 20
2.025183879978421
 30
0.0
 11
4.354760398617463
 21
1.866679494914535
 31
0.0
  0
LINE
  5
166
330
2
100
AcDbEntity
  8
0
100
AcDbLine
 10
4.354760398617463
 20
1.866679494914535
 30
0.0
 11
4.504808091808977
 21
1.901465185935218
 31
0.0
  0
LINE
  5
167
330
2
100
AcDbEntity
  8
0
100
AcDbLine
 10
4.504808091808977
 20
1.901465185935218
 30
0.0
 11
4.508390491377686
 21
1.899861329283038
 31
0.0
  0
LINE
  5
168
330
2
100
AcDbEntity
  8
0
100
AcDbLine
 10
4.508390491377686
 20
1.899861329283038
 30
0.0
 11
4.622718608512896
 21
1.746740659482656
 31
0.0
  0
LINE
  5
169
330
2
100
AcDbEntity
  8
0
100
AcDbLine
 10
4.622718608512896
 20
1.746740659482656
 30
0.0
 11
4.769238980648675
 21
1.791364524331364
 31
0.0
  0
LINE
  5
16A
330
2
100
AcDbEntity
  8
0
100
AcDbLine
 10
4.769238980648675
 20
1.791364524331364
 30
0.0
 11
4.772862115373571
 21
1.789972523353532
 31
0.0
  0
LINE
  5
16B
330
2
100
AcDbEntity
  8
0
100
AcDbLine
 10
4.772862115373571
 20
1.789972523353532
 30
0.0
 11
4.893271820526829
 21
1.642692069567375
 31
0.0
  0
LINE
  5
16C
330
2
100
AcDbEntity
  8
0
100
AcDbLine
 10
4.893271820526829
 20
1.642692069567375
 30
0.0
 11
5.035824817111461
 21
1.697027014337339
 31
0.0
  0
LINE
  5
16D
330
2
100
AcDbEntity
  8
0
100
AcDbLine
 10
5.035824817111461
 20
1.697027014337339
 30
0.0
 11
5.039463442672236
 21
1.695852606341755
 31
0.0
  0
LINE
  5
16E
330
2
100
AcDbEntity
  8
0
100
AcDbLine
 10
5.039463442672236
 20
1.695852606341755
 30
0.0
 11
5.165590414265365
 21
1.554861066010279
 31
0.0
  0
LINE
  5
16F
330
2
100
AcDbEntity
  8
0
100
AcDbLine
 10
5.165590414265365
 20
1.554861066010279
 30
0.0
 11
5.303753192770569
 21
1.61873651469352
 31
0.0
  0
LINE
  5
170
330
2
100
AcDbEntity
  8
0
100
AcDbLine
 10
5.303753192770569
 20
1.61873651469352
 30
0.0
 11
5.307418210174198
 21
1.617778033522534
 31
0.0
  0
LINE
  5
171
330
2
100
AcDbEntity
  8
0
100
AcDbLine
 10
5.307418210174198
 20
1.617778033522534
 30
0.0
 11
5.438894684279153
 21
1.483484348307881
 31
0.0
  0
LINE
  5
172
330
2
100
AcDbEntity
  8
0
100
AcDbLine
 10
5.438894684279153
 20
1.483484348307881
 30
0.0
 11
5.572261040535154
 21
1.556711252409807
 31
0.0
  0
LINE
  5
173
330
2
100
AcDbEntity
  8
0
100
AcDbLine
 10
5.572261040535154
 20
1.556711252409807
 30
0.0
 11
5.575926631634747
 21
1.555976959241472
 31
0.0
  0
LINE
  5
174
330
2
100
AcDbEntity
  8
0
100
AcDbLine
 10
5.575926631634747
 20
1.555976959241472
 30
0.0
 11
5.7123469778212
 21
1.428795118545911
 31
0.0
  0
LINE
  5
175
330
2
100
AcDbEntity
  8
0
100
AcDbLine
 10
5.7123469778212
 20
1.428795118545911
 30
0.0
 11
5.840510707658271
 21
1.511156322391337
 31
0.0
  0
LINE
  5
176
330
2
100
AcDbEntity
  8
0
100
AcDbLine
 10
5.840510707658271
 20
1.511156322391337
 30
0.0
 11
5.844150480698038
 21
1.510657002273681
 31
0.0
  0
LINE
  5
177
330
2
100
AcDbEntity
  8
0
100
AcDbLine
 10
5.844150480698038
 20
1.510657002273681
 30
0.0
 11
5.985123411849114
 21
1.39095177321544
 31
0.0
  0
LINE
  5
178
330
2
100
AcDbEntity
  8
0
100
AcDbLine
 10
5.985123411849114
 20
1.39095177321544
 30
0.0
 11
6.107716751339111
 21
1.482198568636457
 31
0.0
  0
LINE
  5
179
330
2
100
AcDbEntity
  8
0
100
AcDbLine
 10
6.107716751339111
 20
1.482198568636457
 30
0.0
 11
6.111341607282545
 21
1.481921312539568
 31
0.0
  0
LINE
  5
17A
330
2
100
AcDbEntity
  8
0
100
AcDbLine
 10
6.111341607282545
 20
1.481921312539568
 30
0.0
 11
6.256438543605594
 21
1.37005998597626
 31
0.0
  0
LINE
  5
17B
330
2
100
AcDbEntity
  8
0
100
AcDbLine
 10
6.256438543605594
 20
1.37005998597626
 30
0.0
 11
6.373077664158011
 21
1.469925884935346
 31
0.0
  0
LINE
  5
17C
330
2
100
AcDbEntity
  8
0
100
AcDbLine
 10
6.373077664158011
 20
1.469925884935346
 30
0.0
 11
6.376678996999627
 21
1.469874821945415
 31
0.0
  0
LINE
  5
17D
330
2
100
AcDbEntity
  8
0
100
AcDbLine
 10
6.376678996999627
 20
1.469874821945415
 30
0.0
 11
6.525451851646192
 21
1.366192449636371
 31
0.0
  0
LINE
  5
17E
330
2
100
AcDbEntity
  8
0
100
AcDbLine
 10
6.525451851646192
 20
1.366192449636371
 30
0.0
 11
6.635793659957322
 21
1.474377748320732
 31
0.0
  0
LINE
  5
17F
330
2
100
AcDbEntity
  8
0
100
AcDbLine
 10
6.635793659957322
 20
1.474377748320732
 30
0.0
 11
6.63936286364816
 21
1.474548575500389
 31
0.0
  0
LINE
  5
180
330
2
100
AcDbEntity
  8
0
100
AcDbLine
 10
6.63936286364816
 20
1.474548575500389
 30
0.0
 11
6.791381909303066
 21
1.379352669839538
 31
0.0
  0
LINE
  5
181
330
2
100
AcDbEntity
  8
0
100
AcDbLine
 10
6.791381909303066
 20
1.379352669839538
 30
0.0
 11
6.895105687648422
 21
1.495530817731484
 31
0.0
  0
LINE
  5
182
330
2
100
AcDbEntity
  8
0
100
AcDbLine
 10
6.895105687648422
 20
1.495530817731484
 30
0.0
 11
6.898615796649713
 21
1.495934033237269
 31
0.0
  0
LINE
  5
183
330
2
100
AcDbEntity
  8
0
100
AcDbLine
 10
6.898615796649713
 20
1.495934033237269
 30
0.0
 11
7.053433520291108
 21
1.409503538782265
 31
0.0
  0
LINE
  5
184
330
2
100
AcDbEntity
  8
0
100
AcDbLine
 10
7.053433520291108
 20
1.409503538782265
 30
0.0
 11
7.150225435776603
 21
1.533326131425633
 31
0.0
  0
LINE
  5
185
330
2
100
AcDbEntity
  8
0
100
AcDbLine
 10
7.150225435776603
 20
1.533326131425633
 30
0.0
 11
7.153667844082965
 21
1.533960242951124
 31
0.0
  0
LINE
  5
186
330
2
100
AcDbEntity
  8
0
100
AcDbLine
 10
7.153667844082965
 20
1.533960242951124
 30
0.0
 11
7.310818373068399
 21
1.456553681598901
 31
0.0
  0
LINE
  5
187
330
2
100
AcDbEntity
  8
0
100
AcDbLine
 10
7.310818373068399
 20
1.456553681598901
 30
0.0
 11
7.40037147763052
 21
1.587664514058712
 31
0.0
  0
LINE
  5
188
330
2
100
AcDbEntity
  8
0
100
AcDbLine
 10
7.40037147763052
 20
1.587664514058712
 30
0.0
 11
7.403754791247309
 21
1.58851546509503
 31
0.0
  0
LINE
  5
189
330
2
100
AcDbEntity
  8
0
100
AcDbLine
 10
7.403754791247309
 20
1.58851546509503
 30
0.0
 11
7.562775695415039
 21
1.52036347764247
 31
0.0
  0
LINE
  5
18A
330
2
100
AcDbEntity
  8
0
100
AcDbLine
 10
7.562775695415039
 20
1.52036347764247
 30
0.0
 11
7.644827792279301
 21
1.658366705120743
 31
0.0
  0
LINE
  5
18B
330
2
100
AcDbEntity
  8
0
100
AcDbLine
 10
7.644827792279301
 20
1.658366705120743
 30
0.0
 11
7.648125619450801
 21
1.659439659323403
 31
0.0
  0
LINE
  5
18C
330
2
100
AcDbEntity
  8
0
100
AcDbLine
 10
7.648125619450801
 20
1.659439659323403
 30
0.0
 11
7.808537256540986
 21
1.600750226928105
 31
0.0
  0
LINE
  5
18D
330
2
100
AcDbEntity
  8
0
100
AcDbLine
 10
7.808537256540986
 20
1.600750226928105
 30
0.0
 11
7.882854261994342
 21
1.745228837381131
 31
0.0
  0
LINE
  5
18E
330
2
100
AcDbEntity
  8
0
100
AcDbLine
 10
7.882854261994342
 20
1.745228837381131
 30
0.0
 11
7.886056849192573
 21
1.746518917942575
 31
0.0
  0
LINE
  5
18F
330
2
100
AcDbEntity
  8
0
100
AcDbLine
 10
7.886056849192573
 20
1.746518917942575
 30
0.0
 11
8.04738416690507
 21
1.697461471529372
 31
0.0
  0
LINE
  5
190
330
2
100
AcDbEntity
  8
0
100
AcDbLine
 10
8.04738416690507
 20
1.697461471529372
 30
0.0
 11
8.113742898023623
 21
1.847987039108484
 31
0.0
  0
LINE
  5
191
330
2
100
AcDbEntity
  8
0
100
AcDbLine
 10
8.113742898023623
 20
1.847987039108484
 30
0.0
 11
8.116841639243178
 21
1.84949556448393
 31
0.0
  0
LINE
  5
192
330
2
100
AcDbEntity
  8
0
100
AcDbLine
 10
8.116841639243178
 20
1.84949556448393
 30
0.0
 11
8.278594668137831
 21
1.810220833448287
 31
0.0
  0
LINE
  5
193
330
2
100
AcDbEntity
  8
0
100
AcDbLine
 10
8.278594668137831
 20
1.810220833448287
 30
0.0
 11
8.336801202668706
 21
1.966335906644409
 31
0.0
  0
LINE
  5
194
330
2
100
AcDbEntity
  8
0
100
AcDbLine
 10
8.336801202668706
 20
1.966335906644409
 30
0.0
 11
8.33978634442516
 21
1.968058000069855
 31
0.0
  0
LINE
  5
195
330
2
100
AcDbEntity
  8
0
100
AcDbLine
 10
8.33978634442516
 20
1.968058000069855
 30
0.0
 11
8.501481999848779
 21
1.938682121815126
 31
0.0
  0
LINE
  5
196
330
2
100
AcDbEntity
  8
0
100
AcDbLine
 10
8.501481999848779
 20
1.938682121815126
 30
0.0
 11
8.551356185069336
 21
2.099933323100882
 31
0.0
  0
LINE
  5
197
330
2
100
AcDbEntity
  8
0
100
AcDbLine
 10
8.551356185069336
 20
2.099933323100882
 30
0.0
 11
8.554236907107641
 21
2.101849593522817
 31
0.0
  0
LINE
  5
198
330
2
100
AcDbEntity
  8
0
100
AcDbLine
 10
8.554236907107641
 20
2.101849593522817
 30
0.0
 11
8.715378908529116
 21
2.082470864641109
 31
0.0
  0
LINE
  5
199
330
2
100
AcDbEntity
  8
0
100
AcDbLine
 10
8.715378908529116
 20
2.082470864641109
 30
0.0
 11
8.756789359225992
 21
2.248361563387138
 31
0.0
  0
LINE
  5
19A
330
2
100
AcDbEntity
  8
0
100
AcDbLine
 10
8.756789359225992
 20
2.248361563387138
 30
0.0
 11
8.75951976273445
 21
2.250485780466509
 31
0.0
  0
LINE
  5
19B
330
2
100
AcDbEntity
  8
0
100
AcDbLine
 10
8.75951976273445
 20
2.250485780466509
 30
0.0
 11
8.919657154651321
 21
2.241147595719607
 31
0.0
  0
LINE
  5
19C
330
2
100
AcDbEntity
  8
0
100
AcDbLine
 10
8.919657154651321
 20
2.241147595719607
 30
0.0
 11
8.95246961686997
 21
2.41118684367425
 31
0.0
  0
LINE
  5
19D
330
2
100
AcDbEntity
  8
0
100
AcDbLine
 10
8.95246961686997
 20
2.41118684367425
 30
0.0
 11
8.955059455376559
 21
2.413508335316152
 31
0.0
  0
LINE
  5
19E
330
2
100
AcDbEntity
  8
0
100
AcDbLine
 10
8.955059455376559
 20
2.413508335316152
 30
0.0
 11
9.11369394919127
 21
2.414244656327613
 31
0.0
  0
LINE
  5
19F
330
2
100
AcDbEntity
  8
0
100
AcDbLine
 10
9.11369394919127
 20
2.414244656327613
 30
0.0
 11
9.137807732498556
 21
2.58793149522518
 31
0.0
  0
LINE
  5
1A0
330
2
100
AcDbEntity
  8
0
100
AcDbLine
 10
9.137807732498556
 20
2.58793149522518
 30
0.0
 11
9.140265898900171
 21
2.590433537691998
 31
0.0
  0
LINE
  5
1A1
330
2
100
AcDbEntity
  8
0
100
AcDbLine
 10
9.140265898900171
 20
2.590433537691998
 30
0.0
 11
9.296927605924516
 21
2.601241753383008
 31
0.0
  0
LINE
  5
1A2
330
2
100
AcDbEntity
  8
0
100
AcDbLine
 10
9.296927605924516
 20
2.601241753383008
 30
0.0
 11
9.312258084419068
 21
2.77806358228434
 31
0.0
  0
LINE
  5
1A3
330
2
100
AcDbEntity
  8
0
100
AcDbLine
 10
9.312258084419068
 20
2.77806358228434
 30
0.0
 11
9.314557900024901
 21
2.78074557430612
 31
0.0
  0
LINE
  5
1A4
330
2
100
AcDbEntity
  8
0
100
AcDbLine
 10
9.314557900024901
 20
2.78074557430612
 30
0.0
 11
9.468806191936732
 21
2.801581309796535
 31
0.0
  0
LINE
  5
1A5
330
2
100
AcDbEntity
  8
0
100
AcDbLine
 10
9.468806191936732
 20
2.801581309796535
 30
0.0
 11
9.475304311348478
 21
2.981008089758198
 31
0.0
  0
LINE
  5
1A6
330
2
100
AcDbEntity
  8
0
100
AcDbLine
 10
9.475304311348478
 20
2.981008089758198
 30
0.0
 11
9.477454955947033
 21
2.983856261674019
 31
0.0
  0
LINE
  5
1A7
330
2
100
AcDbEntity
  8
0
100
AcDbLine
 10
9.477454955947033
 20
2.983856261674019
 30
0.0
 11
9.628787814907392
 21
3.014677040115575
 31
0.0
  0
LINE
  5
1A8
330
2
100
AcDbEntity
  8
0
100
AcDbLine
 10
9.628787814907392
 20
3.014677040115575
 30
0.0
 11
9.626477672077641
 21
3.196154607822343
 31
0.0
  0
LINE
  5
1A9
330
2
100
AcDbEntity
  8
0
100
AcDbLine
 10
9.626477672077641
 20
3.196154607822343
 30
0.0
 11
9.628452180086496
 21
3.199171025721702
 31
0.0
  0
LINE
  5
1AA
330
2
100
AcDbEntity
  8
0
100
AcDbLine
 10
9.628452180086496
 20
3.199171025721702
 30
0.0
 11
9.77643528886424
 21
3.239875107518995
 31
0.0
  0
LINE
  5
1AB
330
2
100
AcDbEntity
  8
0
100
AcDbLine
 10
9.77643528886424
 20
3.239875107518995
 30
0.0
 11
9.765285615273247
 21
3.422881001431302
 31
0.0
  0
LINE
  5
1AC
330
2
100
AcDbEntity
  8
0
100
AcDbLine
 10
9.765285615273247
 20
3.422881001431302
 30
0.0
 11
9.767094313959953
 21
3.42604684786947
 31
0.0
  0
LINE
  5
1AD
330
2
100
AcDbEntity
  8
0
100
AcDbLine
 10
9.767094313959953
 20
3.42604684786947
 30
0.0
 11
9.911289913017579
 21
3.476513908030817
 31
0.0
  0
LINE
  5
1AE
330
2
100
AcDbEntity
  8
0
100
AcDbLine
 10
9.911289913017579
 20
3.476513908030817
 30
0.0
 11
9.891325666050532
 21
3.660503006969787
 31
0.0
  0
LINE
  5
1AF
330
2
100
AcDbEntity
  8
0
100
AcDbLine
 10
9.891325666050532
 20
3.660503006969787
 30
0.0
 11
9.892959949409682
 21
3.663811168334938
 31
0.0
  0
LINE
  5
1B0
330
2
100
AcDbEntity
  8
0
100
AcDbLine
 10
9.892959949409682
 20
3.663811168334938
 30
0.0
 11
10.03294576995848
 21
3.723884971247109
 31
0.0
  0
LINE
  5
1B1
330
2
100
AcDbEntity
  8
0
100
AcDbLine
 10
10.03294576995848
 20
3.723884971247109
 30
0.0
 11
10.00424784627536
 21
3.908300593821
 31
0.0
  0
LINE
  5
1B2
330
2
100
AcDbEntity
  8
0
100
AcDbLine
 10
10.00424784627536
 20
3.908300593821
 30
0.0
 11
10.00570025569338
 21
3.911744530110091
 31
0.0
  0
LINE
  5
1B3
330
2
100
AcDbEntity
  8
0
100
AcDbLine
 10
10.00570025569338
 20
3.911744530110091
 30
0.0
 11
10.14103394832341
 21
3.981257484334393
 31
0.0
  0
LINE
  5
1B4
330
2
100
AcDbEntity
  8
0
100
AcDbLine
 10
10.14103394832341
 20
3.981257484334393
 30
0.0
 11
10.10370389894487
 21
4.16554203367742
 31
0.0
  0
LINE
  5
1B5
330
2
100
AcDbEntity
  8
0
100
AcDbLine
 10
10.10370389894487
 20
4.16554203367742
 30
0.0
 11
10.10496668904741
 21
4.169109440005491
 31
0.0
  0
LINE
  5
1B6
330
2
100
AcDbEntity
  8
0
100
AcDbLine
 10
10.10496668904741
 20
4.169109440005491
 30
0.0
 11
10.23526012214363
 21
4.247846309591835
 31
0.0
  0
LINE
  5
1B7
330
2
100
AcDbEntity
  8
0
100
AcDbLine
 10
10.23526012214363
 20
4.247846309591835
 30
0.0
 11
10.18936507402517
 21
4.431468812337491
 31
0.0
  0
LINE
  5
1B8
330
2
100
AcDbEntity
  8
0
100
AcDbLine
 10
10.18936507402517
 20
4.431468812337491
 30
0.0
 11
10.19044914577562
 21
4.435143968956571
 31
0.0
  0
LINE
  5
1B9
330
2
100
AcDbEntity
  8
0
100
AcDbLine
 10
10.19044914577562
 20
4.435143968956571
 30
0.0
 11
10.31531562222425
 21
4.522870560070138
 31
0.0
  0
LINE
  5
1BA
330
2
100
AcDbEntity
  8
0
100
AcDbLine
 10
10.31531562222425
 20
4.522870560070138
 30
0.0
 11
10.261017368555
 21
4.705271127226073
 31
0.0
  0
LINE
  5
1BB
330
2
100
AcDbEntity
  8
0
100
AcDbLine
 10
10.261017368555
 20
4.705271127226073
 30
0.0
 11
10.26189747763308
 21
4.709056960813116
 31
0.0
  0
LINE
  5
1BC
330
2
100
AcDbEntity
  8
0
100
AcDbLine
 10
10.26189747763308
 20
4.709056960813116
 30
0.0
 11
10.38097009400636
 21
4.805502509835222
 31
0.0
  0
LINE
  5
1BD
330
2
100
AcDbEntity
  8
0
100
AcDbLine
 10
10.38097009400636
 20
4.805502509835222
 30
0.0
 11
10.31843358352109
 21
4.986141189802355
 31
0.0
  0
LINE
  5
1BE
330
2
100
AcDbEntity
  8
0
100
AcDbLine
 10
10.31843358352109
 20
4.986141189802355
 30
0.0
 11
10.31912149147773
 21
4.990011167987321
 31
0.0
  0
LINE
  5
1BF
330
2
100
AcDbEntity
  8
0
100
AcDbLine
 10
10.31912149147773
 20
4.990011167987321
 30
0.0
 11
10.43201842733868
 21
5.094910190957248
 31
0.0
  0
LINE
  5
1C0
330
2
100
AcDbEntity
  8
0
100
AcDbLine
 10
10.43201842733868
 20
5.094910190957248
 30
0.0
 11
10.36144819649283
 21
5.273231602024351
 31
0.0
  0
LINE
  5
1C1
330
2
100
AcDbEntity
  8
0
100
AcDbLine
 10
10.36144819649283
 20
5.273231602024351
 30
0.0
 11
10.361937592237
 21
5.277182569305306
 31
0.0
  0
LINE
  5
1C2
330
2
100
AcDbEntity
  8
0
100
AcDbLine
 10
10.361937592237
 20
5.277182569305306
 30
0.0
 11
10.46833683902351
 21
5.390207870264785
 31
0.0
  0
LINE
  5
1C3
330
2
100
AcDbEntity
  8
0
100
AcDbLine
 10
10.46833683902351
 20
5.390207870264785
 30
0.0
 11
10.38990486474087
 21
5.565701051034702
 31
0.0
  0
LINE
  5
1C4
330
2
100
AcDbEntity
  8
0
100
AcDbLine
 10
10.38990486474087
 20
5.565701051034702
 30
0.0
 11
10.39018958062742
 21
5.569724302174727
 31
0.0
  0
LINE
  5
1C5
330
2
100
AcDbEntity
  8
0
100
AcDbLine
 10
10.39018958062742
 20
5.569724302174727
 30
0.0
 11
10.48979265279197
 21
5.690530844397772
 31
0.0
  0
LINE
  5
1C6
330
2
100
AcDbEntity
  8
0
100
AcDbLine
 10
10.48979265279197
 20
5.690530844397772
 30
0.0
 11
10.4037477925669
 21
5.862665384483973
 31
0.0
  0
LINE
  5
1C7
330
2
100
AcDbEntity
  8
0
100
AcDbLine
 10
10.4037477925669
 20
5.862665384483973
 30
0.0
 11
10.40384073762574
 21
5.866740582288619
 31
0.0
  0
LINE
  5
1C8
330
2
100
AcDbEntity
  8
0
100
AcDbLine
 10
10.40384073762574
 20
5.866740582288619
 30
0.0
 11
10.49631945896102
 21
5.994982716932732
 31
0.0
  0
LWPOLYLINE
  5
1C9
330
2
100
AcDbEntity
  8
0
100
AcDbPolyline
 90
       59
 70
   128
 43
0.0
 10
10.1104248425572
 20
9.382900907961229
 10
10.40442981972629
 20
8.740135680219555
 10
10.64083792721182
 20
8.077812304916891
 10
10.81685271028423
 20
7.403711006302387
 10
10.93040815015925
 20
6.725729344430289
 10
10.98018695204791
 20
6.051815290369876
 10
10.96559501350921
 20
5.389872949405684
 10
10.88682109340183
 20
4.747652815965884
 10
10.74476150869436
 20
4.132700248190807
 10
10.54110433037774
 20
3.5522128350556
 10
10.27822338588731
 20
3.013003125866948
 10
9.959217416355528
 20
2.521384250930938
 10
9.587793321864717
 20
2.08313851538095
 10
9.168353082001647
 20
1.703374633352822
 10
8.705761967189472
 20
1.386577069407622
 10
8.205483653099006
 20
1.13643791238418
 10
7.673383142894052
 20
0.955889663799012
 10
7.11565906653629
 20
0.8470713876949591
 10
6.538902488322008
 20
0.8112267869142154
 10
5.949827825800033
 20
0.8488053458233203
 10
5.355374400269453
 20
0.9593478700014195
 10
4.762495302777368
 20
1.141567145275866
 10
4.178155099117518
 20
1.393319818823715
 10
3.609182379823373
 20
1.711666632540974
 10
3.062274350345784
 20
2.092858989497025
 10
2.543827005249173
 20
2.53243877197525
 10
2.059926522380523
 20
3.025247912350529
 10
1.616234516014243
 20
3.565510599318079
 10
1.217954760004752
 20
4.146898150358796
 10
0.8697804043185406
 20
4.762578688885464
 10
0.5757574262087334
 20
5.40535046495028
 10
0.3393488884294332
 20
6.067673625106092
 10
0.1633523214882111
 20
6.741768482992622
 10
0.0497792392215433
 20
7.419756872440677
 10
-0.0000002798088206
 20
8.093670567951999
 10
0.0145920889800469
 20
8.755613124063069
 10
0.0933842252185745
 20
9.397824006056833
 10
0.2354254503926597
 20
10.01278575353328
 10
0.4390829156008184
 20
10.59327331011426
 10
0.7019635732432858
 20
11.13248287585712
 10
1.020988189112911
 20
11.62409271449399
 10
1.392393637222353
 20
12.06235029706117
 10
1.811852236618783
 20
12.44210218862636
 10
2.274425278789135
 20
12.75890907576224
 10
2.774703592879551
 20
13.00904823278568
 10
3.306822175682849
 20
13.18958715818015
 10
3.864527892594335
 20
13.29841742474716
 10
4.441303117146381
 20
13.33425017846716
 10
5.030359133330567
 20
13.29668065590077
 10
5.624812845709154
 20
13.18613827516841
 10
6.217691656309676
 20
13.00391885649178
 10
6.802050219502913
 20
12.752157003199
 10
7.371004722665885
 20
12.43381944092775
 10
7.917912321893302
 20
12.05262686878129
 10
8.436360384175179
 20
11.61304744489571
 10
8.920278509348419
 20
11.12023157690095
 10
9.363952299627056
 20
10.5799753307049
 10
9.76223248597383
 20
9.998587994811064
 10
10.1104248425572
 20
9.382900907961229
  0
SPLINE
  5
1CA
330
2
100
AcDbEntity
  8
0
100
AcDbSpline
210
0.0
220
0.0
230
1.0
 70
     8
 71
     3
 72
    24
 73
    20
 74
     0
 42
0.000000001
 43
0.0000000001
 40
0.0
 40
0.0
 40
0.0
 40
0.0
 40
0.029868364922899
 40
0.1154058732833118
 40
0.1615031820331081
 40
0.2075906284733877
 40
0.2531253007019912
 40
0.32643909459538
 40
0.3684493256815249
 40
0.4104364695441163
 40
0.4952471640484373
 40
0.5853318655712028
 40
0.6320230468710241
 40
0.6786909529536933
 40
0.7135225874485879
 40
0.7490771037587534
 40
0.8334053304950545
 40
0.9175716044044492
 40
1.0
 40
1.0
 40
1.0
 40
1.0
 10
19.83158444190729
 20
11.89843014002074
 30
0.0
 10
19.77878915278537
 20
11.8995357067272
 30
0.0
 10
19.57479785757783
 20
11.90380741331565
 30
0.0
 10
19.29177660705766
 20
12.1262825396009
 30
0.0
 10
18.9887965222947
 20
12.43225682946758
 30
0.0
 10
18.7582629944274
 20
12.72643242775861
 30
0.0
 10
18.49035652698006
 20
13.12567437532494
 30
0.0
 10
18.24325227332975
 20
13.56430870288068
 30
0.0
 10
18.03065707066976
 20
14.00661135494766
 30
0.0
 10
17.83092978429668
 20
14.48074977692765
 30
0.0
 10
17.64264440158424
 20
15.06866694663159
 30
0.0
 10
17.58459801962507
 20
15.58988546924478
 30
0.0
 10
17.64760327539349
 20
15.94709323687518
 30
0.0
 10
17.74785823396982
 20
16.15831758379179
 30
0.0
 10
17.88714399914641
 20
16.3147579909002
 30
0.0
 10
18.1236112078253
 20
16.47723530775481
 30
0.0
 10
18.54802989396426
 20
16.5796801120283
 30
0.0
 10
19.18894958812646
 20
16.51726566393909
 30
0.0
 10
19.61887030354233
 20
16.29977475500339
 30
0.0
 10
19.83158824289978
 20
16.19216370878282
 30
0.0
  0
ARC
  5
1CB
330
2
100
AcDbEntity
  8
0
100
AcDbCircle
 10
18.46638437242881
 20
13.97251519724431
 30
0.0
 40
7.811150824675027
100
AcDbArc
 50
26.64999833300003
 51
54.61340879439974
  0
ARC
  5
1CC
330
2
100
AcDbEntity
  8
0
100
AcDbCircle
 10
19.75119737518085
 20
17.15543285887337
 30
0.0
 40
4.27241813929395
100
AcDbArc
 50
88.92192092449933
 51
117.5071195705998
  0
LWPOLYLINE
  5
1CD
330
2
100
AcDbEntity
  8
0
100
AcDbPolyline
 90
       16
 70
   128
 43
0.0
 10
23.87680017973633
 20
9.387062176492404
 10
24.04304038785861
 20
9.479800012413088
 10
24.50563150267079
 20
9.796597576358262
 10
24.92507174253386
 20
10.17635864766835
 10
25.29649583702467
 20
10.6146071939364
 10
25.61550180655645
 20
11.10622606887239
 10
25.87838275104688
 20
11.64543577806104
 10
26.0820399293635
 20
12.22592319119627
 10
26.22409951407098
 20
12.84087575897132
 10
26.30287343422188
 20
13.4830944870521
 10
26.31746537271705
 20
14.14503823333176
 10
26.26768657087195
 20
14.81895228743573
 10
26.15413113095338
 20
15.49693113858979
 10
25.97811634788096
 20
16.17103524792233
 10
25.74170824039544
 20
16.83335721786598
 10
25.44770326322634
 20
17.47612244560765
  0
SPLINE
  5
1CE
330
2
100
AcDbEntity
  8
0
100
AcDbSpline
210
0.0
220
0.0
230
1.0
 70
     8
 71
     3
 72
    11
 73
     7
 74
     0
 42
0.000000001
 43
0.0000000001
 40
0.0
 40
0.0
 40
0.0
 40
0.0
 40
0.2006976579726349
 40
0.4676247386069813
 40
0.7339652828352927
 40
1.0
 40
1.0
 40
1.0
 40
1.0
 10
19.14589988118498
 20
14.2586855589483
 30
0.0
 10
19.10597609149498
 20
14.35397082746567
 30
0.0
 10
19.01295382154653
 20
14.5759851211729
 30
0.0
 10
18.99055079389301
 20
14.92065222897222
 30
0.0
 10
19.06251581590569
 20
15.2321743529439
 30
0.0
 10
19.19580741651976
 20
15.33782547220635
 30
0.0
 10
19.26241493163427
 20
15.3906206857885
 30
0.0
  0
LWPOLYLINE
  5
1CF
330
2
100
AcDbEntity
  8
0
100
AcDbPolyline
 90
       29
 70
   128
 43
0.0
 10
22.49644726907977
 20
10.34929146757918
 10
22.22761228499159
 20
10.24210113028859
 10
21.91781517899189
 20
10.16750707822233
 10
21.58258440407284
 20
10.12925280494364
 10
21.23874239993011
 20
10.12925026347498
 10
20.90352073301133
 20
10.16750462640183
 10
20.59372388702612
 20
10.24210009036124
 10
20.3248900503734
 20
10.34929433627669
 10
20.11050155862966
 20
10.48371125455947
 10
19.96131063066723
 20
10.63860967757386
 10
19.88480190485712
 20
10.80622051103325
 10
19.88480698779447
 20
10.97814151308284
 10
19.96131553430823
 20
11.14575690056414
 10
20.11050363844079
 20
11.30065545356401
 10
20.32488431302194
 20
11.43507294558631
 10
20.59371929715368
 20
11.54226328292045
 10
20.90351639413627
 20
11.61685733049997
 10
21.23874715115182
 20
11.6551115948051
 10
21.58258923596921
 20
11.65511417661106
 10
21.91781081323983
 20
11.61685976886016
 10
22.22760762337447
 20
11.54226428695367
 10
22.49644149587774
 20
11.4350700589853
 10
22.71082995177093
 20
11.30065312275544
 10
22.86002091558393
 20
11.14575471768812
 10
22.9365297310422
 20
10.97814392905282
 10
22.93652456743021
 20
10.8062228866659
 10
22.86001603881995
 20
10.63860750815813
 10
22.71082794370448
 20
10.48370895964504
 10
22.49644726907977
 20
10.34929146757918
  0
LWPOLYLINE
  5
1D0
330
2
100
AcDbEntity
  8
0
100
AcDbPolyline
 90
       28
 70
   129
 43
0.0
 10
22.43705336120511
 20
10.46629717468133
 10
22.18791318768822
 20
10.36695958540704
 10
21.89502540341009
 20
10.29643702013157
 10
21.57515174020665
 20
10.25993519678378
 10
21.24617431893255
 20
10.25993276518497
 10
20.92631101374639
 20
10.29643448381206
 10
20.63342415354776
 20
10.36695822060044
 10
20.38428361860713
 20
10.46630000027542
 10
20.19350392241207
 20
10.58591471758084
 10
20.07092256872663
 20
10.71318558207756
 10
20.01548519176459
 20
10.83463453916087
 10
20.01548859446346
 20
10.94972456684736
 10
20.0709282682625
 20
11.07118214027011
 10
20.19350740065932
 20
11.19845321423841
 10
20.38427822089797
 20
11.31806723848578
 10
20.6334183940314
 20
11.41740482763144
 10
20.92630616795636
 20
11.48792738822485
 10
21.24617982132071
 20
11.52442920383683
 10
21.57515731397979
 20
11.52443167402908
 10
21.89502051688255
 20
11.48792991454218
 10
22.18790735851297
 20
11.41740615709615
 10
22.43704792513728
 20
11.31806439466786
 10
22.62782759176091
 20
11.1984496599301
 10
22.75040900785599
 20
11.07117877596544
 10
22.80584643079947
 20
10.94972989293399
 10
22.8058429740947
 20
10.83463985744771
 10
22.75040330124626
 20
10.71318226418806
 10
22.62782418059974
 20
10.58591119841395
  0
LWPOLYLINE
  5
1D1
330
2
100
AcDbEntity
  8
0
100
AcDbPolyline
 90
       16
 70
   128
 43
0.0
 10
22.98973803216375
 20
26.92521457408066
 10
22.97981586397903
 20
27.01361160317287
 10
22.90113847472612
 20
27.18597642938379
 10
22.74770804165735
 20
27.34527272624738
 10
22.52724359165179
 20
27.48349976301054
 10
22.25078951808193
 20
27.59373198799154
 10
21.9321969244419
 20
27.67044720456948
 10
21.58746727197645
 20
27.70978589917416
 10
21.2338643818699
 20
27.70978654461473
 10
20.88912139008084
 20
27.67044806515694
 10
20.57053725904403
 20
27.59373707990239
 10
20.29409541316934
 20
27.48349605167258
 10
20.07361335670978
 20
27.34527512875703
 10
19.92019140414768
 20
27.18598307219039
 10
19.84151448103909
 20
27.01361159424292
 10
19.83159358578852
 20
26.9252071693083
  0
LWPOLYLINE
  5
1D2
330
2
100
AcDbEntity
  8
0
100
AcDbPolyline
 90
        9
 70
   128
 43
0.0
 10
20.02457779233175
 20
27.61825486211318
 10
19.78078503771375
 20
27.46973719391192
 10
19.59963530652708
 20
27.30028986922492
 10
19.4880917973656
 20
27.1164238067206
 10
19.45042492988019
 20
26.92521292456328
 10
19.48809721201854
 20
26.73399790077428
 10
19.59963647639632
 20
26.55013919599662
 10
19.78078532456171
 20
26.38068786637181
 10
19.83158329445873
 20
26.34447233252651
  0
LWPOLYLINE
  5
1D3
330
2
100
AcDbEntity
  8
0
100
AcDbPolyline
 90
       17
 70
   128
 43
0.0
 10
22.98974606447321
 20
26.34447053960692
 10
23.04054654443149
 20
26.38068453153002
 10
23.22169625318435
 20
26.55013184497831
 10
23.33323974888557
 20
26.73399790077428
 10
23.37090658056397
 20
26.9252087650281
 10
23.33323429842562
 20
27.1164237888171
 10
23.22169510574892
 20
27.30028252948885
 10
23.04054625753998
 20
27.46973385907013
 10
22.79676250341415
 20
27.61825921889172
 10
22.49971178377097
 20
27.74015109595463
 10
22.16080912456488
 20
27.83072552003731
 10
21.79309164322134
 20
27.88649511639744
 10
21.41066159564336
 20
27.90533125746664
 10
21.02823986722283
 20
27.8864978416492
 10
20.66050775563089
 20
27.83072609377681
 10
20.32161312869073
 20
27.7401512394004
 10
20.02457779233175
 20
27.61825486211318
  0
ARC
  5
1D4
330
2
100
AcDbEntity
  8
0
100
AcDbCircle
 10
21.39984713232951
 20
34.05638253782642
 30
0.0
 40
2.374416220432293
100
AcDbArc
 50
57.68850149640069
 51
106.212750080799
  0
ARC
  5
1D5
330
2
100
AcDbEntity
  8
0
100
AcDbCircle
 10
21.41066132517426
 20
34.86236570953751
 30
0.0
 40
1.909697582428596
100
AcDbArc
 50
59.8322067485008
 51
120.1676637305987
  0
LINE
  5
1D6
330
2
100
AcDbEntity
  8
0
100
AcDbLine
 10
20.60201822643199
 20
36.28939467949733
 30
0.0
 11
20.77733341169798
 21
36.20335293896719
 31
0.0
  0
LINE
  5
1D7
330
2
100
AcDbEntity
  8
0
100
AcDbLine
 10
20.60201822643199
 20
36.40256898166403
 30
0.0
 11
20.85888528359932
 21
36.27650296938118
 31
0.0
  0
ARC
  5
1D8
330
2
100
AcDbEntity
  8
0
100
AcDbCircle
 10
20.2210594398248
 20
35.41881744595516
 30
0.0
 40
0.9502811776726373
100
AcDbArc
 50
66.36613432510076
 51
114.1675909438
  0
LWPOLYLINE
  5
1D9
330
2
100
AcDbEntity
  8
0
100
AcDbPolyline
 90
        9
 70
   128
 43
0.0
 10
19.55737064104334
 20
36.14591939542154
 10
19.54933853426248
 20
36.14093028795953
 10
19.543413163475
 20
36.13525039495701
 10
19.53979815066418
 20
36.129110043965
 10
19.53867038545545
 20
36.12272619637754
 10
19.54003985434002
 20
36.11636087860269
 10
19.54386781236834
 20
36.11025175134988
 10
19.55002172680436
 20
36.10462630039333
 10
19.55823235469395
 20
36.09971709444444
  0
LINE
  5
1DA
330
2
100
AcDbEntity
  8
0
100
AcDbLine
 10
19.55737064104334
 20
36.14591939542154
 30
0.0
 11
19.83200764297144
 21
36.28580822794508
 31
0.0
  0
LINE
  5
1DB
330
2
100
AcDbEntity
  8
0
100
AcDbLine
 10
19.55823235469395
 20
36.09971709444444
 30
0.0
 11
19.8917962868529
 21
35.93600950377697
 31
0.0
  0
ARC
  5
1DC
330
2
100
AcDbEntity
  8
0
100
AcDbCircle
 10
20.2210594398248
 20
35.53199174812184
 30
0.0
 40
0.9502811776723877
100
AcDbArc
 50
66.36613432510076
 51
114.1675909438
  0
LINE
  5
1DD
330
2
100
AcDbEntity
  8
0
100
AcDbLine
 10
19.55737064104334
 20
36.25909369758824
 30
0.0
 11
19.83200764297144
 21
36.39898253006825
 31
0.0
  0
ARC
  5
1DE
330
2
100
AcDbEntity
  8
0
100
AcDbCircle
 10
19.56697089684821
 20
36.23215434746626
 30
0.0
 40
0.0285988373269057
100
AcDbArc
 50
109.6143150081012
 51
171.8517412672996
  0
ARC
  5
1DF
330
2
100
AcDbEntity
  8
0
100
AcDbCircle
 10
21.41453783926754
 20
30.22659943654967
 30
0.0
 40
5.203807875998466
100
AcDbArc
 50
82.05968129389935
 51
113.9172487227011
  0
ARC
  5
1E0
330
2
100
AcDbEntity
  8
0
100
AcDbCircle
 10
19.90570740403916
 20
33.55724879409749
 30
0.0
 40
1.547720814999035
100
AcDbArc
 50
112.8447734893984
 51
153.5011491354999
  0
ARC
  5
1E1
330
2
100
AcDbEntity
  8
0
100
AcDbCircle
 10
21.16578076072155
 20
34.49275986797065
 30
0.0
 40
1.755605034363025
100
AcDbArc
 50
100.1122363654
 51
121.2331302517007
  0
ELLIPSE
  5
1E2
330
2
100
AcDbEntity
  8
0
100
AcDbEllipse
 10
21.10940501434921
 20
-14.84760223821222
 30
0.0
 11
1.197296836253166
 21
85.97436173783695
 31
0.0
210
0.0
220
0.0
230
1.0
 40
0.0139196393
 41
0.9329178376608712
 42
0.9349693188829512
  0
SPLINE
  5
1E3
330
2
100
AcDbEntity
  8
0
100
AcDbSpline
210
0.0
220
0.0
230
1.0
 70
     8
 71
     3
 72
     9
 73
     5
 74
     0
 42
0.000000001
 43
0.0000000001
 40
0.0
 40
0.0
 40
0.0
 40
0.0
 40
0.9589330608133678
 40
1.0
 40
1.0
 40
1.0
 40
1.0
 10
22.01254129991333
 20
35.60419235521557
 30
0.0
 10
22.0529454947634
 20
35.58510632274117
 30
0.0
 10
22.09508002583875
 20
35.56520291836989
 30
0.0
 10
22.13344204343306
 20
35.54005886287156
 30
0.0
 10
22.13501745407662
 20
35.5390262734735
 30
0.0
  0
LINE
  5
1E4
330
2
100
AcDbEntity
  8
0
100
AcDbLine
 10
16.79012849317064
 20
32.14175293910715
 30
0.0
 11
16.20620080472799
 21
32.13904319004654
 31
0.0
  0
LINE
  5
1E5
330
2
100
AcDbEntity
  8
0
100
AcDbLine
 10
16.19560894467425
 20
32.70873042419989
 30
0.0
 11
16.81757467111687
 21
32.71162233400604
 31
0.0
  0
SPLINE
  5
1E6
330
2
100
AcDbEntity
  8
0
100
AcDbSpline
210
0.0
220
0.0
230
1.0
 70
     8
 71
     3
 72
    11
 73
     7
 74
     0
 42
0.000000001
 43
0.0000000001
 40
0.0
 40
0.0
 40
0.0
 40
0.0
 40
0.2409255359139234
 40
0.500235543377709
 40
0.7593247873429311
 40
1.0
 40
1.0
 40
1.0
 40
1.0
 10
16.08691877518675
 20
32.61614042023584
 30
0.0
 10
16.08902210557998
 20
32.62791416571312
 30
0.0
 10
16.09338926665374
 20
32.65236008400935
 30
0.0
 10
16.11889069605039
 20
32.68333256300905
 30
0.0
 10
16.15475553919148
 20
32.70465363217911
 30
0.0
 10
16.18232980465634
 20
32.70740528883091
 30
0.0
 10
16.19560894469255
 20
32.70873042418434
 30
0.0
  0
LINE
  5
1E7
330
2
100
AcDbEntity
  8
0
100
AcDbLine
 10
16.06369514128203
 20
32.21720710100191
 30
0.0
 11
16.08691877517885
 21
32.61614042022703
 31
0.0
  0
SPLINE
  5
1E8
330
2
100
AcDbEntity
  8
0
100
AcDbSpline
210
0.0
220
0.0
230
1.0
 70
     8
 71
     3
 72
    13
 73
     9
 74
     0
 42
0.000000001
 43
0.0000000001
 40
0.0
 40
0.0
 40
0.0
 40
0.0
 40
0.1525621910884436
 40
0.2973302472757253
 40
0.4342161599526003
 40
0.5633659086993037
 40
0.7971139555916377
 40
1.0
 40
1.0
 40
1.0
 40
1.0
 10
16.06369514129504
 20
32.21720710099429
 30
0.0
 10
16.06270506795307
 20
32.20974689215819
 30
0.0
 10
16.06077550238067
 20
32.19520760347768
 30
0.0
 10
16.05124179409576
 20
32.17542718810017
 30
0.0
 10
16.03837726467644
 20
32.15867725190137
 30
0.0
 10
16.01838725574509
 20
32.14169108401212
 30
0.0
 10
15.9902902188948
 20
32.12763759179354
 30
0.0
 10
15.96619912160796
 20
32.12557546082616
 30
0.0
 10
15.95500497178926
 20
32.12461727271544
 30
0.0
  0
LINE
  5
1E9
330
2
100
AcDbEntity
  8
0
100
AcDbLine
 10
15.47962143742108
 20
32.12240459306665
 30
0.0
 11
15.95500497178661
 21
32.12461727270981
 31
0.0
  0
LINE
  5
1EA
330
2
100
AcDbEntity
  8
0
100
AcDbLine
 10
15.48837476455179
 20
33.48276580054835
 30
0.0
 11
17.24342238033444
 21
33.49093004557849
 31
0.0
  0
LINE
  5
1EB
330
2
100
AcDbEntity
  8
0
100
AcDbLine
 10
15.42795605237259
 20
31.59836821119812
 30
0.0
 11
15.42594253038248
 21
31.59644347464451
 31
0.0
  0
SPLINE
  5
1EC
330
2
100
AcDbEntity
  8
0
100
AcDbSpline
210
0.0
220
0.0
230
1.0
 70
     8
 71
     3
 72
    11
 73
     7
 74
     0
 42
0.000000001
 43
0.0000000001
 40
0.0
 40
0.0
 40
0.0
 40
0.0
 40
0.2518662415786849
 40
0.5006293470594271
 40
0.7519759730583325
 40
1.0
 40
1.0
 40
1.0
 40
1.0
 10
15.42594253037116
 20
31.59644347465773
 30
0.0
 10
15.42469146882269
 20
31.59546265950769
 30
0.0
 10
15.42220475951937
 20
31.59351311341106
 30
0.0
 10
15.41632853858528
 20
31.59159032117865
 30
0.0
 10
15.40970938496552
 20
31.59047905876202
 30
0.0
 10
15.40511805177574
 20
31.59068310030408
 30
0.0
 10
15.402837659566
 20
31.59078444227253
 30
0.0
  0
LINE
  5
1ED
330
2
100
AcDbEntity
  8
0
100
AcDbLine
 10
15.4028376595607
 20
31.59078444226315
 30
0.0
 11
15.37850729139911
 21
31.59325178840972
 31
0.0
  0
SPLINE
  5
1EE
330
2
100
AcDbEntity
  8
0
100
AcDbSpline
210
0.0
220
0.0
230
1.0
 70
     8
 71
     3
 72
    11
 73
     7
 74
     0
 42
0.000000001
 43
0.0000000001
 40
0.0
 40
0.0
 40
0.0
 40
0.0
 40
0.2516791380749928
 40
0.5003896775622105
 40
0.7519022862478401
 40
1.0
 40
1.0
 40
1.0
 40
1.0
 10
15.37850729140439
 20
31.59325178842478
 30
0.0
 10
15.37628756514143
 20
31.59360126499955
 30
0.0
 10
15.37187429466763
 20
31.59429609601303
 30
0.0
 10
15.36663905354606
 20
31.59664240755257
 30
0.0
 10
15.36279297748945
 20
31.5995608564433
 30
0.0
 10
15.36200708740697
 20
31.60183487531258
 30
0.0
 10
15.36161682819091
 20
31.60296411315493
 30
0.0
  0
LINE
  5
1EF
330
2
100
AcDbEntity
  8
0
100
AcDbLine
 10
15.36161682817935
 20
31.60296411316835
 30
0.0
 11
15.36124877735974
 21
31.60511174562366
 31
0.0
  0
SPLINE
  5
1F0
330
2
100
AcDbEntity
  8
0
100
AcDbSpline
210
0.0
220
0.0
230
1.0
 70
     8
 71
     3
 72
     9
 73
     5
 74
     0
 42
0.000000001
 43
0.0000000001
 40
0.0
 40
0.0
 40
0.0
 40
0.0
 40
0.5003539961218876
 40
1.0
 40
1.0
 40
1.0
 40
1.0
 10
15.35481921925888
 20
31.61195797858518
 30
0.0
 10
15.35650799079235
 20
31.61097003682134
 30
0.0
 10
15.35988314427677
 20
31.60899555121413
 30
0.0
 10
15.3607937812466
 20
31.6064057363057
 30
0.0
 10
15.36124877736967
 20
31.60511174563592
 30
0.0
  0
SPLINE
  5
1F1
330
2
100
AcDbEntity
  8
0
100
AcDbSpline
210
0.0
220
0.0
230
1.0
 70
     8
 71
     3
 72
    15
 73
    11
 74
     0
 42
0.000000001
 43
0.0000000001
 40
0.0
 40
0.0
 40
0.0
 40
0.0
 40
0.1249567325355393
 40
0.2499942187326643
 40
0.3748381534504013
 40
0.4997274248049807
 40
0.6248871211129759
 40
0.74946602000385
 40
0.8749527349466557
 40
1.0
 40
1.0
 40
1.0
 40
1.0
 10
15.3228111331088
 20
31.61115561058291
 30
0.0
 10
15.32383810975
 20
31.61172197117398
 30
0.0
 10
15.32589272671916
 20
31.61285505836841
 30
0.0
 10
15.32976204519167
 20
31.61408281947872
 30
0.0
 10
15.33397541243269
 20
31.61492032283259
 30
0.0
 10
15.33845011602991
 20
31.61527927084307
 30
0.0
 10
15.34296442944583
 20
31.61514855352687
 30
0.0
 10
15.34733594199154
 20
31.6145481621628
 30
0.0
 10
15.35141149914007
 20
31.61350239275906
 30
0.0
 10
15.35368464162342
 20
31.61247218096111
 30
0.0
 10
15.35481921925888
 20
31.61195797858518
 30
0.0
  0
LINE
  5
1F2
330
2
100
AcDbEntity
  8
0
100
AcDbLine
 10
15.32281113312898
 20
31.61115561058524
 30
0.0
 11
15.32003024093635
 21
31.60948977181485
 31
0.0
  0
SPLINE
  5
1F3
330
2
100
AcDbEntity
  8
0
100
AcDbSpline
210
0.0
220
0.0
230
1.0
 70
     8
 71
     3
 72
    11
 73
     7
 74
     0
 42
0.000000001
 43
0.0000000001
 40
0.0
 40
0.0
 40
0.0
 40
0.0
 40
0.2517982123030083
 40
0.5005850424804256
 40
0.7517459748745626
 40
1.0
 40
1.0
 40
1.0
 40
1.0
 10
15.32003024093343
 20
31.60948977183083
 30
0.0
 10
15.31840279772323
 20
31.60865770752769
 30
0.0
 10
15.31516737471894
 20
31.60700352999912
 30
0.0
 10
15.30861188318083
 20
31.60574114232438
 30
0.0
 10
15.30167371975334
 20
31.60533866415087
 30
0.0
 10
15.29726664678897
 20
31.60601928230782
 30
0.0
 10
15.29507593626665
 20
31.60635761057476
 30
0.0
  0
LINE
  5
1F4
330
2
100
AcDbEntity
  8
0
100
AcDbLine
 10
15.29507593627171
 20
31.60635761056332
 30
0.0
 11
15.27232620723962
 21
31.61128599180898
 31
0.0
  0
SPLINE
  5
1F5
330
2
100
AcDbEntity
  8
0
100
AcDbSpline
210
0.0
220
0.0
230
1.0
 70
     8
 71
     3
 72
    11
 73
     7
 74
     0
 42
0.000000001
 43
0.0000000001
 40
0.0
 40
0.0
 40
0.0
 40
0.0
 40
0.251757308025943
 40
0.5005642476244067
 40
0.7519273984288497
 40
1.0
 40
1.0
 40
1.0
 40
1.0
 10
15.27232620725151
 20
31.61128599179737
 30
0.0
 10
15.27029851070621
 20
31.61185961691986
 30
0.0
 10
15.26626688038902
 20
31.61300014479608
 30
0.0
 10
15.26211739061755
 20
31.61584139306319
 30
0.0
 10
15.25956479413307
 20
31.61909769489295
 30
0.0
 10
15.25973928933074
 20
31.6214048603586
 30
0.0
 10
15.25982596209577
 20
31.62255084267291
 30
0.0
  0
LINE
  5
1F6
330
2
100
AcDbEntity
  8
0
100
AcDbLine
 10
15.25982596209926
 20
31.62255084267937
 30
0.0
 11
15.26037646055589
 21
31.6246804024928
 31
0.0
  0
SPLINE
  5
1F7
330
2
100
AcDbEntity
  8
0
100
AcDbSpline
210
0.0
220
0.0
230
1.0
 70
     8
 71
     3
 72
    11
 73
     7
 74
     0
 42
0.000000001
 43
0.0000000001
 40
0.0
 40
0.0
 40
0.0
 40
0.0
 40
0.2506185933687897
 40
0.4995534562367371
 40
0.7499316627588096
 40
1.0
 40
1.0
 40
1.0
 40
1.0
 10
15.25401116073472
 20
31.63381698445153
 30
0.0
 10
15.25513058580425
 20
31.63320139646106
 30
0.0
 10
15.25736191531163
 20
31.63197435618402
 30
0.0
 10
15.25948013577223
 20
31.62968316947618
 30
0.0
 10
15.26066791632668
 20
31.62721700601871
 30
0.0
 10
15.26047357236862
 20
31.62552558791261
 30
0.0
 10
15.2603764605571
 20
31.62468040251031
 30
0.0
  0
SPLINE
  5
1F8
330
2
100
AcDbEntity
  8
0
100
AcDbSpline
210
0.0
220
0.0
230
1.0
 70
     8
 71
     3
 72
    11
 73
     7
 74
     0
 42
0.000000001
 43
0.0000000001
 40
0.0
 40
0.0
 40
0.0
 40
0.0
 40
0.2501783118805425
 40
0.5000355775056827
 40
0.7504327581879467
 40
1.0
 40
1.0
 40
1.0
 40
1.0
 10
15.22527709174956
 20
31.63459654649884
 30
0.0
 10
15.22751056435026
 20
31.63532238807661
 30
0.0
 10
15.23197464340381
 20
31.63677313978165
 30
0.0
 10
15.23996886664439
 20
31.63723643371755
 30
0.0
 10
15.24781959739428
 20
31.6363587479601
 30
0.0
 10
15.25194959154564
 20
31.63466330080932
 30
0.0
 10
15.25401116073472
 20
31.63381698445153
 30
0.0
  0
LINE
  5
1F9
330
2
100
AcDbEntity
  8
0
100
AcDbLine
 10
15.22527709176127
 20
31.63459654647806
 30
0.0
 11
15.22188058222303
 21
31.63324712245126
 31
0.0
  0
SPLINE
  5
1FA
330
2
100
AcDbEntity
  8
0
100
AcDbSpline
210
0.0
220
0.0
230
1.0
 70
     8
 71
     3
 72
    11
 73
     7
 74
     0
 42
0.000000001
 43
0.0000000001
 40
0.0
 40
0.0
 40
0.0
 40
0.0
 40
0.2521276709782877
 40
0.5008886264015795
 40
0.7523761970940966
 40
1.0
 40
1.0
 40
1.0
 40
1.0
 10
15.22188058222244
 20
31.63324712244341
 30
0.0
 10
15.2199347112558
 20
31.63260773468217
 30
0.0
 10
15.21606895296021
 20
31.63133749704326
 30
0.0
 10
15.20913561274928
 20
31.63077060808845
 30
0.0
 10
15.20218741674301
 20
31.63110774345485
 30
0.0
 10
15.19816069725082
 20
31.63222610900739
 30
0.0
 10
15.19616292351407
 20
31.63278096298557
 30
0.0
  0
LINE
  5
1FB
330
2
100
AcDbEntity
  8
0
100
AcDbLine
 10
15.19616292353242
 20
31.63278096300444
 30
0.0
 11
15.17595483928079
 21
31.6399715802017
 31
0.0
  0
SPLINE
  5
1FC
330
2
100
AcDbEntity
  8
0
100
AcDbSpline
210
0.0
220
0.0
230
1.0
 70
     8
 71
     3
 72
    11
 73
     7
 74
     0
 42
0.000000001
 43
0.0000000001
 40
0.0
 40
0.0
 40
0.0
 40
0.0
 40
0.2515396995185123
 40
0.5010242540625058
 40
0.7521131765753765
 40
1.0
 40
1.0
 40
1.0
 40
1.0
 10
15.17595483929716
 20
31.63997158019896
 30
0.0
 10
15.17421265419501
 20
31.64074277245263
 30
0.0
 10
15.17074251809742
 20
31.64227885611814
 30
0.0
 10
15.16785243506649
 20
31.64548687821401
 30
0.0
 10
15.16671684684506
 20
31.64893902857463
 30
0.0
 10
15.16785163731235
 20
31.65117431628629
 30
0.0
 10
15.16841539137554
 20
31.65228478783687
 30
0.0
  0
LINE
  5
1FD
330
2
100
AcDbEntity
  8
0
100
AcDbLine
 10
15.16841539138478
 20
31.65228478783256
 30
0.0
 11
15.16983395047709
 21
31.65431595217081
 31
0.0
  0
SPLINE
  5
1FE
330
2
100
AcDbEntity
  8
0
100
AcDbSpline
210
0.0
220
0.0
230
1.0
 70
     8
 71
     3
 72
    11
 73
     7
 74
     0
 42
0.000000001
 43
0.0000000001
 40
0.0
 40
0.0
 40
0.0
 40
0.0
 40
0.2500205018719834
 40
0.4999435936293726
 40
0.749865414785397
 40
1.0
 40
1.0
 40
1.0
 40
1.0
 10
15.16451485589921
 20
31.66566471174809
 30
0.0
 10
15.16586129755133
 20
31.66490339598089
 30
0.0
 10
15.1685536562705
 20
31.66338106106169
 30
0.0
 10
15.17071183306846
 20
31.66046488034633
 30
0.0
 10
15.17137204156319
 20
31.65734844881185
 30
0.0
 10
15.17034679290498
 20
31.65532707106944
 30
0.0
 10
15.16983395046438
 20
31.65431595217022
 30
0.0
  0
SPLINE
  5
1FF
330
2
100
AcDbEntity
  8
0
100
AcDbSpline
210
0.0
220
0.0
230
1.0
 70
     8
 71
     3
 72
    11
 73
     7
 74
     0
 42
0.000000001
 43
0.0000000001
 40
0.0
 40
0.0
 40
0.0
 40
0.0
 40
0.2498507528465535
 40
0.4997993674715579
 40
0.7502392371319587
 40
1.0
 40
1.0
 40
1.0
 40
1.0
 10
15.13963685794973
 20
31.66765628838598
 30
0.0
 10
15.14173307960545
 20
31.66808066297275
 30
0.0
 10
15.14592634396675
 20
31.66892957836573
 30
0.0
 10
15.15275863365819
 20
31.668871003727
 30
0.0
 10
15.15929361526456
 20
31.66786483078505
 30
0.0
 10
15.16277601833766
 20
31.66639742067473
 30
0.0
 10
15.16451485589921
 20
31.66566471174809
 30
0.0
  0
LINE
  5
200
330
2
100
AcDbEntity
  8
0
100
AcDbLine
 10
15.13963685793324
 20
31.66765628837481
 30
0.0
 11
15.13573919114352
 21
31.66669886856312
 31
0.0
  0
SPLINE
  5
201
330
2
100
AcDbEntity
  8
0
100
AcDbSpline
210
0.0
220
0.0
230
1.0
 70
     8
 71
     3
 72
    11
 73
     7
 74
     0
 42
0.000000001
 43
0.0000000001
 40
0.0
 40
0.0
 40
0.0
 40
0.0
 40
0.2518587755650291
 40
0.5006154759430006
 40
0.7515915843334648
 40
1.0
 40
1.0
 40
1.0
 40
1.0
 10
15.13573919114696
 20
31.66669886857626
 30
0.0
 10
15.13357374652575
 20
31.66627217016027
 30
0.0
 10
15.12926952846844
 20
31.66542402885507
 30
0.0
 10
15.12225576028966
 20
31.66559588071066
 30
0.0
 10
15.11559157736738
 20
31.66664258111279
 30
0.0
 10
15.11211877671512
 20
31.66815978646406
 30
0.0
 10
15.11039130446406
 20
31.6689144886212
 30
0.0
  0
LINE
  5
202
330
2
100
AcDbEntity
  8
0
100
AcDbLine
 10
15.11039130444742
 20
31.66891448860489
 30
0.0
 11
15.09360526098936
 21
31.67805479982807
 31
0.0
  0
SPLINE
  5
203
330
2
100
AcDbEntity
  8
0
100
AcDbSpline
210
0.0
220
0.0
230
1.0
 70
     8
 71
     3
 72
    11
 73
     7
 74
     0
 42
0.000000001
 43
0.0000000001
 40
0.0
 40
0.0
 40
0.0
 40
0.0
 40
0.2511883925718136
 40
0.5004837533210587
 40
0.7517698094607095
 40
1.0
 40
1.0
 40
1.0
 40
1.0
 10
15.09360526096912
 20
31.67805479983814
 30
0.0
 10
15.09222664447951
 20
31.67898845343048
 30
0.0
 10
15.08947980117182
 20
31.68084872431885
 30
0.0
 10
15.08798867380288
 20
31.68428200549888
 30
0.0
 10
15.08831888445832
 20
31.68777458196148
 30
0.0
 10
15.09035653663911
 20
31.68984348167151
 30
0.0
 10
15.091369129908
 20
31.69087160312426
 30
0.0
  0
LINE
  5
204
330
2
100
AcDbEntity
  8
0
100
AcDbLine
 10
15.09136912990198
 20
31.6908716031142
 30
0.0
 11
15.09359120448048
 21
31.69271702082413
 31
0.0
  0
SPLINE
  5
205
330
2
100
AcDbEntity
  8
0
100
AcDbSpline
210
0.0
220
0.0
230
1.0
 70
     8
 71
     3
 72
    11
 73
     7
 74
     0
 42
0.000000001
 43
0.0000000001
 40
0.0
 40
0.0
 40
0.0
 40
0.0
 40
0.250125951984297
 40
0.5000391211524472
 40
0.7499949009540047
 40
1.0
 40
1.0
 40
1.0
 40
1.0
 10
15.09021735746274
 20
31.70612161534692
 30
0.0
 10
15.091787549309
 20
31.70521012809436
 30
0.0
 10
15.09492659723505
 20
31.703387928994
 30
0.0
 10
15.09692684793416
 20
31.6998223856863
 30
0.0
 10
15.09676018985915
 20
31.69608373344344
 30
0.0
 10
15.09464760239834
 20
31.69383933217693
 30
0.0
 10
15.09359120446859
 20
31.6927170208428
 30
0.0
  0
SPLINE
  5
206
330
2
100
AcDbEntity
  8
0
100
AcDbSpline
210
0.0
220
0.0
230
1.0
 70
     8
 71
     3
 72
    11
 73
     7
 74
     0
 42
0.000000001
 43
0.0000000001
 40
0.0
 40
0.0
 40
0.0
 40
0.0
 40
0.2498228579996738
 40
0.500145773559075
 40
0.7491603514068358
 40
1.0
 40
1.0
 40
1.0
 40
1.0
 10
15.06960306906587
 20
31.70890480246113
 30
0.0
 10
15.07143932389441
 20
31.70907947591862
 30
0.0
 10
15.07511550908832
 20
31.70942917246849
 30
0.0
 10
15.08068542638467
 20
31.70900789500238
 30
0.0
 10
15.08594350604681
 20
31.70797497987055
 30
0.0
 10
15.08878927682563
 20
31.70674090547475
 30
0.0
 10
15.09021735746274
 20
31.70612161534692
 30
0.0
  0
LINE
  5
207
330
2
100
AcDbEntity
  8
0
100
AcDbLine
 10
15.06960306907868
 20
31.70890480248027
 30
0.0
 11
15.0653869794789
 21
31.70837567561316
 31
0.0
  0
SPLINE
  5
208
330
2
100
AcDbEntity
  8
0
100
AcDbSpline
210
0.0
220
0.0
230
1.0
 70
     8
 71
     3
 72
    11
 73
     7
 74
     0
 42
0.000000001
 43
0.0000000001
 40
0.0
 40
0.0
 40
0.0
 40
0.0
 40
0.2517914744152522
 40
0.500209398827248
 40
0.7521232115027378
 40
1.0
 40
1.0
 40
1.0
 40
1.0
 10
15.06538697949492
 20
31.70837567561797
 30
0.0
 10
15.06309376002492
 20
31.70818240994897
 30
0.0
 10
15.05853804607484
 20
31.70779846802102
 30
0.0
 10
15.05174250465118
 20
31.70868878801742
 30
0.0
 10
15.04566901145478
 20
31.71041226485984
 30
0.0
 10
15.04290007313823
 20
31.71225644959161
 30
0.0
 10
15.04152678693425
 20
31.71317109381988
 30
0.0
  0
LINE
  5
209
330
2
100
AcDbEntity
  8
0
100
AcDbLine
 10
15.04152678694064
 20
31.7131710938291
 30
0.0
 11
15.02890089389472
 21
31.72385905444353
 31
0.0
  0
SPLINE
  5
20A
330
2
100
AcDbEntity
  8
0
100
AcDbSpline
210
0.0
220
0.0
230
1.0
 70
     8
 71
     3
 72
    11
 73
     7
 74
     0
 42
0.000000001
 43
0.0000000001
 40
0.0
 40
0.0
 40
0.0
 40
0.0
 40
0.2517360179554994
 40
0.500435390388426
 40
0.7518928855441536
 40
1.0
 40
1.0
 40
1.0
 40
1.0
 10
15.02890089387535
 20
31.72385905443697
 30
0.0
 10
15.02793491607448
 20
31.72491804674181
 30
0.0
 10
15.02601461288617
 20
31.72702325692096
 30
0.0
 10
15.02600458877353
 20
31.73053763973104
 30
0.0
 10
15.02775502215836
 20
31.73392197092473
 30
0.0
 10
15.03062100531641
 20
31.73573143701709
 30
0.0
 10
15.03204438639216
 20
31.73663010237939
 30
0.0
  0
LINE
  5
20B
330
2
100
AcDbEntity
  8
0
100
AcDbLine
 10
15.03204438640343
 20
31.73663010236376
 30
0.0
 11
15.03497731825725
 21
31.73820672540387
 31
0.0
  0
SPLINE
  5
20C
330
2
100
AcDbEntity
  8
0
100
AcDbSpline
210
0.0
220
0.0
230
1.0
 70
     8
 71
     3
 72
    11
 73
     7
 74
     0
 42
0.000000001
 43
0.0000000001
 40
0.0
 40
0.0
 40
0.0
 40
0.0
 40
0.2499006435787298
 40
0.500297240232397
 40
0.7500491098103072
 40
1.0
 40
1.0
 40
1.0
 40
1.0
 10
15.03435223429289
 20
31.75342632966557
 30
0.0
 10
15.03613368910319
 20
31.7523620220889
 30
0.0
 10
15.03970013420062
 20
31.75023129470976
 30
0.0
 10
15.0413770415811
 20
31.74600621551617
 30
0.0
 10
15.04005187618482
 20
31.741695480762
 30
0.0
 10
15.03666928664354
 20
31.73936995257822
 30
0.0
 10
15.0349773182675
 20
31.73820672538287
 30
0.0
  0
SPLINE
  5
20D
330
2
100
AcDbEntity
  8
0
100
AcDbSpline
210
0.0
220
0.0
230
1.0
 70
     8
 71
     3
 72
    11
 73
     7
 74
     0
 42
0.000000001
 43
0.0000000001
 40
0.0
 40
0.0
 40
0.0
 40
0.0
 40
0.2500162102342531
 40
0.4997904059772392
 40
0.7508473742635769
 40
1.0
 40
1.0
 40
1.0
 40
1.0
 10
15.01824520583602
 20
31.75653539809927
 30
0.0
 10
15.01972744924391
 20
31.75652740684502
 30
0.0
 10
15.0226905012551
 20
31.75651143207216
 30
0.0
 10
15.02699386165524
 20
31.75590346901755
 30
0.0
 10
15.03100109725988
 20
31.75490852100218
 30
0.0
 10
15.03323802734599
 20
31.75391913788783
 30
0.0
 10
15.03435223429289
 20
31.75342632966557
 30
0.0
  0
LINE
  5
20E
330
2
100
AcDbEntity
  8
0
100
AcDbLine
 10
15.01824520583327
 20
31.75653539808701
 30
0.0
 11
15.01391723798888
 21
31.75644603891099
 31
0.0
  0
SPLINE
  5
20F
330
2
100
AcDbEntity
  8
0
100
AcDbSpline
210
0.0
220
0.0
230
1.0
 70
     8
 71
     3
 72
    11
 73
     7
 74
     0
 42
0.000000001
 43
0.0000000001
 40
0.0
 40
0.0
 40
0.0
 40
0.0
 40
0.2523277672870607
 40
0.5006731725434058
 40
0.7516343442612154
 40
1.0
 40
1.0
 40
1.0
 40
1.0
 10
15.01391723799522
 20
31.75644603891701
 30
0.0
 10
15.0115876602481
 20
31.75649895901875
 30
0.0
 10
15.00696527130585
 20
31.75660396401093
 30
0.0
 10
15.00068930123468
 20
31.75818090516422
 30
0.0
 10
14.99546315184631
 20
31.76049705923188
 30
0.0
 10
14.99352069340249
 20
31.76258829678982
 30
0.0
 10
14.99255451265951
 20
31.76362848041064
 30
0.0
  0
LINE
  5
210
330
2
100
AcDbEntity
  8
0
100
AcDbLine
 10
14.99255451263787
 20
31.76362848039655
 30
0.0
 11
14.98466881584913
 21
31.77538301385912
 31
0.0
  0
SPLINE
  5
211
330
2
100
AcDbEntity
  8
0
100
AcDbSpline
210
0.0
220
0.0
230
1.0
 70
     8
 71
     3
 72
    11
 73
     7
 74
     0
 42
0.000000001
 43
0.0000000001
 40
0.0
 40
0.0
 40
0.0
 40
0.0
 40
0.2518363232785836
 40
0.5008258695178311
 40
0.7518838582059386
 40
1.0
 40
1.0
 40
1.0
 40
1.0
 10
14.98466881583594
 20
31.77538301386752
 30
0.0
 10
14.98416463480495
 20
31.77651975013825
 30
0.0
 10
14.98316197204396
 20
31.77878037292602
 30
0.0
 10
14.98458054623706
 20
31.78222573434844
 30
0.0
 10
14.98774279166108
 20
31.78534380583383
 30
0.0
 10
14.9912826760181
 20
31.78682156282996
 30
0.0
 10
14.99304218716926
 20
31.78755608680067
 30
0.0
  0
LINE
  5
212
330
2
100
AcDbEntity
  8
0
100
AcDbLine
 10
14.99304218716354
 20
31.7875560867818
 30
0.0
 11
14.99657151628573
 21
31.78878832554989
 31
0.0
  0
SPLINE
  5
213
330
2
100
AcDbEntity
  8
0
100
AcDbSpline
210
0.0
220
0.0
230
1.0
 70
     8
 71
     3
 72
    15
 73
    11
 74
     0
 42
0.000000001
 43
0.0000000001
 40
0.0
 40
0.0
 40
0.0
 40
0.0
 40
0.1250657593864827
 40
0.2497548416495027
 40
0.3749437485256477
 40
0.4997987876518187
 40
0.6249982745170555
 40
0.7500603957820888
 40
0.8749883652252716
 40
1.0
 40
1.0
 40
1.0
 40
1.0
 10
14.9993960122973
 20
31.80549404617448
 30
0.0
 10
15.00046358744268
 20
31.80492301633908
 30
0.0
 10
15.00259552237577
 20
31.80378267651466
 30
0.0
 10
15.00470123980786
 20
31.80165679819945
 30
0.0
 10
15.00589202371645
 20
31.79935857971424
 30
0.0
 10
15.00599669562769
 20
31.79695682645033
 30
0.0
 10
15.00508776381597
 20
31.7945797615889
 30
0.0
 10
15.00315467455947
 20
31.79234537220195
 30
0.0
 10
15.00030776208612
 20
31.79034762038526
 30
0.0
 10
14.99781720944877
 20
31.78930820646699
 30
0.0
 10
14.99657151628347
 20
31.78878832554001
 30
0.0
  0
SPLINE
  5
214
330
2
100
AcDbEntity
  8
0
100
AcDbSpline
210
0.0
220
0.0
230
1.0
 70
     8
 71
     3
 72
     9
 73
     5
 74
     0
 42
0.000000001
 43
0.0000000001
 40
0.0
 40
0.0
 40
0.0
 40
0.0
 40
0.5003776672237248
 40
1.0
 40
1.0
 40
1.0
 40
1.0
 10
14.98781661136298
 20
31.80846183243399
 30
0.0
 10
14.98997374077565
 20
31.80819331577056
 30
0.0
 10
14.99428474335217
 20
31.80765668777733
 30
0.0
 10
14.99769311413564
 20
31.80621456361335
 30
0.0
 10
14.9993960122973
 20
31.80549404617448
 30
0.0
  0
LINE
  5
215
330
2
100
AcDbEntity
  8
0
100
AcDbLine
 10
14.9878166113823
 20
31.80846183243092
 30
0.0
 11
14.98354888566294
 21
31.80882486308436
 31
0.0
  0
SPLINE
  5
216
330
2
100
AcDbEntity
  8
0
100
AcDbSpline
210
0.0
220
0.0
230
1.0
 70
     8
 71
     3
 72
    11
 73
     7
 74
     0
 42
0.000000001
 43
0.0000000001
 40
0.0
 40
0.0
 40
0.0
 40
0.0
 40
0.2517251987493576
 40
0.5000892813796316
 40
0.7518353907879459
 40
1.0
 40
1.0
 40
1.0
 40
1.0
 10
14.9835488856675
 20
31.80882486307641
 30
0.0
 10
14.98129610464574
 20
31.80911529050336
 30
0.0
 10
14.97682062246164
 20
31.80969226747655
 30
0.0
 10
14.97134175833354
 20
31.81189123680564
 30
0.0
 10
14.96718590105726
 20
31.81469989223876
 30
0.0
 10
14.96615554608446
 20
31.81694982067727
 30
0.0
 10
14.96564405947361
 20
31.81806672533833
 30
0.0
  0
LINE
  5
217
330
2
100
AcDbEntity
  8
0
100
AcDbLine
 10
14.96564405945412
 20
31.81806672532815
 30
0.0
 11
14.96281841597244
 21
31.83038681778948
 31
0.0
  0
SPLINE
  5
218
330
2
100
AcDbEntity
  8
0
100
AcDbSpline
210
0.0
220
0.0
230
1.0
 70
     8
 71
     3
 72
    11
 73
     7
 74
     0
 42
0.000000001
 43
0.0000000001
 40
0.0
 40
0.0
 40
0.0
 40
0.0
 40
0.2521157610367783
 40
0.5006577017786862
 40
0.7518057048567845
 40
1.0
 40
1.0
 40
1.0
 40
1.0
 10
14.96281841599035
 20
31.83038681779285
 30
0.0
 10
14.96279004734972
 20
31.831553428656
 30
0.0
 10
14.96273371220281
 20
31.83387011330619
 30
0.0
 10
14.96558908654064
 20
31.83708532467536
 30
0.0
 10
14.96995180768382
 20
31.83981660223601
 30
0.0
 10
14.974041129632
 20
31.84088814049492
 30
0.0
 10
14.97607369603424
 20
31.84142074044455
 30
0.0
  0
LINE
  5
219
330
2
100
AcDbEntity
  8
0
100
AcDbLine
 10
14.97607369602491
 20
31.84142074044874
 30
0.0
 11
14.98003189183115
 21
31.84226154865408
 31
0.0
  0
SPLINE
  5
21A
330
2
100
AcDbEntity
  8
0
100
AcDbSpline
210
0.0
220
0.0
230
1.0
 70
     8
 71
     3
 72
    15
 73
    11
 74
     0
 42
0.000000001
 43
0.0000000001
 40
0.0
 40
0.0
 40
0.0
 40
0.0
 40
0.1286314228662431
 40
0.2493935019220412
 40
0.3710049753515068
 40
0.5006151860417003
 40
0.6318732261002469
 40
0.7662313105126808
 40
0.8823332616544103
 40
1.0
 40
1.0
 40
1.0
 40
1.0
 10
14.98684757342526
 20
31.86006324605134
 30
0.0
 10
14.98808789413146
 20
31.85938055807077
 30
0.0
 10
14.99049265587252
 20
31.85805694722671
 30
0.0
 10
14.9927273227009
 20
31.8556105203631
 30
0.0
 10
14.99363320925087
 20
31.8529685368363
 30
0.0
 10
14.9931717335906
 20
31.85022429992957
 30
0.0
 10
14.99145271310878
 20
31.84750512610208
 30
0.0
 10
14.98839088636873
 20
31.84521889196158
 30
0.0
 10
14.98455689413157
 20
31.84337385177706
 30
0.0
 10
14.98154694189119
 20
31.8426339672396
 30
0.0
 10
14.98003189184975
 20
31.84226154867288
 30
0.0
  0
LINE
  5
21B
330
2
100
AcDbEntity
  8
0
100
AcDbLine
 10
14.97965035824218
 20
31.86241312002215
 30
0.0
 11
14.98684757342192
 21
31.86006324606944
 31
0.0
  0
LINE
  5
21C
330
2
100
AcDbEntity
  8
0
100
AcDbLine
 10
14.97965035824218
 20
31.86241312002215
 30
0.0
 11
14.97563048598393
 21
31.86321218903809
 31
0.0
  0
SPLINE
  5
21D
330
2
100
AcDbEntity
  8
0
100
AcDbSpline
210
0.0
220
0.0
230
1.0
 70
     8
 71
     3
 72
    11
 73
     7
 74
     0
 42
0.000000001
 43
0.0000000001
 40
0.0
 40
0.0
 40
0.0
 40
0.0
 40
0.2522208085727413
 40
0.5009258514876683
 40
0.7519678062129886
 40
1.0
 40
1.0
 40
1.0
 40
1.0
 10
14.97563048596504
 20
31.8632121890479
 30
0.0
 10
14.97354449803258
 20
31.86373210356307
 30
0.0
 10
14.96940159924818
 20
31.86476468538173
 30
0.0
 10
14.96495382356875
 20
31.86748481876631
 30
0.0
 10
14.9620662719204
 20
31.87066359619896
 30
0.0
 10
14.96199554561097
 20
31.87296745101718
 30
0.0
 10
14.96196039572048
 20
31.87411243151048
 30
0.0
  0
LINE
  5
21E
330
2
100
AcDbEntity
  8
0
100
AcDbLine
 10
14.96196039571271
 20
31.8741124315259
 30
0.0
 11
14.96430496265124
 21
31.88646565712765
 31
0.0
  0
SPLINE
  5
21F
330
2
100
AcDbEntity
  8
0
100
AcDbSpline
210
0.0
220
0.0
230
1.0
 70
     8
 71
     3
 72
    11
 73
     7
 74
     0
 42
0.000000001
 43
0.0000000001
 40
0.0
 40
0.0
 40
0.0
 40
0.0
 40
0.2517468145767777
 40
0.5003279919558846
 40
0.7515092039133135
 40
1.0
 40
1.0
 40
1.0
 40
1.0
 10
14.9643049626432
 20
31.88646565714491
 30
0.0
 10
14.96476589410286
 20
31.88760738453409
 30
0.0
 10
14.9656819609539
 20
31.88987648244854
 30
0.0
 10
14.96982130571724
 20
31.89271638087021
 30
0.0
 10
14.97520884947243
 20
31.89494531420153
 30
0.0
 10
14.97965941744354
 20
31.8955653903331
 30
0.0
 10
14.98187271969055
 20
31.89587375904118
 30
0.0
  0
LINE
  5
220
330
2
100
AcDbEntity
  8
0
100
AcDbLine
 10
14.98187271971219
 20
31.89587375903095
 30
0.0
 11
14.98609971023183
 21
31.89627981979854
 31
0.0
  0
SPLINE
  5
221
330
2
100
AcDbEntity
  8
0
100
AcDbSpline
210
0.0
220
0.0
230
1.0
 70
     8
 71
     3
 72
    15
 73
    11
 74
     0
 42
0.000000001
 43
0.0000000001
 40
0.0
 40
0.0
 40
0.0
 40
0.0
 40
0.112578266019815
 40
0.2262885405640172
 40
0.3614044419153897
 40
0.5000307427584954
 40
0.6351934507066411
 40
0.7736717729819836
 40
0.886102548194226
 40
1.0
 40
1.0
 40
1.0
 40
1.0
 10
14.99410044085556
 20
31.91603264550609
 30
0.0
 10
14.99562489344767
 20
31.91543477663761
 30
0.0
 10
14.99868912746399
 20
31.91423302714842
 30
0.0
 10
15.00205508747017
 20
31.91157863102032
 30
0.0
 10
15.00403722694032
 20
31.90836361631998
 30
0.0
 10
15.0037153282124
 20
31.90480556013142
 30
0.0
 10
15.00125202713115
 20
31.90143545482926
 30
0.0
 10
14.99694794521686
 20
31.89886312769851
 30
0.0
 10
14.9917609485912
 20
31.89703600211396
 30
0.0
 10
14.98799492467595
 20
31.89653296717003
 30
0.0
 10
14.98609971022111
 20
31.89627981978742
 30
0.0
  0
LINE
  5
222
330
2
100
AcDbEntity
  8
0
100
AcDbLine
 10
14.9941004408542
 20
31.91603264552325
 30
0.0
 11
14.99049136259465
 21
31.91723906618796
 31
0.0
  0
SPLINE
  5
223
330
2
100
AcDbEntity
  8
0
100
AcDbSpline
210
0.0
220
0.0
230
1.0
 70
     8
 71
     3
 72
    11
 73
     7
 74
     0
 42
0.000000001
 43
0.0000000001
 40
0.0
 40
0.0
 40
0.0
 40
0.0
 40
0.2520372442635907
 40
0.5005615046874699
 40
0.7516303891524343
 40
1.0
 40
1.0
 40
1.0
 40
1.0
 10
14.99049136261565
 20
31.91723906618318
 30
0.0
 10
14.98866790184106
 20
31.91796355313732
 30
0.0
 10
14.9850463963302
 20
31.91940242889145
 30
0.0
 10
14.98182807624133
 20
31.9225246253903
 30
0.0
 10
14.98033263292442
 20
31.92593487393045
 30
0.0
 10
14.98121215338873
 20
31.92819793741962
 30
0.0
 10
14.98164953688548
 20
31.92932335366877
 30
0.0
  0
LINE
  5
224
330
2
100
AcDbEntity
  8
0
100
AcDbLine
 10
14.9816495368754
 20
31.92932335367411
 30
0.0
 11
14.98908772064226
 21
31.94115734938253
 31
0.0
  0
SPLINE
  5
225
330
2
100
AcDbEntity
  8
0
100
AcDbSpline
210
0.0
220
0.0
230
1.0
 70
     8
 71
     3
 72
    11
 73
     7
 74
     0
 42
0.000000001
 43
0.0000000001
 40
0.0
 40
0.0
 40
0.0
 40
0.0
 40
0.2516053488739589
 40
0.5004409639253616
 40
0.7516863899904944
 40
1.0
 40
1.0
 40
1.0
 40
1.0
 10
14.98908772062946
 20
31.94115734938399
 30
0.0
 10
14.99002269003806
 20
31.94222165003504
 30
0.0
 10
14.99188233648105
 20
31.94433853525278
 30
0.0
 10
14.99707962779972
 20
31.94669956915062
 30
0.0
 10
15.00328035823934
 20
31.94831350089571
 30
0.0
 10
15.0078841065812
 20
31.94846605802931
 30
0.0
 10
15.01017247149464
 20
31.9485418889319
 30
0.0
  0
LINE
  5
226
330
2
100
AcDbEntity
  8
0
100
AcDbLine
 10
15.01017247149142
 20
31.94854188891977
 30
0.0
 11
15.01448466165195
 21
31.94849484267265
 31
0.0
  0
SPLINE
  5
227
330
2
100
AcDbEntity
  8
0
100
AcDbSpline
210
0.0
220
0.0
230
1.0
 70
     8
 71
     3
 72
    15
 73
    11
 74
     0
 42
0.000000001
 43
0.0000000001
 40
0.0
 40
0.0
 40
0.0
 40
0.0
 40
0.1125051362908515
 40
0.2263545244639961
 40
0.3616593651257599
 40
0.4999234250345778
 40
0.6352151083828623
 40
0.7736766664515523
 40
0.8860054606013378
 40
1.0
 40
1.0
 40
1.0
 40
1.0
 10
15.03052714493185
 20
31.96698100558135
 30
0.0
 10
15.03176982063935
 20
31.96623827358589
 30
0.0
 10
15.03427001999123
 20
31.96474393516565
 30
0.0
 10
15.03645641883152
 20
31.96179573257646
 30
0.0
 10
15.03708330605669
 20
31.9584427347104
 30
0.0
 10
15.03523572263153
 20
31.95500502422306
 30
0.0
 10
15.03147798473128
 20
31.95194934570915
 30
0.0
 10
15.02616228564227
 20
31.94989997147265
 30
0.0
 10
15.02034291468039
 20
31.94863833583102
 30
0.0
 10
15.01644697072809
 20
31.94854290785114
 30
0.0
 10
15.01448466163075
 20
31.94849484268503
 30
0.0
  0
LINE
  5
228
330
2
100
AcDbEntity
  8
0
100
AcDbLine
 10
15.0305271449444
 20
31.96698100556407
 30
0.0
 11
15.02750212861922
 21
31.96853453575255
 31
0.0
  0
SPLINE
  5
229
330
2
100
AcDbEntity
  8
0
100
AcDbSpline
210
0.0
220
0.0
230
1.0
 70
     8
 71
     3
 72
    11
 73
     7
 74
     0
 42
0.000000001
 43
0.0000000001
 40
0.0
 40
0.0
 40
0.0
 40
0.0
 40
0.2515615721873636
 40
0.5008615221220467
 40
0.7518052723159113
 40
1.0
 40
1.0
 40
1.0
 40
1.0
 10
15.02750212863432
 20
31.96853453576244
 30
0.0
 10
15.02602504415332
 20
31.96943115013068
 30
0.0
 10
15.02308415467242
 20
31.97121631800559
 30
0.0
 10
15.02121662653784
 20
31.97460238066486
 30
0.0
 10
15.02118684597871
 20
31.97809548474261
 30
0.0
 10
15.02299085172218
 20
31.98021448341021
 30
0.0
 10
15.02388788678188
 20
31.98126814751449
 30
0.0
  0
LINE
  5
22A
330
2
100
AcDbEntity
  8
0
100
AcDbLine
 10
15.02388788679127
 20
31.98126814750788
 30
0.0
 11
15.03607056975266
 21
31.99207788334066
 31
0.0
  0
SPLINE
  5
22B
330
2
100
AcDbEntity
  8
0
100
AcDbSpline
210
0.0
220
0.0
230
1.0
 70
     8
 71
     3
 72
    11
 73
     7
 74
     0
 42
0.000000001
 43
0.0000000001
 40
0.0
 40
0.0
 40
0.0
 40
0.0
 40
0.2516564617050934
 40
0.5004118999989023
 40
0.7517517432445668
 40
1.0
 40
1.0
 40
1.0
 40
1.0
 10
15.0360705697716
 20
31.99207788332545
 30
0.0
 10
15.03742394368058
 20
31.99302452337799
 30
0.0
 10
15.04011509019285
 20
31.99490689088851
 30
0.0
 10
15.0461970611684
 20
31.99667010987321
 30
0.0
 10
15.05293959635196
 20
31.99759418935864
 30
0.0
 10
15.05750843828258
 20
31.99726553296767
 30
0.0
 10
15.05977872263219
 20
31.99710222167956
 30
0.0
  0
LINE
  5
22C
330
2
100
AcDbEntity
  8
0
100
AcDbLine
 10
15.05977872262966
 20
31.9971022217013
 30
0.0
 11
15.06397358399852
 21
31.99661096133641
 31
0.0
  0
SPLINE
  5
22D
330
2
100
AcDbEntity
  8
0
100
AcDbSpline
210
0.0
220
0.0
230
1.0
 70
     8
 71
     3
 72
    15
 73
    11
 74
     0
 42
0.000000001
 43
0.0000000001
 40
0.0
 40
0.0
 40
0.0
 40
0.0
 40
0.1127454068616722
 40
0.2263321627257811
 40
0.3617642224167512
 40
0.5001037030329579
 40
0.6353542635487508
 40
0.7737511723227235
 40
0.8861499648096627
 40
1.0
 40
1.0
 40
1.0
 40
1.0
 10
15.0873400778549
 20
32.01303096207293
 30
0.0
 10
15.08825249557956
 20
32.01217424716695
 30
0.0
 10
15.09008413983608
 20
32.0104544242233
 30
0.0
 10
15.09097390017604
 20
32.00734120170569
 30
0.0
 10
15.09021305889566
 20
32.00399760942457
 30
0.0
 10
15.08697192072653
 20
32.00082371064534
 30
0.0
 10
15.08200877061611
 20
31.99823876058236
 30
0.0
 10
15.07597885946073
 20
31.99676631280176
 30
0.0
 10
15.0697586342954
 20
31.99615021654114
 30
0.0
 10
15.06591016261238
 20
31.99645672438106
 30
0.0
 10
15.06397358401858
 20
31.99661096132777
 30
0.0
  0
LINE
  5
22E
330
2
100
AcDbEntity
  8
0
100
AcDbLine
 10
15.08734007785527
 20
32.01303096208486
 30
0.0
 11
15.08502563200101
 21
32.01486633941887
 31
0.0
  0
SPLINE
  5
22F
330
2
100
AcDbEntity
  8
0
100
AcDbSpline
210
0.0
220
0.0
230
1.0
 70
     8
 71
     3
 72
    11
 73
     7
 74
     0
 42
0.000000001
 43
0.0000000001
 40
0.0
 40
0.0
 40
0.0
 40
0.0
 40
0.2514269623366641
 40
0.5005639530596243
 40
0.7519384894602449
 40
1.0
 40
1.0
 40
1.0
 40
1.0
 10
15.0850256320048
 20
32.01486633943396
 30
0.0
 10
15.08395493189793
 20
32.01589682818045
 30
0.0
 10
15.08182328351348
 20
32.01794842008507
 30
0.0
 10
15.08140725667933
 20
32.02145449601594
 30
0.0
 10
15.08280799313057
 20
32.02487908760212
 30
0.0
 10
15.08546596628516
 20
32.02676295046162
 30
0.0
 10
15.08678613698528
 20
32.02769863355746
 30
0.0
  0
LINE
  5
230
330
2
100
AcDbEntity
  8
0
100
AcDbLine
 10
15.08678613700514
 20
32.02769863354087
 30
0.0
 11
15.10321259224681
 21
32.03699507234649
 31
0.0
  0
SPLINE
  5
231
330
2
100
AcDbEntity
  8
0
100
AcDbSpline
210
0.0
220
0.0
230
1.0
 70
     8
 71
     3
 72
    11
 73
     7
 74
     0
 42
0.000000001
 43
0.0000000001
 40
0.0
 40
0.0
 40
0.0
 40
0.0
 40
0.251728595649495
 40
0.5006392786757779
 40
0.7518561473329947
 40
1.0
 40
1.0
 40
1.0
 40
1.0
 10
15.103212592246
 20
32.03699507233435
 30
0.0
 10
15.10492573010867
 20
32.03778324501449
 30
0.0
 10
15.10833282854199
 20
32.03935076737335
 30
0.0
 10
15.11501959432771
 20
32.04043698413911
 30
0.0
 10
15.12199433597437
 20
32.0406466173818
 30
0.0
 10
15.12632451673083
 20
32.03985107310757
 30
0.0
 10
15.12847628335914
 20
32.03945574882052
 30
0.0
  0
LINE
  5
232
330
2
100
AcDbEntity
  8
0
100
AcDbLine
 10
15.12847628337883
 20
32.03945574880943
 30
0.0
 11
15.13237366327701
 21
32.03854035507863
 31
0.0
  0
SPLINE
  5
233
330
2
100
AcDbEntity
  8
0
100
AcDbSpline
210
0.0
220
0.0
230
1.0
 70
     8
 71
     3
 72
    15
 73
    11
 74
     0
 42
0.000000001
 43
0.0000000001
 40
0.0
 40
0.0
 40
0.0
 40
0.0
 40
0.1121207587800218
 40
0.2262129073465706
 40
0.3615041547111533
 40
0.499915104399162
 40
0.6351132267248215
 40
0.7737127536290725
 40
0.8860775757633813
 40
1.0
 40
1.0
 40
1.0
 40
1.0
 10
15.16207461871232
 20
32.05216074555352
 30
0.0
 10
15.16259812521867
 20
32.05123246786381
 30
0.0
 10
15.16365434290856
 20
32.04935959082207
 30
0.0
 10
15.16327604003185
 20
32.04622382021182
 30
0.0
 10
15.16111532590864
 20
32.04302986943552
 30
0.0
 10
15.15662155789881
 20
32.04027036757079
 30
0.0
 10
15.15070756629087
 20
32.03823986415865
 30
0.0
 10
15.14418268722151
 20
32.0374474953742
 30
0.0
 10
15.1378412938079
 20
32.03748514464819
 30
0.0
 10
15.13420455105802
 20
32.03818700789117
 30
0.0
 10
15.13237366329462
 20
32.0385403550788
 30
0.0
  0
LINE
  5
234
330
2
100
AcDbEntity
  8
0
100
AcDbLine
 10
15.16207461869201
 20
32.05216074555209
 30
0.0
 11
15.16056956912117
 21
32.0541988664219
 31
0.0
  0
SPLINE
  5
235
330
2
100
AcDbEntity
  8
0
100
AcDbSpline
210
0.0
220
0.0
230
1.0
 70
     8
 71
     3
 72
    11
 73
     7
 74
     0
 42
0.000000001
 43
0.0000000001
 40
0.0
 40
0.0
 40
0.0
 40
0.0
 40
0.2519269933142184
 40
0.5006978781579197
 40
0.7519503617866246
 40
1.0
 40
1.0
 40
1.0
 40
1.0
 10
15.16056956911486
 20
32.05419886642032
 30
0.0
 10
15.15994566569176
 20
32.05532042754582
 30
0.0
 10
15.15870567502632
 20
32.05754949902539
 30
0.0
 10
15.15976307162593
 20
32.06102381373391
 30
0.0
 10
15.16256199262316
 20
32.06422476242709
 30
0.0
 10
15.16594058675919
 20
32.0657935351408
 30
0.0
 10
15.16761904758775
 20
32.06657288993828
 30
0.0
  0
LINE
  5
236
330
2
100
AcDbEntity
  8
0
100
AcDbLine
 10
15.16761904757702
 20
32.06657288991725
 30
0.0
 11
15.18754313312741
 21
32.07396460117647
 31
0.0
  0
SPLINE
  5
237
330
2
100
AcDbEntity
  8
0
100
AcDbSpline
210
0.0
220
0.0
230
1.0
 70
     8
 71
     3
 72
    11
 73
     7
 74
     0
 42
0.000000001
 43
0.0000000001
 40
0.0
 40
0.0
 40
0.0
 40
0.0
 40
0.2517063163705527
 40
0.5005562587234007
 40
0.7512632080916184
 40
1.0
 40
1.0
 40
1.0
 40
1.0
 10
15.1875431331196
 20
32.07396460117016
 30
0.0
 10
15.18955106792394
 20
32.07455452010777
 30
0.0
 10
15.19354415140276
 20
32.07572766355766
 30
0.0
 10
15.20053230532089
 20
32.07609599936918
 30
0.0
 10
15.20744928317202
 20
32.07558019136914
 30
0.0
 10
15.21135390517302
 20
32.07434751042249
 30
0.0
 10
15.21329851488563
 20
32.07373360122954
 30
0.0
  0
LINE
  5
238
330
2
100
AcDbEntity
  8
0
100
AcDbLine
 10
15.21329851487446
 20
32.07373360122068
 30
0.0
 11
15.21672471520323
 21
32.07243574156879
 31
0.0
  0
SPLINE
  5
239
330
2
100
AcDbEntity
  8
0
100
AcDbSpline
210
0.0
220
0.0
230
1.0
 70
     8
 71
     3
 72
    15
 73
    11
 74
     0
 42
0.000000001
 43
0.0000000001
 40
0.0
 40
0.0
 40
0.0
 40
0.0
 40
0.1124161062840193
 40
0.2264080130152485
 40
0.3616034804763272
 40
0.5000137485388862
 40
0.6352501593147601
 40
0.7738433318521815
 40
0.8861556257097978
 40
1.0
 40
1.0
 40
1.0
 40
1.0
 10
15.25142390402652
 20
32.08268020526246
 30
0.0
 10
15.25155519299913
 20
32.08171517022857
 30
0.0
 10
15.25181961129672
 20
32.07977157271626
 30
0.0
 10
15.25014654429482
 20
32.076739662794
 30
0.0
 10
15.24668322672279
 20
32.07385139517545
 30
0.0
 10
15.24117970246274
 20
32.07159375584398
 30
0.0
 10
15.23452741700977
 20
32.07024211387936
 30
0.0
 10
15.22781973505919
 20
32.07013820023156
 30
0.0
 10
15.22163254966677
 20
32.07083650893209
 30
0.0
 10
15.21836803175106
 20
32.07190026192851
 30
0.0
 10
15.21672471518434
 20
32.07243574158191
 30
0.0
  0
LINE
  5
23A
330
2
100
AcDbEntity
  8
0
100
AcDbLine
 10
15.25142390402751
 20
32.08268020525069
 30
0.0
 11
15.25081904419952
 21
32.08481959029324
 31
0.0
  0
SPLINE
  5
23B
330
2
100
AcDbEntity
  8
0
100
AcDbSpline
210
0.0
220
0.0
230
1.0
 70
     8
 71
     3
 72
    11
 73
     7
 74
     0
 42
0.000000001
 43
0.0000000001
 40
0.0
 40
0.0
 40
0.0
 40
0.0
 40
0.2521596454348534
 40
0.5007613531366514
 40
0.7520394851649109
 40
1.0
 40
1.0
 40
1.0
 40
1.0
 10
15.25081904420066
 20
32.08481959030688
 30
0.0
 10
15.25067106962575
 20
32.08598260903834
 30
0.0
 10
15.25037720837663
 20
32.08829223646783
 30
0.0
 10
15.25286584874113
 20
32.09158053035775
 30
0.0
 10
15.25693931821619
 20
32.09441557233006
 30
0.0
 10
15.26088744937227
 20
32.09560465386541
 30
0.0
 10
15.26284839658715
 20
32.09619524369969
 30
0.0
  0
LINE
  5
23C
330
2
100
AcDbEntity
  8
0
100
AcDbLine
 10
15.26284839657487
 20
32.09619524371742
 30
0.0
 11
15.28541955065711
 21
32.1013487440781
 31
0.0
  0
SPLINE
  5
23D
330
2
100
AcDbEntity
  8
0
100
AcDbSpline
210
0.0
220
0.0
230
1.0
 70
     8
 71
     3
 72
    11
 73
     7
 74
     0
 42
0.000000001
 43
0.0000000001
 40
0.0
 40
0.0
 40
0.0
 40
0.0
 40
0.2515541238069721
 40
0.5005575487193598
 40
0.7513457713851241
 40
1.0
 40
1.0
 40
1.0
 40
1.0
 10
15.28541955067142
 20
32.10134874408206
 30
0.0
 10
15.28762548789086
 20
32.10171948102914
 30
0.0
 10
15.29201499465163
 20
32.102457195739
 30
0.0
 10
15.29900483094507
 20
32.10209000645368
 30
0.0
 10
15.3055523622426
 20
32.10086359471975
 30
0.0
 10
15.30886100154381
 20
32.0992540701258
 30
0.0
 10
15.31050825269582
 20
32.09845274637904
 30
0.0
  0
LINE
  5
23E
330
2
100
AcDbEntity
  8
0
100
AcDbLine
 10
15.31050825267844
 20
32.09845274639437
 30
0.0
 11
15.31331654070356
 21
32.09682757107904
 31
0.0
  0
SPLINE
  5
23F
330
2
100
AcDbEntity
  8
0
100
AcDbSpline
210
0.0
220
0.0
230
1.0
 70
     8
 71
     3
 72
    15
 73
    11
 74
     0
 42
0.000000001
 43
0.0000000001
 40
0.0
 40
0.0
 40
0.0
 40
0.0
 40
0.1123261615894049
 40
0.2262458726768849
 40
0.3614677524295699
 40
0.4999771961177777
 40
0.6352988120490024
 40
0.7735236786521833
 40
0.8859643882949377
 40
1.0
 40
1.0
 40
1.0
 40
1.0
 10
15.35153272336386
 20
32.10323088082256
 30
0.0
 10
15.35125825661756
 20
32.10227406438209
 30
0.0
 10
15.35070542931832
 20
32.10034685733165
 30
0.0
 10
15.34780441601039
 20
32.09755868607603
 30
0.0
 10
15.34323121631216
 20
32.09508379395318
 30
0.0
 10
15.33688388060823
 20
32.09346350701664
 30
0.0
 10
15.32982317289716
 20
32.09283716210054
 30
0.0
 10
15.3232150994937
 20
32.09341805784293
 30
0.0
 10
15.31745812137753
 20
32.09475040866147
 30
0.0
 10
15.31470353375672
 20
32.0961319405745
 30
0.0
 10
15.31331654070393
 20
32.09682757107515
 30
0.0
  0
LINE
  5
240
330
2
100
AcDbEntity
  8
0
100
AcDbLine
 10
15.35153272335963
 20
32.10323088081124
 30
0.0
 11
15.35182116848762
 21
32.10539464958656
 31
0.0
  0
SPLINE
  5
241
330
2
100
AcDbEntity
  8
0
100
AcDbSpline
210
0.0
220
0.0
230
1.0
 70
     8
 71
     3
 72
    11
 73
     7
 74
     0
 42
0.000000001
 43
0.0000000001
 40
0.0
 40
0.0
 40
0.0
 40
0.0
 40
0.2519041292965006
 40
0.5005184178712792
 40
0.7519202371918923
 40
1.0
 40
1.0
 40
1.0
 40
1.0
 10
15.35182116849299
 20
32.1053946495925
 30
0.0
 10
15.35216201410796
 20
32.10654610431316
 30
0.0
 10
15.35283925393096
 20
32.10883397588032
 30
0.0
 10
15.35665204496634
 20
32.11178453391009
 30
0.0
 10
15.36179814308342
 20
32.11414445317595
 30
0.0
 10
15.36616063460428
 20
32.11489206768896
 30
0.0
 10
15.36832737287948
 20
32.11526338874999
 30
0.0
  0
LINE
  5
242
330
2
100
AcDbEntity
  8
0
100
AcDbLine
 10
15.36832737286666
 20
32.11526338873208
 30
0.0
 11
15.39253338404749
 21
32.11796632470689
 31
0.0
  0
SPLINE
  5
243
330
2
100
AcDbEntity
  8
0
100
AcDbSpline
210
0.0
220
0.0
230
1.0
 70
     8
 71
     3
 72
    11
 73
     7
 74
     0
 42
0.000000001
 43
0.0000000001
 40
0.0
 40
0.0
 40
0.0
 40
0.0
 40
0.2517214261727855
 40
0.5005816212198348
 40
0.7520572653616041
 40
1.0
 40
1.0
 40
1.0
 40
1.0
 10
15.3925333840411
 20
32.11796632472058
 30
0.0
 10
15.39484673676368
 20
32.11809805127256
 30
0.0
 10
15.39944714712174
 20
32.11836000708585
 30
0.0
 10
15.406141226505
 20
32.11727915357437
 30
0.0
 10
15.41202847635535
 20
32.11539356912164
 30
0.0
 10
15.414597299764
 20
32.1134765902584
 30
0.0
 10
15.41587262547841
 20
32.11252488122687
 30
0.0
  0
LINE
  5
244
330
2
100
AcDbEntity
  8
0
100
AcDbLine
 10
15.41587262547388
 20
32.11252488121308
 30
0.0
 11
15.4179443815225
 21
32.11064159700092
 31
0.0
  0
SPLINE
  5
245
330
2
100
AcDbEntity
  8
0
100
AcDbSpline
210
0.0
220
0.0
230
1.0
 70
     8
 71
     3
 72
    15
 73
    11
 74
     0
 42
0.000000001
 43
0.0000000001
 40
0.0
 40
0.0
 40
0.0
 40
0.0
 40
0.1123550456528859
 40
0.2261780958355321
 40
0.3613239420036711
 40
0.4997599019161595
 40
0.635130483165748
 40
0.7736811492761169
 40
0.8858590340341079
 40
1.0
 40
1.0
 40
1.0
 40
1.0
 10
15.45799321632406
 20
32.1129307268226
 30
0.0
 10
15.45733015477899
 20
32.11202185882576
 30
0.0
 10
15.45599536828321
 20
32.11019224777709
 30
0.0
 10
15.45195975846129
 20
32.10778430815075
 30
0.0
 10
15.44648821761615
 20
32.10582555982786
 30
0.0
 10
15.43960554645915
 20
32.10489549316254
 30
0.0
 10
15.43243234536659
 20
32.10501663284735
 30
0.0
 10
15.42621443670074
 20
32.10627987256006
 30
0.0
 10
15.42113229447734
 20
32.10817961040362
 30
0.0
 10
15.41901314632486
 20
32.10981620289859
 30
0.0
 10
15.41794438154298
 20
32.11064159701694
 30
0.0
  0
LINE
  5
246
330
2
100
AcDbEntity
  8
0
100
AcDbLine
 10
15.4579932163044
 20
32.11293072683376
 30
0.0
 11
15.45885654362179
 21
32.1144639611235
 31
0.0
  0
LINE
  5
247
330
2
100
AcDbEntity
  8
0
100
AcDbLine
 10
15.47962143742108
 20
32.12240459306665
 30
0.0
 11
15.45885654362179
 21
32.1144639611235
 31
0.0
  0
LINE
  5
248
330
2
100
AcDbEntity
  8
0
100
AcDbLine
 10
15.96496801857324
 20
31.58916823158943
 30
0.0
 11
15.49018389353222
 21
31.58696150440107
 31
0.0
  0
LINE
  5
249
330
2
100
AcDbEntity
  8
0
100
AcDbLine
 10
15.46913414048774
 20
31.59470434131704
 30
0.0
 11
15.49018389353222
 21
31.58696150440107
 31
0.0
  0
LINE
  5
24A
330
2
100
AcDbEntity
  8
0
100
AcDbLine
 10
15.46913414048774
 20
31.59470434131704
 30
0.0
 11
15.46807301814314
 21
31.59645035947498
 31
0.0
  0
SPLINE
  5
24B
330
2
100
AcDbEntity
  8
0
100
AcDbSpline
210
0.0
220
0.0
230
1.0
 70
     8
 71
     3
 72
     9
 73
     5
 74
     0
 42
0.000000001
 43
0.0000000001
 40
0.0
 40
0.0
 40
0.0
 40
0.0
 40
0.5017313419139348
 40
1.0
 40
1.0
 40
1.0
 40
1.0
 10
15.46247881777855
 20
31.60107050172004
 30
0.0
 10
15.4637078014848
 20
31.60039058429355
 30
0.0
 10
15.46615728710304
 20
31.59903544187039
 30
0.0
 10
15.46743591695857
 20
31.59731006212479
 30
0.0
 10
15.46807301814077
 20
31.59645035947439
 30
0.0
  0
SPLINE
  5
24C
330
2
100
AcDbEntity
  8
0
100
AcDbSpline
210
0.0
220
0.0
230
1.0
 70
     8
 71
     3
 72
    15
 73
    11
 74
     0
 42
0.000000001
 43
0.0000000001
 40
0.0
 40
0.0
 40
0.0
 40
0.0
 40
0.1280026835942183
 40
0.2491631487323262
 40
0.3707178946155932
 40
0.5000430934023626
 40
0.6278565559032723
 40
0.7494102893019178
 40
0.8706141880439684
 40
1.0
 40
1.0
 40
1.0
 40
1.0
 10
15.42795605236196
 20
31.59836821120104
 30
0.0
 10
15.42884839181394
 20
31.59911531657305
 30
0.0
 10
15.43058537186289
 20
31.60056959176234
 30
0.0
 10
15.43436017538751
 20
31.60227554259208
 30
0.0
 10
15.43882545198621
 20
31.6034875528024
 30
0.0
 10
15.44382825065608
 20
31.60412557249153
 30
0.0
 10
15.44898132751778
 20
31.60431239167991
 30
0.0
 10
15.45395638571913
 20
31.60383675791826
 30
0.0
 10
15.45860218142196
 20
31.60277780697257
 30
0.0
 10
15.46115878079525
 20
31.60165185778954
 30
0.0
 10
15.46247881777855
 20
31.60107050172004
 30
0.0
  0
LINE
  5
24D
330
2
100
AcDbEntity
  8
0
100
AcDbLine
 10
15.48837476455179
 20
33.48276580054835
 30
0.0
 11
15.46760987079603
 21
33.47482516864881
 31
0.0
  0
SPLINE
  5
24E
330
2
100
AcDbEntity
  8
0
100
AcDbSpline
210
0.0
220
0.0
230
1.0
 70
     8
 71
     3
 72
    11
 73
     7
 74
     0
 42
0.000000001
 43
0.0000000001
 40
0.0
 40
0.0
 40
0.0
 40
0.0
 40
0.2519318405586915
 40
0.5005561819657367
 40
0.751785929935223
 40
1.0
 40
1.0
 40
1.0
 40
1.0
 10
15.38918521166396
 20
33.47091817864464
 30
0.0
 10
15.38787646369058
 20
33.47190274105596
 30
0.0
 10
15.38527614970384
 20
33.4738589400041
 30
0.0
 10
15.37920492285346
 20
33.47573503857999
 30
0.0
 10
15.37240757096518
 20
33.47675315265129
 30
0.0
 10
15.36776191029597
 20
33.4764571656883
 30
0.0
 10
15.36545310537894
 20
33.4763100658021
 30
0.0
  0
LINE
  5
24F
330
2
100
AcDbEntity
  8
0
100
AcDbLine
 10
15.36545310536507
 20
33.4763100658102
 30
0.0
 11
15.36068020626121
 21
33.47577792684338
 31
0.0
  0
SPLINE
  5
250
330
2
100
AcDbEntity
  8
0
100
AcDbSpline
210
0.0
220
0.0
230
1.0
 70
     8
 71
     3
 72
    11
 73
     7
 74
     0
 42
0.000000001
 43
0.0000000001
 40
0.0
 40
0.0
 40
0.0
 40
0.0
 40
0.2517354191848939
 40
0.5004759506955969
 40
0.751814417361141
 40
1.0
 40
1.0
 40
1.0
 40
1.0
 10
15.36068020626466
 20
33.47577792685172
 30
0.0
 10
15.35842825220498
 20
33.47542163625349
 30
0.0
 10
15.35395113550576
 20
33.47471329383415
 30
0.0
 10
15.3486571787633
 20
33.47231898388308
 30
0.0
 10
15.34483546505973
 20
33.4693288358277
 30
0.0
 10
15.34411509515271
 20
33.4670154207944
 30
0.0
 10
15.34375718360601
 20
33.46586601415671
 30
0.0
  0
SPLINE
  5
251
330
2
100
AcDbEntity
  8
0
100
AcDbSpline
210
0.0
220
0.0
230
1.0
 70
     8
 71
     3
 72
    13
 73
     9
 74
     0
 42
0.000000001
 43
0.0000000001
 40
0.0
 40
0.0
 40
0.0
 40
0.0
 40
0.2028194563026035
 40
0.4366862830514679
 40
0.5657711508755519
 40
0.7027089848666538
 40
0.8474146918110347
 40
1.0
 40
1.0
 40
1.0
 40
1.0
 10
15.96496801859097
 20
31.58916823157348
 30
0.0
 10
15.97615859219787
 20
31.59005777197835
 30
0.0
 10
16.00025277962289
 20
31.59197302261597
 30
0.0
 10
16.02838476835628
 20
31.60508313921309
 30
0.0
 10
16.04837237427842
 20
31.62113867231568
 30
0.0
 10
16.06128616439579
 20
31.6369074161442
 30
0.0
 10
16.07078991187327
 20
31.65564215954821
 30
0.0
 10
16.07276004064191
 20
31.66932215091971
 30
0.0
 10
16.07377121383604
 20
31.67634343845672
 30
0.0
  0
LINE
  5
252
330
2
100
AcDbEntity
  8
0
100
AcDbLine
 10
15.46760987079603
 20
33.47482516864881
 30
0.0
 11
15.453990269209
 21
33.45072070853217
 31
0.0
  0
LINE
  5
253
330
2
100
AcDbEntity
  8
0
100
AcDbLine
 10
15.41395965051474
 20
33.44842232725329
 30
0.0
 11
15.38918521168115
 21
33.47091817862481
 31
0.0
  0
LINE
  5
254
330
2
100
AcDbEntity
  8
0
100
AcDbLine
 10
15.34375718359697
 20
33.46586601413792
 30
0.0
 11
15.34038419720405
 21
33.44022035916674
 31
0.0
  0
SPLINE
  5
255
330
2
100
AcDbEntity
  8
0
100
AcDbSpline
210
0.0
220
0.0
230
1.0
 70
     8
 71
     3
 72
    11
 73
     7
 74
     0
 42
0.000000001
 43
0.0000000001
 40
0.0
 40
0.0
 40
0.0
 40
0.0
 40
0.2517215963245227
 40
0.5004221896307968
 40
0.7516443698237097
 40
1.0
 40
1.0
 40
1.0
 40
1.0
 10
15.26858029328149
 20
33.45324650389656
 30
0.0
 10
15.26689230834245
 20
33.45407256300183
 30
0.0
 10
15.26353659658955
 20
33.45571476737473
 30
0.0
 10
15.25681991457284
 20
33.45691910591587
 30
0.0
 10
15.24974698030532
 20
33.45720483686038
 30
0.0
 10
15.2453244248917
 20
33.45643441955819
 30
0.0
 10
15.24312583537479
 20
33.45605142121322
 30
0.0
  0
LINE
  5
256
330
2
100
AcDbEntity
  8
0
100
AcDbLine
 10
15.24312583538024
 20
33.45605142121689
 30
0.0
 11
15.23867351055512
 21
33.45503698652675
 31
0.0
  0
SPLINE
  5
257
330
2
100
AcDbEntity
  8
0
100
AcDbSpline
210
0.0
220
0.0
230
1.0
 70
     8
 71
     3
 72
    11
 73
     7
 74
     0
 42
0.000000001
 43
0.0000000001
 40
0.0
 40
0.0
 40
0.0
 40
0.0
 40
0.2516553828907035
 40
0.5003082142741745
 40
0.7516497575305899
 40
1.0
 40
1.0
 40
1.0
 40
1.0
 10
15.23867351053393
 20
33.45503698651595
 30
0.0
 10
15.23661939579251
 20
33.45445419787932
 30
0.0
 10
15.23253567436984
 20
33.45329557397576
 30
0.0
 10
15.22836361005215
 20
33.45040028268861
 30
0.0
 10
15.22586188551098
 20
33.4470787284238
 30
0.0
 10
15.22612497998628
 20
33.44473976288936
 30
0.0
 10
15.22625573974379
 20
33.44357728098703
 30
0.0
  0
SPLINE
  5
258
330
2
100
AcDbEntity
  8
0
100
AcDbSpline
210
0.0
220
0.0
230
1.0
 70
     8
 71
     3
 72
    15
 73
    11
 74
     0
 42
0.000000001
 43
0.0000000001
 40
0.0
 40
0.0
 40
0.0
 40
0.0
 40
0.1125966909182944
 40
0.2262512435948716
 40
0.3613574683628498
 40
0.4997825214188796
 40
0.6350698014710474
 40
0.773544781606553
 40
0.8859767782741208
 40
1.0
 40
1.0
 40
1.0
 40
1.0
 10
15.41395965049684
 20
33.44842232724192
 30
0.0
 10
15.41502058780173
 20
33.44761153930414
 30
0.0
 10
15.4171524300668
 20
33.44598234596162
 30
0.0
 10
15.42215090918154
 20
33.44407826777561
 30
0.0
 10
15.42838303358596
 20
33.44281201409947
 30
0.0
 10
15.43549723477847
 20
33.44267984739336
 30
0.0
 10
15.44243124661977
 20
33.44360254470036
 30
0.0
 10
15.44791699176858
 20
33.44553556049137
 30
0.0
 10
15.45201508016123
 20
33.44795893038414
 30
0.0
 10
15.45332879584064
 20
33.44979581342049
 30
0.0
 10
15.45399026920063
 20
33.45072070851991
 30
0.0
  0
LINE
  5
259
330
2
100
AcDbEntity
  8
0
100
AcDbLine
 10
15.30216801454803
 20
33.43381704939098
 30
0.0
 11
15.26858029326317
 21
33.4532465038841
 31
0.0
  0
SPLINE
  5
25A
330
2
100
AcDbEntity
  8
0
100
AcDbSpline
210
0.0
220
0.0
230
1.0
 70
     8
 71
     3
 72
    15
 73
    11
 74
     0
 42
0.000000001
 43
0.0000000001
 40
0.0
 40
0.0
 40
0.0
 40
0.0
 40
0.112523282111085
 40
0.2263588686827054
 40
0.3616207898569122
 40
0.4999507486948185
 40
0.6352237788893321
 40
0.773655472325107
 40
0.8861360424409323
 40
1.0
 40
1.0
 40
1.0
 40
1.0
 10
15.30216801454234
 20
33.43381704940799
 30
0.0
 10
15.30354181245606
 20
33.43313424317702
 30
0.0
 10
15.30630543022216
 20
33.43176066747722
 30
0.0
 10
15.31199197307693
 20
33.43041736992357
 30
0.0
 10
15.31861923510465
 20
33.42982070248724
 30
0.0
 10
15.32563357574915
 20
33.43043766485882
 30
0.0
 10
15.3320336103953
 20
33.43205565865859
 30
0.0
 10
15.33660475302424
 20
33.43451637815678
 30
0.0
 10
15.33957784104354
 20
33.43731818875284
 30
0.0
 10
15.34011431885588
 20
33.43924903532932
 30
0.0
 10
15.34038419720234
 20
33.44022035915542
 30
0.0
  0
SPLINE
  5
25B
330
2
100
AcDbEntity
  8
0
100
AcDbSpline
210
0.0
220
0.0
230
1.0
 70
     8
 71
     3
 72
    11
 73
     7
 74
     0
 42
0.000000001
 43
0.0000000001
 40
0.0
 40
0.0
 40
0.0
 40
0.0
 40
0.2520107776009849
 40
0.5003378286952854
 40
0.7518338043122779
 40
1.0
 40
1.0
 40
1.0
 40
1.0
 10
15.1579836033097
 20
33.4234128006086
 30
0.0
 10
15.1559860595334
 20
33.42404755779924
 30
0.0
 10
15.15202017075161
 20
33.42530779372058
 30
0.0
 10
15.14494262273651
 20
33.42578073989722
 30
0.0
 10
15.13790035632873
 20
33.42533684909083
 30
0.0
 10
15.13389200998929
 20
33.42412091880292
 30
0.0
 10
15.13190119275486
 20
33.42351700517666
 30
0.0
  0
LINE
  5
25C
330
2
100
AcDbEntity
  8
0
100
AcDbLine
 10
16.0974159689988
 20
32.05185862772956
 30
0.0
 11
16.0737712138358
 21
31.67634343843719
 31
0.0
  0
LINE
  5
25D
330
2
100
AcDbEntity
  8
0
100
AcDbLine
 10
15.13190119273926
 20
33.42351700515756
 30
0.0
 11
15.1279662331868
 21
33.42206359170632
 31
0.0
  0
LINE
  5
25E
330
2
100
AcDbEntity
  8
0
100
AcDbLine
 10
15.19890250678578
 20
33.40790597039877
 30
0.0
 11
15.1579836033018
 21
33.42341280062983
 31
0.0
  0
SPLINE
  5
25F
330
2
100
AcDbEntity
  8
0
100
AcDbSpline
210
0.0
220
0.0
230
1.0
 70
     8
 71
     3
 72
    11
 73
     7
 74
     0
 42
0.000000001
 43
0.0000000001
 40
0.0
 40
0.0
 40
0.0
 40
0.0
 40
0.2517570313030104
 40
0.5004356342138978
 40
0.7519629666842289
 40
1.0
 40
1.0
 40
1.0
 40
1.0
 10
15.12796623319537
 20
33.42206359170377
 30
0.0
 10
15.12620622159334
 20
33.42127680810243
 30
0.0
 10
15.12270771941569
 20
33.41971286151273
 30
0.0
 10
15.11981967407707
 20
33.41645082865096
 30
0.0
 10
15.11876059026564
 20
33.41294299448863
 30
0.0
 10
15.1199811353618
 20
33.41068339038852
 30
0.0
 10
15.12058714412729
 20
33.40956148191017
 30
0.0
  0
SPLINE
  5
260
330
2
100
AcDbEntity
  8
0
100
AcDbSpline
210
0.0
220
0.0
230
1.0
 70
     8
 71
     3
 72
    15
 73
    11
 74
     0
 42
0.000000001
 43
0.0000000001
 40
0.0
 40
0.0
 40
0.0
 40
0.0
 40
0.112330136914065
 40
0.2264948335545489
 40
0.3617434322890054
 40
0.5000611073896307
 40
0.635303233799239
 40
0.7737721405687657
 40
0.8861935616180728
 40
1.0
 40
1.0
 40
1.0
 40
1.0
 10
15.19890250678976
 20
33.40790597038307
 30
0.0
 10
15.20052778706779
 20
33.40738265748001
 30
0.0
 10
15.2038048914688
 20
33.40632748500251
 30
0.0
 10
15.20992302239832
 20
33.40559677815553
 30
0.0
 10
15.2166600744711
 20
33.405703757493
 30
0.0
 10
15.22325864276027
 20
33.40704025606021
 30
0.0
 10
15.22884381050355
 20
33.40928981685632
 30
0.0
 10
15.2322763374702
 20
33.41217445275671
 30
0.0
 10
15.23403838213721
 20
33.41522002156914
 30
0.0
 10
15.23376016087434
 20
33.41716359155029
 30
0.0
 10
15.23362019857661
 20
33.41814132602499
 30
0.0
  0
SPLINE
  5
261
330
2
100
AcDbEntity
  8
0
100
AcDbSpline
210
0.0
220
0.0
230
1.0
 70
     8
 71
     3
 72
    11
 73
     7
 74
     0
 42
0.000000001
 43
0.0000000001
 40
0.0
 40
0.0
 40
0.0
 40
0.0
 40
0.2518980333935003
 40
0.5004461948355489
 40
0.7518395780237657
 40
1.0
 40
1.0
 40
1.0
 40
1.0
 10
15.06218051959297
 20
33.38274490606746
 30
0.0
 10
15.05996421270253
 20
33.38315743781461
 30
0.0
 10
15.05556107253123
 20
33.38397701524582
 30
0.0
 10
15.04844286928777
 20
33.38370641292116
 30
0.0
 10
15.04174145685083
 20
33.38253609483922
 30
0.0
 10
15.03833428400796
 20
33.3809274394839
 30
0.0
 10
15.03664172268275
 20
33.38012831717178
 30
0.0
  0
LINE
  5
262
330
2
100
AcDbEntity
  8
0
100
AcDbLine
 10
15.1086721083825
 20
33.37182365058061
 30
0.0
 11
15.06218051959347
 21
33.38274490606533
 31
0.0
  0
LINE
  5
263
330
2
100
AcDbEntity
  8
0
100
AcDbLine
 10
15.03664172270066
 20
33.38012831716682
 30
0.0
 11
15.03339180236378
 21
33.3783014023925
 31
0.0
  0
SPLINE
  5
264
330
2
100
AcDbEntity
  8
0
100
AcDbSpline
210
0.0
220
0.0
230
1.0
 70
     8
 71
     3
 72
    11
 73
     7
 74
     0
 42
0.000000001
 43
0.0000000001
 40
0.0
 40
0.0
 40
0.0
 40
0.0
 40
0.2518387308656595
 40
0.5002837688517934
 40
0.7519704139283096
 40
1.0
 40
1.0
 40
1.0
 40
1.0
 10
15.03339180237598
 20
33.37830140239788
 30
0.0
 10
15.03199643005909
 20
33.37734843343957
 30
0.0
 10
15.02922448898698
 20
33.37545533740782
 30
0.0
 10
15.02774910228718
 20
33.37196401856337
 30
0.0
 10
15.02817825912362
 20
33.36842208061641
 30
0.0
 10
15.03031356438239
 20
33.36633790426591
 30
0.0
 10
15.03137340364007
 20
33.36530344237474
 30
0.0
  0
SPLINE
  5
265
330
2
100
AcDbEntity
  8
0
100
AcDbSpline
210
0.0
220
0.0
230
1.0
 70
     8
 71
     3
 72
    11
 73
     7
 74
     0
 42
0.000000001
 43
0.0000000001
 40
0.0
 40
0.0
 40
0.0
 40
0.0
 40
0.2513357583683333
 40
0.5004331972354068
 40
0.7517806249302236
 40
1.0
 40
1.0
 40
1.0
 40
1.0
 10
14.98539086097776
 20
33.3330038989882
 30
0.0
 10
14.98305760064262
 20
33.33317213318274
 30
0.0
 10
14.97841185927623
 20
33.33350710332947
 30
0.0
 10
14.97155022093203
 20
33.33252503382507
 30
0.0
 10
14.96549638668804
 20
33.33066718072686
 30
0.0
 10
14.96282002293154
 20
33.32874606325088
 30
0.0
 10
14.96149022011954
 20
33.32779151908042
 30
0.0
  0
LINE
  5
266
330
2
100
AcDbEntity
  8
0
100
AcDbLine
 10
15.03541077485738
 20
33.32715151799596
 30
0.0
 11
14.98539086097942
 21
33.3330038989778
 31
0.0
  0
LINE
  5
267
330
2
100
AcDbEntity
  8
0
100
AcDbLine
 10
14.96149022013296
 20
33.3277915190744
 30
0.0
 11
14.9590948776623
 21
33.32565751279072
 31
0.0
  0
SPLINE
  5
268
330
2
100
AcDbEntity
  8
0
100
AcDbSpline
210
0.0
220
0.0
230
1.0
 70
     8
 71
     3
 72
    11
 73
     7
 74
     0
 42
0.000000001
 43
0.0000000001
 40
0.0
 40
0.0
 40
0.0
 40
0.0
 40
0.2513197870077871
 40
0.5002159062161469
 40
0.7512464217285605
 40
1.0
 40
1.0
 40
1.0
 40
1.0
 10
14.95909487767431
 20
33.32565751279896
 30
0.0
 10
14.95811170004149
 20
33.32458468848805
 30
0.0
 10
14.9561548263053
 20
33.32244938592678
 30
0.0
 10
14.95621272238001
 20
33.31888130750831
 30
0.0
 10
14.95807566446897
 20
33.31545549380993
 30
0.0
 10
14.96104100362588
 20
33.31363974246269
 30
0.0
 10
14.96251691839636
 20
33.31273600292693
 30
0.0
  0
SPLINE
  5
269
330
2
100
AcDbEntity
  8
0
100
AcDbSpline
210
0.0
220
0.0
230
1.0
 70
     8
 71
     3
 72
    11
 73
     7
 74
     0
 42
0.000000001
 43
0.0000000001
 40
0.0
 40
0.0
 40
0.0
 40
0.0
 40
0.2406090289884033
 40
0.4997581866164044
 40
0.7590627833081518
 40
1.0
 40
1.0
 40
1.0
 40
1.0
 10
16.20620080474453
 20
32.13904319004574
 30
0.0
 10
16.19292531976223
 20
32.13778796127109
 30
0.0
 10
16.16535140730719
 20
32.13518078206912
 30
0.0
 10
16.12945798562097
 20
32.11512179189257
 30
0.0
 10
16.10392970628669
 20
32.08594831979015
 30
0.0
 10
16.09953340847629
 20
32.06294026279152
 30
0.0
 10
16.09741596901038
 20
32.05185862773736
 30
0.0
  0
SPLINE
  5
26A
330
2
100
AcDbEntity
  8
0
100
AcDbSpline
210
0.0
220
0.0
230
1.0
 70
     8
 71
     3
 72
    11
 73
     7
 74
     0
 42
0.000000001
 43
0.0000000001
 40
0.0
 40
0.0
 40
0.0
 40
0.0
 40
0.2520151815520218
 40
0.500584410525838
 40
0.7519982430686863
 40
1.0
 40
1.0
 40
1.0
 40
1.0
 10
14.93097097556107
 20
33.27636366021508
 30
0.0
 10
14.92860933124159
 20
33.27629118731952
 30
0.0
 10
14.92391833476162
 20
33.2761472324932
 30
0.0
 10
14.91763236330673
 20
33.274449870281
 30
0.0
 10
14.91248355977404
 20
33.27201052900026
 30
0.0
 10
14.91065853541235
 20
33.26985434626308
 30
0.0
 10
14.90975225763943
 20
33.2687836205622
 30
0.0
  0
LINE
  5
26B
330
2
100
AcDbEntity
  8
0
100
AcDbLine
 10
14.98232338832314
 20
33.27584084444341
 30
0.0
 11
14.93097097558118
 21
33.27636366021959
 31
0.0
  0
LINE
  5
26C
330
2
100
AcDbEntity
  8
0
100
AcDbLine
 10
14.90975225762551
 20
33.2687836205696
 30
0.0
 11
14.90828349678416
 21
33.26645196266098
 31
0.0
  0
SPLINE
  5
26D
330
2
100
AcDbEntity
  8
0
100
AcDbSpline
210
0.0
220
0.0
230
1.0
 70
     8
 71
     3
 72
    11
 73
     7
 74
     0
 42
0.000000001
 43
0.0000000001
 40
0.0
 40
0.0
 40
0.0
 40
0.0
 40
0.2520377650984355
 40
0.5002345346573871
 40
0.7518136696889916
 40
1.0
 40
1.0
 40
1.0
 40
1.0
 10
14.90828349676284
 20
33.26645196267063
 30
0.0
 10
14.90778165530882
 20
33.26529635502853
 30
0.0
 10
14.90678562034494
 20
33.26300275092971
 30
0.0
 10
14.90828655358747
 20
33.25951421474685
 30
0.0
 10
14.91154822694215
 20
33.2563626421584
 30
0.0
 10
14.91519901037696
 20
33.25489365169096
 30
0.0
 10
14.91701200988626
 20
33.25416414279399
 30
0.0
  0
SPLINE
  5
26E
330
2
100
AcDbEntity
  8
0
100
AcDbSpline
210
0.0
220
0.0
230
1.0
 70
     8
 71
     3
 72
    11
 73
     7
 74
     0
 42
0.000000001
 43
0.0000000001
 40
0.0
 40
0.0
 40
0.0
 40
0.0
 40
0.2516973855462737
 40
0.5004242057959197
 40
0.7519403375959016
 40
1.0
 40
1.0
 40
1.0
 40
1.0
 10
14.90128192513878
 20
33.21530824592415
 30
0.0
 10
14.89900843352574
 20
33.21498842045933
 30
0.0
 10
14.89448828234353
 20
33.21435254415148
 30
0.0
 10
14.88903334644152
 20
33.21204957186715
 30
0.0
 10
14.88500760406528
 20
33.20912632600215
 30
0.0
 10
14.8841251098805
 20
33.20682651348491
 30
0.0
 10
14.88368691569234
 20
33.2056845632078
 30
0.0
  0
LINE
  5
26F
330
2
100
AcDbEntity
  8
0
100
AcDbLine
 10
14.88368691567159
 20
33.20568456322885
 30
0.0
 11
14.88322362492229
 21
33.20324977648323
 31
0.0
  0
SPLINE
  5
270
330
2
100
AcDbEntity
  8
0
100
AcDbSpline
210
0.0
220
0.0
230
1.0
 70
     8
 71
     3
 72
    11
 73
     7
 74
     0
 42
0.000000001
 43
0.0000000001
 40
0.0
 40
0.0
 40
0.0
 40
0.0
 40
0.2520007849096466
 40
0.5008881992260769
 40
0.7516454079457504
 40
1.0
 40
1.0
 40
1.0
 40
1.0
 10
14.88322362490801
 20
33.20324977650074
 30
0.0
 10
14.88320789888627
 20
33.20206794600973
 30
0.0
 10
14.8831766411315
 20
33.19971888607855
 30
0.0
 10
14.88611186720168
 20
33.19646907273077
 30
0.0
 10
14.89059960708708
 20
33.19372463728865
 30
0.0
 10
14.89477445631608
 20
33.19266985166693
 30
0.0
 10
14.8968518325182
 20
33.19214499761139
 30
0.0
  0
LINE
  5
271
330
2
100
AcDbEntity
  8
0
100
AcDbLine
 10
14.88443707381969
 20
33.14125056862033
 30
0.0
 11
14.96281841597244
 21
31.83038681778948
 31
0.0
  0
LINE
  5
272
330
2
100
AcDbEntity
  8
0
100
AcDbLine
 10
14.98435526980308
 20
31.78076063592286
 30
0.0
 11
14.98278725281193
 21
31.80895338304156
 31
0.0
  0
LINE
  5
273
330
2
100
AcDbEntity
  8
0
100
AcDbLine
 10
14.9815261839279
 20
31.83149037599164
 30
0.0
 11
14.98015581856173
 21
31.85622085525392
 31
0.0
  0
SPLINE
  5
274
330
2
100
AcDbEntity
  8
0
100
AcDbSpline
210
0.0
220
0.0
230
1.0
 70
     8
 71
     3
 72
    13
 73
     9
 74
     0
 42
0.000000001
 43
0.0000000001
 40
0.0
 40
0.0
 40
0.0
 40
0.0
 40
0.1304337485922257
 40
0.2574216849468364
 40
0.4999927152819268
 40
0.7425613314890212
 40
0.8695519999589883
 40
1.0
 40
1.0
 40
1.0
 40
1.0
 10
24.92063017523023
 20
36.57666580920777
 30
0.0
 10
24.8761820175001
 20
36.59638926984246
 30
0.0
 10
24.78845993806003
 20
36.63531513469231
 30
0.0
 10
24.58454547136473
 20
36.68733899429395
 30
0.0
 10
24.30518206455485
 20
36.71527388188249
 30
0.0
 10
24.02580565126094
 20
36.68734972259187
 30
0.0
 10
23.82189683148198
 20
36.63531453922186
 30
0.0
 10
23.73416074590785
 20
36.59639134971315
 30
0.0
 10
23.68970356719121
 20
36.57666839101396
 30
0.0
  0
LINE
  5
275
330
2
100
AcDbEntity
  8
0
100
AcDbLine
 10
24.92061927426298
 20
29.91779359088617
 30
0.0
 11
24.92063017522642
 21
36.5766658092079
 31
0.0
  0
SPLINE
  5
276
330
2
100
AcDbEntity
  8
0
100
AcDbSpline
210
0.0
220
0.0
230
1.0
 70
     8
 71
     3
 72
    13
 73
     9
 74
     0
 42
0.000000001
 43
0.0000000001
 40
0.0
 40
0.0
 40
0.0
 40
0.0
 40
0.1304469358852044
 40
0.2574569206568689
 40
0.499997929003721
 40
0.7425353521391967
 40
0.8695371456452008
 40
1.0
 40
1.0
 40
1.0
 40
1.0
 10
24.9206198480053
 20
29.91779387776441
 30
0.0
 10
24.87615223789047
 20
29.93645332465564
 30
0.0
 10
24.78838862817874
 20
29.9732805885938
 30
0.0
 10
24.58444603293597
 20
30.02249372417254
 30
0.0
 10
24.30516699153074
 20
30.04865100385737
 30
0.0
 10
24.02590368028567
 20
30.02248578819062
 30
0.0
 10
23.82194279102445
 20
29.97328743857433
 30
0.0
 10
23.73418420037281
 20
29.93645353120678
 30
0.0
 10
23.68971504188551
 20
29.9177890010193
 30
0.0
  0
SPLINE
  5
277
330
2
100
AcDbEntity
  8
0
100
AcDbSpline
210
0.0
220
0.0
230
1.0
 70
     8
 71
     3
 72
    11
 73
     7
 74
     0
 42
0.000000001
 43
0.0000000001
 40
0.0
 40
0.0
 40
0.0
 40
0.0
 40
0.2872005261030605
 40
0.5744026536671784
 40
0.8616031857251579
 40
1.0
 40
1.0
 40
1.0
 40
1.0
 10
18.13343800663185
 20
34.09050390865437
 30
0.0
 10
17.89558458866693
 20
33.95475696508572
 30
0.0
 10
17.41987642644086
 20
33.68326232100886
 30
0.0
 10
16.98160413430031
 20
33.1860222686596
 30
0.0
 10
16.76463618026761
 20
32.74668972906989
 30
0.0
 10
16.7979087433172
 20
32.48049980221654
 30
0.0
 10
16.79012849317064
 20
32.14175293910715
 30
0.0
  0
SPLINE
  5
278
330
2
100
AcDbEntity
  8
0
100
AcDbSpline
210
0.0
220
0.0
230
1.0
 70
     8
 71
     3
 72
    11
 73
     7
 74
     0
 42
0.000000001
 43
0.0000000001
 40
0.0
 40
0.0
 40
0.0
 40
0.0
 40
0.2499998328544784
 40
0.4999994145492782
 40
0.7500004213587727
 40
1.0
 40
1.0
 40
1.0
 40
1.0
 10
22.08410179688025
 20
34.74464867626043
 30
0.0
 10
21.72455972423537
 20
34.7588545437452
 30
0.0
 10
21.00547594015555
 20
34.78726626444303
 30
0.0
 10
19.94214001855352
 20
34.66916369933578
 30
0.0
 10
18.94798647801233
 20
34.44659896801321
 30
0.0
 10
18.40495364673109
 20
34.20920203574576
 30
0.0
 10
18.13343800663185
 20
34.09050390865437
 30
0.0
  0
LINE
  5
279
330
2
100
AcDbEntity
  8
0
100
AcDbLine
 10
22.41549900193219
 20
36.01052166569179
 30
0.0
 11
22.29023607484177
 21
36.0233497245264
 31
0.0
  0
LINE
  5
27A
330
2
100
AcDbEntity
  8
0
100
AcDbLine
 10
23.68971504187303
 20
29.91778900101373
 30
0.0
 11
22.71713371854898
 21
29.4314983393299
 31
0.0
  0
LINE
  5
27B
330
2
100
AcDbEntity
  8
0
100
AcDbLine
 10
22.61608469145957
 20
36.03985895315862
 30
0.0
 11
23.68970356717009
 21
36.57666839101388
 31
0.0
  0
LINE
  5
27C
330
2
100
AcDbEntity
  8
0
100
AcDbLine
 10
49.28211139682904
 20
17.73704752960313
 30
0.0
 11
24.92061927426298
 21
29.91779359088617
 31
0.0
  0
LINE
  5
27D
330
2
100
AcDbEntity
  8
0
100
AcDbLine
 10
24.92063017522642
 20
36.5766658092079
 30
0.0
 11
49.74052256736869
 21
24.16671961313677
 31
0.0
  0
SPLINE
  5
27E
330
2
100
AcDbEntity
  8
0
100
AcDbSpline
210
0.0
220
0.0
230
1.0
 70
     8
 71
     3
 72
    11
 73
     7
 74
     0
 42
0.000000001
 43
0.0000000001
 40
0.0
 40
0.0
 40
0.0
 40
0.0
 40
0.2501845415729675
 40
0.5000274328174977
 40
0.7498294581643919
 40
1.0
 40
1.0
 40
1.0
 40
1.0
 10
22.71724387561497
 20
29.43144958492614
 30
0.0
 10
22.70291007786646
 20
29.42458256326794
 30
0.0
 10
22.67426205650727
 20
29.41085789751013
 30
0.0
 10
22.62106740223079
 20
29.39978878345201
 30
0.0
 10
22.5644849051733
 20
29.39599656000869
 30
0.0
 10
22.52730232385357
 20
29.40080257451106
 30
0.0
 10
22.50869733004751
 20
29.40320735295504
 30
0.0
  0
SPLINE
  5
27F
330
2
100
AcDbEntity
  8
0
100
AcDbSpline
210
0.0
220
0.0
230
1.0
 70
     8
 71
     3
 72
    11
 73
     7
 74
     0
 42
0.000000001
 43
0.0000000001
 40
0.0
 40
0.0
 40
0.0
 40
0.0
 40
0.2494351171505345
 40
0.5004996958906509
 40
0.7501935937369206
 40
1.0
 40
1.0
 40
1.0
 40
1.0
 10
22.41550473929506
 20
36.01056520593813
 30
0.0
 10
22.43349822143224
 20
36.00921763572185
 30
0.0
 10
22.46960273005385
 20
36.00651369214263
 30
0.0
 10
22.52381088899802
 20
36.01151333445989
 30
0.0
 10
22.57484021263083
 20
36.02193529433217
 30
0.0
 10
22.60235894506318
 20
36.03387126436987
 30
0.0
 10
22.61612141046562
 20
36.03984059362925
 30
0.0
  0
SPLINE
  5
280
330
2
100
AcDbEntity
  8
0
100
AcDbSpline
210
0.0
220
0.0
230
1.0
 70
     8
 71
     3
 72
    13
 73
     9
 74
     0
 42
0.000000001
 43
0.0000000001
 40
0.0
 40
0.0
 40
0.0
 40
0.0
 40
0.1914755384617559
 40
0.382980347643599
 40
0.57473542435325
 40
0.7667360630118206
 40
0.9587013031877503
 40
1.0
 40
1.0
 40
1.0
 40
1.0
 10
22.16056686507909
 20
35.96973480103834
 30
0.0
 10
22.16177825429971
 20
35.97586433395671
 30
0.0
 10
22.16420121792509
 20
35.98812433681059
 30
0.0
 10
22.1829976114482
 20
36.00444594985111
 30
0.0
 10
22.21070559647731
 20
36.01688596333231
 30
0.0
 10
22.24530120928532
 20
36.02396804941147
 30
0.0
 10
22.27297451581915
 20
36.02478709435246
 30
0.0
 10
22.28763965490709
 20
36.02356764470607
 30
0.0
 10
22.29023607482835
 20
36.02335174471793
 30
0.0
  0
LINE
  5
281
330
2
100
AcDbEntity
  8
0
100
AcDbLine
 10
17.11967554718047
 20
26.63276925366745
 30
0.0
 11
16.1470943673022
 21
26.14647866372831
 31
0.0
  0
SPLINE
  5
282
330
2
100
AcDbEntity
  8
0
100
AcDbSpline
210
0.0
220
0.0
230
1.0
 70
     8
 71
     3
 72
    11
 73
     7
 74
     0
 42
0.000000001
 43
0.0000000001
 40
0.0
 40
0.0
 40
0.0
 40
0.0
 40
0.0428765050834633
 40
0.5071781109189767
 40
0.7502918652651779
 40
1.0
 40
1.0
 40
1.0
 40
1.0
 10
49.98981431823626
 20
23.84399348796808
 30
0.0
 10
49.9918988434011
 20
23.8489819211931
 30
0.0
 10
50.0165562993482
 20
23.90798915917999
 30
0.0
 10
49.95793551017568
 20
23.99885202794265
 30
0.0
 10
49.85867082835898
 20
24.10054504649251
 30
0.0
 10
49.78025507774621
 20
24.14446546803673
 30
0.0
 10
49.74052256737444
 20
24.16671952530077
 30
0.0
  0
SPLINE
  5
283
330
2
100
AcDbEntity
  8
0
100
AcDbSpline
210
0.0
220
0.0
230
1.0
 70
     8
 71
     3
 72
    10
 73
     6
 74
     0
 42
0.000000001
 43
0.0000000001
 40
0.0
 40
0.0
 40
0.0
 40
0.0
 40
0.4799730777092039
 40
0.9606046624645811
 40
1.0
 40
1.0
 40
1.0
 40
1.0
 10
19.26241493163427
 20
15.3906206857885
 30
0.0
 10
19.34380652537639
 20
15.41486052947561
 30
0.0
 10
19.50670137941118
 20
15.46337347310652
 30
0.0
 10
19.72048277020991
 20
15.39709223985173
 30
0.0
 10
19.82376616558372
 20
15.32158248390687
 30
0.0
 10
19.83159053783859
 20
15.31586214098776
 30
0.0
  0
LINE
  5
284
330
2
100
AcDbEntity
  8
0
100
AcDbLine
 10
14.98003189183115
 20
31.84226154865408
 30
0.0
 11
14.97950434278035
 21
31.86243854890961
 31
0.0
  0
LINE
  5
285
330
2
100
AcDbEntity
  8
0
100
AcDbLine
 10
14.99657151628573
 20
31.78878832554989
 30
0.0
 11
14.99610363562041
 21
31.80668983887152
 31
0.0
  0
LINE
  5
286
330
2
100
AcDbEntity
  8
0
100
AcDbLine
 10
15.03497731825725
 20
31.73820672540387
 30
0.0
 11
15.03461959466159
 21
31.75323761669793
 31
0.0
  0
LINE
  5
287
330
2
100
AcDbEntity
  8
0
100
AcDbLine
 10
15.02840461336366
 20
31.73397182916251
 30
0.0
 11
15.02732570522519
 21
31.75574094333761
 31
0.0
  0
LINE
  5
288
330
2
100
AcDbEntity
  8
0
100
AcDbLine
 10
15.09359120448048
 20
31.69271702082413
 30
0.0
 11
15.09334306421492
 21
31.70401078021994
 31
0.0
  0
LINE
  5
289
330
2
100
AcDbEntity
  8
0
100
AcDbLine
 10
15.16983395047709
 20
31.65431595217081
 30
0.0
 11
15.16969969652259
 21
31.66140367493186
 31
0.0
  0
LINE
  5
28A
330
2
100
AcDbEntity
  8
0
100
AcDbLine
 10
15.26037646055589
 20
31.6246804024928
 30
0.0
 11
15.2603265456548
 21
31.62740204021476
 31
0.0
  0
LWPOLYLINE
  5
28B
330
2
100
AcDbEntity
  8
0
100
AcDbPolyline
 90
       15
 70
   128
 43
0.0
 10
22.50864770198448
 20
29.40311683034682
 10
21.91334945207203
 20
29.45864961769853
 10
21.30842393363952
 20
29.47253959177174
 10
20.70544208494642
 20
29.4445319426608
 10
20.11598804030411
 20
29.37514955779939
 10
19.55135462015505
 20
29.26572436239911
 10
19.02233578256108
 20
29.11836698304408
 10
18.53910176431481
 20
28.93588595871326
 10
18.11090045190312
 20
28.72178530250743
 10
17.74593841665821
 20
28.48016830011441
 10
17.45122368033837
 20
28.21565889251255
 10
17.2323731819862
 20
27.93334212864041
 10
17.09360848405162
 20
27.63861514219162
 10
17.03759318578615
 20
27.33712421786684
 10
17.03779212833589
 20
27.23086704215384
  0
LINE
  5
28C
330
2
100
AcDbEntity
  8
0
100
AcDbLine
 10
17.03779212833589
 20
27.23086704215384
 30
0.0
 11
17.11978599114164
 21
26.63272064267224
 31
0.0
  0
SPLINE
  5
28D
330
2
100
AcDbEntity
  8
0
100
AcDbSpline
210
0.0
220
0.0
230
1.0
 70
     8
 71
     3
 72
    11
 73
     7
 74
     0
 42
0.000000001
 43
0.0000000001
 40
0.0
 40
0.0
 40
0.0
 40
0.0
 40
0.2491466583581099
 40
0.4916892152072494
 40
0.9548878634534363
 40
1.0
 40
1.0
 40
1.0
 40
1.0
 10
16.14709436728858
 20
26.14647866372084
 30
0.0
 10
16.10741684356542
 20
26.1231741463786
 30
0.0
 10
16.02911352362756
 20
26.07718284182627
 30
0.0
 10
15.93005685481764
 20
25.97290365840982
 30
0.0
 10
15.87163363823367
 20
25.88009766606185
 30
0.0
 10
15.89640642162033
 20
25.8215293585746
 30
0.0
 10
15.89860498442911
 20
25.81633147262823
 30
0.0
  0
SPLINE
  5
28E
330
2
100
AcDbEntity
  8
0
100
AcDbSpline
210
0.0
220
0.0
230
1.0
 70
     8
 71
     3
 72
    11
 73
     7
 74
     0
 42
0.000000001
 43
0.0000000001
 40
0.0
 40
0.0
 40
0.0
 40
0.0
 40
0.0446981373081187
 40
0.5081200175886318
 40
0.750775824470022
 40
1.0
 40
1.0
 40
1.0
 40
1.0
 10
49.53064725220155
 20
17.40704408805109
 30
0.0
 10
49.53283075477814
 20
17.41219148886696
 30
0.0
 10
49.55765240137102
 20
17.47070617316081
 30
0.0
 10
49.49915029667049
 20
17.56348078564073
 30
0.0
 10
49.40007815920393
 20
17.66774959300106
 30
0.0
 10
49.32178254289775
 20
17.71374367977421
 30
0.0
 10
49.28211197056465
 20
17.73704781648474
 30
0.0
  0
ARC
  5
28F
330
2
100
AcDbEntity
  8
0
100
AcDbCircle
 10
22.00088191416407
 20
35.71897624867899
 30
0.0
 40
0.8669900482792652
100
AcDbArc
 50
27.35012086171927
 51
48.56407374234761
  0
LINE
  5
290
330
2
100
AcDbEntity
  8
0
100
AcDbLine
 10
22.16056686507909
 20
35.96973480103834
 30
0.0
 11
22.08410179688025
 21
34.74464867626043
 31
0.0
  0
ARC
  5
291
330
2
100
AcDbEntity
  8
0
100
AcDbCircle
 10
19.80265558058389
 20
14.56248529527981
 30
0.0
 40
0.7236175291464705
100
AcDbArc
 50
204.8241508104569
 51
272.2919121675608
  0
ARC
  5
292
330
2
100
AcDbEntity
  8
0
100
AcDbCircle
 10
20.44249637976783
 20
11.02741728225396
 30
0.0
 40
0.6186364672362713
100
AcDbArc
 50
189.0691430871107
 51
228.9105707180162
  0
ARC
  5
293
330
2
100
AcDbEntity
  8
0
100
AcDbCircle
 10
22.47330237428181
 20
10.98535243891993
 30
0.0
 40
0.5194030278594174
100
AcDbArc
 50
314.0325027523523
 51
353.8725719603294
  0
LINE
  5
294
330
2
100
AcDbEntity
  8
0
100
AcDbLine
 10
14.88443707381969
 20
33.14125056862033
 30
0.0
 11
14.8968518325182
 21
33.19214499761139
 31
0.0
  0
LINE
  5
295
330
2
100
AcDbEntity
  8
0
100
AcDbLine
 10
14.90128192513878
 20
33.21530824592415
 30
0.0
 11
14.91693116225167
 21
33.2541966749999
 31
0.0
  0
LINE
  5
296
330
2
100
AcDbEntity
  8
0
100
AcDbLine
 10
14.98232338832314
 20
33.27584084444341
 30
0.0
 11
14.96251691839636
 21
33.31273600292693
 31
0.0
  0
LINE
  5
297
330
2
100
AcDbEntity
  8
0
100
AcDbLine
 10
15.03541077485738
 20
33.32715151799596
 30
0.0
 11
15.03137340364007
 21
33.36530344237474
 31
0.0
  0
LINE
  5
298
330
2
100
AcDbEntity
  8
0
100
AcDbLine
 10
15.1086721083825
 20
33.37182365058061
 30
0.0
 11
15.12058714412729
 21
33.40956148191017
 31
0.0
  0
LINE
  5
299
330
2
100
AcDbEntity
  8
0
100
AcDbLine
 10
15.23376016087434
 20
33.41716359155029
 30
0.0
 11
15.22625573974379
 21
33.44357728098703
 31
0.0
  0
ENDSEC
  0
SECTION
  2
OBJECTS
  0
DICTIONARY
  5
A
330
0
100
AcDbDictionary
281
     1
  3
ACAD_COLOR
350
3F
  3
ACAD_GROUP
350
36
  3
ACAD_LAYOUT
350
17
  3
ACAD_MATERIAL
350
C
  3
ACAD_MLEADERSTYLE
350
42
  3
ACAD_MLINESTYLE
350
37
  3
ACAD_PLOTSETTINGS
350
38
  3
ACAD_PLOTSTYLENAME
350
9
  3
ACAD_SCALELIST
350
40
  3
ACAD_TABLESTYLE
350
41
  3
ACAD_VISUALSTYLE
350
2C
  3
ACDB_RECOMPOSE_DATA
350
2A9
  3
AcDbVariableDictionary
350
29B
  3
AcDsDecomposeData
350
2AF
  0
DICTIONARY
  5
1F
330
1E
100
AcDbDictionary
280
     1
281
     1
  3
ACAD_LAYERSTATES
360
20
  0
DICTIONARY
  5
7
330
6
100
AcDbDictionary
280
     1
281
     1
  0
DICTIONARY
  5
3
330
2
100
AcDbDictionary
280
     1
281
     1
  3
ACAD_SORTENTS
360
29A
  0
DICTIONARY
  5
3F
102
{ACAD_REACTORS
330
A
102
}
330
A
100
AcDbDictionary
281
     1
  0
DICTIONARY
  5
36
102
{ACAD_REACTORS
330
A
102
}
330
A
100
AcDbDictionary
281
     1
  0
DICTIONARY
  5
17
102
{ACAD_REACTORS
330
A
102
}
330
A
100
AcDbDictionary
281
     1
  3
Model
350
16
  3
レイアウト1
350
1D
  0
DICTIONARY
  5
C
102
{ACAD_REACTORS
330
A
102
}
330
A
100
AcDbDictionary
281
     1
  3
ByBlock
350
3C
  3
ByLayer
350
39
  3
Global
350
B
  0
DICTIONARY
  5
42
102
{ACAD_REACTORS
330
A
102
}
330
A
100
AcDbDictionary
281
     1
  0
DICTIONARY
  5
37
102
{ACAD_REACTORS
330
A
102
}
330
A
100
AcDbDictionary
281
     1
  3
Standard
350
43
  0
DICTIONARY
  5
38
102
{ACAD_REACTORS
330
A
102
}
330
A
100
AcDbDictionary
281
     1
  0
ACDBDICTIONARYWDFLT
  5
9
102
{ACAD_REACTORS
330
A
102
}
330
A
100
AcDbDictionary
281
     1
  3
Normal
350
8
100
AcDbDictionaryWithDefault
340
8
  0
DICTIONARY
  5
40
102
{ACAD_REACTORS
330
A
102
}
330
A
100
AcDbDictionary
281
     1
  3
A0
350
48
  3
A1
350
49
  3
A2
350
4A
  3
A3
350
4B
  3
A4
350
4C
  3
A5
350
4D
  3
A6
350
4E
  3
A7
350
4F
  3
A8
350
50
  3
A9
350
51
  3
B0
350
52
  3
B1
350
53
  3
B2
350
54
  3
B3
350
55
  3
B4
350
56
  3
B5
350
57
  3
B6
350
58
  0
DICTIONARY
  5
41
102
{ACAD_REACTORS
330
A
102
}
330
A
100
AcDbDictionary
281
     1
  3
Standard
350
44
  0
DICTIONARY
  5
2C
102
{ACAD_REACTORS
330
A
102
}
330
A
100
AcDbDictionary
281
     1
  3
2dWireframe
350
2B
  3
Realistic
350
46
  3
Wireframe
350
47
  0
XRECORD
  5
2A9
102
{ACAD_REACTORS
330
A
102
}
330
A
100
AcDbXrecord
280
     1
 90
        1
330
44
  0
DICTIONARY
  5
29B
102
{ACAD_REACTORS
330
A
102
}
330
A
100
AcDbDictionary
281
     1
  3
CANNOSCALE
350
2A1
  3
CMLEADERSTYLE
350
29D
  3
CTABLESTYLE
350
29C
  3
CVIEWDETAILSTYLE
350
29E
  3
CVIEWSECTIONSTYLE
350
29F
  3
LAYEREVAL
350
2A3
  3
LAYERNOTIFY
350
2A4
  3
LIGHTINGUNITS
350
2A2
  3
MSLTSCALE
350
2A0
  3
PSOLHEIGHT
350
2A6
  3
PSOLWIDTH
350
2A5
  3
XCLIPFRAME
350
2A7
  0
DICTIONARY
  5
2AF
102
{ACAD_REACTORS
330
A
102
}
330
A
100
AcDbDictionary
281
     1
  3
AcDsRecords
350
2B1
  3
AcDsSchemas
350
2B0
1001
ACAD
1070
     2
  0
DICTIONARY
  5
20
102
{ACAD_REACTORS
330
1F
102
}
330
1F
100
AcDbDictionary
281
     1
  0
SORTENTSTABLE
  5
29A
102
{ACAD_REACTORS
330
3
102
}
330
3
100
AcDbSortentsTable
330
2
  0
LAYOUT
  5
16
102
{ACAD_XDICTIONARY
360
18
102
}
102
{ACAD_REACTORS
330
17
102
}
330
17
100
AcDbPlotSettings
  1

  2
none_device
  4
ISO_A4_(210.00_x_297.00_MM)
  6

 40
7.5
 41
20.0
 42
7.5
 43
20.0
 44
210.0
 45
297.0
 46
11.54999923706054
 47
-13.65000009536743
 48
0.0
 49
0.0
140
0.0
141
0.0
142
1.0
143
8.704084754739808
 70
 11952
 72
     1
 73
     0
 74
     0
  7

 75
     0
147
0.1148885871608098
 76
     0
 77
     2
 78
   300
148
0.0
149
0.0
100
AcDbLayout
  1
Model
 70
     1
 71
     0
 10
0.0
 20
0.0
 11
12.0
 21
9.0
 12
0.0
 22
0.0
 32
0.0
 14
0.0
 24
0.0
 34
0.0
 15
0.0
 25
0.0
 35
0.0
146
0.0
 13
0.0
 23
0.0
 33
0.0
 16
1.0
 26
0.0
 36
0.0
 17
0.0
 27
1.0
 37
0.0
 76
     0
330
2
331
2A
1001
ACAD_PSEXT
1000
None
1000
None
1000
Not applicable
1000
The layout will not be plotted unless a new plotter configuration name is selected.
1070
     0
  0
LAYOUT
  5
1D
102
{ACAD_REACTORS
330
17
102
}
330
17
100
AcDbPlotSettings
  1

  2
C:\Documents and Settings\basas\Application Data\Autodesk\AutoCAD 2005\R16.1\enu\plotters\Default Windows System Printer.pc3
  4

  6

 40
0.0
 41
0.0
 42
0.0
 43
0.0
 44
0.0
 45
0.0
 46
0.0
 47
0.0
 48
0.0
 49
0.0
140
0.0
141
0.0
142
1.0
143
1.0
 70
   688
 72
     0
 73
     0
 74
     5
  7

 75
    16
147
1.0
 76
     0
 77
     2
 78
   300
148
0.0
149
0.0
100
AcDbLayout
  1
レイアウト1
 70
     1
 71
     1
 10
0.0
 20
0.0
 11
12.0
 21
9.0
 12
0.0
 22
0.0
 32
0.0
 14
0.0
 24
0.0
 34
0.0
 15
0.0
 25
0.0
 35
0.0
146
0.0
 13
0.0
 23
0.0
 33
0.0
 16
1.0
 26
0.0
 36
0.0
 17
0.0
 27
1.0
 37
0.0
 76
     0
330
1A
  0
MATERIAL
  5
3C
102
{ACAD_XDICTIONARY
360
3D
102
}
102
{ACAD_REACTORS
330
C
102
}
330
C
100
AcDbMaterial
  1
ByBlock
  0
MATERIAL
  5
39
102
{ACAD_XDICTIONARY
360
3A
102
}
102
{ACAD_REACTORS
330
C
102
}
330
C
100
AcDbMaterial
  1
ByLayer
  0
MATERIAL
  5
B
102
{ACAD_XDICTIONARY
360
D
102
}
102
{ACAD_REACTORS
330
C
102
}
330
C
100
AcDbMaterial
  1
Global
 43
0.0007999999797903
 43
0.0
 43
0.0
 43
0.0
 43
0.0
 43
0.0007999999797903
 43
0.0
 43
0.0
 43
0.0
 43
0.0
 43
1.0
 43
0.0
 43
0.0
 43
0.0
 43
0.0
 43
1.0
 49
0.0007999999797903
 49
0.0
 49
0.0
 49
0.0
 49
0.0
 49
0.0007999999797903
 49
0.0
 49
0.0
 49
0.0
 49
0.0
 49
1.0
 49
0.0
 49
0.0
 49
0.0
 49
0.0
 49
1.0
142
0.0007999999797903
142
0.0
142
0.0
142
0.0
142
0.0
142
0.0007999999797903
142
0.0
142
0.0
142
0.0
142
0.0
142
1.0
142
0.0
142
0.0
142
0.0
142
0.0
142
1.0
144
0.0007999999797903
144
0.0
144
0.0
144
0.0
144
0.0
144
0.0007999999797903
144
0.0
144
0.0
144
0.0
144
0.0
144
1.0
144
0.0
144
0.0
144
0.0
144
0.0
144
1.0
1001
ACAD
1070
    -1
1070
     3
1070
     0
1000

1071
        0
1070
     0
  0
MLINESTYLE
  5
43
102
{ACAD_REACTORS
330
37
102
}
330
37
100
AcDbMlineStyle
  2
STANDARD
 70
     0
  3

 62
   256
 51
90.0
 52
90.0
 71
     2
 49
0.5
 62
   256
  6
BYLAYER
 49
-0.5
 62
   256
  6
BYLAYER
  0
ACDBPLACEHOLDER
  5
8
102
{ACAD_REACTORS
330
9
102
}
330
9
  0
SCALE
  5
48
102
{ACAD_REACTORS
330
40
102
}
330
40
100
AcDbScale
 70
     0
300
1:1
140
1.0
141
1.0
290
     1
  0
SCALE
  5
49
102
{ACAD_REACTORS
330
40
102
}
330
40
100
AcDbScale
 70
     0
300
1:2
140
1.0
141
2.0
290
     0
  0
SCALE
  5
4A
102
{ACAD_REACTORS
330
40
102
}
330
40
100
AcDbScale
 70
     0
300
1:4
140
1.0
141
4.0
290
     0
  0
SCALE
  5
4B
102
{ACAD_REACTORS
330
40
102
}
330
40
100
AcDbScale
 70
     0
300
1:5
140
1.0
141
5.0
290
     0
  0
SCALE
  5
4C
102
{ACAD_REACTORS
330
40
102
}
330
40
100
AcDbScale
 70
     0
300
1:8
140
1.0
141
8.0
290
     0
  0
SCALE
  5
4D
102
{ACAD_REACTORS
330
40
102
}
330
40
100
AcDbScale
 70
     0
300
1:10
140
1.0
141
10.0
290
     0
  0
SCALE
  5
4E
102
{ACAD_REACTORS
330
40
102
}
330
40
100
AcDbScale
 70
     0
300
1:16
140
1.0
141
16.0
290
     0
  0
SCALE
  5
4F
102
{ACAD_REACTORS
330
40
102
}
330
40
100
AcDbScale
 70
     0
300
1:20
140
1.0
141
20.0
290
     0
  0
SCALE
  5
50
102
{ACAD_REACTORS
330
40
102
}
330
40
100
AcDbScale
 70
     0
300
1:30
140
1.0
141
30.0
290
     0
  0
SCALE
  5
51
102
{ACAD_REACTORS
330
40
102
}
330
40
100
AcDbScale
 70
     0
300
1:40
140
1.0
141
40.0
290
     0
  0
SCALE
  5
52
102
{ACAD_REACTORS
330
40
102
}
330
40
100
AcDbScale
 70
     0
300
1:50
140
1.0
141
50.0
290
     0
  0
SCALE
  5
53
102
{ACAD_REACTORS
330
40
102
}
330
40
100
AcDbScale
 70
     0
300
1:100
140
1.0
141
100.0
290
     0
  0
SCALE
  5
54
102
{ACAD_REACTORS
330
40
102
}
330
40
100
AcDbScale
 70
     0
300
2:1
140
2.0
141
1.0
290
     0
  0
SCALE
  5
55
102
{ACAD_REACTORS
330
40
102
}
330
40
100
AcDbScale
 70
     0
300
4:1
140
4.0
141
1.0
290
     0
  0
SCALE
  5
56
102
{ACAD_REACTORS
330
40
102
}
330
40
100
AcDbScale
 70
     0
300
8:1
140
8.0
141
1.0
290
     0
  0
SCALE
  5
57
102
{ACAD_REACTORS
330
40
102
}
330
40
100
AcDbScale
 70
     0
300
10:1
140
10.0
141
1.0
290
     0
  0
SCALE
  5
58
102
{ACAD_REACTORS
330
40
102
}
330
40
100
AcDbScale
 70
     0
300
100:1
140
100.0
141
1.0
290
     0
  0
TABLESTYLE
  5
44
102
{ACAD_XDICTIONARY
360
45
102
}
102
{ACAD_REACTORS
330
41
102
}
330
41
100
AcDbTableStyle
  3
Standard
 70
     0
 71
     0
 40
1.5
 41
1.5
280
     0
281
     0
  7
Standard
140
4.5
170
     2
 62
     0
 63
     7
283
     0
274
    -2
284
     1
 64
     0
275
    -2
285
     1
 65
     0
276
    -2
286
     1
 66
     0
277
    -2
287
     1
 67
     0
278
    -2
288
     1
 68
     0
279
    -2
289
     1
 69
     0
  7
Standard
140
6.0
170
     5
 62
     0
 63
     7
283
     0
274
    -2
284
     1
 64
     0
275
    -2
285
     1
 65
     0
276
    -2
286
     1
 66
     0
277
    -2
287
     1
 67
     0
278
    -2
288
     1
 68
     0
279
    -2
289
     1
 69
     0
  7
Standard
140
4.5
170
     5
 62
     0
 63
     7
283
     0
274
    -2
284
     1
 64
     0
275
    -2
285
     1
 65
     0
276
    -2
286
     1
 66
     0
277
    -2
287
     1
 67
     0
278
    -2
288
     1
 68
     0
279
    -2
289
     1
 69
     0
  0
VISUALSTYLE
  5
2B
102
{ACAD_XDICTIONARY
360
2B3
102
}
102
{ACAD_REACTORS
330
2C
102
}
330
2C
100
AcDbVisualStyle
  2
2dWireframe
 70
     4
 71
     0
 72
     2
 73
     1
 90
        0
 40
-0.6
 41
-30.0
 62
     5
 63
     7
421
 16777215
 74
     1
 91
        4
 64
     7
 65
   257
 75
     1
175
     1
 42
1.0
 92
        0
 66
   257
 43
1.0
 76
     1
 77
     6
 78
     2
 67
     7
 79
     5
170
     0
171
     0
290
     0
174
     0
 93
        1
 44
0.0
173
     0
291
     0
 45
0.0
1001
ACAD
1000
AcDbSavedByObjectVersion
1070
     0
  0
VISUALSTYLE
  5
46
102
{ACAD_XDICTIONARY
360
2B8
102
}
102
{ACAD_REACTORS
330
2C
102
}
330
2C
100
AcDbVisualStyle
  2
Realistic
 70
     8
 71
     2
 72
     3
 73
     0
 90
        2
 40
-0.6
 41
30.0
 62
     5
 63
     7
421
 16777215
 74
     0
 91
        0
 64
     7
 65
   257
 75
     1
175
     1
 42
1.0
 92
        8
 66
   257
 43
1.0
 76
     1
 77
     6
 78
     2
 67
     7
 79
     3
170
     0
171
     0
290
     0
174
     0
 93
       13
 44
0.0
173
     0
291
     0
 45
0.0
1001
ACAD
1000
AcDbSavedByObjectVersion
1070
     0
  0
VISUALSTYLE
  5
47
102
{ACAD_XDICTIONARY
360
2BA
102
}
102
{ACAD_REACTORS
330
2C
102
}
330
2C
100
AcDbVisualStyle
  2
Wireframe
 70
     5
 71
     0
 72
     2
 73
     0
 90
        0
 40
-0.6
 41
-30.0
 62
     5
 63
     7
421
 16777215
 74
     1
 91
        4
 64
     7
 65
   257
 75
     1
175
     1
 42
1.0
 92
        0
 66
   257
 43
1.0
 76
     1
 77
     6
 78
     2
 67
     7
 79
     3
170
     0
171
     0
290
     0
174
     0
 93
        1
 44
0.0
173
     0
291
     0
 45
0.0
1001
ACAD
1000
AcDbSavedByObjectVersion
1070
     0
  0
DICTIONARYVAR
  5
2A1
102
{ACAD_REACTORS
330
29B
102
}
330
29B
100
DictionaryVariables
280
     0
  1
1:1
  0
DICTIONARYVAR
  5
29D
102
{ACAD_REACTORS
330
29B
102
}
330
29B
100
DictionaryVariables
280
     0
  1
STANDARD
  0
DICTIONARYVAR
  5
29C
102
{ACAD_REACTORS
330
29B
102
}
330
29B
100
DictionaryVariables
280
     0
  1
STANDARD
  0
DICTIONARYVAR
  5
29E
102
{ACAD_REACTORS
330
29B
102
}
330
29B
100
DictionaryVariables
280
     0
  1

  0
DICTIONARYVAR
  5
29F
102
{ACAD_REACTORS
330
29B
102
}
330
29B
100
DictionaryVariables
280
     0
  1

  0
DICTIONARYVAR
  5
2A3
102
{ACAD_REACTORS
330
29B
102
}
330
29B
100
DictionaryVariables
280
     0
  1
0
  0
DICTIONARYVAR
  5
2A4
102
{ACAD_REACTORS
330
29B
102
}
330
29B
100
DictionaryVariables
280
     0
  1
0
  0
DICTIONARYVAR
  5
2A2
102
{ACAD_REACTORS
330
29B
102
}
330
29B
100
DictionaryVariables
280
     0
  1
2
  0
DICTIONARYVAR
  5
2A0
102
{ACAD_REACTORS
330
29B
102
}
330
29B
100
DictionaryVariables
280
     0
  1
1
  0
DICTIONARYVAR
  5
2A6
102
{ACAD_REACTORS
330
29B
102
}
330
29B
100
DictionaryVariables
280
     0
  1
80.000000
  0
DICTIONARYVAR
  5
2A5
102
{ACAD_REACTORS
330
29B
102
}
330
29B
100
DictionaryVariables
280
     0
  1
5.000000
  0
DICTIONARYVAR
  5
2A7
102
{ACAD_REACTORS
330
29B
102
}
330
29B
100
DictionaryVariables
280
     0
  1
2
  0
DICTIONARY
  5
2B1
102
{ACAD_REACTORS
330
2AF
102
}
330
2AF
100
AcDbDictionary
281
     1
  0
DICTIONARY
  5
2B0
102
{ACAD_REACTORS
330
2AF
102
}
330
2AF
100
AcDbDictionary
281
     1
  3
2295363923232
350
2AA
  3
2295363923248
350
2AB
  3
2295363923264
350
2AC
  3
2295363923280
350
2AD
  3
2295363923296
350
2AE
  0
DICTIONARY
  5
18
330
16
100
AcDbDictionary
280
     1
281
     1
  0
DICTIONARY
  5
3D
330
3C
100
AcDbDictionary
280
     1
281
     1
  3
ACAD_XREC_ROUNDTRIP
360
2B6
  3
FBXASSET
360
3E
  0
DICTIONARY
  5
3A
330
39
100
AcDbDictionary
280
     1
281
     1
  3
ACAD_XREC_ROUNDTRIP
360
2B5
  3
FBXASSET
360
3B
  0
DICTIONARY
  5
D
330
B
100
AcDbDictionary
280
     1
281
     1
  3
ACAD_XREC_ROUNDTRIP
360
2B2
  3
BUMPTILE
360
E
  3
DIFFUSETILE
360
F
  3
FBXASSET
360
10
  3
OPACITYTILE
360
11
  3
REFLECTIONTILE
360
12
  0
DICTIONARY
  5
45
330
44
100
AcDbDictionary
280
     1
281
     1
  3
ACAD_ROUNDTRIP_2008_TABLESTYLE_CELLSTYLEMAP
360
2A8
  3
ACAD_XREC_ROUNDTRIP
360
2B7
  0
DICTIONARY
  5
2B3
330
2B
100
AcDbDictionary
280
     1
281
     1
  3
ACAD_XREC_ROUNDTRIP
360
2B4
  0
DICTIONARY
  5
2B8
330
46
100
AcDbDictionary
280
     1
281
     1
  3
ACAD_XREC_ROUNDTRIP
360
2B9
  0
DICTIONARY
  5
2BA
330
47
100
AcDbDictionary
280
     1
281
     1
  3
ACAD_XREC_ROUNDTRIP
360
2BB
  0
XRECORD
  5
2AA
102
{ACAD_REACTORS
330
2B0
102
}
330
2B0
100
AcDbXrecord
280
     1
  1
AcDb_Thumbnail_Schema
102
{ATTRRECORD
341
2AB
  2
AcDbDs::TreatedAsObjectData
280
     1
291
     1
102
ATTRRECORD}
102
{ATTRRECORD
341
2AC
  2
AcDbDs::Legacy
280
     1
291
     1
102
ATTRRECORD}
  2
AcDbDs::ID
280
    10
 91
        8
102
{ATTRRECORD
341
2AD
  2
AcDs:Indexable
280
     1
291
     1
102
ATTRRECORD}
102
{ATTRRECORD
341
2AE
  2
AcDbDs::HandleAttribute
280
     7
282
     1
102
ATTRRECORD}
  2
Thumbnail_Data
280
    15
 91
        0
  0
XRECORD
  5
2AB
102
{ACAD_REACTORS
330
2B0
102
}
330
2B0
100
AcDbXrecord
280
     1
  1
AcDbDs::TreatedAsObjectDataSchema
  2
AcDbDs::TreatedAsObjectData
280
     1
 91
        0
  0
XRECORD
  5
2AC
102
{ACAD_REACTORS
330
2B0
102
}
330
2B0
100
AcDbXrecord
280
     1
  1
AcDbDs::LegacySchema
  2
AcDbDs::Legacy
280
     1
 91
        0
  0
XRECORD
  5
2AD
102
{ACAD_REACTORS
330
2B0
102
}
330
2B0
100
AcDbXrecord
280
     1
  1
AcDbDs::IndexedPropertySchema
  2
AcDs:Indexable
280
     1
 91
        0
  0
XRECORD
  5
2AE
102
{ACAD_REACTORS
330
2B0
102
}
330
2B0
100
AcDbXrecord
280
     1
  1
AcDbDs::HandleAttributeSchema
  2
AcDbDs::HandleAttribute
280
     7
 91
        1
284
     1
  0
XRECORD
  5
2B6
102
{ACAD_REACTORS
330
3D
102
}
330
3D
100
AcDbXrecord
280
     1
102
MATERIAL
148
0.0
149
0.0
149
0.0
 93
        0
 94
       63
282
     0
 72
     1
 77
     1
171
     1
175
     1
179
     1
273
     0
  0
XRECORD
  5
3E
102
{ACAD_REACTORS
330
3D
102
}
330
3D
100
AcDbXrecord
280
     1
 70
     1
 90
429727718
  1
D62C5603-E3A1-4AEA-B7FB-FE5D8D0755AF
310
504B03040A0000080000CC70623B3DEE336E79000000790000001B0000006175746F6465736B2D64657369676E2D7061636B6167652E786D6C3C3F786D6C2076657273696F6E3D22312E302220656E636F64696E673D227574662D3822203F3E3C666F726D6174733E3C666F726D61743E687474703A2F2F736368656D612E
310
6175746F6465736B2E636F6D2F64657369676E2D7061636B6167652F323030393C2F666F726D61743E3C2F666F726D6174733E504B0304140006080800CC70623BD486FD9CA0000000F4000000130000005B436F6E74656E745F54797065735D2E786D6C7D8EC10E82300C865F65E91D8A1E8C310C0EEA1BF002731658846E
310
D98AC1B77784ABF1D8FE5FBFBF75BBCE937A534CCEB38643598122B6FEE978D0B0485F9C41B54DDD7D022595594E1A469170414C76A4D9A4D207E29CF43ECE46F218070CC6BECC4078ACAA135ACF422C856C0E68EA1BF5669944DDD7BCDE7B1F8E415D77AECB980613C2E4AC91FC167A2B244592486606FC29C8FD7F045B9A
310
EF7053A7E60B504B0304140006080800CC70623B853B8169EB0000007C01000008000000636F72652E786D6C8D90416EC3201045AF62CDB6C206821CC7C244919D9CA01740401C94182C03558F5F9C3852BBEB6A467FFE9B197D7EFC9E1EC5975982F5AE035262288C535E5B377690E21535501C055FBC8FBF6C503839990E
310
5619041F179FE64D52DE45E362569DD7661365082642A11EB9E920A89B99642953CC8E702F67A9EE7234257977194EC9EAE275C4EABCCF5EAD5940D4AC6F0E35A568B8F43562CD7046CD199FD07E60174276A7BE677B5EADB0E0D14EEFFB6A31321A0D82627C4084204C3F096B71DD52F6819B16635EADF63F509AF53FA164
310
5DDCD1EDDD17164090FCC8732078B56691CB33A85CD7DCC40F504B0304140006080800CC70623B55019EA25F0000007C00000007000000636E782E786D6C4DCB3B0E80201045D1AD90E915ED2CF8AC45050C11660C8261F98AB1B07AC9C97D42D718D865D3E909258CFD00CCE24AC6E326A164D74DC0B4128928FF32603847
310
2BA13128B1252AC747C6BAB984FC68F0B87FE8960A5C09FE86CFB69FBA01504B0304140006080800CC70623BDBABAAF470010000D40300000C0000006662782F636F72652E786D6CC553D16E823014FD95A6AF4B694182CC941A83FA05FB810A9511A125A5257EFE2E82712ECEB8A7F100CD39F7F69E734AF9FADC366850B6
310
AF8DCE7018308C942E4C59EB2AC3DE1D498AD15A706B8CFB56869196ADCAF00863C12B6B7C374385D14E6907A836A59A41D9F7CA615434B0C8705F7CAA5606D23BA8E84F41278B93AC54100640439DE0BDB320004D43C63716C7C399D30917DCFBBA9CD9BA8469F5B156168B24CED3F7248AC8769F27244EB73B92EED8862C
310
B7F13E0C179B3C8F979C8ECD82BBBABDAA2BAC924E9558448CBD9330242CFA08E3154B5651FCC6D215639C8EE5774DBE2B5F6CF2B5768B68963BB5F5588420E442FC700B1139D4CB01F450C1E918227C2E09DF070D8140C84E1E9AAB8F1340832A9CB13130A5F1376A908D57309505ECF2A0DF179C4E9D30F5B239B87E3823
310
7A79C6F31DE1A8A5AEC08474B03C7837EAE4938639B44E5932B833D2C6B6B279CDC613877FA26EE21F4A2A4C63EC7F29A2F301D1F9F7A0E37D145F504B0304140006080800CC70623B9C113CC27E0000009D0000000B0000006662782F636E782E786D6C4DCCDF0A83201C86E15B91DFB94BFB330DD428C8FB886521330DA7
310
6397BF1A1DECE883878F57749FCDA1B7892F1BBC047A23808C7F84D9FA55424E0BE6803A256208E9EF06C84F9B91703228B1C690F78B66B34CD9A5439DF5CF0BFBF65E35BCA1B8D6A5C6F540381E886698B5741C695F9503EBA150A2F8958E3DC3EA0B504B0304140006080800CC70623B7DF2F77C2A010000120200003100
310
00006662782F41393633353835312D344632462D344230382D423046372D3739314545314133324237412F636F72652E786D6C8D51DB8EC22014FC15C2939B0D2DB4B45643319AE817EC0F6041255A68B86CFCFC856D4D76DF7CE190393373060EDB3DC707F856CE6B6B7A480A0C81328395DA5C7B18C3057510EC3873D686
310
3F34088C18550F330C39BB3A1BA7051AAC09CA84841A2BD5020AEF55806078A44B0FFD7053A328440C89E1EFC52486BBB8AA8214A99D789CF9E05200300FC927E4FB4D5B375D43103D5527440FB843077C5AA3F5861C8F645F5787F59E95B390B318B55CE45AA638FAA2957BD7248B390B7A7CC51F9C124149C82B8C378810
310
84AB2F42B7B8DD56F413775B8C5999E9FF4471926F8AA236A1AE96B8B3CC434E5839373893369E1FAF30EA395917409EB7F26AF8801C171837A4A6AC9C89E9F9C9B1A58BA30FD6A5EF5DDDCF894B9AD9B6A59C957943A9FCAE2FD5BC4DFE03504B0304140006080800CC70623BAD7543B64E01000033030000300000006662
310
782F41393633353835312D344632462D344230382D423046372D3739314545314133324237412F636E782E786D6CD593CD6EC32010845F0571AD6CE3D48AD20813A9873E410FBD12D82434182C7EAAE6EDBB2424CD25871E7B41D6EC30B3FA84F9E67BB2E40B4234DE8DB46F1925E094D7C6ED479AD3AE5951B2113C789FEE
310
6C943839C1488B4C05DF079FE72A69D8C96C13AAD6B8631503449F83828872B949AC57D26200B826A308D316B4064D6E46FCDA41C05550DC9E483A00797BFD207EFB092A45DE9514C1BBD22178396BD39D891265658C238DEA00936C654E5E433CB65A26D9F6EDB5EBC14EBF49A45CB856E66048291F6939A9A81BB5C89177
310
38143CA680F4AA299D66A042CEB3354A2684DC9D8D178FE0D9B8B41CAAD720F880EE7EF93C0C18769E099ECC04D5A102C8049A8A05632F4DDF376CF1DE0F6BB65C2F8627B65A33C6BB62177CEBBDAD973006829F89F22E814B54F4BC2BE347F8AA8F681390B50FA73F804400B5F542E796F19FF974E7F78DB802FE05E20750
310
4B0304140006080800CC70623BE75B7789680500003C100000340000006662782F41393633353835312D344632462D344230382D423046372D3739314545314133324237412F6F626A656374732E786D6CAD575B8F9B3818FD2B887D06C22499CB8AA1CA655245D5B455A356FB305264C061D8018C6C3393D95FBFC7600890
310
A4CD5EF210B0B1BFEBF98E3F7B1FF6596ABC522E1296DF9BAE3D320D9A872C4AF2F8DE2CE5CEBA358D0FBEC719939D65A691938CDE9B6ADAF4BD98B3B2D05311DD91329583D9D5FC0F438434A7A611A644887B5384CF34233629258BA878B12322891DEFF6B66BD70BFB62634E8AE781D082709A4B588AF91C528CDA28B73F
310
1C998EEF39EABBEFA97FBD6A7C7E9553F9D3D79FE442923C3C523610337627CB87ABE99D359D4CC6D6E4FACAB5E6ABF9D2726FC6A3C5F56271377BB88362213924694B38DD99FE47C48627A1E7D49F5A8BB5E1A74C0A599ED3B0F21F1E56366B89112D681E218F0915D0D6F17AD41FBA2A369DCF6335D62ABBD39779D5DDD1
310
11D4D8DE3CBB96B2E04FB8202E41051754A1AA8E8F76B4C6DFE810B580B1547F4B84911149794252234D024EF8BBE963A95AE27B3D310A9D5C215C7960FAEE415ED75694C6AFB17BCACA5D99A60A9AA65F217B0BFC53292ACB92BF283FAD0D3621576592CB5BED907C2FA8E9DF794E35E97BEA31BED21FEB401ABB94C44839
310
DCACBF0E1C5DA8DA5B2F4DFFD32AD86F543D9E565E7056502E157C00AD2671CD534549AB752FCA9CDA00677A313F04E51B22FF19E57B300579E3C97EB29F682D92935CEC18CF901B7B54FD8C51F362B56FC72FE0B3C1EAE335EDCCBF5AEC39ADB17DC238973F804BA5E6F6BFE7AF1FB32E523BE9F3BD571418E3631DCA4D48
310
5250CF639223210A9446CA30052EDF057BD35F8329C1ECD84552BF0DC8D18BE7BCE23BFE6BD960AB4A7DE79923A103BEBD80F911CBAA2C60DB19B01CF164A5583B772EE6D3FFA56666CBCDA74DC97724A48F9A58967497E489C4D979006FD7A05E227A1EBDD0F737C623387A9C844D3709995625106D157315F8B8392CD4E0
310
A0B9A720C4BE9829CEF37EA1E13111214D53925356365ADA634861B52519DD27A00AEB808EAF0628E6F435519D446F45CF2C9CF5214F0A15B2F6D06B79DA3EE3CBF7F56780D2F4E7EF73A0F5E5B02A38D07DC852C6B7C1FBB6664213E0C39E3EBA7FF4E1AD23EA2829407C85E586727488B751B2DB9502BC7B228A3FD68B6E
310
A65A22397E690AA8D158D7E404EC8CDA235CC3B7D1898680131CEC2CDF2638C65196279577750F15884AEE19F94199155B92B13297978469D4F8D358DF0AEF7631E28DC8F0D9F437D5D39A83B2231A1D52D543813A824EF8D44BCFF2FA6A31BD1E8DAD87F1CCB526B3879935BF59CDADD5C37479BB1CDD4CA7B3556B516589
310
EF352754B706114D9C885EC9131DE6EFEB43D99AFE2391C2F958179413D7CFEF6B1B6DB1E7600F00DE6E5C67454A339A4BA2E0FBA85ED26F045D454F463DBFCE484C2F90F2E5E3666003662ED8F755951A7D1BECD5B30B550B2785C8E7320B7292A4838DDA71BBC863ED7613CAF659337A3354231D4FF4A182A54904C2898C
310
98B28C4AD0CE056CCF332A80986E571EE9DBC305BB5FEB7E509220A58D25CF042D712A806AC0AD0C657FDEF80D2D9CEAA2EE4D1C76F60BFE74219A06527D6F82DF6412526107381E55E353090704D085B52408A8913C4ED159D79BDA71BB4BC506F4831350EB6F975CD22D69BF7AC49B91A2C0A9DDA3D5CA36AD20FC478E37
310
E61844E2352865EBCB61A275A65283CAAA9DD27703B4102F5AF51EF5F573B75CBB5AD38BC845F7A49F82A0966A49C2E3EA5EA0ECD326CD965F1DB402C6FA8B51A4658C5C5E2EC9E214602E55810345408596591009A82E7E7FFACA19EEA299B14A0081A705CB3296EBC14CDF658DCD336EA6D1136881AAEB87B81AB9EE53D5
310
F5EB8BC8362082DA24122F98680A4E7930C01A0079749CEA14382A0783E5EBA5A10F8C098456A03D6A4AEB6BB881E2513747552A5DB22C7EDAF83BD5528081A365F7FF06504B0304140006080000CC70623B000000000000000000000000350000006662782F41393633353835312D344632462D344230382D423046372D37
310
39314545314133324237412F76657274696365732E62696E504B0304140006080800CC70623BF270F1330600000004000000360000006662782F41393633353835312D344632462D344230382D423046372D3739314545314133324237412F747269616E676C65732E62696E636660600000504B0304140006080000CC7062
310
3B000000000000000000000000370000006662782F41393633353835312D344632462D344230382D423046372D3739314545314133324237412F617474726962757465732E62696E504B0304140006080800CC70623B08DA0BD19000000041010000360000006662782F41393633353835312D344632462D344230382D4230
310
46372D3739314545314133324237412F6469726563746F72792E786D6C858F410AC3201045AF22B36F53E9A60B35CBEEBAE80D244E44489C6234F4F835464A48035D0DF398FF9F8AF63D0E6CC63039F212F8F9020C7D47C6792B21C5FE7403D62A1188E2E60C98D7234A5830286103A55745067B9D86B8A3CF9C7F90C11DE6
310
07FB144396D7B6A82D282E9A152AD114D5EF2CB866EEE831B8EEA07A7BB5A8D7D61A2BAAEB7FD5F70921FF497D00504B0304140006080800CC70623BEDD1DC58FD000000A00100003B0000006662782F41393633353835312D344632462D344230382D423046372D3739314545314133324237412F7265736F75726365732F
310
636F72652E786D6C8D504B6E833010BD0A9A6D65B00922041947112427E8052C33A156828DFCA97AFC9A40A576D7CDCCE87D344F8F9FBFE667F689CE6B6B3A6039850C8DB2A336530731DC4903D95970676DF82583CCC8193B5861107C72362E3BA4AC096842428D1D7107A5F7182053CF7474E0D507CE32973124857FE48B
310
540F3961CEF244279DE03EB81420DB9EAC1384436FA353E879B1B182C7A8C75DA3C7F453DF353A1075D537A7BA6464B8F535A99AE14A9A2BBD90E350DD183B5CFABE3AF262350B1EF4FC9351399401471025A527C218A1E53BAB5A5AB765F5469B96525EACF23FA6B88CFF34456DC2A1DCE36E360F82A5202F42F062ED2BAD
310
579969AFDD8A6F504B010214000A0000080000CC70623B3DEE336E79000000790000001B00000000000000000000000000000000006175746F6465736B2D64657369676E2D7061636B6167652E786D6C504B01021400140006080800CC70623BD486FD9CA0000000F40000001300000000000000000000000000B20000005B
310
436F6E74656E745F54797065735D2E786D6C504B01021400140006080800CC70623B853B8169EB0000007C010000080000000000000000000000000083010000636F72652E786D6C504B01021400140006080800CC70623B55019EA25F0000007C000000070000000000000000000000000094020000636E782E786D6C504B
310
01021400140006080800CC70623BDBABAAF470010000D40300000C00000000000000000000000000180300006662782F636F72652E786D6C504B01021400140006080800CC70623B9C113CC27E0000009D0000000B00000000000000000000000000B20400006662782F636E782E786D6C504B01021400140006080800CC70
310
623B7DF2F77C2A010000120200003100000000000000000000000000590500006662782F41393633353835312D344632462D344230382D423046372D3739314545314133324237412F636F72652E786D6C504B01021400140006080800CC70623BAD7543B64E010000330300003000000000000000000000000000D2060000
310
6662782F41393633353835312D344632462D344230382D423046372D3739314545314133324237412F636E782E786D6C504B01021400140006080800CC70623BE75B7789680500003C10000034000000000000000000000000006E0800006662782F41393633353835312D344632462D344230382D423046372D3739314545
310
314133324237412F6F626A656374732E786D6C504B01021400140006080000CC70623B0000000000000000000000003500000000000000000000000000280E00006662782F41393633353835312D344632462D344230382D423046372D3739314545314133324237412F76657274696365732E62696E504B01021400140006
310
080800CC70623BF270F133060000000400000036000000000000000000000000007B0E00006662782F41393633353835312D344632462D344230382D423046372D3739314545314133324237412F747269616E676C65732E62696E504B01021400140006080000CC70623B0000000000000000000000003700000000000000
310
000000000000D50E00006662782F41393633353835312D344632462D344230382D423046372D3739314545314133324237412F617474726962757465732E62696E504B01021400140006080800CC70623B08DA0BD1900000004101000036000000000000000000000000002A0F00006662782F41393633353835312D344632
310
462D344230382D423046372D3739314545314133324237412F6469726563746F72792E786D6C504B01021400140006080800CC70623BEDD1DC58FD000000A00100003B000000000000000000000000000E1000006662782F41393633353835312D344632462D344230382D423046372D3739314545314133324237412F7265
310
736F75726365732F636F72652E786D6C504B0506000000000E000E0080040000641100000000
  0
XRECORD
  5
2B5
102
{ACAD_REACTORS
330
3A
102
}
330
3A
100
AcDbXrecord
280
     1
102
MATERIAL
148
0.0
149
0.0
149
0.0
 93
        0
 94
       63
282
     0
 72
     1
 77
     1
171
     1
175
     1
179
     1
273
     0
  0
XRECORD
  5
3B
102
{ACAD_REACTORS
330
3A
102
}
330
3A
100
AcDbXrecord
280
     1
 70
     1
 90
429727718
  1
30362254-06B7-45E0-A893-8CFA70E3D6BC
310
504B03040A0000080000CC70623B3DEE336E79000000790000001B0000006175746F6465736B2D64657369676E2D7061636B6167652E786D6C3C3F786D6C2076657273696F6E3D22312E302220656E636F64696E673D227574662D3822203F3E3C666F726D6174733E3C666F726D61743E687474703A2F2F736368656D612E
310
6175746F6465736B2E636F6D2F64657369676E2D7061636B6167652F323030393C2F666F726D61743E3C2F666F726D6174733E504B0304140006080800CC70623BD486FD9CA0000000F4000000130000005B436F6E74656E745F54797065735D2E786D6C7D8EC10E82300C865F65E91D8A1E8C310C0EEA1BF002731658846E
310
D98AC1B77784ABF1D8FE5FBFBF75BBCE937A534CCEB38643598122B6FEE978D0B0485F9C41B54DDD7D022595594E1A469170414C76A4D9A4D207E29CF43ECE46F218070CC6BECC4078ACAA135ACF422C856C0E68EA1BF5669944DDD7BCDE7B1F8E415D77AECB980613C2E4AC91FC167A2B244592486606FC29C8FD7F045B9A
310
EF7053A7E60B504B0304140006080800CC70623B1EC5D7A3EB0000007C01000008000000636F72652E786D6C8D90416EC3201045AF82665B6103C6756C6122AB4D4ED00B204C5C94182C03558F5F9C3852BBEB6A467FFE9B197D71FC9E6FE8CBACC17AD7032D0820E3B41FAD9B7A48F1820F808E52ACDEC75F36404ECDA687
310
4D0629A6D5A76597B477D1B89855E747B38B2A041301E95B6E7A08FAD3CCAA50296647B8168BD2573599823EBB0CA76447F43862C7BCCF5EAC59410E4DDD9C7973C2755553CCCFA4C603E3040F1565ED3B1FDE4E432BCA0D9622DAF9795FAF464533826484B498524CD807E51D79ED187F21878E10516EF63F505AC67F42C9
310
BA58B1FDDD071640D2FCC87D2045B96591CB3DA85CB7DCE40F504B0304140006080800CC70623B55019EA25F0000007C00000007000000636E782E786D6C4DCB3B0E80201045D1AD90E915ED2CF8AC45050C11660C8261F98AB1B07AC9C97D42D718D865D3E909258CFD00CCE24AC6E326A164D74DC0B4128928FF32603847
310
2BA13128B1252AC747C6BAB984FC68F0B87FE8960A5C09FE86CFB69FBA01504B0304140006080800CC70623B8C9102E971010000D40300000C0000006662782F636F72652E786D6CC5535B6E833010BC8AE5DF0A6C08340F1947A84D4ED00B38C6A128602363A31CBFCB234A53A551FA553EC09AD9F5CE8C31DB9E9B1AF5CA
310
7695D1198E428A91D2D214952E33ECDD315861B4E5CC1AE3BE9561A445A3323CC098B3D21ADFCE9034DA29ED00D5A6503328BA4E398C640D8B0C77F253352214DE4145770A5B214FA2546114020D759C75CE8200340D19DE981F0F6746269C33EFAB6266AB02A655C74A59CCF365BADC27CB5D902ED22848F6340DF238A141
310
BE88E2F57B92BFEDF23523433367AE6A2EEAA455C2A902F398D2751045018D3FA264435F3771F242571B4A1919CA6F9A7C5B3CD9E42BED16F12C776AEB308F40C848FC700B1139D4891EF410CEC810227CC6846F8386402064270EF5C5C709A05E49676C024C61FC95EA45ED154CA5211D1FF4FB8291A913A68E9B83EBBB33
310
E2A7673CDE118E5AE8124C0807CB8377834E366998436B950D7A7746DAD846D4CFD978E0F04FD455FC5D49D2D4C6FE9722321F10997F0F32DC47FE05504B0304140006080800CC70623BFFEA85907E0000009D0000000B0000006662782F636E782E786D6C4DCCD10A83201886E15B91FFDC95D95A811AB6F23E625948A6C3
310
E9D8E5AF46073BFAE0E1E365ED67B3E8ADC3CB78C7815C7240DA3DFC64DCC221C519D7805AC182F7F1EF06C88D9BE6703008B6049F9E274D7A1E938DBB5AE3D6131B2589BA0D3D965551E0B2EA732C9B9A624AAEB41E3A557677029960D9AFB4EF11165F504B0304140006080800CC70623B4FEEA4082C0100001202000031
310
0000006662782F39464131463745442D413632322D343644302D413938332D3331353338454246344243312F636F72652E786D6C8D515B6EC32010BC0AE2AB55850DD871ED0813254D72825EC00192A2C460F1A872FC42ED48ED5F7E00CDCECCCEB26C731F6FE05B39AFADE921293004CA082BB5B9F43086336A21D870E6AC
310
0D7F68109861543DCC30E4ECE26C9C164858139409093556AA051CBC570102714B8F1E7AF1A5C6A11862480C7F2DA6415C878B2A4891CA89C7990F2E050073937C42DE1DB7E4F87ED8A36D4329AA9B3D46DBAEAD504556557BD81DEBDD0761E52CE42C462D17B996298E3E6BE59E35C962CE821E1FF18553435012728A7187
310
0841987E927A8D9B35ADDF70BBC6989599FE4F1427F9A4286A132ABAC49D651EF234CD5CE04CDA78BA3DC2A8FB645D00B9DF8B57E215725C60BCA2A463E54C4CE327C7A65E1C7DB02E7DEFCBF594B864C5CA6CDBD49C957943E9FA5D5FBAF336F90F504B0304140006080800CC70623BAD7543B64E01000033030000300000
310
006662782F39464131463745442D413632322D343644302D413938332D3331353338454246344243312F636E782E786D6CD593CD6EC32010845F0571AD6CE3D48AD20813A9873E410FBD12D82434182C7EAAE6EDBB2424CD25871E7B41D6EC30B3FA84F9E67BB2E40B4234DE8DB46F1925E094D7C6ED479AD3AE5951B2113C
310
789FEE6C943839C1488B4C05DF079FE72A69D8C96C13AAD6B8631503449F83828872B949AC57D26200B826A308D316B4064D6E46FCDA41C05550DC9E483A00797BFD207EFB092A45DE9514C1BBD22178396BD39D891265658C238DEA00936C654E5E433CB65A26D9F6EDB5EBC14EBF49A45CB856E66048291F6939A9A81BB5
310
C8917738143CA680F4AA299D66A042CEB3354A2684DC9D8D178FE0D9B8B41CAAD720F880EE7EF93C0C18769E099ECC04D5A102C8049A8A05632F4DDF376CF1DE0F6BB65C2F8627B65A33C6BB62177CEBBDAD973006829F89F22E814B54F4BC2BE347F8AA8F681390B50FA73F804400B5F542E796F19FF974E7F78DB802FE05
310
E207504B0304140006080800CC70623B16AB87BA640500003C100000340000006662782F39464131463745442D413632322D343644302D413938332D3331353338454246344243312F6F626A656374732E786D6CAD575B6FA33818FD2B887DE6924B3BED8A326A92B68A663B534DD4D13E548A0C38942D60649B369D5FBFC7
310
600890A493BDE42160637FD7F31D7FF63E6FB3D478A55C242CBF3247B66B1A340F5994E4F19559CA8D75611A9F7D8F33263BCB4C232719BD32D5B4E97B316765A1A722BA21652A07B3B7B33F0D11D29C9A46981221AE4C113ED38CD8A4942CA2E2C58E882476BCD9DA23BB5ED8171B73523C0F841684D35CC252CCE79062D4
310
468DFA43D7747CCF51DF7D4FFDEB5593E3AB9CCA9FBEFE241792E4E19EB28198C968BAB8199F5D5A67D3E9C49A9E8F47D6EC76B6B0469F26EEFC7C3EBFBCBEB98462213924694B38DD98FE1D62C393D073EA4FADC5DAF04326852CCF6958F90F0F2B9BB5C48816348F90C7840A68EB78EDF68723159BCEE7891A6B95DDE9D3
310
BCEAEEE8086A6C6F9E5D4B59F0175C10A7A0820BAA5055C7473B5AE3CFDD452D602CD5DF12616444529E90D448938013FE6EFA58AA96F85E4F8C42275708571E98FE6827AF6B2B4AE3D7D83D64E5A64C53054DD3AF90BD06FEA9149565C94FCA0F6B834DC85599E4F2423B24DF0B6AFA979E534DFA9E7A4CC6FA631D486393
310
921829879BF5D781A373557BCB85E97FB90DB62B558F8795179C15944B051F40AB495CF35451D26A4727654E6D8033BD98EF82F21D91FF8AF2DD9982BCF1643BDD4EB516C9492E368C67C88DED563FC36D5EACF66DFF057C3658BDBFA69DF9578B3DA735B64F18C7F20770A9D45CFCF7FCF563D6456A277DBEF78A02637CA2
310
43B90A490AEAB94F72244481D24819A6C0E59B606BFA4B3025981DBB48EAB701D97BF19C577CC77F2D1B6C55A9EF3C732474C0B727303F625995056C3B02963D9EAC146BE78EC5FCEC7FA999EBC5EACBAAE41B12D27B4D2C0BBA49F244E2ECDC81B76B502F113D8F5EE8FB1BE3111CDD4FC2AA9B844CAB1288B68AB90A7CDC
310
1C166AB0D3DC5310625FCC14E779BFD0709F8890A629C9292B1B2DED31A4B0DA928CEE135085754027E3018A397D4D5427D15BD1330B677DC8934285AC3DF45A9EB68FF8F2B8FC0A509AFEECFD0FF2DE25CC6047F7214B195F07EFEB9A094D800F7BFAE8FED187B78EA8A3A400F115961BCAD1215E47C966530AF0EE8128FE
310
58CEBB996A8964FFA529A046635D9353B0336A8F700DDF46271A024E70B0B37C9DE01847591E54DED53D54202AB947E4076556AC49C6CA5C9E1226B7F1A7B1BE15DEED62C41B91E1B3E9AFAAA735036547343A925075041DF0A9979E893B391F8FCFA6967B3EFB644DCF6E5CEBFAE272625DCC6FAF3FB93793C5F90CE1EF57
310
407342756B10D1C489E8953CD1617E5CEECAD6F4EF8914CE5D5D504E5C3F1F9736DA62CFC11E00BCDDB8CC8A9466349744C1F75EBDA4DF09BA8A9E8C7A7E9991989E20E5DBDD6A6003664ED8F7A04A8DBE0DF6EAD9B9AA858342E47399053949D2C146EDB85DE4B176BB0965FBAC19BD19AA918E27FA50C1D22402E144464C
310
59462568E704B6E71915404CB72B8FF4EDE184DDAF753F284990D2C6926782963815403548A70C657FDEF80D2D9CEAA2AE4C1C76F60BFE74219A06527D6582DF6412526107381E55E353090704D085B52408D0933C4ED159D79BDA71BB4BC506F4831350EB6F979CD22D69BF7AC49B91A2C0A9DDA3D5CA36AD20FC478E37E6
310
1844E2352865EBCB6EA275A652E3836BE04EFB400BF1A2556F515F1FBB35B2AB35BD889C744FFA1004B5544B121E57F70215746DD2F5E2C1412B602CBF19455AC6C8E5E9922C4E01E65215385004546899059180EAFCF7A707CE7017CD8CDB0410789AB32C63B91E5CEBBBACB17AC6CD347A022D5075FD106377347AAABA7E
310
7D11590744509B44E205134DC1290F06580320F78E537D3D73540E06CB970B431F185308AD40BBD794D6D77003C5A36E8EAA54BA64597CD8F83BD552A080A365F7FF06504B0304140006080000CC70623B000000000000000000000000350000006662782F39464131463745442D413632322D343644302D413938332D3331
310
353338454246344243312F76657274696365732E62696E504B0304140006080800CC70623BF270F1330600000004000000360000006662782F39464131463745442D413632322D343644302D413938332D3331353338454246344243312F747269616E676C65732E62696E636660600000504B0304140006080000CC70623B
310
000000000000000000000000370000006662782F39464131463745442D413632322D343644302D413938332D3331353338454246344243312F617474726962757465732E62696E504B0304140006080800CC70623B08DA0BD19000000041010000360000006662782F39464131463745442D413632322D343644302D413938
310
332D3331353338454246344243312F6469726563746F72792E786D6C858F410AC3201045AF22B36F53E9A60B35CBEEBAE80D244E44489C6234F4F835464A48035D0DF398FF9F8AF63D0E6CC63039F212F8F9020C7D47C6792B21C5FE7403D62A1188E2E60C98D7234A5830286103A55745067B9D86B8A3CF9C7F90C11DE607
310
FB144396D7B6A82D282E9A152AD114D5EF2CB866EEE831B8EEA07A7BB5A8D7D61A2BAAEB7FD5F70921FF497D00504B0304140006080800CC70623B0D6EF93BFE000000A00100003B0000006662782F39464131463745442D413632322D343644302D413938332D3331353338454246344243312F7265736F75726365732F63
310
6F72652E786D6C8D50596E833010BD0A9ADFCA60B334011947A8694ED00B586642AC041B79A97AFC9A40A5F6AF3F33A3B7689E1E3F7DCD8FEC139DD7D6F4C0720A191A65476DA61E62B892236427C19DB5E1970C322367EC618541F0C9D9B8EC90B226A009093576C41D94DE63804C3DD2D18357379C652E63480A7FCF17A9
310
EE72C29CE5894E3AC17D702940B63D59270887DE46A7D0F36263058F518FBB468FE9A7BE6A7420864373B8D4873369AA8691FA421B3294352543C5CAF65C0F6FEF43CB8BD52C78D0F34F46E550061C419494B6843142CB0F5677F4B52BEB177AEC28E5C52AFF638ACBF84F53D42654E51E77B379102C05791282176B5F693D
310
CB4C7BED567C03504B010214000A0000080000CC70623B3DEE336E79000000790000001B00000000000000000000000000000000006175746F6465736B2D64657369676E2D7061636B6167652E786D6C504B01021400140006080800CC70623BD486FD9CA0000000F40000001300000000000000000000000000B20000005B
310
436F6E74656E745F54797065735D2E786D6C504B01021400140006080800CC70623B1EC5D7A3EB0000007C010000080000000000000000000000000083010000636F72652E786D6C504B01021400140006080800CC70623B55019EA25F0000007C000000070000000000000000000000000094020000636E782E786D6C504B
310
01021400140006080800CC70623B8C9102E971010000D40300000C00000000000000000000000000180300006662782F636F72652E786D6C504B01021400140006080800CC70623BFFEA85907E0000009D0000000B00000000000000000000000000B30400006662782F636E782E786D6C504B01021400140006080800CC70
310
623B4FEEA4082C0100001202000031000000000000000000000000005A0500006662782F39464131463745442D413632322D343644302D413938332D3331353338454246344243312F636F72652E786D6C504B01021400140006080800CC70623BAD7543B64E010000330300003000000000000000000000000000D5060000
310
6662782F39464131463745442D413632322D343644302D413938332D3331353338454246344243312F636E782E786D6C504B01021400140006080800CC70623B16AB87BA640500003C1000003400000000000000000000000000710800006662782F39464131463745442D413632322D343644302D413938332D3331353338
310
454246344243312F6F626A656374732E786D6C504B01021400140006080000CC70623B0000000000000000000000003500000000000000000000000000270E00006662782F39464131463745442D413632322D343644302D413938332D3331353338454246344243312F76657274696365732E62696E504B01021400140006
310
080800CC70623BF270F133060000000400000036000000000000000000000000007A0E00006662782F39464131463745442D413632322D343644302D413938332D3331353338454246344243312F747269616E676C65732E62696E504B01021400140006080000CC70623B0000000000000000000000003700000000000000
310
000000000000D40E00006662782F39464131463745442D413632322D343644302D413938332D3331353338454246344243312F617474726962757465732E62696E504B01021400140006080800CC70623B08DA0BD190000000410100003600000000000000000000000000290F00006662782F39464131463745442D413632
310
322D343644302D413938332D3331353338454246344243312F6469726563746F72792E786D6C504B01021400140006080800CC70623B0D6EF93BFE000000A00100003B000000000000000000000000000D1000006662782F39464131463745442D413632322D343644302D413938332D3331353338454246344243312F7265
310
736F75726365732F636F72652E786D6C504B0506000000000E000E0080040000641100000000
  0
XRECORD
  5
2B2
102
{ACAD_REACTORS
330
D
102
}
330
D
100
AcDbXrecord
280
     1
102
MATERIAL
148
0.0
149
0.0
149
0.0
 93
        0
 94
       63
282
     0
 72
     1
 77
     1
171
     1
175
     1
179
     1
273
     0
  0
XRECORD
  5
E
102
{ACAD_REACTORS
330
D
102
}
330
D
100
AcDbXrecord
280
     1
270
     1
271
     1
  0
XRECORD
  5
F
102
{ACAD_REACTORS
330
D
102
}
330
D
100
AcDbXrecord
280
     1
270
     1
271
     1
  0
XRECORD
  5
10
102
{ACAD_REACTORS
330
D
102
}
330
D
100
AcDbXrecord
280
     1
 70
     0
 90
1673772943
  1
ECE7A1D2-D628-4531-984C-D00F80459256
310
504B03040A0000080000CC70623B3DEE336E79000000790000001B0000006175746F6465736B2D64657369676E2D7061636B6167652E786D6C3C3F786D6C2076657273696F6E3D22312E302220656E636F64696E673D227574662D3822203F3E3C666F726D6174733E3C666F726D61743E687474703A2F2F736368656D612E
310
6175746F6465736B2E636F6D2F64657369676E2D7061636B6167652F323030393C2F666F726D61743E3C2F666F726D6174733E504B0304140006080800CC70623BD486FD9CA0000000F4000000130000005B436F6E74656E745F54797065735D2E786D6C7D8EC10E82300C865F65E91D8A1E8C310C0EEA1BF002731658846E
310
D98AC1B77784ABF1D8FE5FBFBF75BBCE937A534CCEB38643598122B6FEE978D0B0485F9C41B54DDD7D022595594E1A469170414C76A4D9A4D207E29CF43ECE46F218070CC6BECC4078ACAA135ACF422C856C0E68EA1BF5669944DDD7BCDE7B1F8E415D77AECB980613C2E4AC91FC167A2B244592486606FC29C8FD7F045B9A
310
EF7053A7E60B504B0304140006080800CC70623BD9DDAED0EC0000007C01000008000000636F72652E786D6C8D90416EC3201045AF82665B61836D9CD8C2444DD39CA01740405C94182C03558F5F9C3852BBEB6A467FFE9B197D7EF89E6EE8CB2CC17A37002D0820E394D7D68D03A478C17B4007C117EFE32F1B20272733C0
310
2A83E0E3E2D3BC49CABB685CCCAAF3DA6CA20CC14440EA969B0182FA34932C648AD911AEC52CD5558EA6A0CF2EC329598D1E47ACCEFBECC59A050463A7EA5833865FEBDD0E37353BE3EE8DBDE3F6786A48D375FBF6CC78B9C282473B3DEFABC5C86834888A900E538A49F5419B9EB47DD5BC907D4F082F57FB1F28CDFA9F50
310
B22ED6D5F6EE030B20687EE43E10BC5CB3C8E51E54AE6B6EE207504B0304140006080800CC70623B55019EA25F0000007C00000007000000636E782E786D6C4DCB3B0E80201045D1AD90E915ED2CF8AC45050C11660C8261F98AB1B07AC9C97D42D718D865D3E909258CFD00CCE24AC6E326A164D74DC0B4128928FF326038
310
472BA13128B1252AC747C6BAB984FC68F0B87FE8960A5C09FE86CFB69FBA01504B0304140006080800CC70623BA24EB22D72010000D40300000C0000006662782F636F72652E786D6CC5535B6E833010BC8AE5DF0A6C5E49888CA3A6694ED00B38E05014B091B1518EDFE511A5A9D228FD2A1F60CDEC7A67C6986DCE4D8D7A
310
69BA4AAB0C073EC548AA5C17952A33ECECD15B61B4E1CC686DBF9561A44423333CC098B3D268D7CE50AE9595CA02AA74216750749DB418E5352C32DCE59FB211BE70162ABA93DF8AFC244AE9073ED050C759670D0840D390E18DF9F1706664C23973AE2A66B62A605A75ACA4C13C4976E1364A12EF355A2EBD384AF65EFA96
310
BC7B8BED2EA6719AAE16FB8491A199335B351775B991C2CA02F390D2D40B028F861F41BCA68B7518BFD0D59A524686F29B26D7164F36B94AD9289CE54E6D1DE6010819891F6E21228B3AD1831EC219194284CF98F06DD01008846CC5A1BEF83801D4CBDC6A1303536877A57A513B0953A94FC707FDBE6064EA84A9E3E6E0FA
310
EE8CF0E9198F7784A316AA0413C2C2F2E0ECA0934D1AE6D05A69BCDE9E91D2A611F573361E38FC1375157F5752AE6B6DFE4B11990F88CCBF0719EE23FF02504B0304140006080800CC70623B408A7D3B7C0000009D0000000B0000006662782F636E782E786D6C4DCCD10A83201886E15B91FFDC552A92A0064DBC8F581632
310
D3703A76F9ABD1C18E3E78F878E5F0D9027ABBFCF2292AE86E2D20171F69F6715550CB827B40839639A5F2770314A7CD293819B45C73AAFB45B35BA61ACAA1C1C7E7855C58C15BC331339661262CC762340413D68D77DA5B42298546CBE6573AF60CEB2F504B0304140006080800CC70623B449FB9BD290100001202000031
310
0000006662782F36394639363044362D344446342D343946362D394244322D3234314243333846323333332F636F72652E786D6C8D515B6EC32010BC0AE22B55850D98B871848994463E412FE002495162B07854397EA176A4F62F3F2C9A9D991D587EB84F37F0AD7D30CEF6905418026DA553C65E7A98E219ED203808EE9D
310
8B7F6810D871D23D2C3014FCE25D9A57483A1BB58D19B54EE9151C43D0110279CB971E06F9A5A7B11A53CC8C70ADE6515EC78BAE4895DB992778883E0700CB907242D17643D7E2538BD869608875438BBAE38922CAC8F1BDD90DB4691A5E2F42C153326A951B95E398B3D1FE599322163C9AE9115F7A3D46ADA0A018778810
310
84E907617BDCEE297BC5BB3DC6BC2EF47FA234AB2745C9D8D8D035EE220B50105E2F0DC1954B9FB747187D9F9D8FA0CCDB042D5FA0C015C65B42DF78BD10F3F3B363CB56C7109DCFDFBBB97E662ED92EB62D13BC2E1BCAE5777DB9966D8A1F504B0304140006080800CC70623BAD7543B64E01000033030000300000006662
310
782F36394639363044362D344446342D343946362D394244322D3234314243333846323333332F636E782E786D6CD593CD6EC32010845F0571AD6CE3D48AD20813A9873E410FBD12D82434182C7EAAE6EDBB2424CD25871E7B41D6EC30B3FA84F9E67BB2E40B4234DE8DB46F1925E094D7C6ED479AD3AE5951B2113C789FEE
310
6C943839C1488B4C05DF079FE72A69D8C96C13AAD6B8631503449F83828872B949AC57D26200B826A308D316B4064D6E46FCDA41C05550DC9E483A00797BFD207EFB092A45DE9514C1BBD22178396BD39D891265658C238DEA00936C654E5E433CB65A26D9F6EDB5EBC14EBF49A45CB856E66048291F6939A9A81BB5C89177
310
38143CA680F4AA299D66A042CEB3354A2684DC9D8D178FE0D9B8B41CAAD720F880EE7EF93C0C18769E099ECC04D5A102C8049A8A05632F4DDF376CF1DE0F6BB65C2F8627B65A33C6BB62177CEBBDAD973006829F89F22E814B54F4BC2BE347F8AA8F681390B50FA73F804400B5F542E796F19FF974E7F78DB802FE05E20750
310
4B0304140006080800CC70623B8D05915C650500003B100000340000006662782F36394639363044362D344446342D343946362D394244322D3234314243333846323333332F6F626A656374732E786D6CAD575B6FA33814FE2B887D06429276DA1565D4266D158D3A339A6846FB502932E050B66023DB74D2FDF5FB190C01
310
9276B2973C046C8ECFF53B17071F77456EBD502133CEAE6CDF9DD81665314F32965ED995DA3A17B6F5310C04E7AA47665B8C14F4CAD6DB7618A48257A5D94AE89654B91AEDDEDDFC61C998326A5B714EA4BCB265FC440BE2924AF184CA6737218AB8E976E7FA6E4338649B0A523E8D98964450A6A029F619B8588D52FE7039
310
B1BD30F0F4F730D0FF866AF6369557DB33949F31A9088B0F848DD8CCFCF9F2767A76E99CCDE733677E3EF59D9BBB9BA5E37F984D16E78BC5E5F5ED25044B25C0C96822E8D60EEFE11B91C581D77CEA34368A1F5329E68CD1B8B61F16D63A1B8E092D294B10C78C4A48EB593D192E7DED9BDEE7995E1B91FDEDD3ACEA9FE831
310
6A756F9F7D4D79F4274C90A7A04248AA51D5F8C718DAE06FB2F75AC4796EBE65D22A88A22223B995679120E2D50E41AA49C260C046A35368846B0BECD0DFF3EBEB8AD4F835768F69B9ADF25C43D30E6B646F807FAA64AD59F61715C7A54127C4AACA98BA3006A9D792DAE165E0D59B61A01FB3A9F9D838D2DAE62445C86166
310
F37564E842E7DE6A69879FEEA2DD5AE7E371E1A5E025154AC307D06A03D73EB5978C58FFA4C8E9033066E0F3BD53BEC1F39F91BE7B55103791EDE6BBB991A2046172CB4581D8B893FA674DDA17A77B3B7C413D1B511FD2743BFF8A38F03A658705E3ADF8015C3A3417FF3D7E439FF591DA0B5F18BC20C1B8981957AE6392A3
310
F43C640C01D1A0B4728E2DD4F26DB4B3C3152A252A3B4E913CEC1C72F012782FF88EFF8637AA552DBEF76408E8A8DE9E50F9E1CB3A2DA0DB1B6039A893B56063DC5B3E3FFB5F72E67AB9FEB4AEC496C4F4C1149625DD662C53E89D7BF0F6151A046260D1337DFDC94502430F83B0EE07A130A224BCAD7DAE1D9FB6CD422FF6
310
920702629C4BB9AE79C12F243C6432A6794E18E5552BA56B431AAB5D91317302B2B071E86C3A42B1A02F999E24061403B5D0EB639195DA655DD3EBEAB4FB862DDF579F014AD0E73C22F99E28DA57FB98E75C6CA2D74D53086D600F4786E0FE3144B771A8A7B900F03594DB8A633CBC49B2EDB69228BB479CF863B5E807AAAB
310
23872F6DFEB4129B949CA33823F58830E86D65621E10047D9DB34D862E8EAC3C2ABC2F7B2C40D67CDFE01F5545B92105AF983AC54D93D69E56FB8E797F88913F898A9FEC705D3F9D1B54EC8426FB500D40A03BD0119B06E1B95DDC7EB8F6975367793EBD70E66733DFB9BC982F9CE564727731999F5D4ECFCE3B8D6A4DC2A0
310
6D50FD148437D110834A64C6CDDF57FBACB5C307A2A477DFE4939736CFEF2B175371E0E10CF0DD1D5C15654E0BCA14D1E87DD02FF93782A162C0A3D95F1524A52770F972BF1EE9809D13CE7DD599467F8ECE9ADD85CE85A34CD45355448C64F9E8A031DC2D596ACC6E5DD93D9B82DE2EF5CAF81363A8E47996A0DE24564A79
310
4115AACE09C55E14540231FDA13C319787134EBF34E3A022514E5B4D9E0826E25C02D5805B15ABE1BEF51B26383D445DD9E875EE33FE4C22DA16427D65A3BCA92CA6D28DD01DF5DC53330704308475351050232CCD31583787BA75774AFB06E5070DD0C8EF484E19968C5D83BA5B90B244D31E54D55A372320FE4786B7EA58
310
44E135AA5467CB7EA333A61683CC6A8C3257034C10CF46F40EF9F5BE59BE5BD30C3C72D235E95D10345C1D45445A5F0BB47E46A5EBE5570F9380B5FA629579952296A773720405982B9DE04011506178964401AA8BDF1FBF0A8EAB6861DD6580C0E38217056766716DAEB2D6FA0917D3E4116581EADB879C4E7CFFB11EFACD
310
3D641311495D92C8676CB409A72D18610D803CE8A626049E8EC1887CB5B44CC39883690DDA8399B4B9855B481E7D71D4A9D22F96E5BB73BF5793020C02137BF837504B0304140006080000CC70623B000000000000000000000000350000006662782F36394639363044362D344446342D343946362D394244322D32343142
310
43333846323333332F76657274696365732E62696E504B0304140006080800CC70623BF270F1330600000004000000360000006662782F36394639363044362D344446342D343946362D394244322D3234314243333846323333332F747269616E676C65732E62696E636660600000504B0304140006080000CC70623B0000
310
00000000000000000000370000006662782F36394639363044362D344446342D343946362D394244322D3234314243333846323333332F617474726962757465732E62696E504B0304140006080800CC70623B08DA0BD19000000041010000360000006662782F36394639363044362D344446342D343946362D394244322D
310
3234314243333846323333332F6469726563746F72792E786D6C858F410AC3201045AF22B36F53E9A60B35CBEEBAE80D244E44489C6234F4F835464A48035D0DF398FF9F8AF63D0E6CC63039F212F8F9020C7D47C6792B21C5FE7403D62A1188E2E60C98D7234A5830286103A55745067B9D86B8A3CF9C7F90C11DE607FB14
310
4396D7B6A82D282E9A152AD114D5EF2CB866EEE831B8EEA07A7BB5A8D7D61A2BAAEB7FD5F70921FF497D00504B0304140006080800CC70623BCA768048FE000000A00100003B0000006662782F36394639363044362D344446342D343946362D394244322D3234314243333846323333332F7265736F75726365732F636F72
310
652E786D6C8D50596E833010BD0A9ADFCA60D600328E9AA639412F609909B1126CE4A5EAF16B0295DABFFECC8CDEA2797AECF8353F924FB44E193D409E5248504B332A3D0D10FC95B4901C39B3C6F85F3248B49871801506CE266BC2B243D2688FDA47549B11775038871E12F988C7004EDE7016A9083E2ADC3D5D84BC8B09
310
D33C8D74D471E6BC8D0192EDC93A815B742658898E651BCB59086ADC356A8C3FD555A1055ED7E7E254D615792D0F075295F585746FF53B694EE78A565DD736979A65AB9933AFE69F8CD2A2F038022F28ED489E135A7CE4554F9BBEA85E68DB53CAB255FEC71496F19FA6A0B42F8B3DEE6673C0F318E4497096AD7DC5F52C33
310
EEB55BFE0D504B010214000A0000080000CC70623B3DEE336E79000000790000001B00000000000000000000000000000000006175746F6465736B2D64657369676E2D7061636B6167652E786D6C504B01021400140006080800CC70623BD486FD9CA0000000F40000001300000000000000000000000000B20000005B436F
310
6E74656E745F54797065735D2E786D6C504B01021400140006080800CC70623BD9DDAED0EC0000007C010000080000000000000000000000000083010000636F72652E786D6C504B01021400140006080800CC70623B55019EA25F0000007C000000070000000000000000000000000095020000636E782E786D6C504B0102
310
1400140006080800CC70623BA24EB22D72010000D40300000C00000000000000000000000000190300006662782F636F72652E786D6C504B01021400140006080800CC70623B408A7D3B7C0000009D0000000B00000000000000000000000000B50400006662782F636E782E786D6C504B01021400140006080800CC70623B
310
449FB9BD290100001202000031000000000000000000000000005A0500006662782F36394639363044362D344446342D343946362D394244322D3234314243333846323333332F636F72652E786D6C504B01021400140006080800CC70623BAD7543B64E010000330300003000000000000000000000000000D20600006662
310
782F36394639363044362D344446342D343946362D394244322D3234314243333846323333332F636E782E786D6C504B01021400140006080800CC70623B8D05915C650500003B10000034000000000000000000000000006E0800006662782F36394639363044362D344446342D343946362D394244322D32343142433338
310
46323333332F6F626A656374732E786D6C504B01021400140006080000CC70623B0000000000000000000000003500000000000000000000000000250E00006662782F36394639363044362D344446342D343946362D394244322D3234314243333846323333332F76657274696365732E62696E504B010214001400060808
310
00CC70623BF270F13306000000040000003600000000000000000000000000780E00006662782F36394639363044362D344446342D343946362D394244322D3234314243333846323333332F747269616E676C65732E62696E504B01021400140006080000CC70623B00000000000000000000000037000000000000000000
310
00000000D20E00006662782F36394639363044362D344446342D343946362D394244322D3234314243333846323333332F617474726962757465732E62696E504B01021400140006080800CC70623B08DA0BD190000000410100003600000000000000000000000000270F00006662782F36394639363044362D344446342D
310
343946362D394244322D3234314243333846323333332F6469726563746F72792E786D6C504B01021400140006080800CC70623BCA768048FE000000A00100003B000000000000000000000000000B1000006662782F36394639363044362D344446342D343946362D394244322D3234314243333846323333332F7265736F
310
75726365732F636F72652E786D6C504B0506000000000E000E0080040000621100000000
  0
XRECORD
  5
11
102
{ACAD_REACTORS
330
D
102
}
330
D
100
AcDbXrecord
280
     1
270
     1
271
     1
  0
XRECORD
  5
12
102
{ACAD_REACTORS
330
D
102
}
330
D
100
AcDbXrecord
280
     1
270
     1
271
     1
  0
CELLSTYLEMAP
  5
2A8
102
{ACAD_REACTORS
330
45
102
}
330
45
100
AcDbCellStyleMap
 90
        3
300
CELLSTYLE
  1
TABLEFORMAT_BEGIN
 90
        5
170
     1
 91
        0
 92
    32768
 62
   257
 93
        1
300
CONTENTFORMAT
  1
CONTENTFORMAT_BEGIN
 90
        0
 91
        0
 92
      512
 93
        0
300

 40
0.0
140
1.0
 94
        5
 62
     0
340
22
144
6.0
309
CONTENTFORMAT_END
171
     1
301
MARGIN
  1
CELLMARGIN_BEGIN
 40
1.5
 40
1.5
 40
1.5
 40
1.5
 40
4.5
 40
4.5
309
CELLMARGIN_END
 94
        6
 95
        1
302
GRIDFORMAT
  1
GRIDFORMAT_BEGIN
 90
        0
 91
        1
 62
     0
 92
       -2
340
25
 93
        0
 40
1.125
309
GRIDFORMAT_END
 95
        2
302
GRIDFORMAT
  1
GRIDFORMAT_BEGIN
 90
        0
 91
        1
 62
     0
 92
       -2
340
25
 93
        0
 40
1.125
309
GRIDFORMAT_END
 95
        4
302
GRIDFORMAT
  1
GRIDFORMAT_BEGIN
 90
        0
 91
        1
 62
     0
 92
       -2
340
25
 93
        0
 40
1.125
309
GRIDFORMAT_END
 95
        8
302
GRIDFORMAT
  1
GRIDFORMAT_BEGIN
 90
        0
 91
        1
 62
     0
 92
       -2
340
25
 93
        0
 40
1.125
309
GRIDFORMAT_END
 95
       16
302
GRIDFORMAT
  1
GRIDFORMAT_BEGIN
 90
        0
 91
        1
 62
     0
 92
       -2
340
25
 93
        0
 40
1.125
309
GRIDFORMAT_END
 95
       32
302
GRIDFORMAT
  1
GRIDFORMAT_BEGIN
 90
        0
 91
        1
 62
     0
 92
       -2
340
25
 93
        0
 40
1.125
309
GRIDFORMAT_END
309
TABLEFORMAT_END
  1
CELLSTYLE_BEGIN
 90
        1
 91
        1
300
_TITLE
309
CELLSTYLE_END
300
CELLSTYLE
  1
TABLEFORMAT_BEGIN
 90
        5
170
     1
 91
        0
 92
        0
 62
   257
 93
        1
300
CONTENTFORMAT
  1
CONTENTFORMAT_BEGIN
 90
        0
 91
        0
 92
      512
 93
        0
300

 40
0.0
140
1.0
 94
        5
 62
     0
340
22
144
4.5
309
CONTENTFORMAT_END
171
     1
301
MARGIN
  1
CELLMARGIN_BEGIN
 40
1.5
 40
1.5
 40
1.5
 40
1.5
 40
4.5
 40
4.5
309
CELLMARGIN_END
 94
        6
 95
        1
302
GRIDFORMAT
  1
GRIDFORMAT_BEGIN
 90
        0
 91
        1
 62
     0
 92
       -2
340
25
 93
        0
 40
1.125
309
GRIDFORMAT_END
 95
        2
302
GRIDFORMAT
  1
GRIDFORMAT_BEGIN
 90
        0
 91
        1
 62
     0
 92
       -2
340
25
 93
        0
 40
1.125
309
GRIDFORMAT_END
 95
        4
302
GRIDFORMAT
  1
GRIDFORMAT_BEGIN
 90
        0
 91
        1
 62
     0
 92
       -2
340
25
 93
        0
 40
1.125
309
GRIDFORMAT_END
 95
        8
302
GRIDFORMAT
  1
GRIDFORMAT_BEGIN
 90
        0
 91
        1
 62
     0
 92
       -2
340
25
 93
        0
 40
1.125
309
GRIDFORMAT_END
 95
       16
302
GRIDFORMAT
  1
GRIDFORMAT_BEGIN
 90
        0
 91
        1
 62
     0
 92
       -2
340
25
 93
        0
 40
1.125
309
GRIDFORMAT_END
 95
       32
302
GRIDFORMAT
  1
GRIDFORMAT_BEGIN
 90
        0
 91
        1
 62
     0
 92
       -2
340
25
 93
        0
 40
1.125
309
GRIDFORMAT_END
309
TABLEFORMAT_END
  1
CELLSTYLE_BEGIN
 90
        2
 91
        1
300
_HEADER
309
CELLSTYLE_END
300
CELLSTYLE
  1
TABLEFORMAT_BEGIN
 90
        5
170
     1
 91
        0
 92
        0
 62
   257
 93
        1
300
CONTENTFORMAT
  1
CONTENTFORMAT_BEGIN
 90
        0
 91
        0
 92
      512
 93
        0
300

 40
0.0
140
1.0
 94
        2
 62
     0
340
22
144
4.5
309
CONTENTFORMAT_END
171
     1
301
MARGIN
  1
CELLMARGIN_BEGIN
 40
1.5
 40
1.5
 40
1.5
 40
1.5
 40
4.5
 40
4.5
309
CELLMARGIN_END
 94
        6
 95
        1
302
GRIDFORMAT
  1
GRIDFORMAT_BEGIN
 90
        0
 91
        1
 62
     0
 92
       -2
340
25
 93
        0
 40
1.125
309
GRIDFORMAT_END
 95
        2
302
GRIDFORMAT
  1
GRIDFORMAT_BEGIN
 90
        0
 91
        1
 62
     0
 92
       -2
340
25
 93
        0
 40
1.125
309
GRIDFORMAT_END
 95
        4
302
GRIDFORMAT
  1
GRIDFORMAT_BEGIN
 90
        0
 91
        1
 62
     0
 92
       -2
340
25
 93
        0
 40
1.125
309
GRIDFORMAT_END
 95
        8
302
GRIDFORMAT
  1
GRIDFORMAT_BEGIN
 90
        0
 91
        1
 62
     0
 92
       -2
340
25
 93
        0
 40
1.125
309
GRIDFORMAT_END
 95
       16
302
GRIDFORMAT
  1
GRIDFORMAT_BEGIN
 90
        0
 91
        1
 62
     0
 92
       -2
340
25
 93
        0
 40
1.125
309
GRIDFORMAT_END
 95
       32
302
GRIDFORMAT
  1
GRIDFORMAT_BEGIN
 90
        0
 91
        1
 62
     0
 92
       -2
340
25
 93
        0
 40
1.125
309
GRIDFORMAT_END
309
TABLEFORMAT_END
  1
CELLSTYLE_BEGIN
 90
        3
 91
        2
300
_DATA
309
CELLSTYLE_END
  0
XRECORD
  5
2B7
102
{ACAD_REACTORS
330
45
102
}
330
45
100
AcDbXrecord
280
     1
102
ACAD_ROUNDTRIP_PRE2007_TABLESTYLE
 90
      512
 91
        0
  1

 92
      512
 93
        0
  2

 94
      512
 95
        0
  3

  0
XRECORD
  5
2B4
102
{ACAD_REACTORS
330
2B3
102
}
330
2B3
100
AcDbXrecord
280
     1
102
RTVSPost2010Prop28
280
     1
102
RTVSPost2010PropOp28
 70
     1
102
RTVSPost2010Prop29
280
     1
102
RTVSPost2010PropOp29
 70
     1
102
RTVSPost2010Prop30
280
     0
102
RTVSPost2010PropOp30
 70
     1
102
RTVSPost2010Prop31
280
     0
102
RTVSPost2010PropOp31
 70
     1
102
RTVSPost2010Prop32
280
     0
102
RTVSPost2010PropOp32
 70
     1
102
RTVSPost2010Prop33
280
     0
102
RTVSPost2010PropOp33
 70
     1
102
RTVSPost2010Prop34
280
     0
102
RTVSPost2010PropOp34
 70
     1
102
RTVSPost2010Prop35
280
     0
102
RTVSPost2010PropOp35
 70
     1
102
RTVSPost2010Prop36
280
     0
102
RTVSPost2010PropOp36
 70
     1
102
RTVSPost2010Prop37
 90
       50
102
RTVSPost2010PropOp37
 70
     1
102
RTVSPost2010Prop38
140
0.0
102
RTVSPost2010PropOp38
 70
     1
102
RTVSPost2010Prop39
140
1.0
102
RTVSPost2010PropOp39
 70
     1
102
RTVSPost2010Prop40
 90
        0
102
RTVSPost2010PropOp40
 70
     1
102
RTVSPost2010Prop41ColorIndex
 90
       18
102
RTVSPost2010Prop41ColorRGB
 90
        0
102
RTVSPost2010PropOp41
 70
     1
102
RTVSPost2010Prop42
 90
       50
102
RTVSPost2010PropOp42
 70
     1
102
RTVSPost2010Prop43
 90
        3
102
RTVSPost2010PropOp43
 70
     1
102
RTVSPost2010Prop44ColorIndex
 90
        5
102
RTVSPost2010Prop44ColorRGB
 90
      255
102
RTVSPost2010PropOp44
 70
     1
102
RTVSPost2010Prop45
280
     0
102
RTVSPost2010PropOp45
 70
     1
102
RTVSPost2010Prop46
 90
       50
102
RTVSPost2010PropOp46
 70
     1
102
RTVSPost2010Prop47
 90
       50
102
RTVSPost2010PropOp47
 70
     1
102
RTVSPost2010Prop48
 90
       50
102
RTVSPost2010PropOp48
 70
     1
102
RTVSPost2010Prop49
280
     0
102
RTVSPost2010PropOp49
 70
     1
102
RTVSPost2010Prop50
 90
       50
102
RTVSPost2010PropOp50
 70
     1
102
RTVSPost2010Prop51ColorIndex
 90
      256
102
RTVSPost2010Prop51ColorRGB
 90
-16777216
102
RTVSPost2010PropOp51
 70
     0
102
RTVSPost2010Prop52
140
1.0
102
RTVSPost2010PropOp52
 70
     0
102
RTVSPost2010Prop53
 90
        2
102
RTVSPost2010PropOp53
 70
     1
102
RTVSPost2010Prop54
  1
strokes_ogs.tif
102
RTVSPost2010PropOp54
 70
     1
102
RTVSPost2010Prop55
280
     0
102
RTVSPost2010PropOp55
 70
     1
102
RTVSPost2010Prop56
140
1.0
102
RTVSPost2010PropOp56
 70
     1
102
RTVSPost2010Prop57
140
1.0
102
RTVSPost2010PropOp57
 70
     1
102
RTVSPropertyOp0
 70
     1
102
RTVSPropertyOp1
 70
     1
102
RTVSPropertyOp2
 70
     1
102
RTVSPropertyOp3
 70
     1
102
RTVSPropertyOp4
 70
     1
102
RTVSPropertyOp5
 70
     1
102
RTVSPropertyOp6
 70
     1
102
RTVSPropertyOp7
 70
     1
102
RTVSPropertyOp8
 70
     1
102
RTVSPropertyOp9
 70
     1
102
RTVSPropertyOp10
 70
     1
102
RTVSPropertyOp11
 70
     1
102
RTVSPropertyOp12
 70
     1
102
RTVSPropertyOp13
 70
     1
102
RTVSPropertyOp14
 70
     1
102
RTVSPropertyOp15
 70
     1
102
RTVSPropertyOp16
 70
     1
102
RTVSPropertyOp17
 70
     1
102
RTVSPropertyOp18
 70
     1
102
RTVSPropertyOp19
 70
     1
102
RTVSPropertyOp20
 70
     1
102
RTVSPropertyOp21
 70
     1
102
RTVSPropertyOp22
 70
     1
102
RTVSPropertyOp23
 70
     1
102
RTVSPropertyOp24
 70
     1
102
RTVSPropertyOp25
 70
     1
102
RTVSPropertyOp26
 70
     1
102
RTVSPropertyOp27
 70
     1
102
RTVSPropertyOp28
 70
     1
102
RTVSPropertyOp29
 70
     1
102
RTVSPropertyOp30
 70
     1
102
RTVSPropertyOp31
 70
     1
102
RTVSPropertyOp32
 70
     1
102
RTVSPropertyOp33
 70
     1
102
RTVSPropertyOp34
 70
     1
102
RTVSPropertyOp35
 70
     1
102
RTVSPropertyOp36
 70
     1
102
RTVSPropertyOp37
 70
     1
102
RTVSPropertyOp38
 70
     1
102
RTVSPropertyOp39
 70
     1
102
RTVSPropertyOp40
 70
     1
102
RTVSPropertyOp41
 70
     1
102
RTVSPropertyOp42
 70
     1
102
RTVSPropertyOp43
 70
     1
102
RTVSPropertyOp44
 70
     1
102
RTVSPropertyOp45
 70
     1
102
RTVSPropertyOp46
 70
     1
102
RTVSPropertyOp47
 70
     1
102
RTVSPropertyOp48
 70
     1
102
RTVSPropertyOp49
 70
     1
102
RTVSPropertyOp50
 70
     1
102
RTVSPropertyOp51
 70
     0
102
RTVSPropertyOp52
 70
     0
102
RTVSPropertyOp53
 70
     1
102
RTVSPropertyOp54
 70
     1
102
RTVSPropertyOp55
 70
     1
102
RTVSPropertyOp56
 70
     1
102
RTVSPropertyOp57
 70
     1
102
RTVSPropertyOp58
 70
     1
102
RTVSPropertyOp59
 70
     1
102
RTVSPropertyOp60
 70
     1
102
RTVSPropertyOp61
 70
     1
102
RTVSPropertyOp62
 70
     1
  0
XRECORD
  5
2B9
102
{ACAD_REACTORS
330
2B8
102
}
330
2B8
100
AcDbXrecord
280
     1
102
RTVSPost2010Prop28
280
     0
102
RTVSPost2010PropOp28
 70
     1
102
RTVSPost2010Prop29
280
     1
102
RTVSPost2010PropOp29
 70
     1
102
RTVSPost2010Prop30
280
     1
102
RTVSPost2010PropOp30
 70
     1
102
RTVSPost2010Prop31
280
     0
102
RTVSPost2010PropOp31
 70
     1
102
RTVSPost2010Prop32
280
     0
102
RTVSPost2010PropOp32
 70
     1
102
RTVSPost2010Prop33
280
     0
102
RTVSPost2010PropOp33
 70
     1
102
RTVSPost2010Prop34
280
     0
102
RTVSPost2010PropOp34
 70
     1
102
RTVSPost2010Prop35
280
     0
102
RTVSPost2010PropOp35
 70
     1
102
RTVSPost2010Prop36
280
     0
102
RTVSPost2010PropOp36
 70
     1
102
RTVSPost2010Prop37
 90
       50
102
RTVSPost2010PropOp37
 70
     1
102
RTVSPost2010Prop38
140
0.0
102
RTVSPost2010PropOp38
 70
     1
102
RTVSPost2010Prop39
140
1.0
102
RTVSPost2010PropOp39
 70
     1
102
RTVSPost2010Prop40
 90
        0
102
RTVSPost2010PropOp40
 70
     1
102
RTVSPost2010Prop41ColorIndex
 90
       18
102
RTVSPost2010Prop41ColorRGB
 90
        0
102
RTVSPost2010PropOp41
 70
     1
102
RTVSPost2010Prop42
 90
       50
102
RTVSPost2010PropOp42
 70
     1
102
RTVSPost2010Prop43
 90
        3
102
RTVSPost2010PropOp43
 70
     1
102
RTVSPost2010Prop44ColorIndex
 90
        5
102
RTVSPost2010Prop44ColorRGB
 90
      255
102
RTVSPost2010PropOp44
 70
     1
102
RTVSPost2010Prop45
280
     0
102
RTVSPost2010PropOp45
 70
     1
102
RTVSPost2010Prop46
 90
       50
102
RTVSPost2010PropOp46
 70
     1
102
RTVSPost2010Prop47
 90
       50
102
RTVSPost2010PropOp47
 70
     1
102
RTVSPost2010Prop48
 90
       50
102
RTVSPost2010PropOp48
 70
     1
102
RTVSPost2010Prop49
280
     0
102
RTVSPost2010PropOp49
 70
     1
102
RTVSPost2010Prop50
 90
       50
102
RTVSPost2010PropOp50
 70
     1
102
RTVSPost2010Prop51ColorIndex
 90
      256
102
RTVSPost2010Prop51ColorRGB
 90
-16777216
102
RTVSPost2010PropOp51
 70
     0
102
RTVSPost2010Prop52
140
1.0
102
RTVSPost2010PropOp52
 70
     0
102
RTVSPost2010Prop53
 90
        2
102
RTVSPost2010PropOp53
 70
     1
102
RTVSPost2010Prop54
  1
strokes_ogs.tif
102
RTVSPost2010PropOp54
 70
     1
102
RTVSPost2010Prop55
280
     0
102
RTVSPost2010PropOp55
 70
     1
102
RTVSPost2010Prop56
140
1.0
102
RTVSPost2010PropOp56
 70
     1
102
RTVSPost2010Prop57
140
1.0
102
RTVSPost2010PropOp57
 70
     1
102
RTVSPropertyOp0
 70
     1
102
RTVSPropertyOp1
 70
     1
102
RTVSPropertyOp2
 70
     1
102
RTVSPropertyOp3
 70
     1
102
RTVSPropertyOp4
 70
     1
102
RTVSPropertyOp5
 70
     1
102
RTVSPropertyOp6
 70
     1
102
RTVSPropertyOp7
 70
     1
102
RTVSPropertyOp8
 70
     1
102
RTVSPropertyOp9
 70
     1
102
RTVSPropertyOp10
 70
     1
102
RTVSPropertyOp11
 70
     1
102
RTVSPropertyOp12
 70
     1
102
RTVSPropertyOp13
 70
     1
102
RTVSPropertyOp14
 70
     1
102
RTVSPropertyOp15
 70
     1
102
RTVSPropertyOp16
 70
     1
102
RTVSPropertyOp17
 70
     1
102
RTVSPropertyOp18
 70
     1
102
RTVSPropertyOp19
 70
     1
102
RTVSPropertyOp20
 70
     1
102
RTVSPropertyOp21
 70
     1
102
RTVSPropertyOp22
 70
     1
102
RTVSPropertyOp23
 70
     1
102
RTVSPropertyOp24
 70
     1
102
RTVSPropertyOp25
 70
     1
102
RTVSPropertyOp26
 70
     1
102
RTVSPropertyOp27
 70
     1
102
RTVSPropertyOp28
 70
     1
102
RTVSPropertyOp29
 70
     1
102
RTVSPropertyOp30
 70
     1
102
RTVSPropertyOp31
 70
     1
102
RTVSPropertyOp32
 70
     1
102
RTVSPropertyOp33
 70
     1
102
RTVSPropertyOp34
 70
     1
102
RTVSPropertyOp35
 70
     1
102
RTVSPropertyOp36
 70
     1
102
RTVSPropertyOp37
 70
     1
102
RTVSPropertyOp38
 70
     1
102
RTVSPropertyOp39
 70
     1
102
RTVSPropertyOp40
 70
     1
102
RTVSPropertyOp41
 70
     1
102
RTVSPropertyOp42
 70
     1
102
RTVSPropertyOp43
 70
     1
102
RTVSPropertyOp44
 70
     1
102
RTVSPropertyOp45
 70
     1
102
RTVSPropertyOp46
 70
     1
102
RTVSPropertyOp47
 70
     1
102
RTVSPropertyOp48
 70
     1
102
RTVSPropertyOp49
 70
     1
102
RTVSPropertyOp50
 70
     1
102
RTVSPropertyOp51
 70
     0
102
RTVSPropertyOp52
 70
     0
102
RTVSPropertyOp53
 70
     1
102
RTVSPropertyOp54
 70
     1
102
RTVSPropertyOp55
 70
     1
102
RTVSPropertyOp56
 70
     1
102
RTVSPropertyOp57
 70
     1
102
RTVSPropertyOp58
 70
     1
102
RTVSPropertyOp59
 70
     1
102
RTVSPropertyOp60
 70
     1
102
RTVSPropertyOp61
 70
     1
102
RTVSPropertyOp62
 70
     1
  0
XRECORD
  5
2BB
102
{ACAD_REACTORS
330
2BA
102
}
330
2BA
100
AcDbXrecord
280
     1
102
RTVSPost2010Prop28
280
     0
102
RTVSPost2010PropOp28
 70
     1
102
RTVSPost2010Prop29
280
     1
102
RTVSPost2010PropOp29
 70
     1
102
RTVSPost2010Prop30
280
     1
102
RTVSPost2010PropOp30
 70
     1
102
RTVSPost2010Prop31
280
     0
102
RTVSPost2010PropOp31
 70
     1
102
RTVSPost2010Prop32
280
     0
102
RTVSPost2010PropOp32
 70
     1
102
RTVSPost2010Prop33
280
     0
102
RTVSPost2010PropOp33
 70
     1
102
RTVSPost2010Prop34
280
     0
102
RTVSPost2010PropOp34
 70
     1
102
RTVSPost2010Prop35
280
     0
102
RTVSPost2010PropOp35
 70
     1
102
RTVSPost2010Prop36
280
     0
102
RTVSPost2010PropOp36
 70
     1
102
RTVSPost2010Prop37
 90
       50
102
RTVSPost2010PropOp37
 70
     1
102
RTVSPost2010Prop38
140
0.0
102
RTVSPost2010PropOp38
 70
     1
102
RTVSPost2010Prop39
140
1.0
102
RTVSPost2010PropOp39
 70
     1
102
RTVSPost2010Prop40
 90
        0
102
RTVSPost2010PropOp40
 70
     1
102
RTVSPost2010Prop41ColorIndex
 90
       18
102
RTVSPost2010Prop41ColorRGB
 90
        0
102
RTVSPost2010PropOp41
 70
     1
102
RTVSPost2010Prop42
 90
       50
102
RTVSPost2010PropOp42
 70
     1
102
RTVSPost2010Prop43
 90
        3
102
RTVSPost2010PropOp43
 70
     1
102
RTVSPost2010Prop44ColorIndex
 90
        5
102
RTVSPost2010Prop44ColorRGB
 90
      255
102
RTVSPost2010PropOp44
 70
     1
102
RTVSPost2010Prop45
280
     0
102
RTVSPost2010PropOp45
 70
     1
102
RTVSPost2010Prop46
 90
       50
102
RTVSPost2010PropOp46
 70
     1
102
RTVSPost2010Prop47
 90
       50
102
RTVSPost2010PropOp47
 70
     1
102
RTVSPost2010Prop48
 90
       50
102
RTVSPost2010PropOp48
 70
     1
102
RTVSPost2010Prop49
280
     0
102
RTVSPost2010PropOp49
 70
     1
102
RTVSPost2010Prop50
 90
       50
102
RTVSPost2010PropOp50
 70
     1
102
RTVSPost2010Prop51ColorIndex
 90
      256
102
RTVSPost2010Prop51ColorRGB
 90
-16777216
102
RTVSPost2010PropOp51
 70
     0
102
RTVSPost2010Prop52
140
1.0
102
RTVSPost2010PropOp52
 70
     0
102
RTVSPost2010Prop53
 90
        2
102
RTVSPost2010PropOp53
 70
     1
102
RTVSPost2010Prop54
  1
strokes_ogs.tif
102
RTVSPost2010PropOp54
 70
     1
102
RTVSPost2010Prop55
280
     0
102
RTVSPost2010PropOp55
 70
     1
102
RTVSPost2010Prop56
140
1.0
102
RTVSPost2010PropOp56
 70
     1
102
RTVSPost2010Prop57
140
1.0
102
RTVSPost2010PropOp57
 70
     1
102
RTVSPropertyOp0
 70
     1
102
RTVSPropertyOp1
 70
     1
102
RTVSPropertyOp2
 70
     1
102
RTVSPropertyOp3
 70
     1
102
RTVSPropertyOp4
 70
     1
102
RTVSPropertyOp5
 70
     1
102
RTVSPropertyOp6
 70
     1
102
RTVSPropertyOp7
 70
     1
102
RTVSPropertyOp8
 70
     1
102
RTVSPropertyOp9
 70
     1
102
RTVSPropertyOp10
 70
     1
102
RTVSPropertyOp11
 70
     1
102
RTVSPropertyOp12
 70
     1
102
RTVSPropertyOp13
 70
     1
102
RTVSPropertyOp14
 70
     1
102
RTVSPropertyOp15
 70
     1
102
RTVSPropertyOp16
 70
     1
102
RTVSPropertyOp17
 70
     1
102
RTVSPropertyOp18
 70
     1
102
RTVSPropertyOp19
 70
     1
102
RTVSPropertyOp20
 70
     1
102
RTVSPropertyOp21
 70
     1
102
RTVSPropertyOp22
 70
     1
102
RTVSPropertyOp23
 70
     1
102
RTVSPropertyOp24
 70
     1
102
RTVSPropertyOp25
 70
     1
102
RTVSPropertyOp26
 70
     1
102
RTVSPropertyOp27
 70
     1
102
RTVSPropertyOp28
 70
     1
102
RTVSPropertyOp29
 70
     1
102
RTVSPropertyOp30
 70
     1
102
RTVSPropertyOp31
 70
     1
102
RTVSPropertyOp32
 70
     1
102
RTVSPropertyOp33
 70
     1
102
RTVSPropertyOp34
 70
     1
102
RTVSPropertyOp35
 70
     1
102
RTVSPropertyOp36
 70
     1
102
RTVSPropertyOp37
 70
     1
102
RTVSPropertyOp38
 70
     1
102
RTVSPropertyOp39
 70
     1
102
RTVSPropertyOp40
 70
     1
102
RTVSPropertyOp41
 70
     1
102
RTVSPropertyOp42
 70
     1
102
RTVSPropertyOp43
 70
     1
102
RTVSPropertyOp44
 70
     1
102
RTVSPropertyOp45
 70
     1
102
RTVSPropertyOp46
 70
     1
102
RTVSPropertyOp47
 70
     1
102
RTVSPropertyOp48
 70
     1
102
RTVSPropertyOp49
 70
     1
102
RTVSPropertyOp50
 70
     1
102
RTVSPropertyOp51
 70
     0
102
RTVSPropertyOp52
 70
     0
102
RTVSPropertyOp53
 70
     1
102
RTVSPropertyOp54
 70
     1
102
RTVSPropertyOp55
 70
     1
102
RTVSPropertyOp56
 70
     1
102
RTVSPropertyOp57
 70
     1
102
RTVSPropertyOp58
 70
     1
102
RTVSPropertyOp59
 70
     1
102
RTVSPropertyOp60
 70
     1
102
RTVSPropertyOp61
 70
     1
102
RTVSPropertyOp62
 70
     1
  0
ENDSEC
  0
EOF
