  0
SECTION
  2
HEADER
  9
$ACADVER
  1
AC1015
  9
$ACADMAINTVER
 70
    20
  9
$DWGCODEPAGE
  3
ANSI_932
  9
$INSBASE
 10
0.0
 20
0.0
 30
0.0
  9
$EXTMIN
 10
-48.5917667297418
 20
-48.41209431984122
 30
0.0
  9
$EXTMAX
 10
77.35238095238104
 20
61.5
 30
0.0
  9
$LIMMIN
 10
0.0
 20
0.0
  9
$LIMMAX
 10
420.0
 20
297.0
  9
$ORTHOMODE
 70
     1
  9
$REGENMODE
 70
     1
  9
$FILLMODE
 70
     1
  9
$QTEXTMODE
 70
     0
  9
$MIRRTEXT
 70
     0
  9
$LTSCALE
 40
60.0
  9
$ATTMODE
 70
     2
  9
$TEXTSIZE
 40
3.0
  9
$TRACEWID
 40
0.05
  9
$TEXTSTYLE
  7
bigfont
  9
$CLAYER
  8
0
  9
$CELTYPE
  6
ByLayer
  9
$CECOLOR
 62
   256
  9
$CELTSCALE
 40
1.0
  9
$DISPSILH
 70
     0
  9
$DIMSCALE
 40
10.0
  9
$DIMASZ
 40
1.8
  9
$DIMEXO
 40
2.0
  9
$DIMDLI
 40
5.0
  9
$DIMRND
 40
0.0
  9
$DIMDLE
 40
0.0
  9
$DIMEXE
 40
1.0
  9
$DIMTP
 40
0.0
  9
$DIMTM
 40
0.0
  9
$DIMTXT
 40
2.5
  9
$DIMCEN
 40
0.0
  9
$DIMTSZ
 40
0.0
  9
$DIMTOL
 70
     0
  9
$DIMLIM
 70
     0
  9
$DIMTIH
 70
     0
  9
$DIMTOH
 70
     0
  9
$DIMSE1
 70
     0
  9
$DIMSE2
 70
     0
  9
$DIMTAD
 70
     1
  9
$DIMZIN
 70
    13
  9
$DIMBLK
  1

  9
$DIMASO
 70
     1
  9
$DIMSHO
 70
     0
  9
$DIMPOST
  1

  9
$DIMAPOST
  1

  9
$DIMALT
 70
     0
  9
$DIMALTD
 70
     2
  9
$DIMALTF
 40
25.4
  9
$DIMLFAC
 40
1.0
  9
$DIMTOFL
 70
     1
  9
$DIMTVP
 40
0.0
  9
$DIMTIX
 70
     0
  9
$DIMSOXD
 70
     0
  9
$DIMSAH
 70
     0
  9
$DIMBLK1
  1

  9
$DIMBLK2
  1

  9
$DIMSTYLE
  2
Standard
  9
$DIMCLRD
 70
     2
  9
$DIMCLRE
 70
     2
  9
$DIMCLRT
 70
     7
  9
$DIMTFAC
 40
0.72
  9
$DIMGAP
 40
1.0
  9
$DIMJUST
 70
     0
  9
$DIMSD1
 70
     0
  9
$DIMSD2
 70
     0
  9
$DIMTOLJ
 70
     1
  9
$DIMTZIN
 70
    13
  9
$DIMALTZ
 70
    13
  9
$DIMALTTZ
 70
    13
  9
$DIMUPT
 70
     0
  9
$DIMDEC
 70
     4
  9
$DIMTDEC
 70
     4
  9
$DIMALTU
 70
     2
  9
$DIMALTTD
 70
     2
  9
$DIMTXSTY
  7
STANDARD
  9
$DIMAUNIT
 70
     0
  9
$DIMADEC
 70
     3
  9
$DIMALTRND
 40
0.0
  9
$DIMAZIN
 70
     0
  9
$DIMDSEP
 70
    46
  9
$DIMATFIT
 70
     3
  9
$DIMFRAC
 70
     0
  9
$DIMLDRBLK
  1

  9
$DIMLUNIT
 70
     2
  9
$DIMLWD
 70
    -2
  9
$DIMLWE
 70
    -2
  9
$DIMTMOVE
 70
     2
  9
$LUNITS
 70
     2
  9
$LUPREC
 70
     4
  9
$SKETCHINC
 40
0.1
  9
$FILLETRAD
 40
0.0
  9
$AUNITS
 70
     0
  9
$AUPREC
 70
     3
  9
$MENU
  1

  9
$ELEVATION
 40
0.0
  9
$PELEVATION
 40
0.0
  9
$THICKNESS
 40
0.0
  9
$LIMCHECK
 70
     0
  9
$CHAMFERA
 40
0.0
  9
$CHAMFERB
 40
0.0
  9
$CHAMFERC
 40
0.0
  9
$CHAMFERD
 40
0.0
  9
$SKPOLY
 70
     0
  9
$TDCREATE
 40
2450043.599114352
  9
$TDUCREATE
 40
2450043.224114352
  9
$TDUPDATE
 40
2458471.651317512
  9
$TDUUPDATE
 40
2458471.276317512
  9
$TDINDWG
 40
0.1463562616
  9
$TDUSRTIMER
 40
0.1463562616
  9
$USRTIMER
 70
     1
  9
$ANGBASE
 50
0.0
  9
$ANGDIR
 70
     0
  9
$PDMODE
 70
    35
  9
$PDSIZE
 40
0.0
  9
$PLINEWID
 40
0.0
  9
$SPLFRAME
 70
     0
  9
$SPLINETYPE
 70
     6
  9
$SPLINESEGS
 70
     8
  9
$HANDSEED
  5
171F
  9
$SURFTAB1
 70
     6
  9
$SURFTAB2
 70
     6
  9
$SURFTYPE
 70
     6
  9
$SURFU
 70
     6
  9
$SURFV
 70
     6
  9
$UCSBASE
  2

  9
$UCSNAME
  2

  9
$UCSORG
 10
0.0
 20
0.0
 30
0.0
  9
$UCSXDIR
 10
1.0
 20
0.0
 30
0.0
  9
$UCSYDIR
 10
0.0
 20
1.0
 30
0.0
  9
$UCSORTHOREF
  2

  9
$UCSORTHOVIEW
 70
     1
  9
$UCSORGTOP
 10
0.0
 20
0.0
 30
0.0
  9
$UCSORGBOTTOM
 10
0.0
 20
0.0
 30
0.0
  9
$UCSORGLEFT
 10
0.0
 20
0.0
 30
0.0
  9
$UCSORGRIGHT
 10
0.0
 20
0.0
 30
0.0
  9
$UCSORGFRONT
 10
0.0
 20
0.0
 30
0.0
  9
$UCSORGBACK
 10
0.0
 20
0.0
 30
0.0
  9
$PUCSBASE
  2

  9
$PUCSNAME
  2

  9
$PUCSORG
 10
0.0
 20
0.0
 30
0.0
  9
$PUCSXDIR
 10
1.0
 20
0.0
 30
0.0
  9
$PUCSYDIR
 10
0.0
 20
1.0
 30
0.0
  9
$PUCSORTHOREF
  2

  9
$PUCSORTHOVIEW
 70
     0
  9
$PUCSORGTOP
 10
0.0
 20
0.0
 30
0.0
  9
$PUCSORGBOTTOM
 10
0.0
 20
0.0
 30
0.0
  9
$PUCSORGLEFT
 10
0.0
 20
0.0
 30
0.0
  9
$PUCSORGRIGHT
 10
0.0
 20
0.0
 30
0.0
  9
$PUCSORGFRONT
 10
0.0
 20
0.0
 30
0.0
  9
$PUCSORGBACK
 10
0.0
 20
0.0
 30
0.0
  9
$USERI1
 70
     0
  9
$USERI2
 70
     0
  9
$USERI3
 70
     0
  9
$USERI4
 70
     0
  9
$USERI5
 70
     0
  9
$USERR1
 40
0.0
  9
$USERR2
 40
0.0
  9
$USERR3
 40
0.0
  9
$USERR4
 40
0.0
  9
$USERR5
 40
0.0
  9
$WORLDVIEW
 70
     1
  9
$SHADEDGE
 70
     3
  9
$SHADEDIF
 70
    70
  9
$TILEMODE
 70
     1
  9
$MAXACTVP
 70
    16
  9
$PINSBASE
 10
0.0
 20
0.0
 30
0.0
  9
$PLIMCHECK
 70
     0
  9
$PEXTMIN
 10
1.000000000000000E+20
 20
1.000000000000000E+20
 30
1.000000000000000E+20
  9
$PEXTMAX
 10
-1.000000000000000E+20
 20
-1.000000000000000E+20
 30
-1.000000000000000E+20
  9
$PLIMMIN
 10
0.0
 20
0.0
  9
$PLIMMAX
 10
12.0
 20
9.0
  9
$UNITMODE
 70
     0
  9
$VISRETAIN
 70
     0
  9
$PLINEGEN
 70
     0
  9
$PSLTSCALE
 70
     0
  9
$TREEDEPTH
 70
  3020
  9
$CMLSTYLE
  2
Standard
  9
$CMLJUST
 70
     0
  9
$CMLSCALE
 40
1.0
  9
$PROXYGRAPHICS
 70
     1
  9
$MEASUREMENT
 70
     0
  9
$CELWEIGHT
370
    -1
  9
$ENDCAPS
280
     0
  9
$JOINSTYLE
280
     0
  9
$LWDISPLAY
290
     0
  9
$INSUNITS
 70
     0
  9
$HYPERLINKBASE
  1

  9
$STYLESHEET
  1

  9
$XEDIT
290
     1
  9
$CEPSNTYPE
380
     0
  9
$PSTYLEMODE
290
     1
  9
$FINGERPRINTGUID
  2
{7472C455-3BC4-4CE6-992F-309428EE0A67}
  9
$VERSIONGUID
  2
{029512EC-4C29-4D65-9FFD-DB219A3AA00A}
  9
$EXTNAMES
290
     1
  9
$PSVPSCALE
 40
0.0
  9
$OLESTARTUP
290
     0
  0
ENDSEC
  0
SECTION
  2
CLASSES
  0
CLASS
  1
ACDBDICTIONARYWDFLT
  2
AcDbDictionaryWithDefault
  3
ObjectDBX Classes
 90
        0
280
     0
281
     0
  0
CLASS
  1
ACDBPLACEHOLDER
  2
AcDbPlaceHolder
  3
ObjectDBX Classes
 90
        0
280
     0
281
     0
  0
CLASS
  1
LAYOUT
  2
AcDbLayout
  3
ObjectDBX Classes
 90
        0
280
     0
281
     0
  0
CLASS
  1
MATERIAL
  2
AcDbMaterial
  3
ObjectDBX Classes
 90
     1153
280
     0
281
     0
  0
CLASS
  1
VISUALSTYLE
  2
AcDbVisualStyle
  3
ObjectDBX Classes
 90
     4095
280
     0
281
     0
  0
CLASS
  1
TABLESTYLE
  2
AcDbTableStyle
  3
ObjectDBX Classes
 90
     4095
280
     0
281
     0
  0
CLASS
  1
SCALE
  2
AcDbScale
  3
ObjectDBX Classes
 90
     1153
280
     0
281
     0
  0
CLASS
  1
MLEADERSTYLE
  2
AcDbMLeaderStyle
  3
ACDB_MLEADERSTYLE_CLASS
 90
     4095
280
     0
281
     0
  0
CLASS
  1
CELLSTYLEMAP
  2
AcDbCellStyleMap
  3
ObjectDBX Classes
 90
     1152
280
     0
281
     0
  0
CLASS
  1
DICTIONARYVAR
  2
AcDbDictionaryVar
  3
ObjectDBX Classes
 90
        0
280
     0
281
     0
  0
CLASS
  1
SORTENTSTABLE
  2
AcDbSortentsTable
  3
ObjectDBX Classes
 90
        0
280
     0
281
     0
  0
CLASS
  1
ACDBSECTIONVIEWSTYLE
  2
AcDbSectionViewStyle
  3
ObjectDBX Classes
 90
     1025
280
     0
281
     0
  0
CLASS
  1
ACDBDETAILVIEWSTYLE
  2
AcDbDetailViewStyle
  3
ObjectDBX Classes
 90
     1025
280
     0
281
     0
  0
ENDSEC
  0
SECTION
  2
TABLES
  0
TABLE
  2
VPORT
  5
8
102
{ACAD_XDICTIONARY
360
161C
102
}
330
0
100
AcDbSymbolTable
 70
     1
  0
VPORT
  5
35
330
8
100
AcDbSymbolTableRecord
100
AcDbViewportTableRecord
  2
*Active
 70
     0
 10
0.0
 20
0.0
 11
1.0
 21
1.0
 12
17.51569916159789
 22
-17.15957458390336
 13
0.0
 23
0.0
 14
1.0
 24
1.0
 15
1.0
 25
1.0
 16
0.0
 26
0.0
 36
1.0
 17
0.0
 27
0.0
 37
0.0
 40
211.7086936033441
 41
0.8911917098445595
 42
50.0
 43
0.0
 44
0.0
 50
0.0
 51
0.0
 71
     0
 72
 10000
 73
     1
 74
     1
 75
     0
 76
     0
 77
     0
 78
     0
281
     0
 65
     1
110
0.0
120
0.0
130
0.0
111
1.0
121
0.0
131
0.0
112
0.0
122
1.0
132
0.0
 79
     0
146
0.0
1001
ACAD_NAV_VCDISPLAY
1070
     3
  0
ENDTAB
  0
TABLE
  2
LTYPE
  5
5
330
0
100
AcDbSymbolTable
 70
     1
  0
LTYPE
  5
13
330
5
100
AcDbSymbolTableRecord
100
AcDbLinetypeTableRecord
  2
ByBlock
 70
     0
  3

 72
    65
 73
     0
 40
0.0
  0
LTYPE
  5
14
330
5
100
AcDbSymbolTableRecord
100
AcDbLinetypeTableRecord
  2
ByLayer
 70
     0
  3

 72
    65
 73
     0
 40
0.0
  0
LTYPE
  5
15
330
5
100
AcDbSymbolTableRecord
100
AcDbLinetypeTableRecord
  2
CONTINUOUS
 70
     0
  3
Solid line
 72
    65
 73
     0
 40
0.0
  0
ENDTAB
  0
TABLE
  2
LAYER
  5
2
102
{ACAD_XDICTIONARY
360
21E
102
}
330
0
100
AcDbSymbolTable
 70
     1
  0
LAYER
  5
10
102
{ACAD_XDICTIONARY
360
97
102
}
330
2
100
AcDbSymbolTableRecord
100
AcDbLayerTableRecord
  2
0
 70
     0
 62
     7
  6
CONTINUOUS
370
    -3
390
F
  0
ENDTAB
  0
TABLE
  2
STYLE
  5
3
330
0
100
AcDbSymbolTable
 70
     2
  0
STYLE
  5
11
330
3
100
AcDbSymbolTableRecord
100
AcDbTextStyleTableRecord
  2
STANDARD
 70
     0
 40
0.0
 41
1.0
 50
0.0
 71
     0
 42
2.0
  3
txt
  4

  0
STYLE
  5
B3
330
3
100
AcDbSymbolTableRecord
100
AcDbTextStyleTableRecord
  2
bigfont
 70
     0
 40
0.0
 41
1.0
 50
0.0
 71
     0
 42
3.0
  3
simplex.shx
  4
bigfont.shx
  0
ENDTAB
  0
TABLE
  2
VIEW
  5
6
330
0
100
AcDbSymbolTable
 70
     0
  0
ENDTAB
  0
TABLE
  2
UCS
  5
7
330
0
100
AcDbSymbolTable
 70
     0
  0
ENDTAB
  0
TABLE
  2
APPID
  5
9
330
0
100
AcDbSymbolTable
 70
     6
  0
APPID
  5
12
330
9
100
AcDbSymbolTableRecord
100
AcDbRegAppTableRecord
  2
ACAD
 70
     0
  0
APPID
  5
88
330
9
100
AcDbSymbolTableRecord
100
AcDbRegAppTableRecord
  2
ACAD_MLEADERVER
 70
     0
  0
APPID
  5
8C
330
9
100
AcDbSymbolTableRecord
100
AcDbRegAppTableRecord
  2
ACAD_EXEMPT_FROM_CAD_STANDARDS
 70
     0
  0
APPID
  5
B4
330
9
100
AcDbSymbolTableRecord
100
AcDbRegAppTableRecord
  2
AcadAnnoPO
 70
     0
  0
APPID
  5
21C
330
9
100
AcDbSymbolTableRecord
100
AcDbRegAppTableRecord
  2
ACAD_PSEXT
 70
     0
  0
APPID
  5
21D
330
9
100
AcDbSymbolTableRecord
100
AcDbRegAppTableRecord
  2
ACAD_NAV_VCDISPLAY
 70
     0
  0
ENDTAB
  0
TABLE
  2
DIMSTYLE
  5
A
330
0
100
AcDbSymbolTable
 70
     1
100
AcDbDimStyleTable
 71
     1
340
32
  0
DIMSTYLE
105
32
330
A
100
AcDbSymbolTableRecord
100
AcDbDimStyleTableRecord
  2
Standard
 70
     0
340
11
  0
ENDTAB
  0
TABLE
  2
BLOCK_RECORD
  5
1
330
0
100
AcDbSymbolTable
 70
     0
  0
BLOCK_RECORD
  5
1E
102
{ACAD_XDICTIONARY
360
19F
102
}
330
1
100
AcDbSymbolTableRecord
100
AcDbBlockTableRecord
  2
*Model_Space
340
21
  0
BLOCK_RECORD
  5
1A
330
1
100
AcDbSymbolTableRecord
100
AcDbBlockTableRecord
  2
*Paper_Space
340
1D
  0
ENDTAB
  0
ENDSEC
  0
SECTION
  2
BLOCKS
  0
BLOCK
  5
25
330
1E
100
AcDbEntity
  8
0
100
AcDbBlockBegin
  2
*Model_Space
 70
     0
 10
0.0
 20
0.0
 30
0.0
  3
*Model_Space
  1

  0
ENDBLK
  5
26
330
1E
100
AcDbEntity
  8
0
100
AcDbBlockEnd
  0
BLOCK
  5
23
330
1A
100
AcDbEntity
 67
     1
  8
0
100
AcDbBlockBegin
  2
*Paper_Space
 70
     0
 10
0.0
 20
0.0
 30
0.0
  3
*Paper_Space
  1

  0
ENDBLK
  5
24
330
1A
100
AcDbEntity
 67
     1
  8
0
100
AcDbBlockEnd
  0
ENDSEC
  0
SECTION
  2
ENTITIES
  0
TEXT
  5
BA
330
1E
100
AcDbEntity
  8
0
100
AcDbText
 10
30.0
 20
-13.0
 30
0.0
 40
2.0
  1
寸法：幅\U+03C6100・高182・埋込深210mm
  7
bigfont
 11
30.0
 21
-12.0
 31
0.0
100
AcDbText
 73
     2
  0
TEXT
  5
BB
330
1E
100
AcDbEntity
  8
0
100
AcDbText
 10
30.0
 20
-16.0
 30
0.0
 40
2.0
  1
重さ：1.4kg
  7
bigfont
 11
30.0
 21
-15.0
 31
0.0
100
AcDbText
 73
     2
  0
TEXT
  5
BE
330
1E
100
AcDbEntity
  8
0
100
AcDbText
 10
30.0
 20
-19.0
 30
0.0
 40
2.0
  1
本体：アルミ（ダークシルバー塗装）
  7
bigfont
 11
30.0
 21
-18.0
 31
0.0
100
AcDbText
 73
     2
  0
TEXT
  5
BF
330
1E
100
AcDbEntity
  8
0
100
AcDbText
 10
30.0
 20
-25.0
 30
0.0
 40
2.0
  1
カバー：アクリル(クリア・一部消し)
  7
bigfont
 11
30.0
 21
-24.0
 31
0.0
100
AcDbText
 73
     2
  0
TEXT
  5
E1
330
1E
100
AcDbEntity
  8
0
100
AcDbText
 10
-38.0
 20
58.5
 30
0.0
 40
3.0
  1
ガーデンライト
  7
bigfont
 11
-38.0
 21
60.0
 31
0.0
100
AcDbText
 73
     2
  0
TEXT
  5
E2
330
1E
100
AcDbEntity
  8
0
100
AcDbText
 10
-38.0
 20
48.5
 30
0.0
 40
3.0
  1
LED　6.7W
  7
bigfont
 11
-38.0
 21
50.0
 31
0.0
100
AcDbText
 73
     2
  0
TEXT
  5
E3
330
1E
100
AcDbEntity
  8
0
100
AcDbText
 10
-17.0
 20
-46.5
 30
0.0
 40
3.0
  1
IR-AD-3175-L
  7
bigfont
 72
     4
 11
0.0
 21
-45.0
 31
0.0
100
AcDbText
  0
TEXT
  5
103
330
1E
100
AcDbEntity
  8
0
100
AcDbText
 10
30.0
 20
-42.63898570815856
 30
0.0
 40
2.0
  1
防雨型
  7
bigfont
 11
30.0
 21
-41.63898570815857
 31
0.0
100
AcDbText
 73
     2
  0
TEXT
  5
239
330
1E
100
AcDbEntity
  8
0
100
AcDbText
 10
30.0
 20
-37.0705193213881
 30
0.0
 40
2.0
  1
電球色 3000K Ra80
  7
bigfont
 11
30.0
 21
-36.07051932138811
 31
0.0
100
AcDbText
 73
     2
  0
LINE
  5
83C
330
1E
100
AcDbEntity
  8
0
100
AcDbLine
 10
3.774879461622006
 20
13.97872558401178
 30
0.0
 11
2.357922107700531
 21
9.615140251509103
 31
0.0
  0
LINE
  5
83E
330
1E
100
AcDbEntity
  8
0
100
AcDbLine
 10
-48.5917667297418
 20
8.893494273319106
 30
0.0
 11
-12.65410828570682
 21
8.893494273319106
 31
0.0
  0
TEXT
  5
83F
330
1E
100
AcDbEntity
  8
0
100
AcDbText
 10
-47.65802691018333
 20
9.399214593047986
 30
0.0
 40
2.0
  1
アルミ（ダークシルバー塗装）
  7
bigfont
 11
-47.65802691018333
 21
10.39921459304798
 31
0.0
100
AcDbText
 73
     2
  0
LINE
  5
840
330
1E
100
AcDbEntity
  8
0
100
AcDbLine
 10
-4.975271555663823
 20
3.291876058305717
 30
0.0
 11
-3.468415634660573
 21
-0.4337709420168494
 31
0.0
  0
LINE
  5
841
330
1E
100
AcDbEntity
  8
0
100
AcDbLine
 10
-3.468415634660573
 20
-0.4337709420168494
 30
0.0
 11
-12.65410828570682
 21
8.893494273319106
 31
0.0
  0
LINE
  5
842
330
1E
100
AcDbEntity
  8
0
100
AcDbLine
 10
15.59279617906146
 20
21.83793946196903
 30
0.0
 11
2.357922107700531
 21
9.615140251509103
 31
0.0
  0
LINE
  5
843
330
1E
100
AcDbEntity
  8
0
100
AcDbLine
 10
15.59279617906146
 20
21.83793946196903
 30
0.0
 11
49.79106618308566
 21
21.83793946196903
 31
0.0
  0
LINE
  5
E0B
330
1E
100
AcDbEntity
  8
0
100
AcDbLine
 10
-42.91295614244041
 20
-31.13428984254284
 30
0.0
 11
-15.79998705143677
 21
-31.13428984254284
 31
0.0
  0
TEXT
  5
E0C
330
1E
100
AcDbEntity
  8
0
100
AcDbText
 10
-42.27185989096105
 20
-30.62856952281442
 30
0.0
 40
2.0
  1
ステンレス（黒色塗装）
  7
bigfont
 11
-42.27185989096105
 21
-29.62856952281441
 31
0.0
100
AcDbText
 73
     2
  0
LINE
  5
E0D
330
1E
100
AcDbEntity
  8
0
100
AcDbLine
 10
-5.167049459360939
 20
-23.26370461972107
 30
0.0
 11
-0.5693070071219069
 21
-22.25665243379905
 31
0.0
  0
LINE
  5
E0E
330
1E
100
AcDbEntity
  8
0
100
AcDbLine
 10
-0.5693070071218927
 20
-22.25665243379905
 30
0.0
 11
-15.79998705143677
 21
-31.13428984254284
 31
0.0
  0
SPLINE
  5
FF6
330
1E
100
AcDbEntity
  8
0
370
    15
100
AcDbSpline
210
0.0
220
0.0
230
1.0
 70
  1064
 71
     3
 72
    10
 73
     6
 74
     4
 42
0.000000001
 43
0.0000000001
 44
0.0000000001
 40
0.0
 40
0.0
 40
0.0
 40
0.0
 40
1.249114429466904
 40
2.375818248013631
 40
3.452716028836189
 40
3.452716028836189
 40
3.452716028836189
 40
3.452716028836189
 10
-7.216673407901339
 20
-13.35627400824754
 30
0.0
 10
-6.950104425025626
 20
-12.9450076527645
 30
0.0
 10
-6.443089664063463
 20
-12.16277818755234
 30
0.0
 10
-5.212605438624377
 20
-12.92395781686633
 30
0.0
 10
-4.526091989944911
 20
-12.57354225761824
 30
0.0
 10
-4.190593590597515
 20
-12.40229454286437
 30
0.0
 11
-7.216673407901339
 21
-13.35627400824754
 31
0.0
 11
-6.323069437948248
 21
-12.48348605989668
 31
0.0
 11
-5.220687122878686
 21
-12.71632661939964
 31
0.0
 11
-4.190593590597515
 21
-12.40229454286437
 31
0.0
  0
TEXT
  5
FF7
330
1E
100
AcDbEntity
  8
0
100
AcDbText
 10
30.0
 20
-22.0
 30
0.0
 40
2.0
  1
スパイク部：ステンレス（黒色塗装）
  7
bigfont
 11
30.0
 21
-21.0
 31
0.0
100
AcDbText
 73
     2
  0
TEXT
  5
FF8
330
1E
100
AcDbEntity
  8
0
100
AcDbText
 10
30.0
 20
-34.07051932138811
 30
0.0
 40
2.0
  1
キャブタイヤケーブル5.0mプラグ付
  7
bigfont
 11
30.0
 21
-33.0705193213881
 31
0.0
100
AcDbText
 73
     2
  0
LINE
  5
1326
330
1E
100
AcDbEntity
  8
0
  6
Continuous
370
    15
100
AcDbLine
 10
-4.402948955680955
 20
-4.499514681166342
 30
0.0
 11
-4.727428092252623
 21
-4.990338420254897
 31
0.0
  0
LINE
  5
1327
330
1E
100
AcDbEntity
  8
0
  6
Continuous
370
    15
100
AcDbLine
 10
-3.418032193229436
 20
-6.799604251908316
 30
0.0
 11
-3.3091680359787
 21
-6.787103470858891
 31
0.0
  0
LINE
  5
1328
330
1E
100
AcDbEntity
  8
0
  6
Continuous
370
    15
100
AcDbLine
 10
-3.522298425652678
 20
-6.80560130875946
 30
0.0
 11
-3.418032193229436
 21
-6.799604251908316
 31
0.0
  0
SPLINE
  5
1329
330
1E
100
AcDbEntity
  8
0
  6
Continuous
370
    15
100
AcDbSpline
210
0.0
220
0.0
230
1.0
 70
     8
 71
     3
 72
     9
 73
     5
 74
     0
 42
0.000000001
 43
0.0000000001
 40
0.0857180762548202
 40
0.0857180762548202
 40
0.0857180762548202
 40
0.0857180762548202
 40
0.4993678981054018
 40
1.0
 40
1.0
 40
1.0
 40
1.0
 10
-4.200806749890674
 20
-6.424567391033928
 30
0.0
 10
-4.112315683097591
 20
-6.492371161537018
 30
0.0
 10
-3.916241961944976
 20
-6.638419890158228
 30
0.0
 10
-3.713940078599321
 20
-6.735324581158376
 30
0.0
 10
-3.603165913162797
 20
-6.788386550206336
 30
0.0
  0
LINE
  5
132A
330
1E
100
AcDbEntity
  8
0
  6
Continuous
370
    15
100
AcDbLine
 10
-4.750160192560343
 20
-5.079052555632639
 30
0.0
 11
-4.748031118166025
 21
-5.350673852817902
 31
0.0
  0
LINE
  5
132B
330
1E
100
AcDbEntity
  8
0
  6
Continuous
370
    15
100
AcDbLine
 10
-4.744768161837868
 20
-5.372511882072142
 30
0.0
 11
-4.701108076338641
 21
-5.512541136441495
 31
0.0
  0
LINE
  5
132C
330
1E
100
AcDbEntity
  8
0
  6
Continuous
370
    15
100
AcDbLine
 10
-2.093745088228402
 20
-6.069863846165073
 30
0.0
 11
-1.987679119519299
 21
-6.008633265758856
 31
0.0
  0
LINE
  5
132D
330
1E
100
AcDbEntity
  8
0
  6
Continuous
370
    15
100
AcDbLine
 10
0.6023224297270815
 20
-10.65197114637792
 30
0.0
 11
0.5996265790019777
 21
-10.56281142147251
 31
0.0
  0
LINE
  5
132E
330
1E
100
AcDbEntity
  8
0
  6
Continuous
370
    15
100
AcDbLine
 10
-0.2000079946568434
 20
-10.5869896377724
 30
0.0
 11
-0.1973121110045213
 21
-10.67614934366933
 31
0.0
  0
ARC
  5
132F
330
1E
100
AcDbEntity
  8
0
  6
Continuous
370
    15
100
AcDbCircle
 10
2.803809571969154
 20
0.8468487299707909
 30
0.0
 40
0.6500000000000047
100
AcDbArc
 50
320.5230196489056
 51
339.4823568837936
  0
SPLINE
  5
1330
330
1E
100
AcDbEntity
  8
0
  6
Continuous
370
    15
100
AcDbSpline
210
0.0
220
0.0
230
1.0
 70
     8
 71
     3
 72
     9
 73
     5
 74
     0
 42
0.000000001
 43
0.0000000001
 40
0.0
 40
0.0
 40
0.0
 40
0.0
 40
0.2364467977706899
 40
1.0
 40
1.0
 40
1.0
 40
1.0
 10
3.154283519727286
 20
0.309984898716241
 30
0.0
 10
3.162181492518058
 20
0.3131860898461447
 30
0.0
 10
3.195584240473394
 20
0.3267248273553669
 30
0.0
 10
3.227338932403185
 20
0.3548560791172584
 30
0.0
 10
3.251585329112003
 20
0.3763357864827874
 30
0.0
  0
SPLINE
  5
1331
330
1E
100
AcDbEntity
  8
0
  6
Continuous
370
    15
100
AcDbSpline
210
0.0
220
0.0
230
1.0
 70
     8
 71
     3
 72
    12
 73
     8
 74
     0
 42
0.000000001
 43
0.0000000001
 40
0.0
 40
0.0
 40
0.0
 40
0.0
 40
0.1174652386720454
 40
0.3404151510704439
 40
0.5636203047662156
 40
0.7874759200926003
 40
1.0
 40
1.0
 40
1.0
 40
1.0
 10
3.251585329112003
 20
0.3763357864827874
 30
0.0
 10
3.264852771462145
 20
0.3893571183283519
 30
0.0
 10
3.303301919848507
 20
0.4270930366090689
 30
0.0
 10
3.35955750692743
 20
0.5039891385247337
 30
0.0
 10
3.410376935217058
 20
0.6048923560572668
 30
0.0
 10
3.442648109804267
 20
0.7083072963870372
 30
0.0
 10
3.444965930467901
 20
0.7713114040854414
 30
0.0
 10
3.446094747205492
 20
0.8019954394914101
 30
0.0
  0
LINE
  5
1332
330
1E
100
AcDbEntity
  8
0
  6
Continuous
370
    15
100
AcDbLine
 10
3.353436020279971
 20
0.9914237898359097
 30
0.0
 11
3.244209564768141
 21
1.054478880437532
 31
0.0
  0
LINE
  5
1333
330
1E
100
AcDbEntity
  8
0
  6
Continuous
370
    15
100
AcDbLine
 10
2.844242063936448
 20
0.3616398299896737
 30
0.0
 11
2.953468519448279
 21
0.2985847393880512
 31
0.0
  0
LINE
  5
1337
330
1E
100
AcDbEntity
  8
0
  6
Continuous
370
    15
100
AcDbLine
 10
4.71579880225272
 20
-7.865884530162855
 30
0.0
 11
4.71579880225272
 21
-7.784230283497546
 31
0.0
  0
LINE
  5
1338
330
1E
100
AcDbEntity
  8
0
  6
Continuous
370
    15
100
AcDbLine
 10
-4.284201296599931
 20
-7.784230283497546
 30
0.0
 11
-4.284201296599931
 21
-7.865884530162855
 31
0.0
  0
LINE
  5
1339
330
1E
100
AcDbEntity
  8
0
  6
Continuous
370
    15
100
AcDbLine
 10
4.215798621149048
 20
-7.784230283497546
 30
0.0
 11
4.215798621149048
 21
4.587247364298047
 31
0.0
  0
LINE
  5
133A
330
1E
100
AcDbEntity
  8
0
  6
Continuous
370
    15
100
AcDbLine
 10
-3.784201115496244
 20
4.570787154554001
 30
0.0
 11
-3.784201115496244
 21
-4.116721867460409
 31
0.0
  0
LINE
  5
133B
330
1E
100
AcDbEntity
  8
0
  6
Continuous
370
    15
100
AcDbLine
 10
-3.784201115496244
 20
-6.693106568162033
 30
0.0
 11
-3.784201115496244
 21
-7.784230283497546
 31
0.0
  0
ARC
  5
133C
330
1E
100
AcDbEntity
  8
0
  6
Continuous
370
    15
100
AcDbCircle
 10
2.803809571969154
 20
-8.461716525526778
 30
0.0
 40
0.6499999999999974
100
AcDbArc
 50
320.5230196489074
 51
339.4823568837936
  0
LINE
  5
133D
330
1E
100
AcDbEntity
  8
0
  6
Continuous
370
    15
100
AcDbLine
 10
3.149429048596928
 20
-9.002371095640835
 30
0.0
 11
3.20430276774887
 21
-8.970784400229785
 31
0.0
  0
SPLINE
  5
133E
330
1E
100
AcDbEntity
  8
0
  6
Continuous
370
    15
100
AcDbSpline
210
0.0
220
0.0
230
1.0
 70
     8
 71
     3
 72
    13
 73
     9
 74
     0
 42
0.000000001
 43
0.0000000001
 40
0.0
 40
0.0
 40
0.0
 40
0.0
 40
0.1015334567485282
 40
0.2939166115177026
 40
0.4861476035998848
 40
0.6785250354732025
 40
0.8717240414952931
 40
1.0
 40
1.0
 40
1.0
 40
1.0
 10
3.20430276774887
 20
-8.970784400229785
 30
0.0
 10
3.218356154574848
 20
-8.960006859571148
 30
0.0
 10
3.259037561162529
 20
-8.928808293774974
 30
0.0
 10
3.321238670973741
 20
-8.860169048872034
 30
0.0
 10
3.382614637309401
 20
-8.764547578166993
 30
0.0
 10
3.425413819891147
 20
-8.661191345851758
 30
0.0
 10
3.447761093904546
 20
-8.568129294920165
 30
0.0
 10
3.444731769722395
 20
-8.516617844964155
 30
0.0
 10
3.443522999192936
 20
-8.496063583058255
 30
0.0
  0
LINE
  5
133F
330
1E
100
AcDbEntity
  8
0
  6
Continuous
370
    15
100
AcDbLine
 10
3.353436020279971
 20
-8.317141318436025
 30
0.0
 11
3.244209564768141
 21
-8.254086227834402
 31
0.0
  0
LINE
  5
1340
330
1E
100
AcDbEntity
  8
0
  6
Continuous
370
    15
100
AcDbLine
 10
2.844242063936448
 20
-8.946925430374829
 30
0.0
 11
2.953468519448279
 21
-9.00998052097648
 31
0.0
  0
SPLINE
  5
1345
330
1E
100
AcDbEntity
  8
0
  6
Continuous
370
    15
100
AcDbSpline
210
0.0
220
0.0
230
1.0
 70
     8
 71
     3
 72
    10
 73
     6
 74
     0
 42
0.000000001
 43
0.0000000001
 40
0.0
 40
0.0
 40
0.0
 40
0.0
 40
0.2727481329163564
 40
0.5524795822015149
 40
1.0
 40
1.0
 40
1.0
 40
1.0
 10
-3.765582300649015
 20
-5.177655277207616
 30
0.0
 10
-3.745546292593104
 20
-5.14632448106597
 30
0.0
 10
-3.704961283847623
 20
-5.082860709646933
 30
0.0
 10
-3.589119661127057
 20
-4.94873661976673
 30
0.0
 10
-3.491158871624321
 20
-4.869617652367789
 30
0.0
 10
-3.430877894111063
 20
-4.820931145053418
 30
0.0
  0
LINE
  5
1346
330
1E
100
AcDbEntity
  8
0
  6
Continuous
370
    15
100
AcDbLine
 10
-3.218745890838391
 20
-5.084821407277981
 30
0.0
 11
-3.430877894111063
 21
-4.820931145053418
 31
0.0
  0
SPLINE
  5
1347
330
1E
100
AcDbEntity
  8
0
  6
Continuous
370
    15
100
AcDbSpline
210
0.0
220
0.0
230
1.0
 70
     8
 71
     3
 72
    10
 73
     6
 74
     0
 42
0.000000001
 43
0.0000000001
 40
0.0
 40
0.0
 40
0.0
 40
0.0
 40
0.2851483193203754
 40
0.5659568235423869
 40
1.0
 40
1.0
 40
1.0
 40
1.0
 10
-3.611797653592276
 20
-5.36896191310458
 30
0.0
 10
-3.581129381570463
 20
-5.347171092866826
 30
0.0
 10
-3.520259593320048
 20
-5.303921097799157
 30
0.0
 10
-3.379705916993174
 20
-5.20260848229665
 30
0.0
 10
-3.279555285711126
 20
-5.129320410706508
 30
0.0
 10
-3.218745890838391
 20
-5.084821407277981
 30
0.0
  0
LINE
  5
1348
330
1E
100
AcDbEntity
  8
0
  6
Continuous
370
    15
100
AcDbLine
 10
-3.611797653592276
 20
-5.36896191310458
 30
0.0
 11
-3.765582300649015
 21
-5.177655277207616
 31
0.0
  0
SPLINE
  5
1349
330
1E
100
AcDbEntity
  8
0
  6
Continuous
370
    15
100
AcDbSpline
210
0.0
220
0.0
230
1.0
 70
     8
 71
     3
 72
    11
 73
     7
 74
     0
 42
0.000000001
 43
0.0000000001
 40
0.0
 40
0.0
 40
0.0
 40
0.0
 40
0.2797967835099286
 40
0.5608391483145045
 40
0.7808079610646769
 40
0.9999999999999998
 40
0.9999999999999998
 40
0.9999999999999998
 40
0.9999999999999998
 10
-4.259817155075907
 20
-4.89233956886262
 30
0.0
 10
-4.273444899680626
 20
-4.843480468995789
 30
0.0
 10
-4.300761056005498
 20
-4.74554476146913
 30
0.0
 10
-4.272948738804331
 20
-4.598577315313104
 30
0.0
 10
-4.213534869973045
 20
-4.483324610887276
 30
0.0
 10
-4.156365309127451
 20
-4.440141830183531
 30
0.0
 10
-4.12783108855956
 20
-4.418588629999515
 30
0.0
  0
LINE
  5
134A
330
1E
100
AcDbEntity
  8
0
  6
Continuous
370
    15
100
AcDbLine
 10
-3.430877894111063
 20
-4.820931145053418
 30
0.0
 11
-4.12783108855956
 21
-4.418588629999515
 31
0.0
  0
LINE
  5
134C
330
1E
100
AcDbEntity
  8
0
  6
Continuous
370
    15
100
AcDbLine
 10
-3.044507592226267
 20
-5.533902540082603
 30
0.0
 11
-3.218745890838391
 21
-5.084821407277981
 31
0.0
  0
SPLINE
  5
134D
330
1E
100
AcDbEntity
  8
0
  6
Continuous
370
    15
100
AcDbSpline
210
0.0
220
0.0
230
1.0
 70
     8
 71
     3
 72
    11
 73
     7
 74
     0
 42
0.000000001
 43
0.0000000001
 40
0.0
 40
0.0
 40
0.0
 40
0.0
 40
0.2829404436795472
 40
0.5583494676691167
 40
0.776092002769529
 40
1.0
 40
1.0
 40
1.0
 40
1.0
 10
-3.446255237644706
 20
-5.683667673537112
 30
0.0
 10
-3.411154398290392
 20
-5.676082522122253
 30
0.0
 10
-3.341887047489123
 20
-5.661114123827584
 30
0.0
 10
-3.226034825850433
 20
-5.620339711347948
 30
0.0
 10
-3.12332240733177
 20
-5.576629556857024
 30
0.0
 10
-3.07102256667035
 20
-5.548276814212794
 30
0.0
 10
-3.044507592226267
 20
-5.533902540082603
 30
0.0
  0
LINE
  5
134E
330
1E
100
AcDbEntity
  8
0
  6
Continuous
370
    15
100
AcDbLine
 10
-3.446255237644706
 20
-5.683667673537112
 30
0.0
 11
-3.611797653592276
 21
-5.36896191310458
 31
0.0
  0
LINE
  5
134F
330
1E
100
AcDbEntity
  8
0
  6
Continuous
370
    15
100
AcDbLine
 10
-2.870269293614143
 20
-5.982983672887225
 30
0.0
 11
-3.044507592226267
 21
-5.533902540082603
 31
0.0
  0
SPLINE
  5
1350
330
1E
100
AcDbEntity
  8
0
  6
Continuous
370
    15
100
AcDbSpline
210
0.0
220
0.0
230
1.0
 70
     8
 71
     3
 72
    10
 73
     6
 74
     0
 42
0.000000001
 43
0.0000000001
 40
0.0
 40
0.0
 40
0.0
 40
0.0
 40
0.2851478504003766
 40
0.5659569442597738
 40
0.9999999999999998
 40
0.9999999999999998
 40
0.9999999999999998
 40
0.9999999999999998
 10
-3.364680209915235
 20
-6.005881416178791
 30
0.0
 10
-3.322692839384444
 20
-6.013264430248025
 30
0.0
 10
-3.239356970326539
 20
-6.027918119820537
 30
0.0
 10
-3.060624760362486
 20
-6.025007158594828
 30
0.0
 10
-2.942184006183495
 20
-5.998859796370563
 30
0.0
 10
-2.870269293614143
 20
-5.982983672887225
 30
0.0
  0
LINE
  5
1351
330
1E
100
AcDbEntity
  8
0
  6
Continuous
370
    15
100
AcDbLine
 10
-3.364680209915235
 20
-6.005881416178791
 30
0.0
 11
-3.446255237644706
 21
-5.683667673537112
 31
0.0
  0
LINE
  5
1352
330
1E
100
AcDbEntity
  8
0
  6
Continuous
370
    15
100
AcDbLine
 10
-4.660719245809701
 20
-5.462751304061111
 30
0.0
 11
-4.654837335357711
 21
-5.485984301135953
 31
0.0
  0
LINE
  5
1353
330
1E
100
AcDbEntity
  8
0
  6
Continuous
370
    15
100
AcDbLine
 10
-4.660719245809701
 20
-5.257694006373707
 30
0.0
 11
-4.660719245809701
 21
-5.462751304061111
 31
0.0
  0
LINE
  5
1355
330
1E
100
AcDbEntity
  8
0
  6
Continuous
370
    15
100
AcDbLine
 10
-4.339736618375937
 20
-4.891412563625106
 30
0.0
 11
-4.41360180213266
 21
-4.906090230653031
 31
0.0
  0
LINE
  5
1356
330
1E
100
AcDbEntity
  8
0
  6
Continuous
370
    15
100
AcDbLine
 10
-4.259817155075907
 20
-4.89233956886262
 30
0.0
 11
-4.339736618375937
 21
-4.891412563625106
 31
0.0
  0
LINE
  5
1357
330
1E
100
AcDbEntity
  8
0
  6
Continuous
370
    15
100
AcDbLine
 10
-3.364680209915235
 20
-6.210938713866166
 30
0.0
 11
-3.364680209915235
 21
-6.005881416178791
 31
0.0
  0
LINE
  5
1359
330
1E
100
AcDbEntity
  8
0
  6
Continuous
370
    15
100
AcDbLine
 10
-3.685662837348999
 20
-6.577219852429632
 30
0.0
 11
-3.611797653592276
 21
-6.562542489586871
 31
0.0
  0
LINE
  5
135A
330
1E
100
AcDbEntity
  8
0
  6
Continuous
370
    15
100
AcDbLine
 10
-3.765582300649015
 20
-6.57629315137731
 30
0.0
 11
-3.685662837348999
 21
-6.577219852429632
 31
0.0
  0
LINE
  5
135E
330
1E
100
AcDbEntity
  8
0
  6
Continuous
370
    15
100
AcDbLine
 10
-3.430877894111063
 20
-4.820931145053418
 30
0.0
 11
-2.723771260438482
 21
-4.412727174300055
 31
0.0
  0
LINE
  5
135F
330
1E
100
AcDbEntity
  8
0
  6
Continuous
370
    15
100
AcDbLine
 10
-2.723771260438482
 20
-4.412727174300055
 30
0.0
 11
-2.511639257165811
 21
-4.676617436524647
 31
0.0
  0
LINE
  5
1360
330
1E
100
AcDbEntity
  8
0
  6
Continuous
370
    15
100
AcDbLine
 10
-2.511639257165811
 20
-4.676617436524647
 30
0.0
 11
-3.218745890838391
 21
-5.084821407277981
 31
0.0
  0
LINE
  5
1361
330
1E
100
AcDbEntity
  8
0
  6
Continuous
370
    15
100
AcDbLine
 10
-3.420724454886979
 20
-4.010384659246181
 30
0.0
 11
-4.12783108855956
 21
-4.418588629999515
 31
0.0
  0
LINE
  5
1362
330
1E
100
AcDbEntity
  8
0
  6
Continuous
370
    15
100
AcDbLine
 10
-2.723771260438482
 20
-4.412727174300055
 30
0.0
 11
-3.420724454886979
 21
-4.010384659246181
 31
0.0
  0
LINE
  5
1363
330
1E
100
AcDbEntity
  8
0
  6
Continuous
370
    15
100
AcDbLine
 10
-2.870269293614143
 20
-6.265841495492434
 30
0.0
 11
-2.870269293614143
 21
-5.982983672887225
 31
0.0
  0
SPLINE
  5
1364
330
1E
100
AcDbEntity
  8
0
  6
Continuous
370
    15
100
AcDbSpline
210
0.0
220
0.0
230
1.0
 70
     8
 71
     3
 72
    10
 73
     6
 74
     0
 42
0.000000001
 43
0.0000000001
 40
0.0
 40
0.0
 40
0.0
 40
0.0
 40
0.272748015960294
 40
0.5524796829536781
 40
1.0
 40
1.0
 40
1.0
 40
1.0
 10
-3.364680209915235
 20
-6.210938713866166
 30
0.0
 10
-3.324889075552135
 20
-6.23052467700938
 30
0.0
 10
-3.244287963863399
 20
-6.270198097435947
 30
0.0
 10
-3.064609989799876
 20
-6.300605681252061
 30
0.0
 10
-2.944301861365048
 20
-6.279084640073417
 30
0.0
 10
-2.870269293614143
 20
-6.265841495492434
 30
0.0
  0
LINE
  5
1365
330
1E
100
AcDbEntity
  8
0
  6
Continuous
370
    15
100
AcDbLine
 10
-2.870269293614143
 20
-5.982983672887225
 30
0.0
 11
-2.163162659941576
 21
-5.574779702133877
 31
0.0
  0
LINE
  5
1366
330
1E
100
AcDbEntity
  8
0
  6
Continuous
370
    15
100
AcDbLine
 10
-2.163162659941576
 20
-5.574779702133877
 30
0.0
 11
-2.511639257165811
 21
-4.676617436524647
 31
0.0
  0
LINE
  5
1367
330
1E
100
AcDbEntity
  8
0
  6
Continuous
370
    15
100
AcDbLine
 10
-3.218745890838391
 20
-6.76166124604779
 30
0.0
 11
-2.870269293614143
 21
-6.265841495492434
 31
0.0
  0
SPLINE
  5
1368
330
1E
100
AcDbEntity
  8
0
  6
Continuous
370
    15
100
AcDbSpline
210
0.0
220
0.0
230
1.0
 70
     8
 71
     3
 72
    11
 73
     7
 74
     0
 42
0.000000001
 43
0.0000000001
 40
0.0
 40
0.0
 40
0.0
 40
0.0
 40
0.2797970224350464
 40
0.5608392350632263
 40
0.7808078075001487
 40
1.0
 40
1.0
 40
1.0
 40
1.0
 10
-3.611797653592276
 20
-6.562542489586871
 30
0.0
 10
-3.588550407981529
 20
-6.608724849358548
 30
0.0
 10
-3.5419524587532
 20
-6.701295095826292
 30
0.0
 10
-3.428757346372492
 20
-6.774392984738636
 30
0.0
 10
-3.315908253581341
 20
-6.796863616666652
 30
0.0
 10
-3.251095151333885
 20
-6.773381531815442
 30
0.0
 10
-3.218745890838391
 20
-6.76166124604779
 30
0.0
  0
LINE
  5
1369
330
1E
100
AcDbEntity
  8
0
  6
Continuous
370
    15
100
AcDbLine
 10
-2.163162659941576
 20
-5.574779702133877
 30
0.0
 11
-2.163162659941576
 21
-5.8576375247391
 31
0.0
  0
LINE
  5
136A
330
1E
100
AcDbEntity
  8
0
  6
Continuous
370
    15
100
AcDbLine
 10
-2.163162659941576
 20
-5.8576375247391
 30
0.0
 11
-2.870269293614143
 21
-6.265841495492434
 31
0.0
  0
LINE
  5
136D
330
1E
100
AcDbEntity
  8
0
  6
Continuous
370
    15
100
AcDbLine
 10
-3.218745890838391
 20
-6.76166124604779
 30
0.0
 11
-2.511639257165811
 21
-6.353457275294427
 31
0.0
  0
LINE
  5
136E
330
1E
100
AcDbEntity
  8
0
  6
Continuous
370
    15
100
AcDbLine
 10
-2.511639257165811
 20
-6.353457275294427
 30
0.0
 11
-2.163162659941576
 21
-5.8576375247391
 31
0.0
  0
SPLINE
  5
136F
330
1E
100
AcDbEntity
  8
0
  6
Continuous
370
    15
100
AcDbSpline
210
0.0
220
0.0
230
1.0
 70
     8
 71
     3
 72
    11
 73
     7
 74
     0
 42
0.000000001
 43
0.0000000001
 40
0.0
 40
0.0
 40
0.0
 40
0.0
 40
0.2792223898643501
 40
0.5595471756307894
 40
0.7794804699333984
 40
1.0
 40
1.0
 40
1.0
 40
1.0
 10
-4.339736618375937
 20
-4.891412563625106
 30
0.0
 10
-4.356327400611633
 20
-4.843303410635524
 30
0.0
 10
-4.389574467030655
 20
-4.746895165256656
 30
0.0
 10
-4.368856111635381
 20
-4.601892638450262
 30
0.0
 10
-4.315002164843022
 20
-4.489142958838069
 30
0.0
 10
-4.260956093234625
 20
-4.448447416176161
 30
0.0
 10
-4.233897090195881
 20
-4.428072562282405
 30
0.0
  0
LINE
  5
1370
330
1E
100
AcDbEntity
  8
0
  6
Continuous
370
    15
100
AcDbLine
 10
-4.12783108855956
 20
-4.418588629999515
 30
0.0
 11
-4.233897090195881
 21
-4.428072562282405
 31
0.0
  0
SPLINE
  5
1371
330
1E
100
AcDbEntity
  8
0
  6
Continuous
370
    15
100
AcDbSpline
210
0.0
220
0.0
230
1.0
 70
     8
 71
     3
 72
    11
 73
     7
 74
     0
 42
0.000000001
 43
0.0000000001
 40
0.0
 40
0.0
 40
0.0
 40
0.0
 40
0.2797968966660591
 40
0.5608394324663443
 40
0.780807906027216
 40
1.0
 40
1.0
 40
1.0
 40
1.0
 10
-4.41360180213266
 20
-4.906090230653031
 30
0.0
 10
-4.433125485661761
 20
-4.857758314224152
 30
0.0
 10
-4.472259770997283
 20
-4.760879310550532
 30
0.0
 10
-4.459886583240773
 20
-4.615292187997876
 30
0.0
 10
-4.414131326732345
 20
-4.501261175619756
 30
0.0
 10
-4.364656681855578
 20
-4.458766346446576
 30
0.0
 10
-4.339963091832217
 20
-4.43755649456531
 30
0.0
  0
LINE
  5
1372
330
1E
100
AcDbEntity
  8
0
  6
Continuous
370
    15
100
AcDbLine
 10
-4.233897090195881
 20
-4.428072562282405
 30
0.0
 11
-4.339963091832217
 21
-4.43755649456531
 31
0.0
  0
LINE
  5
1373
330
1E
100
AcDbEntity
  8
0
  6
Continuous
370
    15
100
AcDbLine
 10
-4.339963091832217
 20
-4.43755649456531
 30
0.0
 11
-3.632856458159636
 21
-4.029352523811962
 31
0.0
  0
LINE
  5
1374
330
1E
100
AcDbEntity
  8
0
  6
Continuous
370
    15
100
AcDbLine
 10
-3.632856458159636
 20
-4.029352523811962
 30
0.0
 11
-3.420724454886979
 21
-4.010384659246181
 31
0.0
  0
SPLINE
  5
1375
330
1E
100
AcDbEntity
  8
0
  6
Continuous
370
    15
100
AcDbSpline
210
0.0
220
0.0
230
1.0
 70
     8
 71
     3
 72
    10
 73
     6
 74
     0
 42
0.000000001
 43
0.0000000001
 40
0.0
 40
0.0
 40
0.0
 40
0.0
 40
0.3373924389083611
 40
0.6834236349451024
 40
1.0
 40
1.0
 40
1.0
 40
1.0
 10
-4.660719245809701
 20
-5.257694006373707
 30
0.0
 10
-4.68712254415621
 20
-5.230604851774881
 30
0.0
 10
-4.740605183509018
 20
-5.175732938926397
 30
0.0
 10
-4.761985893551596
 20
-5.076248177761637
 30
0.0
 10
-4.730066398974855
 20
-5.020950453133959
 30
0.0
 10
-4.714816108816904
 20
-4.994530663070616
 30
0.0
  0
SPLINE
  5
1376
330
1E
100
AcDbEntity
  8
0
  6
Continuous
370
    15
100
AcDbSpline
210
0.0
220
0.0
230
1.0
 70
     8
 71
     3
 72
    10
 73
     6
 74
     0
 42
0.000000001
 43
0.0000000001
 40
0.0
 40
0.0
 40
0.0
 40
0.0
 40
0.364460381548543
 40
0.7305425813206044
 40
1.0
 40
1.0
 40
1.0
 40
1.0
 10
-3.765582300649015
 20
-6.57629315137731
 30
0.0
 10
-3.748253994924851
 20
-6.622672353105254
 30
0.0
 10
-3.713520273964888
 20
-6.715637140130905
 30
0.0
 10
-3.617088703736044
 20
-6.793409225100358
 30
0.0
 10
-3.550687708926204
 20
-6.801117871795579
 30
0.0
 10
-3.522534876058273
 20
-6.804386199968501
 30
0.0
  0
SPLINE
  5
1377
330
1E
100
AcDbEntity
  8
0
  6
Continuous
370
    15
100
AcDbSpline
210
0.0
220
0.0
230
1.0
 70
     8
 71
     3
 72
     9
 73
     5
 74
     0
 42
0.000000001
 43
0.0000000001
 40
0.0
 40
0.0
 40
0.0
 40
0.0
 40
0.6552359536582443
 40
1.0
 40
1.0
 40
1.0
 40
1.0
 10
-4.660719245809701
 20
-5.462751304061111
 30
0.0
 10
-4.688515991601349
 20
-5.446519158368072
 30
0.0
 10
-4.730938489384698
 20
-5.421746180630176
 30
0.0
 10
-4.736871356907528
 20
-5.384054878512639
 30
0.0
 10
-4.738916796321092
 20
-5.371060272682708
 30
0.0
  0
ARC
  5
1379
330
1E
100
AcDbEntity
  8
0
  6
Continuous
370
    15
100
AcDbCircle
 10
-2.329011164679144
 20
-5.666159486192253
 30
0.0
 40
0.4659462297839737
100
AcDbArc
 50
289.3532196725605
 51
342.1728341970435
  0
ARC
  5
137A
330
1E
100
AcDbEntity
  8
0
  6
Continuous
370
    15
100
AcDbCircle
 10
-3.678544665679083
 20
-5.583419272194955
 30
0.0
 40
1.849847382884793
100
AcDbArc
 50
7.228311663893546
 51
28.09857810500755
  0
ARC
  5
137B
330
1E
100
AcDbEntity
  8
0
  6
Continuous
370
    15
100
AcDbCircle
 10
-3.363731782060625
 20
-5.114061582306472
 30
0.0
 40
1.315575808852822
100
AcDbArc
 50
42.09257944250004
 51
68.4254570393205
  0
LINE
  5
137C
330
1E
100
AcDbEntity
  8
0
  6
Continuous
370
    15
100
AcDbLine
 10
-3.482008409236499
 20
-3.975320256626243
 30
0.0
 11
-3.525251833134845
 21
-4.019731107557088
 31
0.0
  0
LINE
  5
137D
330
1E
100
AcDbEntity
  8
0
  6
Continuous
370
    15
100
AcDbLine
 10
-3.436149674606355
 20
-3.977934873686233
 30
0.0
 11
-3.482008409236499
 21
-3.975320256626243
 31
0.0
  0
LINE
  5
137E
330
1E
100
AcDbEntity
  8
0
  6
Continuous
370
    15
100
AcDbLine
 10
-2.542516696929411
 20
-4.597662004181298
 30
0.0
 11
-2.616166602486472
 21
-4.546586265144167
 31
0.0
  0
LINE
  5
137F
330
1E
100
AcDbEntity
  8
0
  6
Continuous
370
    15
100
AcDbLine
 10
-3.233531976649175
 20
-4.118448576727697
 30
0.0
 11
-3.436149674606355
 21
-3.977934873686233
 31
0.0
  0
LINE
  5
1380
330
1E
100
AcDbEntity
  8
0
  6
Continuous
370
    15
100
AcDbLine
 10
-2.501694049715155
 20
-4.65515996681324
 30
0.0
 11
-2.542516696929411
 21
-4.597662004181298
 31
0.0
  0
LINE
  5
1381
330
1E
100
AcDbEntity
  8
0
  6
Continuous
370
    15
100
AcDbLine
 10
-2.132756145355642
 20
-5.813746647108242
 30
0.0
 11
-2.163162659941576
 21
-5.718260190224366
 31
0.0
  0
LINE
  5
1382
330
1E
100
AcDbEntity
  8
0
  6
Continuous
370
    15
100
AcDbLine
 10
-2.418042960424273
 20
-4.917851970087635
 30
0.0
 11
-2.501694049715155
 21
-4.65515996681324
 31
0.0
  0
LINE
  5
1383
330
1E
100
AcDbEntity
  8
0
  6
Continuous
370
    15
100
AcDbLine
 10
-2.137792232771545
 20
-5.868629992680208
 30
0.0
 11
-2.132756145355642
 21
-5.813746647108242
 31
0.0
  0
LINE
  5
1384
330
1E
100
AcDbEntity
  8
0
  6
Continuous
370
    15
100
AcDbLine
 10
-2.256758890828663
 20
-5.990808416492992
 30
0.0
 11
-2.137792232771545
 21
-5.868629992680208
 31
0.0
  0
LINE
  5
1385
330
1E
100
AcDbEntity
  8
0
  6
Continuous
370
    15
100
AcDbLine
 10
-3.436149674606355
 20
-3.977934873686233
 30
0.0
 11
-3.404192485267486
 21
-3.931477497398073
 31
0.0
  0
LINE
  5
1386
330
1E
100
AcDbEntity
  8
0
  6
Continuous
370
    15
100
AcDbLine
 10
-3.404192485267486
 20
-3.931477497398073
 30
0.0
 11
-2.499675512016523
 21
-4.558752626677073
 31
0.0
  0
LINE
  5
1387
330
1E
100
AcDbEntity
  8
0
  6
Continuous
370
    15
100
AcDbLine
 10
-2.542516696929411
 20
-4.597662004181298
 30
0.0
 11
-2.499675512016523
 21
-4.558752626677073
 31
0.0
  0
LINE
  5
1388
330
1E
100
AcDbEntity
  8
0
  6
Continuous
370
    15
100
AcDbLine
 10
-2.18147734247141
 20
-4.375060733390565
 30
0.0
 11
-3.085994315722359
 21
-3.747785604111566
 31
0.0
  0
LINE
  5
1389
330
1E
100
AcDbEntity
  8
0
  6
Continuous
370
    15
100
AcDbLine
 10
-2.499675512016523
 20
-4.558752626677073
 30
0.0
 11
-2.18147734247141
 21
-4.375060733390565
 31
0.0
  0
LINE
  5
138A
330
1E
100
AcDbEntity
  8
0
  6
Continuous
370
    15
100
AcDbLine
 10
-3.085994315722359
 20
-3.747785604111566
 30
0.0
 11
-3.404192485267486
 21
-3.931477497398073
 31
0.0
  0
LINE
  5
138B
330
1E
100
AcDbEntity
  8
0
  6
Continuous
370
    15
100
AcDbLine
 10
-2.499675512016523
 20
-4.558752626677073
 30
0.0
 11
-2.449974664090674
 21
-4.628755397381492
 31
0.0
  0
LINE
  5
138C
330
1E
100
AcDbEntity
  8
0
  6
Continuous
370
    15
100
AcDbLine
 10
-2.449974664090674
 20
-4.628755397381492
 30
0.0
 11
-2.501694049715155
 21
-4.65515996681324
 31
0.0
  0
LINE
  5
138D
330
1E
100
AcDbEntity
  8
0
  6
Continuous
370
    15
100
AcDbLine
 10
-2.449974664090674
 20
-4.628755397381492
 30
0.0
 11
-2.07654324713539
 21
-5.801453185676859
 31
0.0
  0
LINE
  5
138E
330
1E
100
AcDbEntity
  8
0
  6
Continuous
370
    15
100
AcDbLine
 10
-2.07654324713539
 20
-5.801453185676859
 30
0.0
 11
-2.132756145355642
 21
-5.813746647108242
 31
0.0
  0
LINE
  5
138F
330
1E
100
AcDbEntity
  8
0
  6
Continuous
370
    15
100
AcDbLine
 10
-2.18147734247141
 20
-4.375060733390565
 30
0.0
 11
-2.131776494545562
 21
-4.445063504094985
 31
0.0
  0
LINE
  5
1390
330
1E
100
AcDbEntity
  8
0
  6
Continuous
370
    15
100
AcDbLine
 10
-2.131776494545562
 20
-4.445063504094985
 30
0.0
 11
-2.449974664090674
 21
-4.628755397381492
 31
0.0
  0
LINE
  5
1391
330
1E
100
AcDbEntity
  8
0
  6
Continuous
370
    15
100
AcDbLine
 10
-1.758345077590277
 20
-5.617761292390323
 30
0.0
 11
-2.131776494545562
 21
-4.445063504094985
 31
0.0
  0
LINE
  5
1392
330
1E
100
AcDbEntity
  8
0
  6
Continuous
370
    15
100
AcDbLine
 10
-2.07654324713539
 20
-5.801453185676859
 30
0.0
 11
-1.758345077590277
 21
-5.617761292390323
 31
0.0
  0
LINE
  5
1393
330
1E
100
AcDbEntity
  8
0
  6
Continuous
370
    15
100
AcDbLine
 10
-2.07654324713539
 20
-5.801453185676859
 30
0.0
 11
-2.082674625776945
 21
-5.868272555378592
 31
0.0
  0
LINE
  5
1394
330
1E
100
AcDbEntity
  8
0
  6
Continuous
370
    15
100
AcDbLine
 10
-2.082674625776945
 20
-5.868272555378592
 30
0.0
 11
-2.137792232771545
 21
-5.868629992680208
 31
0.0
  0
LINE
  5
1395
330
1E
100
AcDbEntity
  8
0
  6
Continuous
370
    15
100
AcDbLine
 10
-1.764476456231847
 20
-5.68458066209207
 30
0.0
 11
-2.082674625776945
 21
-5.868272555378592
 31
0.0
  0
LINE
  5
1396
330
1E
100
AcDbEntity
  8
0
  6
Continuous
370
    15
100
AcDbLine
 10
-1.758345077590277
 20
-5.617761292390323
 30
0.0
 11
-1.764476456231847
 21
-5.68458066209207
 31
0.0
  0
LINE
  5
1397
330
1E
100
AcDbEntity
  8
0
  6
Continuous
370
    15
100
AcDbLine
 10
-2.082674625776945
 20
-5.868272555378592
 30
0.0
 11
-2.398862127230316
 21
-6.192996000245937
 31
0.0
  0
LINE
  5
1398
330
1E
100
AcDbEntity
  8
0
  6
Continuous
370
    15
100
AcDbLine
 10
-2.610903514778669
 20
-6.410761327661131
 30
0.0
 11
-2.613760214999857
 21
-6.413695347479045
 31
0.0
  0
LINE
  5
1399
330
1E
100
AcDbEntity
  8
0
  6
Continuous
370
    15
100
AcDbLine
 10
-2.613760214999857
 20
-6.413695347479045
 30
0.0
 11
-2.615583395470196
 21
-6.413462986902938
 31
0.0
  0
LINE
  5
139A
330
1E
100
AcDbEntity
  8
0
  6
Continuous
370
    15
100
AcDbLine
 10
-2.613760214999857
 20
-6.413695347479045
 30
0.0
 11
-2.29556204545473
 21
-6.230003454192523
 31
0.0
  0
LINE
  5
139B
330
1E
100
AcDbEntity
  8
0
  6
Continuous
370
    15
100
AcDbLine
 10
-2.29556204545473
 20
-6.230003454192523
 30
0.0
 11
-1.764476456231847
 21
-5.68458066209207
 31
0.0
  0
LINE
  5
139C
330
1E
100
AcDbEntity
  8
0
  6
Continuous
370
    15
100
AcDbLine
 10
-3.482008409236499
 20
-3.975320256626243
 30
0.0
 11
-3.460024678907672
 21
-3.928294115403868
 31
0.0
  0
LINE
  5
139D
330
1E
100
AcDbEntity
  8
0
  6
Continuous
370
    15
100
AcDbLine
 10
-3.460024678907672
 20
-3.928294115403868
 30
0.0
 11
-3.404192485267486
 21
-3.931477497398073
 31
0.0
  0
LINE
  5
139E
330
1E
100
AcDbEntity
  8
0
  6
Continuous
370
    15
100
AcDbLine
 10
-3.460024678907672
 20
-3.928294115403868
 30
0.0
 11
-3.141826509362545
 21
-3.744602222117375
 31
0.0
  0
LINE
  5
139F
330
1E
100
AcDbEntity
  8
0
  6
Continuous
370
    15
100
AcDbLine
 10
-3.141826509362545
 20
-3.744602222117375
 30
0.0
 11
-3.085994315722359
 21
-3.747785604111566
 31
0.0
  0
LINE
  5
13A0
330
1E
100
AcDbEntity
  8
0
  6
Continuous
370
    15
100
AcDbLine
 10
-3.551328351726354
 20
-4.022062490991782
 30
0.0
 11
-3.460024678907672
 21
-3.928294115403868
 31
0.0
  0
LINE
  5
13A1
330
1E
100
AcDbEntity
  8
0
  6
Continuous
370
    15
100
AcDbLine
 10
-2.613760214999857
 20
-6.413695347479045
 30
0.0
 11
-2.615785535706919
 21
-6.413579852103861
 31
0.0
  0
ARC
  5
13A2
330
1E
100
AcDbEntity
  8
0
  6
Continuous
370
    15
100
AcDbCircle
 10
-0.6431361909393872
 20
-9.671067950161951
 30
0.0
 40
1.42049661124231
100
AcDbArc
 50
311.7910637340674
 51
316.3209388211102
  0
ARC
  5
13A3
330
1E
100
AcDbEntity
  8
0
  6
Continuous
370
    15
100
AcDbCircle
 10
-16.21816829045144
 20
-30.03056067857071
 30
0.0
 40
25.51790813424109
100
AcDbArc
 50
49.41192717749628
 51
49.62080447714956
  0
ARC
  5
13A4
330
1E
100
AcDbEntity
  8
0
  6
Continuous
370
    15
100
AcDbCircle
 10
-0.7137770740443728
 20
-9.610782331032705
 30
0.0
 40
1.420336514675263
100
AcDbArc
 50
311.790593729196
 51
316.3209625994771
  0
ARC
  5
13A5
330
1E
100
AcDbEntity
  8
0
  6
Continuous
370
    15
100
AcDbCircle
 10
0.2062828784708728
 20
-10.7895574529417
 30
0.0
 40
0.1226818174403185
100
AcDbArc
 50
77.54141978311416
 51
100.9963600432789
  0
ARC
  5
13A6
330
1E
100
AcDbEntity
  8
0
  6
Continuous
370
    15
100
AcDbCircle
 10
1.248104654260231
 20
-9.565684268174575
 30
0.0
 40
1.533717147482739
100
AcDbArc
 50
221.8543084562694
 51
226.0096865294768
  0
ARC
  5
13A7
330
1E
100
AcDbEntity
  8
0
  6
Continuous
370
    15
100
AcDbCircle
 10
-15.44035789289731
 20
9.206187134342176
 30
0.0
 40
25.17005558104564
100
AcDbArc
 50
307.9278767749039
 51
308.1441423512841
  0
ARC
  5
13A8
330
1E
100
AcDbEntity
  8
0
  6
Continuous
370
    15
100
AcDbCircle
 10
1.173276085736503
 20
-9.624222525734776
 30
0.0
 40
1.533717147474107
100
AcDbArc
 50
221.854308456263
 51
226.0096865294928
  0
ARC
  5
13A9
330
1E
100
AcDbEntity
  8
0
  6
Continuous
370
    15
100
AcDbCircle
 10
0.1721936747682378
 20
-10.75025600224823
 30
0.0
 40
0.0680021631732146
100
AcDbArc
 50
160.5982937660395
 51
195.4795499262875
  0
ARC
  5
13AA
330
1E
100
AcDbEntity
  8
0
  6
Continuous
370
    15
100
AcDbCircle
 10
-0.3768267684701101
 20
-10.05381351408372
 30
0.0
 40
0.8627857870907421
100
AcDbArc
 50
297.7640495185868
 51
304.0818493457511
  0
ARC
  5
13AB
330
1E
100
AcDbEntity
  8
0
  6
Continuous
370
    15
100
AcDbCircle
 10
0.4921119341315717
 20
-10.34178026408467
 30
0.0
 40
0.6664858779063695
100
AcDbArc
 50
225.5144897712986
 51
233.5183301663724
  0
ARC
  5
13AC
330
1E
100
AcDbEntity
  8
0
  6
Continuous
370
    15
100
AcDbCircle
 10
-0.3059147732025167
 20
-10.11446995381049
 30
0.0
 40
0.8624833228427924
100
AcDbArc
 50
297.7629405996755
 51
304.0829582646565
  0
ARC
  5
13AD
330
1E
100
AcDbEntity
  8
0
  6
Continuous
370
    15
100
AcDbCircle
 10
0.2038844945970339
 20
-10.70898412028712
 30
0.0
 40
0.1227068664149342
100
AcDbArc
 50
257.5424172701828
 51
280.9924777734049
  0
ARC
  5
13AE
330
1E
100
AcDbEntity
  8
0
  6
Continuous
370
    15
100
AcDbCircle
 10
0.7416988440729427
 20
-10.14087886062964
 30
0.0
 40
0.8595000315052386
100
AcDbArc
 50
233.2369722184583
 51
239.3518317101235
  0
ARC
  5
13AF
330
1E
100
AcDbEntity
  8
0
  6
Continuous
370
    15
100
AcDbCircle
 10
-0.0730189920714821
 20
-10.32185247581199
 30
0.0
 40
0.6735674130719747
100
AcDbArc
 50
303.9918748796105
 51
312.0800591887407
  0
ARC
  5
13B0
330
1E
100
AcDbEntity
  8
0
  6
Continuous
370
    15
100
AcDbCircle
 10
0.816417993045519
 20
-10.08251285265703
 30
0.0
 40
0.8592960637389204
100
AcDbArc
 50
233.2359187983755
 51
239.3522587395536
  0
ARC
  5
13B1
330
1E
100
AcDbEntity
  8
0
  6
Continuous
370
    15
100
AcDbCircle
 10
0.2379713194211916
 20
-10.74831117174879
 30
0.0
 40
0.0680012038815453
100
AcDbArc
 50
340.5980398397074
 51
15.47980385267273
  0
ARC
  5
13B2
330
1E
100
AcDbEntity
  8
0
  6
Continuous
370
    15
100
AcDbCircle
 10
0.0992904241923611
 20
-10.67332060228525
 30
0.0
 40
0.2966160239485317
100
AcDbArc
 50
133.2065670241397
 51
180.546421590245
  0
ARC
  5
13B3
330
1E
100
AcDbEntity
  8
0
  6
Continuous
370
    15
100
AcDbCircle
 10
0.3111286883366517
 20
-10.66545819801099
 30
0.0
 40
0.2915059100373598
100
AcDbArc
 50
2.651840220711821
 51
45.39962583731461
  0
LINE
  5
13B6
330
1E
100
AcDbEntity
  8
0
  6
Continuous
370
    15
100
AcDbLine
 10
0.3841947738359579
 20
-10.65208869987352
 30
0.0
 11
0.3103364060148834
 21
-10.59492677514064
 31
0.0
  0
LINE
  5
13B7
330
1E
100
AcDbEntity
  8
0
  6
Continuous
370
    15
100
AcDbLine
 10
0.1171817456832116
 20
-10.60831077701497
 30
0.0
 11
0.0999324893856226
 21
-10.59358742672648
 31
0.0
  0
SPLINE
  5
13B8
330
1E
100
AcDbEntity
  8
0
  6
Continuous
370
    15
100
AcDbSpline
210
0.0
220
0.0
230
1.0
 70
     8
 71
     3
 72
    10
 73
     6
 74
     0
 42
0.000000001
 43
0.0000000001
 40
0.0
 40
0.0
 40
0.0
 40
0.0
 40
0.1133774788410299
 40
0.930018526082572
 40
1.0
 40
1.0
 40
1.0
 40
1.0
 10
0.1080531663496771
 20
-10.72766641668218
 30
0.0
 10
0.1083824419565929
 20
-10.72314122610087
 30
0.0
 10
0.1110834405830161
 20
-10.68602176359656
 30
0.0
 10
0.1141013041059153
 20
-10.64621304041473
 30
0.0
 10
0.1169563924095343
 20
-10.61108356102089
 30
0.0
 10
0.1171817456832116
 20
-10.60831077701497
 30
0.0
  0
SPLINE
  5
13B9
330
1E
100
AcDbEntity
  8
0
  6
Continuous
370
    15
100
AcDbSpline
210
0.0
220
0.0
230
1.0
 70
     8
 71
     3
 72
    10
 73
     6
 74
     0
 42
0.000000001
 43
0.0000000001
 40
0.0
 40
0.0
 40
0.0
 40
0.0
 40
0.0699811224667876
 40
0.8866229019035976
 40
1.0
 40
1.0
 40
1.0
 40
1.0
 10
0.2857319978165407
 20
-10.61046274480398
 30
0.0
 10
0.2861596641799053
 20
-10.61324396799011
 30
0.0
 10
0.2915779652700507
 20
-10.6484805587336
 30
0.0
 10
0.297476385524746
 20
-10.68840139399416
 30
0.0
 10
0.3028505911646988
 20
-10.72562399266953
 30
0.0
 10
0.3035057518875135
 20
-10.7301617395082
 30
0.0
  0
SPLINE
  5
13BA
330
1E
100
AcDbEntity
  8
0
  6
Continuous
370
    15
100
AcDbSpline
210
0.0
220
0.0
230
1.0
 70
     8
 71
     3
 72
     9
 73
     5
 74
     0
 42
0.000000001
 43
0.0000000001
 40
0.0
 40
0.0
 40
0.0
 40
0.0
 40
0.5791529581998064
 40
1.0
 40
1.0
 40
1.0
 40
1.0
 10
0.1092739761585619
 20
-10.73036280589701
 30
0.0
 10
0.1087528472014867
 20
-10.73771851221525
 30
0.0
 10
0.1078530348985396
 20
-10.75041931295204
 30
0.0
 10
0.107012129797198
 20
-10.76307802046819
 30
0.0
 10
0.1066582373728551
 20
-10.76840540007938
 30
0.0
  0
SPLINE
  5
13BB
330
1E
100
AcDbEntity
  8
0
  6
Continuous
370
    15
100
AcDbSpline
210
0.0
220
0.0
230
1.0
 70
     8
 71
     3
 72
    10
 73
     6
 74
     0
 42
0.000000001
 43
0.0000000001
 40
0.0
 40
0.0
 40
0.0
 40
0.0
 40
0.113377060123234
 40
0.9300182776381202
 40
0.9999999999999998
 40
0.9999999999999998
 40
0.9999999999999998
 40
0.9999999999999998
 10
0.3021108229106915
 20
-10.7709007229054
 30
0.0
 10
0.3014832013187458
 20
-10.76555869456033
 30
0.0
 10
0.2963348974968625
 20
-10.72173868374693
 30
0.0
 10
0.2906863049160222
 20
-10.67453487357795
 30
0.0
 10
0.2854989926366045
 20
-10.63253880551472
 30
0.0
 10
0.2850895547217647
 20
-10.62922402868762
 30
0.0
  0
ARC
  5
13BC
330
1E
100
AcDbEntity
  8
0
  6
Continuous
370
    15
100
AcDbCircle
 10
0.2289071413725594
 20
-10.61788005132613
 30
0.0
 40
0.0573162227656221
100
AcDbArc
 50
348.5846978453172
 51
358.4440744157616
  0
LINE
  5
13BD
330
1E
100
AcDbEntity
  8
0
  6
Continuous
370
    15
100
AcDbLine
 10
0.1141051245235758
 20
-10.66134300151547
 30
0.0
 11
0.1650765682231281
 21
-10.70485104915273
 31
0.0
  0
LINE
  5
13BE
330
1E
100
AcDbEntity
  8
0
  6
Continuous
370
    15
100
AcDbLine
 10
0.0958423682282046
 20
-10.87766631222119
 30
0.0
 11
0.1650765682231281
 21
-10.70485104915273
 31
0.0
  0
LINE
  5
13BF
330
1E
100
AcDbEntity
  8
0
  6
Continuous
370
    15
100
AcDbLine
 10
0.303555932979009
 20
-10.88031857664145
 30
0.0
 11
0.2312708609147478
 21
-10.70569643108727
 31
0.0
  0
LINE
  5
13C0
330
1E
100
AcDbEntity
  8
0
  6
Continuous
370
    15
100
AcDbLine
 10
0.2312708609147478
 20
-10.70569643108727
 30
0.0
 11
0.2888953163606231
 21
-10.66061714079742
 31
0.0
  0
SPLINE
  5
13C1
330
1E
100
AcDbEntity
  8
0
  6
Continuous
370
    15
100
AcDbSpline
210
0.0
220
0.0
230
1.0
 70
     8
 71
     3
 72
    10
 73
     6
 74
     0
 42
0.000000001
 43
0.0000000001
 40
0.0
 40
0.0
 40
0.0
 40
0.0
 40
0.1133770373235422
 40
0.9300184774547057
 40
1.0
 40
1.0
 40
1.0
 40
1.0
 10
0.1774145642163063
 20
-10.82880197309297
 30
0.0
 10
0.1777713572444952
 20
-10.82347274175874
 30
0.0
 10
0.1806980884122566
 20
-10.77975768509058
 30
0.0
 10
0.1839655498051513
 20
-10.73266247824751
 30
0.0
 10
0.187052013552929
 20
-10.69077600553971
 30
0.0
 10
0.1872956294318868
 20
-10.6874698886698
 30
0.0
  0
ARC
  5
13C2
330
1E
100
AcDbEntity
  8
0
  6
Continuous
370
    15
100
AcDbCircle
 10
0.2000966384028402
 20
-10.58428766057859
 30
0.0
 40
0.1039732562947999
100
AcDbArc
 50
262.9278979487276
 51
275.6101528032102
  0
SPLINE
  5
13C3
330
1E
100
AcDbEntity
  8
0
  6
Continuous
370
    15
100
AcDbSpline
210
0.0
220
0.0
230
1.0
 70
     8
 71
     3
 72
    10
 73
     6
 74
     0
 42
0.000000001
 43
0.0000000001
 40
0.0
 40
0.0
 40
0.0
 40
0.0
 40
0.0699812037483356
 40
0.8866226287020536
 40
1.0
 40
1.0
 40
1.0
 40
1.0
 10
0.2102609862043181
 20
-10.68776289461223
 30
0.0
 10
0.2106704015047853
 20
-10.69107744532541
 30
0.0
 10
0.2158574638943946
 20
-10.73307094513536
 30
0.0
 10
0.2215061337776945
 20
-10.78027765796146
 30
0.0
 10
0.2266546103668645
 20
-10.82409756183858
 30
0.0
 10
0.2272822543932449
 20
-10.82943958883002
 30
0.0
  0
LINE
  5
13C4
330
1E
100
AcDbEntity
  8
0
  6
Continuous
370
    15
100
AcDbLine
 10
0.1872956294318868
 20
-10.6874698886698
 30
0.0
 11
0.1650765682231281
 21
-10.70485104915273
 31
0.0
  0
LINE
  5
13C5
330
1E
100
AcDbEntity
  8
0
  6
Continuous
370
    15
100
AcDbLine
 10
0.2312708609147478
 20
-10.70569643108727
 30
0.0
 11
0.2102609862043181
 21
-10.68776289461223
 31
0.0
  0
LINE
  5
13C6
330
1E
100
AcDbEntity
  8
0
  6
Continuous
370
    15
100
AcDbLine
 10
0.1184835893938043
 20
-10.60309607597764
 30
0.0
 11
0.1171817456832116
 21
-10.60831077701497
 31
0.0
  0
ARC
  5
13C7
330
1E
100
AcDbEntity
  8
0
  6
Continuous
370
    15
100
AcDbCircle
 10
0.2073744068707697
 20
-10.60697801315266
 30
0.0
 40
0.0808364361701106
100
AcDbArc
 50
272.0464036964742
 51
344.0261933780402
  0
ARC
  5
13C8
330
1E
100
AcDbEntity
  8
0
  6
Continuous
370
    15
100
AcDbCircle
 10
0.1914308896000847
 20
-10.61098077669232
 30
0.0
 40
0.0766008134928169
100
AcDbArc
 50
192.1267441741789
 51
266.9054089803365
  0
LINE
  5
13C9
330
1E
100
AcDbEntity
  8
0
  6
Continuous
370
    15
100
AcDbLine
 10
-0.3090436039702524
 20
-25.59621284297984
 30
0.0
 11
2.436436319416571
 21
-10.12534239114772
 31
0.0
  0
LINE
  5
13CA
330
1E
100
AcDbEntity
  8
0
  6
Continuous
370
    15
100
AcDbLine
 10
-0.7089826968382198
 20
-25.60024286464412
 30
0.0
 11
-0.3090436039702524
 21
-25.59621284297984
 31
0.0
  0
LINE
  5
13CC
330
1E
100
AcDbEntity
  8
0
  6
Continuous
370
    15
100
AcDbLine
 10
-0.8717507141645057
 20
-25.50627888832112
 30
0.0
 11
-0.8717507141645057
 21
-10.38667173029901
 31
0.0
  0
ARC
  5
13CD
330
1E
100
AcDbEntity
  8
0
  6
Continuous
370
    15
100
AcDbCircle
 10
2.704380263348284
 20
1.223246109551542
 30
0.0
 40
0.8173728310096324
100
AcDbArc
 50
298.5548803015868
 51
306.3311089550798
  0
ARC
  5
13CE
330
1E
100
AcDbEntity
  8
0
  6
Continuous
370
    15
100
AcDbCircle
 10
0.8013568559537418
 20
-0.2303088108629048
 30
0.0
 40
2.408797643514764
100
AcDbArc
 50
16.07712055602512
 51
17.78125109638989
  0
ARC
  5
13CF
330
1E
100
AcDbEntity
  8
0
  6
Continuous
370
    15
100
AcDbCircle
 10
2.725241618724297
 20
1.154709006768872
 30
0.0
 40
0.8173726213445023
100
AcDbArc
 50
298.5548798459596
 51
306.3311098300018
  0
ARC
  5
13D0
330
1E
100
AcDbEntity
  8
0
  6
Continuous
370
    15
100
AcDbCircle
 10
3.226860973950834
 20
0.5356221906632364
 30
0.0
 40
0.04305209924991
100
AcDbArc
 50
246.2103076307971
 51
288.5292136971359
  0
ARC
  5
13D1
330
1E
100
AcDbEntity
  8
0
  6
Continuous
370
    15
100
AcDbCircle
 10
2.951812527268032
 20
0.4413058670696337
 30
0.0
 40
0.293643951230287
100
AcDbArc
 50
357.9538046437135
 51
10.4967475849837
  0
ARC
  5
13D2
330
1E
100
AcDbEntity
  8
0
  6
Continuous
370
    15
100
AcDbCircle
 10
2.902586243041668
 20
0.8722966533118103
 30
0.0
 40
0.5588668731407357
100
AcDbArc
 50
307.8194062815382
 51
317.5643137546412
  0
ARC
  5
13D3
330
1E
100
AcDbEntity
  8
0
  6
Continuous
370
    15
100
AcDbCircle
 10
3.021592545441549
 20
0.5056790021504903
 30
0.0
 40
0.2936443656021565
100
AcDbArc
 50
357.9538160447385
 51
10.49674096168596
  0
ARC
  5
13D4
330
1E
100
AcDbEntity
  8
0
  6
Continuous
370
    15
100
AcDbCircle
 10
3.171477122378561
 20
0.6361256571758283
 30
0.0
 40
0.1587436240684497
100
AcDbArc
 50
331.0040413122831
 51
348.582488128923
  0
ARC
  5
13D5
330
1E
100
AcDbEntity
  8
0
  6
Continuous
370
    15
100
AcDbCircle
 10
2.888251550166842
 20
0.9819661307388152
 30
0.0
 40
0.5787042435740343
100
AcDbArc
 50
319.3140030222151
 51
329.1053822870711
  0
ARC
  5
13D6
330
1E
100
AcDbEntity
  8
0
  6
Continuous
370
    15
100
AcDbCircle
 10
3.033803019469416
 20
0.6154174652340068
 30
0.0
 40
0.3578379039834778
100
AcDbArc
 50
11.18406943112884
 51
22.67430222129648
  0
ARC
  5
13D7
330
1E
100
AcDbEntity
  8
0
  6
Continuous
370
    15
100
AcDbCircle
 10
2.867390042217095
 20
1.050503216129488
 30
0.0
 40
0.5787045494330391
100
AcDbArc
 50
319.31400830792
 51
329.1053815237507
  0
ARC
  5
13D8
330
1E
100
AcDbEntity
  8
0
  6
Continuous
370
    15
100
AcDbCircle
 10
3.288851907058798
 20
0.6338443341431521
 30
0.0
 40
0.0430518206424083
100
AcDbArc
 50
66.21044917498427
 51
108.5296323152853
  0
ARC
  5
13D9
330
1E
100
AcDbEntity
  8
0
  6
Continuous
370
    15
100
AcDbCircle
 10
2.428555679740128
 20
0.3214678652440916
 30
0.0
 40
0.9173352549765736
100
AcDbArc
 50
22.64525520360932
 51
28.50848670163184
  0
ARC
  5
13DA
330
1E
100
AcDbEntity
  8
0
  6
Continuous
370
    15
100
AcDbCircle
 10
2.316452648321757
 20
1.684630575298502
 30
0.0
 40
1.303587138450629
100
AcDbArc
 50
310.6050233276502
 51
314.7786967085226
  0
ARC
  5
13DB
330
1E
100
AcDbEntity
  8
0
  6
Continuous
370
    15
100
AcDbCircle
 10
2.35877716247117
 20
0.2570955722042818
 30
0.0
 40
0.9173331476272222
100
AcDbArc
 50
22.64525027855038
 51
28.50849524336762
  0
ARC
  5
13DC
330
1E
100
AcDbEntity
  8
0
  6
Continuous
370
    15
100
AcDbCircle
 10
3.344234707131931
 20
0.5333407083563806
 30
0.0
 40
0.1587427884877237
100
AcDbArc
 50
151.0039586999836
 51
168.5824466487482
  0
LINE
  5
13DD
330
1E
100
AcDbEntity
  8
0
  6
Continuous
370
    15
100
AcDbLine
 10
3.251998252982133
 20
0.3767604471130745
 30
0.0
 11
3.305531648844677
 21
0.4335994451723515
 31
0.0
  0
SPLINE
  5
13E1
330
1E
100
AcDbEntity
  8
0
  6
Continuous
370
    15
100
AcDbSpline
210
0.0
220
0.0
230
1.0
 70
     8
 71
     3
 72
     9
 73
     5
 74
     0
 42
0.000000001
 43
0.0000000001
 40
0.0
 40
0.0
 40
0.0
 40
0.0
 40
0.7921387745826149
 40
1.0
 40
1.0
 40
1.0
 40
1.0
 10
3.190045705147028
 20
0.7181439101138701
 30
0.0
 10
3.212508873741384
 20
0.7066998695282543
 30
0.0
 10
3.240866491516399
 20
0.6922528547464744
 30
0.0
 10
3.269266905813296
 20
0.677691139577636
 30
0.0
 10
3.275170250731406
 20
0.6746643236184618
 30
0.0
  0
SPLINE
  5
13E2
330
1E
100
AcDbEntity
  8
0
  6
Continuous
370
    15
100
AcDbSpline
210
0.0
220
0.0
230
1.0
 70
     8
 71
     3
 72
     9
 73
     5
 74
     0
 42
0.000000001
 43
0.0000000001
 40
0.0
 40
0.0
 40
0.0
 40
0.0
 40
0.2739161845384043
 40
0.9999999999999998
 40
0.9999999999999998
 40
0.9999999999999998
 40
0.9999999999999998
 10
3.209494588593187
 20
0.4962281313467294
 30
0.0
 10
3.203920723780939
 20
0.5001511215657111
 30
0.0
 10
3.183571926860977
 20
0.5144729851153223
 30
0.0
 10
3.163314644823628
 20
0.5288685003633482
 30
0.0
 10
3.148606160191079
 20
0.5393208510001451
 30
0.0
  0
SPLINE
  5
13E3
330
1E
100
AcDbEntity
  8
0
  6
Continuous
370
    15
100
AcDbSpline
210
0.0
220
0.0
230
1.0
 70
     8
 71
     3
 72
     9
 73
     5
 74
     0
 42
0.000000001
 43
0.0000000001
 40
0.0
 40
0.0
 40
0.0
 40
0.0
 40
0.7698891924162751
 40
0.9999999999999998
 40
0.9999999999999998
 40
0.9999999999999998
 40
0.9999999999999998
 10
3.159872455257627
 20
0.5464824621825138
 30
0.0
 10
3.180581485656475
 20
0.5331901079392801
 30
0.0
 10
3.207480201215616
 20
0.5159248256439107
 30
0.0
 10
3.23435763303307
 20
0.498753211142617
 30
0.0
 10
3.240542420574371
 20
0.4948018370622158
 30
0.0
  0
LINE
  5
13E4
330
1E
100
AcDbEntity
  8
0
  6
Continuous
370
    15
100
AcDbLine
 10
3.384845267660978
 20
0.6848242769451396
 30
0.0
 11
3.320661807697263
 21
0.6907580933935158
 31
0.0
  0
LINE
  5
13E5
330
1E
100
AcDbEntity
  8
0
  6
Continuous
370
    15
100
AcDbLine
 10
3.226684691130344
 20
0.6994462023278381
 30
0.0
 11
3.175534855955419
 21
0.7041749510258093
 31
0.0
  0
SPLINE
  5
13E6
330
1E
100
AcDbEntity
  8
0
  6
Continuous
370
    15
100
AcDbSpline
210
0.0
220
0.0
230
1.0
 70
     8
 71
     3
 72
    10
 73
     6
 74
     0
 42
0.000000001
 43
0.0000000001
 40
0.0
 40
0.0
 40
0.0
 40
0.0
 40
0.0699821647486127
 40
0.886622670806402
 40
1.0
 40
1.0
 40
1.0
 40
1.0
 10
3.154294317799255
 20
0.6851085133981805
 30
0.0
 10
3.158336060335685
 20
0.6832447199064582
 30
0.0
 10
3.209541972230979
 20
0.6596318241153832
 30
0.0
 10
3.267114961228074
 20
0.6328049927060882
 30
0.0
 10
3.320563480725155
 20
0.6077550612471648
 30
0.0
 10
3.327079323927563
 20
0.6047012549462103
 30
0.0
  0
SPLINE
  5
13E7
330
1E
100
AcDbEntity
  8
0
  6
Continuous
370
    15
100
AcDbSpline
210
0.0
220
0.0
230
1.0
 70
     8
 71
     3
 72
     9
 73
     5
 74
     0
 42
0.000000001
 43
0.0000000001
 40
0.0
 40
0.0
 40
0.0
 40
0.0
 40
0.1599445176431463
 40
1.0
 40
1.0
 40
1.0
 40
1.0
 10
3.310322852369381
 20
0.5591750142564998
 30
0.0
 10
3.30413794986147
 20
0.5631269476781462
 30
0.0
 10
3.265468900124403
 20
0.5878350994791397
 30
0.0
 10
3.226769198150492
 20
0.6126774334880203
 30
0.0
 10
3.194259301341716
 20
0.6335463723666841
 30
0.0
  0
LINE
  5
13E8
330
1E
100
AcDbEntity
  8
0
  6
Continuous
370
    15
100
AcDbLine
 10
3.165748724046565
 20
0.6956754084082384
 30
0.0
 11
3.164899921914312
 21
0.6948923229690287
 31
0.0
  0
LINE
  5
13E9
330
1E
100
AcDbEntity
  8
0
  6
Continuous
370
    15
100
AcDbLine
 10
3.315049674936616
 20
0.495194413536499
 30
0.0
 11
3.200319396656212
 21
0.6002526687569123
 31
0.0
  0
SPLINE
  5
13F1
330
1E
100
AcDbEntity
  8
0
  6
Continuous
370
    15
100
AcDbSpline
210
0.0
220
0.0
230
1.0
 70
     9
 71
     3
 72
    26
 73
    22
 74
     0
 42
0.000000001
 43
0.0000000001
 40
0.0
 40
0.0
 40
0.0
 40
0.0
 40
0.0535860316741098
 40
0.1071684732103943
 40
0.1608452495215118
 40
0.2145842705233136
 40
0.2682207144771441
 40
0.321749241647101
 40
0.3753331943315388
 40
0.4290494473619726
 40
0.4827683007064071
 40
0.5363568117488479
 40
0.5898851804846317
 40
0.6435165820795136
 40
0.6972544314223184
 40
0.7509360338351022
 40
0.8044856058484182
 40
0.858033972847658
 40
0.911713257816501
 40
0.9654517831988771
 40
1.0
 40
1.0
 40
1.0
 40
1.0
 10
-2.612628308699541
 20
-7.539003055936969
 30
0.0
 10
-2.588631451756796
 20
-7.549947318825086
 30
0.0
 10
-2.540639345604162
 20
-7.57183511136149
 30
0.0
 10
-2.474712121390098
 20
-7.56490248189041
 30
0.0
 10
-2.423616087232275
 20
-7.529119556788071
 30
0.0
 10
-2.393908148869527
 20
-7.466343255407391
 30
0.0
 10
-2.389695012207681
 20
-7.384796861198051
 30
0.0
 10
-2.411450013430538
 20
-7.293648094820948
 30
0.0
 10
-2.456200660541554
 20
-7.202796880458389
 30
0.0
 10
-2.518154813929939
 20
-7.121826173767015
 30
0.0
 10
-2.589474869632596
 20
-7.05946410972653
 30
0.0
 10
-2.661517542041778
 20
-7.02253775467447
 30
0.0
 10
-2.726298332270999
 20
-7.015157911194588
 30
0.0
 10
-2.777307779352852
 20
-7.03849294591853
 30
0.0
 10
-2.809704985174761
 20
-7.090569771005643
 30
0.0
 10
-2.820531995607325
 20
-7.165982597252845
 30
0.0
 10
-2.808907657310669
 20
-7.256217777976754
 30
0.0
 10
-2.77589133017696
 20
-7.351126943576527
 30
0.0
 10
-2.724333960932398
 20
-7.439181734679745
 30
0.0
 10
-2.666781408954705
 20
-7.503385873742981
 30
0.0
 10
-2.627859258125766
 20
-7.528985466950455
 30
0.0
 10
-2.612628308699541
 20
-7.539003055936969
 30
0.0
  0
SPLINE
  5
13F4
330
1E
100
AcDbEntity
  8
0
  6
Continuous
370
    15
100
AcDbSpline
210
0.0
220
0.0
230
1.0
 70
     8
 71
     3
 72
    13
 73
     9
 74
     0
 42
0.000000001
 43
0.0000000001
 40
0.0
 40
0.0
 40
0.0
 40
0.0
 40
0.1705362355499873
 40
0.3410601443230896
 40
0.5119110945433225
 40
0.6829765229662315
 40
0.8536870814535905
 40
1.0
 40
1.0
 40
1.0
 40
1.0
 10
-2.703324210791805
 20
-7.101475510079691
 30
0.0
 10
-2.701173943999521
 20
-7.130435924950429
 30
0.0
 10
-2.696873565841514
 20
-7.188354661362236
 30
0.0
 10
-2.663059992433886
 20
-7.284082212711862
 30
0.0
 10
-2.612203868419555
 20
-7.372735542090676
 30
0.0
 10
-2.547263079289308
 20
-7.444054170901988
 30
0.0
 10
-2.477982659944856
 20
-7.490756547957712
 30
0.0
 10
-2.43509459010383
 20
-7.496710296583184
 30
0.0
 10
-2.415300855179282
 20
-7.499458075220356
 30
0.0
  0
SPLINE
  5
13F5
330
1E
100
AcDbEntity
  8
0
  6
Continuous
370
    15
100
AcDbSpline
210
0.0
220
0.0
230
1.0
 70
     8
 71
     3
 72
     9
 73
     5
 74
     0
 42
0.000000001
 43
0.0000000001
 40
0.0
 40
0.0
 40
0.0
 40
0.0
 40
0.416161717981513
 40
1.0
 40
1.0
 40
1.0
 40
1.0
 10
-2.687287022124763
 20
-7.024407117719871
 30
0.0
 10
-2.69166872679537
 20
-7.032989249564774
 30
0.0
 10
-2.70219757767542
 20
-7.053611357447575
 30
0.0
 10
-2.702908908579075
 20
-7.083831710860888
 30
0.0
 10
-2.703324210791805
 20
-7.101475510079691
 30
0.0
  0
ARC
  5
13F6
330
1E
100
AcDbEntity
  8
0
  6
Continuous
370
    15
100
AcDbCircle
 10
2.797120175101966
 20
-8.016311798836067
 30
0.0
 40
0.8141754949709076
100
AcDbArc
 50
291.5631268793643
 51
299.0668926453846
  0
ARC
  5
13F7
330
1E
100
AcDbEntity
  8
0
  6
Continuous
370
    15
100
AcDbCircle
 10
1.624823850620529
 20
-8.97191348244166
 30
0.0
 40
1.484842607180264
100
AcDbArc
 50
4.626598102506545
 51
7.678947693317649
  0
ARC
  5
13F8
330
1E
100
AcDbEntity
  8
0
  6
Continuous
370
    15
100
AcDbCircle
 10
2.805684071292333
 20
-8.095132896623834
 30
0.0
 40
0.8139732450946667
100
AcDbArc
 50
291.5621933047996
 51
299.0678262199466
  0
ARC
  5
13F9
330
1E
100
AcDbEntity
  8
0
  6
Continuous
370
    15
100
AcDbCircle
 10
3.225498870842372
 20
-8.7798705666501
 30
0.0
 40
0.0361448622022307
100
AcDbArc
 50
227.6478753850015
 51
275.2882377022127
  0
ARC
  5
13FA
330
1E
100
AcDbEntity
  8
0
  6
Continuous
370
    15
100
AcDbCircle
 10
2.862922111240976
 20
-8.811349158461279
 30
0.0
 40
0.3659359160399211
100
AcDbArc
 50
347.461110280831
 51
359.2934570222201
  0
ARC
  5
13FB
330
1E
100
AcDbEntity
  8
0
  6
Continuous
370
    15
100
AcDbCircle
 10
2.969448510779074
 20
-8.462489806724388
 30
0.0
 40
0.4962723840972341
100
AcDbArc
 50
300.3399106145201
 51
310.6087017853416
  0
ARC
  5
13FC
330
1E
100
AcDbEntity
  8
0
  6
Continuous
370
    15
100
AcDbCircle
 10
2.935259015168952
 20
-8.759800614832183
 30
0.0
 40
0.3659359776721557
100
AcDbArc
 50
347.4611097206866
 51
359.2934546852383
  0
ARC
  5
13FD
330
1E
100
AcDbEntity
  8
0
  6
Continuous
370
    15
100
AcDbCircle
 10
3.16080647446067
 20
-8.667801071569979
 30
0.0
 40
0.1703399184445248
100
AcDbArc
 50
325.4875949588028
 51
342.2541799560641
  0
ARC
  5
13FE
330
1E
100
AcDbEntity
  8
0
  6
Continuous
370
    15
100
AcDbCircle
 10
2.995775034182329
 20
-8.359746306318651
 30
0.0
 40
0.486501914042493
100
AcDbArc
 50
312.2752248538635
 51
322.8566636226426
  0
ARC
  5
13FF
330
1E
100
AcDbEntity
  8
0
  6
Continuous
370
    15
100
AcDbCircle
 10
2.973888235732061
 20
-8.657890703533777
 30
0.0
 40
0.4097143424784138
100
AcDbArc
 50
0.6138049873058387
 51
11.6917408085179
  0
ARC
  5
1400
330
1E
100
AcDbEntity
  8
0
  6
Continuous
370
    15
100
AcDbCircle
 10
2.987244832816458
 20
-8.281060001447297
 30
0.0
 40
0.4865733807183397
100
AcDbArc
 50
312.2760041571853
 51
322.8558843193222
  0
ARC
  5
1401
330
1E
100
AcDbEntity
  8
0
  6
Continuous
370
    15
100
AcDbCircle
 10
3.290212775972221
 20
-8.66779669752341
 30
0.0
 40
0.0361478110116352
100
AcDbArc
 50
47.6499388085326
 51
95.28617427859726
  0
ARC
  5
1402
330
1E
100
AcDbEntity
  8
0
  6
Continuous
370
    15
100
AcDbCircle
 10
2.471770617056535
 20
-8.811110040931705
 30
0.0
 40
0.8346007891385458
100
AcDbArc
 50
12.40626594168791
 51
19.2308557859947
  0
ARC
  5
1403
330
1E
100
AcDbEntity
  8
0
  6
Continuous
370
    15
100
AcDbCircle
 10
2.467884366354411
 20
-7.501450682880626
 30
0.0
 40
1.303021059573781
100
AcDbArc
 50
303.520731422384
 51
307.4272418141263
  0
ARC
  5
1404
330
1E
100
AcDbEntity
  8
0
  6
Continuous
370
    15
100
AcDbCircle
 10
2.399367615504687
 20
-8.862675508288443
 30
0.0
 40
0.8346689225969436
100
AcDbArc
 50
12.40642770360702
 51
19.2305000931727
  0
ARC
  5
1405
330
1E
100
AcDbEntity
  8
0
  6
Continuous
370
    15
100
AcDbCircle
 10
3.354906196844495
 20
-8.77986313638544
 30
0.0
 40
0.1703399184438255
100
AcDbArc
 50
145.4875949587788
 51
162.2541799561049
  0
SPLINE
  5
140A
330
1E
100
AcDbEntity
  8
0
  6
Continuous
370
    15
100
AcDbSpline
210
0.0
220
0.0
230
1.0
 70
     8
 71
     3
 72
     9
 73
     5
 74
     0
 42
0.000000001
 43
0.0000000001
 40
0.0
 40
0.0
 40
0.0
 40
0.0
 40
0.8118271935574171
 40
1.0
 40
1.0
 40
1.0
 40
1.0
 10
3.191481476231032
 20
-8.584897895030987
 30
0.0
 10
3.21728963039277
 20
-8.597544078141279
 30
0.0
 10
3.249079836937397
 20
-8.613121510396123
 30
0.0
 10
3.280895604577821
 20
-8.628844067039718
 30
0.0
 10
3.286882466863829
 20
-8.631802624647772
 30
0.0
  0
SPLINE
  5
140B
330
1E
100
AcDbEntity
  8
0
  6
Continuous
370
    15
100
AcDbSpline
210
0.0
220
0.0
230
1.0
 70
     8
 71
     3
 72
     9
 73
     5
 74
     0
 42
0.000000001
 43
0.0000000001
 40
0.0
 40
0.0
 40
0.0
 40
0.0
 40
0.2347482883033637
 40
1.0
 40
1.0
 40
1.0
 40
1.0
 10
3.201148615321145
 20
-8.806582289164179
 30
0.0
 10
3.195592319199775
 20
-8.802745661354872
 30
0.0
 10
3.171923153552086
 20
-8.786402079738007
 30
0.0
 10
3.148364363012646
 20
-8.769989789434202
 30
0.0
 10
3.130335958226851
 20
-8.757430256186321
 30
0.0
  0
LINE
  5
140C
330
1E
100
AcDbEntity
  8
0
  6
Continuous
370
    15
100
AcDbLine
 10
3.314564055984632
 20
-8.641081918791581
 30
0.0
 11
3.299980085715162
 21
-8.634072588612777
 31
0.0
  0
SPLINE
  5
140D
330
1E
100
AcDbEntity
  8
0
  6
Continuous
370
    15
100
AcDbSpline
210
0.0
220
0.0
230
1.0
 70
     8
 71
     3
 72
     9
 73
     5
 74
     0
 42
0.000000001
 43
0.0000000001
 40
0.0
 40
0.0
 40
0.0
 40
0.0
 40
0.802298191739945
 40
1.0
 40
1.0
 40
1.0
 40
1.0
 10
3.136239877653324
 20
-8.754637644730902
 30
0.0
 10
3.161002855489982
 20
-8.771051361042761
 30
0.0
 10
3.191867910517672
 20
-8.791509734850446
 30
0.0
 10
3.22272892589676
 20
-8.811841881207396
 30
0.0
 10
3.228830204441948
 20
-8.81586158330796
 30
0.0
  0
LINE
  5
140E
330
1E
100
AcDbEntity
  8
0
  6
Continuous
370
    15
100
AcDbLine
 10
3.38357906767186
 20
-8.653501551337807
 30
0.0
 11
3.199738383416331
 21
-8.625910072510915
 31
0.0
  0
LINE
  5
140F
330
1E
100
AcDbEntity
  8
0
  6
Continuous
370
    15
100
AcDbLine
 10
3.292467006609584
 20
-8.839246134566362
 30
0.0
 11
3.188895411049273
 21
-8.730037674453722
 31
0.0
  0
SPLINE
  5
1410
330
1E
100
AcDbEntity
  8
0
  6
Continuous
370
    15
100
AcDbSpline
210
0.0
220
0.0
230
1.0
 70
     8
 71
     3
 72
     9
 73
     5
 74
     0
 42
0.000000001
 43
0.0000000001
 40
0.0
 40
0.0
 40
0.0
 40
0.0
 40
0.8271072762944788
 40
1.0
 40
1.0
 40
1.0
 40
1.0
 10
3.209461467920348
 20
-8.665406739126151
 30
0.0
 10
3.240816695267525
 20
-8.680347099268853
 30
0.0
 10
3.278726200171931
 20
-8.698410487865356
 30
0.0
 10
3.31650892687945
 20
-8.716578652410557
 30
0.0
 10
3.323041285408933
 20
-8.719719795863507
 30
0.0
  0
SPLINE
  5
1411
330
1E
100
AcDbEntity
  8
0
  6
Continuous
370
    15
100
AcDbSpline
210
0.0
220
0.0
230
1.0
 70
     8
 71
     3
 72
     9
 73
     5
 74
     0
 42
0.000000001
 43
0.0000000001
 40
0.0
 40
0.0
 40
0.0
 40
0.0
 40
0.1950591235117994
 40
1.0
 40
1.0
 40
1.0
 40
1.0
 10
3.301167169813439
 20
-8.76431305536354
 30
0.0
 10
3.295065890664929
 20
-8.760293329889119
 30
0.0
 10
3.263786763399934
 20
-8.739685601308988
 30
0.0
 10
3.232503533857112
 20
-8.718950044791153
 30
0.0
 10
3.207322383649511
 20
-8.702259147753235
 30
0.0
  0
SPLINE
  5
1414
330
1E
100
AcDbEntity
  8
0
  6
Continuous
370
    15
100
AcDbSpline
210
0.0
220
0.0
230
1.0
 70
     8
 71
     3
 72
    10
 73
     6
 74
     0
 42
0.000000001
 43
0.0000000001
 40
0.0
 40
0.0
 40
0.0
 40
0.0
 40
0.3602051513790705
 40
0.7218310430272663
 40
1.0
 40
1.0
 40
1.0
 40
1.0
 10
-3.685662837348999
 20
-6.577219852429632
 30
0.0
 10
-3.6657158722833
 20
-6.623061131054821
 30
0.0
 10
-3.625743266273971
 20
-6.714924497908508
 30
0.0
 10
-3.520779817835631
 20
-6.79123652853698
 30
0.0
 10
-3.449146006858811
 20
-6.796771564012626
 30
0.0
 10
-3.418001175783132
 20
-6.79917807767617
 30
0.0
  0
LINE
  5
1416
330
1E
100
AcDbEntity
  8
0
  6
Continuous
370
    15
100
AcDbLine
 10
-0.7089826968382198
 20
-10.40823112219497
 30
0.0
 11
-0.7089826968382198
 21
-25.60024286464412
 31
0.0
  0
SPLINE
  5
1418
330
1E
100
AcDbEntity
  8
0
370
    20
100
AcDbSpline
210
0.0
220
0.0
230
1.0
 70
     8
 71
     3
 72
    13
 73
     9
 74
     0
 42
0.000000001
 43
0.0000000001
 40
-0.0730593390887745
 40
-0.0730593390887745
 40
-0.0730593390887745
 40
-0.0730593390887745
 40
0.0
 40
0.0
 40
0.0
 40
3.090628696193819
 40
6.154881507255216
 40
10.25908119665559
 40
10.25908119665559
 40
10.25908119665559
 40
10.25908119665559
 10
-4.205683027692344
 20
-5.233275913292413
 30
0.0
 10
-4.222982258949286
 20
-5.242939832572726
 30
0.0
 10
-4.240281490206228
 20
-5.252603751853055
 30
0.0
 10
-4.257580721463185
 20
-5.262267671133397
 30
0.0
 10
-4.9893899769488
 20
-5.671080378967868
 30
0.0
 10
-6.446763118851535
 20
-6.485216926162973
 30
0.0
 10
-7.704918706939992
 20
-9.176108528116937
 30
0.0
 10
-7.214687032113275
 20
-11.06552986086114
 30
0.0
 10
-6.881252223047226
 20
-12.14764603656517
 30
0.0
  0
SPLINE
  5
1419
330
1E
100
AcDbEntity
  8
0
370
    20
100
AcDbSpline
210
0.0
220
0.0
230
1.0
 70
     8
 71
     3
 72
    30
 73
    26
 74
     0
 42
0.000000001
 43
0.0000000001
 40
-0.1205317860312628
 40
-0.1205317860312628
 40
-0.1205317860312628
 40
-0.1205317860312628
 40
-0.0849451434312922
 40
-0.0849451434312922
 40
-0.0849451434312922
 40
0.0
 40
0.0
 40
0.0
 40
0.7747571797057181
 40
0.7747571797057181
 40
2.324271539117154
 40
2.324271539117154
 40
3.118517999488553
 40
3.118517999488553
 40
3.912764459859953
 40
3.912764459859953
 40
5.501257380602751
 40
5.501257380602751
 40
7.08975030134555
 40
7.08975030134555
 40
8.678243222088349
 40
8.678243222088349
 40
10.26673614283115
 40
10.26673614283115
 40
10.8057301198707
 40
10.8057301198707
 40
10.8057301198707
 40
10.8057301198707
 10
-3.664525017981731
 20
-6.122245145702233
 30
0.0
 10
-3.672981397827157
 20
-6.126968760804469
 30
0.0
 10
-3.681437777672584
 20
-6.131692375906705
 30
0.0
 10
-3.689894157518011
 20
-6.136415991008941
 30
0.0
 10
-3.710079495228953
 20
-6.147691237367066
 30
0.0
 10
-3.730264832939894
 20
-6.158966483725219
 30
0.0
 10
-3.750378424148095
 20
-6.170202596994453
 30
0.0
 10
-3.933827984284789
 20
-6.272683552063465
 30
0.0
 10
-4.111309186669515
 20
-6.371909152994316
 30
0.0
 10
-4.617661475955287
 20
-6.668052444311609
 30
0.0
 10
-4.919291136416035
 20
-6.863886523039692
 30
0.0
 10
-5.298588866922742
 20
-7.177914376981856
 30
0.0
 10
-5.41360247401289
 20
-7.286724203463673
 30
0.0
 10
-5.620341367929611
 20
-7.516990973104224
 30
0.0
 10
-5.717604064619422
 20
-7.644616560846738
 30
0.0
 10
-5.982897804067732
 20
-8.05499285049947
 30
0.0
 10
-6.123691982543874
 20
-8.365541711189916
 30
0.0
 10
-6.304119514906346
 20
-8.992883569998976
 30
0.0
 10
-6.341819563742078
 20
-9.29853856869219
 30
0.0
 10
-6.332230832823526
 20
-9.956382477803256
 30
0.0
 10
-6.284252379187847
 20
-10.30651385702424
 30
0.0
 10
-6.123657102288674
 20
-11.04864134496618
 30
0.0
 10
-6.01121402817634
 20
-11.43969938630587
 30
0.0
 10
-5.842909633624273
 20
-11.98558853818219
 30
0.0
 10
-5.798798436235173
 20
-12.12581580715276
 30
0.0
 10
-5.754086443326485
 20
-12.26793352612365
 30
0.0
  0
SPLINE
  5
141A
330
1E
100
AcDbEntity
  8
0
370
    15
100
AcDbSpline
210
0.0
220
0.0
230
1.0
 70
  1064
 71
     3
 72
    10
 73
     6
 74
     4
 42
0.000000001
 43
0.0000000001
 44
0.0000000001
 40
0.0
 40
0.0
 40
0.0
 40
0.0
 40
1.05003319338213
 40
1.99716532209297
 40
2.902429394837543
 40
2.902429394837543
 40
2.902429394837543
 40
2.902429394837543
 10
-7.431956623485802
 20
-12.80588744328022
 30
0.0
 10
-7.20787284561681
 20
-12.46016785635431
 30
0.0
 10
-6.781665033117049
 20
-11.802608481538
 30
0.0
 10
-5.747292800946508
 20
-12.44247289912148
 30
0.0
 10
-5.170194424839919
 20
-12.14790583624232
 30
0.0
 10
-4.888167056225114
 20
-12.00395122284543
 30
0.0
 11
-7.431956623485802
 21
-12.80588744328022
 31
0.0
 11
-6.680773378737555
 21
-12.07220260630063
 31
0.0
 11
-5.754086443326485
 21
-12.26793352612365
 31
0.0
 11
-4.888167056225114
 21
-12.00395122284543
 31
0.0
  0
LINE
  5
1438
330
1E
100
AcDbEntity
  8
0
  6
Continuous
370
    15
100
AcDbLine
 10
-0.0617011356348201
 20
-10.45483788497042
 30
0.0
 11
-0.135253741240831
 21
-10.53357272720829
 31
0.0
  0
LINE
  5
1439
330
1E
100
AcDbEntity
  8
0
  6
Continuous
370
    15
100
AcDbLine
 10
-0.135253741240831
 20
-10.53357272720829
 30
0.0
 11
-0.1756946960582439
 21
-10.62671841447274
 31
0.0
  0
LINE
  5
143A
330
1E
100
AcDbEntity
  8
0
  6
Continuous
370
    15
100
AcDbLine
 10
-0.1756946960582439
 20
-10.62671841447274
 30
0.0
 11
-0.1790651927045559
 21
-10.72515747848513
 31
0.0
  0
LINE
  5
143B
330
1E
100
AcDbEntity
  8
0
  6
Continuous
370
    15
100
AcDbLine
 10
-0.1790651927045559
 20
-10.72515747848513
 30
0.0
 11
-0.1450354320901539
 21
-10.81925310588064
 31
0.0
  0
LINE
  5
143C
330
1E
100
AcDbEntity
  8
0
  6
Continuous
370
    15
100
AcDbLine
 10
-0.1450354320901539
 20
-10.81925310588064
 30
0.0
 11
-0.0769364311180993
 21
-10.89979648483658
 31
0.0
  0
LINE
  5
143D
330
1E
100
AcDbEntity
  8
0
  6
Continuous
370
    15
100
AcDbLine
 10
-0.0769364311180993
 20
-10.89979648483658
 30
0.0
 11
0.0185657592840158
 21
-10.9589022126164
 31
0.0
  0
LINE
  5
143E
330
1E
100
AcDbEntity
  8
0
  6
Continuous
370
    15
100
AcDbLine
 10
0.0185657592840158
 20
-10.9589022126164
 30
0.0
 11
0.1321227705530816
 21
-10.99078394979789
 31
0.0
  0
LINE
  5
143F
330
1E
100
AcDbEntity
  8
0
  6
Continuous
370
    15
100
AcDbLine
 10
0.1321227705530816
 20
-10.99078394979789
 30
0.0
 11
0.2526188323755605
 21
-10.99232320998183
 31
0.0
  0
LINE
  5
1440
330
1E
100
AcDbEntity
  8
0
  6
Continuous
370
    15
100
AcDbLine
 10
0.2526188323755605
 20
-10.99232320998183
 30
0.0
 11
0.3682589187050809
 21
-10.96336637934371
 31
0.0
  0
LINE
  5
1441
330
1E
100
AcDbEntity
  8
0
  6
Continuous
370
    15
100
AcDbLine
 10
0.3682589187050809
 20
-10.96336637934371
 30
0.0
 11
0.4677234397028088
 21
-10.90675057430007
 31
0.0
  0
LINE
  5
1442
330
1E
100
AcDbEntity
  8
0
  6
Continuous
370
    15
100
AcDbLine
 10
0.4677234397028088
 20
-10.90675057430007
 30
0.0
 11
0.5412760782360522
 21
-10.82801514270038
 31
0.0
  0
LINE
  5
1443
330
1E
100
AcDbEntity
  8
0
  6
Continuous
370
    15
100
AcDbLine
 10
0.5412760782360522
 20
-10.82801514270038
 30
0.0
 11
0.5817169671990144
 21
-10.73487010182319
 31
0.0
  0
LINE
  5
1444
330
1E
100
AcDbEntity
  8
0
  6
Continuous
370
    15
100
AcDbLine
 10
0.5817169671990144
 20
-10.73487010182319
 30
0.0
 11
0.5850874967725446
 21
-10.63643101880232
 31
0.0
  0
LINE
  5
1445
330
1E
100
AcDbEntity
  8
0
  6
Continuous
370
    15
100
AcDbLine
 10
0.5850874967725446
 20
-10.63643101880232
 30
0.0
 11
0.5510576703036918
 21
-10.54233474501953
 31
0.0
  0
LINE
  5
1446
330
1E
100
AcDbEntity
  8
0
  6
Continuous
370
    15
100
AcDbLine
 10
0.5510576703036918
 20
-10.54233474501953
 30
0.0
 11
0.482958735186088
 21
-10.46179197443392
 31
0.0
  0
LINE
  5
1447
330
1E
100
AcDbEntity
  8
0
  6
Continuous
370
    15
100
AcDbLine
 10
0.482958735186088
 20
-10.46179197443392
 30
0.0
 11
0.4798887323987771
 21
-10.45920206093535
 31
0.0
  0
LINE
  5
148D
330
1E
100
AcDbEntity
  8
0
  6
Continuous
370
    15
100
AcDbLine
 10
3.244209564768141
 20
-8.254086227834402
 30
0.0
 11
3.211167110543726
 21
-8.240475927201057
 31
0.0
  0
LINE
  5
148E
330
1E
100
AcDbEntity
  8
0
  6
Continuous
370
    15
100
AcDbLine
 10
3.211167110543726
 20
-8.240475927201057
 30
0.0
 11
3.136451490641192
 21
-8.238499502876333
 31
0.0
  0
LINE
  5
148F
330
1E
100
AcDbEntity
  8
0
  6
Continuous
370
    15
100
AcDbLine
 10
3.136451490641192
 20
-8.238499502876333
 30
0.0
 11
3.053541226878664
 21
-8.268688813390351
 31
0.0
  0
LINE
  5
1490
330
1E
100
AcDbEntity
  8
0
  6
Continuous
370
    15
100
AcDbLine
 10
3.053541226878664
 20
-8.268688813390351
 30
0.0
 11
2.96980324675583
 21
-8.32836183416968
 31
0.0
  0
LINE
  5
1491
330
1E
100
AcDbEntity
  8
0
  6
Continuous
370
    15
100
AcDbLine
 10
2.96980324675583
 20
-8.32836183416968
 30
0.0
 11
2.892678028962208
 21
-8.412216415426922
 31
0.0
  0
LINE
  5
1492
330
1E
100
AcDbEntity
  8
0
  6
Continuous
370
    15
100
AcDbLine
 10
2.892678028962208
 20
-8.412216415426922
 30
0.0
 11
2.829018507009024
 21
-8.51280074703602
 31
0.0
  0
LINE
  5
1493
330
1E
100
AcDbEntity
  8
0
  6
Continuous
370
    15
100
AcDbLine
 10
2.829018507009024
 20
-8.51280074703602
 30
0.0
 11
2.78448109254333
 21
-8.621178224001209
 31
0.0
  0
LINE
  5
1494
330
1E
100
AcDbEntity
  8
0
  6
Continuous
370
    15
100
AcDbLine
 10
2.78448109254333
 20
-8.621178224001209
 30
0.0
 11
2.763023127686068
 21
-8.727718858184811
 31
0.0
  0
LINE
  5
1495
330
1E
100
AcDbEntity
  8
0
  6
Continuous
370
    15
100
AcDbLine
 10
2.763023127686068
 20
-8.727718858184811
 30
0.0
 11
2.766551279887579
 21
-8.822956253723145
 31
0.0
  0
LINE
  5
1496
330
1E
100
AcDbEntity
  8
0
  6
Continuous
370
    15
100
AcDbLine
 10
2.766551279887579
 20
-8.822956253723145
 30
0.0
 11
2.794752016107636
 21
-8.898427683981093
 31
0.0
  0
LINE
  5
1497
330
1E
100
AcDbEntity
  8
0
  6
Continuous
370
    15
100
AcDbLine
 10
2.794752016107636
 20
-8.898427683981093
 30
0.0
 11
2.844242063936448
 21
-8.946925430374829
 31
0.0
  0
LINE
  5
1498
330
1E
100
AcDbEntity
  8
0
  6
Continuous
370
    15
100
AcDbLine
 10
3.416997913009822
 20
-8.392845450866769
 30
0.0
 11
3.380275709638155
 21
-8.33749714137566
 31
0.0
  0
LINE
  5
1499
330
1E
100
AcDbEntity
  8
0
  6
Continuous
370
    15
100
AcDbLine
 10
3.380275709638155
 20
-8.33749714137566
 30
0.0
 11
3.320393566055557
 21
-8.303531017802665
 31
0.0
  0
LINE
  5
149A
330
1E
100
AcDbEntity
  8
0
  6
Continuous
370
    15
100
AcDbLine
 10
3.320393566055557
 20
-8.303531017802665
 30
0.0
 11
3.245677946153008
 21
-8.30155459347797
 31
0.0
  0
LINE
  5
149B
330
1E
100
AcDbEntity
  8
0
  6
Continuous
370
    15
100
AcDbLine
 10
3.245677946153008
 20
-8.30155459347797
 30
0.0
 11
3.16276768239048
 21
-8.331743903991959
 31
0.0
  0
LINE
  5
149C
330
1E
100
AcDbEntity
  8
0
  6
Continuous
370
    15
100
AcDbLine
 10
3.16276768239048
 20
-8.331743903991959
 30
0.0
 11
3.079029702267646
 21
-8.391416924771302
 31
0.0
  0
LINE
  5
149D
330
1E
100
AcDbEntity
  8
0
  6
Continuous
370
    15
100
AcDbLine
 10
3.079029702267646
 20
-8.391416924771302
 30
0.0
 11
3.00190448447401
 21
-8.475271506028573
 31
0.0
  0
LINE
  5
149E
330
1E
100
AcDbEntity
  8
0
  6
Continuous
370
    15
100
AcDbLine
 10
3.00190448447401
 20
-8.475271506028573
 30
0.0
 11
2.938244962520855
 21
-8.575855837637657
 31
0.0
  0
LINE
  5
149F
330
1E
100
AcDbEntity
  8
0
  6
Continuous
370
    15
100
AcDbLine
 10
2.938244962520855
 20
-8.575855837637657
 30
0.0
 11
2.893707548055147
 21
-8.684233314602845
 31
0.0
  0
LINE
  5
14A0
330
1E
100
AcDbEntity
  8
0
  6
Continuous
370
    15
100
AcDbLine
 10
2.893707548055147
 20
-8.684233314602845
 30
0.0
 11
2.872249583197884
 21
-8.790773948786434
 31
0.0
  0
LINE
  5
14A1
330
1E
100
AcDbEntity
  8
0
  6
Continuous
370
    15
100
AcDbLine
 10
2.872249583197884
 20
-8.790773948786434
 30
0.0
 11
2.875777735399395
 21
-8.886011344324767
 31
0.0
  0
LINE
  5
14A2
330
1E
100
AcDbEntity
  8
0
  6
Continuous
370
    15
100
AcDbLine
 10
2.875777735399395
 20
-8.886011344324767
 30
0.0
 11
2.903978471619439
 21
-8.961482774582716
 31
0.0
  0
LINE
  5
14A3
330
1E
100
AcDbEntity
  8
0
  6
Continuous
370
    15
100
AcDbLine
 10
2.903978471619439
 20
-8.961482774582716
 30
0.0
 11
2.954346062932387
 21
-9.010482603885176
 31
0.0
  0
LINE
  5
14A4
330
1E
100
AcDbEntity
  8
0
  6
Continuous
370
    15
100
AcDbLine
 10
2.954346062932387
 20
-9.010482603885176
 30
0.0
 11
3.022405098484611
 21
-9.028657185245744
 31
0.0
  0
LINE
  5
14A5
330
1E
100
AcDbEntity
  8
0
  6
Continuous
370
    15
100
AcDbLine
 10
3.022405098484611
 20
-9.028657185245744
 30
0.0
 11
3.050812617680193
 21
-9.027165379632148
 31
0.0
  0
LINE
  5
14A6
330
1E
100
AcDbEntity
  8
0
  6
Continuous
370
    15
100
AcDbLine
 10
3.412576395792399
 20
-8.68953870406133
 30
0.0
 11
3.441133503372938
 21
-8.582894989862477
 31
0.0
  0
LINE
  5
14A7
330
1E
100
AcDbEntity
  8
0
  6
Continuous
370
    15
100
AcDbLine
 10
3.441133503372938
 20
-8.582894989862477
 30
0.0
 11
3.444578448475866
 21
-8.482543128074919
 31
0.0
  0
LINE
  5
14A8
330
1E
100
AcDbEntity
  8
0
  6
Continuous
370
    15
100
AcDbLine
 10
3.444578448475866
 20
-8.482543128074919
 30
0.0
 11
3.421532634028196
 21
-8.401069182514017
 31
0.0
  0
LINE
  5
14A9
330
1E
100
AcDbEntity
  8
0
  6
Continuous
370
    15
100
AcDbLine
 10
3.421532634028196
 20
-8.401069182514017
 30
0.0
 11
3.374251937169177
 21
-8.346448510300003
 31
0.0
  0
LINE
  5
14AA
330
1E
100
AcDbEntity
  8
0
  6
Continuous
370
    15
100
AcDbLine
 10
3.374251937169177
 20
-8.346448510300003
 30
0.0
 11
3.30736455931013
 21
-8.324027019983613
 31
0.0
  0
LINE
  5
14AB
330
1E
100
AcDbEntity
  8
0
  6
Continuous
370
    15
100
AcDbLine
 10
3.30736455931013
 20
-8.324027019983613
 30
0.0
 11
3.227417865194709
 21
-8.335999803195402
 31
0.0
  0
LINE
  5
14AC
330
1E
100
AcDbEntity
  8
0
  6
Continuous
370
    15
100
AcDbLine
 10
3.227417865194709
 20
-8.335999803195402
 30
0.0
 11
3.142237612918805
 21
-8.381195182670165
 31
0.0
  0
LINE
  5
14AD
330
1E
100
AcDbEntity
  8
0
  6
Continuous
370
    15
100
AcDbLine
 10
3.142237612918805
 20
-8.381195182670165
 30
0.0
 11
3.060161834119313
 21
-8.455189072201232
 31
0.0
  0
LINE
  5
14AE
330
1E
100
AcDbEntity
  8
0
  6
Continuous
370
    15
100
AcDbLine
 10
3.060161834119313
 20
-8.455189072201232
 30
0.0
 11
2.989224670953973
 21
-8.550738418563664
 31
0.0
  0
LINE
  5
14AF
330
1E
100
AcDbEntity
  8
0
  6
Continuous
370
    15
100
AcDbLine
 10
2.989224670953973
 20
-8.550738418563664
 30
0.0
 11
2.936369971061338
 21
-8.658489482271459
 31
0.0
  0
LINE
  5
14B0
330
1E
100
AcDbEntity
  8
0
  6
Continuous
370
    15
100
AcDbLine
 10
2.936369971061338
 20
-8.658489482271459
 30
0.0
 11
2.906771490586706
 21
-8.767895907967751
 31
0.0
  0
LINE
  5
14B1
330
1E
100
AcDbEntity
  8
0
  6
Continuous
370
    15
100
AcDbLine
 10
2.906771490586706
 20
-8.767895907967751
 30
0.0
 11
2.903326545483764
 21
-8.86824776975531
 31
0.0
  0
LINE
  5
14B2
330
1E
100
AcDbEntity
  8
0
  6
Continuous
370
    15
100
AcDbLine
 10
2.903326545483764
 20
-8.86824776975531
 30
0.0
 11
2.926372359931463
 21
-8.949721715316197
 31
0.0
  0
LINE
  5
14B3
330
1E
100
AcDbEntity
  8
0
  6
Continuous
370
    15
100
AcDbLine
 10
2.926372359931463
 20
-8.949721715316197
 30
0.0
 11
2.973653056790467
 21
-9.00434299590054
 31
0.0
  0
LINE
  5
14B4
330
1E
100
AcDbEntity
  8
0
  6
Continuous
370
    15
100
AcDbLine
 10
2.973653056790467
 20
-9.00434299590054
 30
0.0
 11
3.040540434649514
 21
-9.026763877846601
 31
0.0
  0
LINE
  5
14B5
330
1E
100
AcDbEntity
  8
0
  6
Continuous
370
    15
100
AcDbLine
 10
3.040540434649514
 20
-9.026763877846601
 30
0.0
 11
3.120487128764949
 21
-9.014791094634798
 31
0.0
  0
LINE
  5
14B6
330
1E
100
AcDbEntity
  8
0
  6
Continuous
370
    15
100
AcDbLine
 10
3.120487128764949
 20
-9.014791094634798
 30
0.0
 11
3.205667381040839
 21
-8.969595715160064
 31
0.0
  0
LINE
  5
14B7
330
1E
100
AcDbEntity
  8
0
  6
Continuous
370
    15
100
AcDbLine
 10
3.205667381040839
 20
-8.969595715160064
 30
0.0
 11
3.287743159840346
 21
-8.895601825628968
 31
0.0
  0
LINE
  5
14B8
330
1E
100
AcDbEntity
  8
0
  6
Continuous
370
    15
100
AcDbLine
 10
3.287743159840346
 20
-8.895601825628968
 30
0.0
 11
3.305531648844677
 21
-8.874966119377315
 31
0.0
  0
LINE
  5
14DB
330
1E
100
AcDbEntity
  8
0
  6
Continuous
370
    15
100
AcDbLine
 10
-3.784201115496244
 20
-7.784230283497546
 30
0.0
 11
-3.777332496277992
 21
-7.919496318539426
 31
0.0
  0
LINE
  5
14DC
330
1E
100
AcDbEntity
  8
0
  6
Continuous
370
    15
100
AcDbLine
 10
-3.777332496277992
 20
-7.919496318539426
 30
0.0
 11
-3.737845245617037
 21
-8.134762898163625
 31
0.0
  0
LINE
  5
14DD
330
1E
100
AcDbEntity
  8
0
  6
Continuous
370
    15
100
AcDbLine
 10
-3.737845245617037
 20
-8.134762898163625
 30
0.0
 11
-3.663613186714911
 21
-8.346949191196895
 31
0.0
  0
LINE
  5
14DE
330
1E
100
AcDbEntity
  8
0
  6
Continuous
370
    15
100
AcDbLine
 10
-3.663613186714911
 20
-8.346949191196895
 30
0.0
 11
-3.555288673761225
 21
-8.554190161358828
 31
0.0
  0
LINE
  5
14DF
330
1E
100
AcDbEntity
  8
0
  6
Continuous
370
    15
100
AcDbLine
 10
-3.555288673761225
 20
-8.554190161358828
 30
0.0
 11
-3.413823764551182
 21
-8.754664605930042
 31
0.0
  0
LINE
  5
14E0
330
1E
100
AcDbEntity
  8
0
  6
Continuous
370
    15
100
AcDbLine
 10
-3.413823764551182
 20
-8.754664605930042
 30
0.0
 11
-3.24046146184358
 21
-8.946610856758635
 31
0.0
  0
LINE
  5
14E1
330
1E
100
AcDbEntity
  8
0
  6
Continuous
370
    15
100
AcDbLine
 10
-3.24046146184358
 20
-8.946610856758635
 30
0.0
 11
-3.036725736411568
 21
-9.128342272173565
 31
0.0
  0
LINE
  5
14E2
330
1E
100
AcDbEntity
  8
0
  6
Continuous
370
    15
100
AcDbLine
 10
-3.036725736411568
 20
-9.128342272173565
 30
0.0
 11
-2.804406429909775
 21
-9.298261426817045
 31
0.0
  0
LINE
  5
14E3
330
1E
100
AcDbEntity
  8
0
  6
Continuous
370
    15
100
AcDbLine
 10
-2.804406429909775
 20
-9.298261426817045
 30
0.0
 11
-2.545545351353425
 21
-9.45487513309774
 31
0.0
  0
LINE
  5
14E4
330
1E
100
AcDbEntity
  8
0
  6
Continuous
370
    15
100
AcDbLine
 10
-2.545545351353425
 20
-9.45487513309774
 30
0.0
 11
-2.262417697931311
 21
-9.596807295677304
 31
0.0
  0
LINE
  5
14E5
330
1E
100
AcDbEntity
  8
0
  6
Continuous
370
    15
100
AcDbLine
 10
-2.262417697931311
 20
-9.596807295677304
 30
0.0
 11
-1.957511459026406
 21
-9.722810497140397
 31
0.0
  0
LINE
  5
14E6
330
1E
100
AcDbEntity
  8
0
  6
Continuous
370
    15
100
AcDbLine
 10
-1.957511459026406
 20
-9.722810497140397
 30
0.0
 11
-1.633505848883189
 21
-9.831777232008032
 31
0.0
  0
LINE
  5
14E7
330
1E
100
AcDbEntity
  8
0
  6
Continuous
370
    15
100
AcDbLine
 10
-1.633505848883189
 20
-9.831777232008032
 30
0.0
 11
-1.293248743226428
 21
-9.922750195078673
 31
0.0
  0
LINE
  5
14E8
330
1E
100
AcDbEntity
  8
0
  6
Continuous
370
    15
100
AcDbLine
 10
-1.293248743226428
 20
-9.922750195078673
 30
0.0
 11
-0.9397300658312559
 21
-9.994929737505611
 31
0.0
  0
LINE
  5
14E9
330
1E
100
AcDbEntity
  8
0
  6
Continuous
370
    15
100
AcDbLine
 10
-0.9397300658312559
 20
-9.994929737505611
 30
0.0
 11
-0.5760563687051956
 21
-10.04768154622399
 31
0.0
  0
LINE
  5
14EA
330
1E
100
AcDbEntity
  8
0
  6
Continuous
370
    15
100
AcDbLine
 10
-0.5760563687051956
 20
-10.04768154622399
 30
0.0
 11
-0.2054238317632695
 21
-10.08054204235979
 31
0.0
  0
LINE
  5
14EB
330
1E
100
AcDbEntity
  8
0
  6
Continuous
370
    15
100
AcDbLine
 10
-0.2054238317632695
 20
-10.08054204235979
 30
0.0
 11
0.1689103838580195
 21
-10.09322244904505
 31
0.0
  0
LINE
  5
14EC
330
1E
100
AcDbEntity
  8
0
  6
Continuous
370
    15
100
AcDbLine
 10
0.1689103838580195
 20
-10.09322244904505
 30
0.0
 11
0.5436565849234967
 21
-10.08561137657167
 31
0.0
  0
LINE
  5
14ED
330
1E
100
AcDbEntity
  8
0
  6
Continuous
370
    15
100
AcDbLine
 10
0.5436565849234967
 20
-10.08561137657167
 30
0.0
 11
0.9155215220576593
 21
-10.05777573479846
 31
0.0
  0
LINE
  5
14EE
330
1E
100
AcDbEntity
  8
0
  6
Continuous
370
    15
100
AcDbLine
 10
0.9155215220576593
 20
-10.05777573479846
 30
0.0
 11
1.281237629120781
 21
-10.00996012487973
 31
0.0
  0
LINE
  5
14EF
330
1E
100
AcDbEntity
  8
0
  6
Continuous
370
    15
100
AcDbLine
 10
1.281237629120781
 20
-10.00996012487973
 30
0.0
 11
1.637590286951606
 21
-9.942584634281299
 31
0.0
  0
LINE
  5
14F0
330
1E
100
AcDbEntity
  8
0
  6
Continuous
370
    15
100
AcDbLine
 10
1.637590286951606
 20
-9.942584634281299
 30
0.0
 11
1.981448050560203
 21
-9.856241377236596
 31
0.0
  0
LINE
  5
14F1
330
1E
100
AcDbEntity
  8
0
  6
Continuous
370
    15
100
AcDbLine
 10
1.981448050560203
 20
-9.856241377236596
 30
0.0
 11
2.309789649452881
 21
-9.751689400473505
 31
0.0
  0
LINE
  5
14F2
330
1E
100
AcDbEntity
  8
0
  6
Continuous
370
    15
100
AcDbLine
 10
2.309789649452881
 20
-9.751689400473505
 30
0.0
 11
2.619728979396171
 21
-9.62984725089748
 31
0.0
  0
LINE
  5
14F3
330
1E
100
AcDbEntity
  8
0
  6
Continuous
370
    15
100
AcDbLine
 10
2.619728979396171
 20
-9.62984725089748
 30
0.0
 11
2.908542440245767
 21
-9.491785709599067
 31
0.0
  0
LINE
  5
14F4
330
1E
100
AcDbEntity
  8
0
  6
Continuous
370
    15
100
AcDbLine
 10
2.908542440245767
 20
-9.491785709599067
 30
0.0
 11
3.173692001467884
 21
-9.338718126040671
 31
0.0
  0
LINE
  5
14F5
330
1E
100
AcDbEntity
  8
0
  6
Continuous
370
    15
100
AcDbLine
 10
3.173692001467884
 20
-9.338718126040671
 30
0.0
 11
3.412847518566323
 21
-9.171989664007309
 31
0.0
  0
LINE
  5
14F6
330
1E
100
AcDbEntity
  8
0
  6
Continuous
370
    15
100
AcDbLine
 10
3.412847518566323
 20
-9.171989664007309
 30
0.0
 11
3.623907180889418
 21
-8.993065497339028
 31
0.0
  0
LINE
  5
14F7
330
1E
100
AcDbEntity
  8
0
  6
Continuous
370
    15
100
AcDbLine
 10
3.623907180889418
 20
-8.993065497339028
 30
0.0
 11
3.805016140207769
 21
-8.803517926931771
 31
0.0
  0
LINE
  5
14F8
330
1E
100
AcDbEntity
  8
0
  6
Continuous
370
    15
100
AcDbLine
 10
3.805016140207769
 20
-8.803517926931771
 30
0.0
 11
3.954583254208444
 21
-8.605013065295292
 31
0.0
  0
LINE
  5
14F9
330
1E
100
AcDbEntity
  8
0
  6
Continuous
370
    15
100
AcDbLine
 10
3.954583254208444
 20
-8.605013065295292
 30
0.0
 11
4.071293672926785
 21
-8.399295054760539
 31
0.0
  0
LINE
  5
14FA
330
1E
100
AcDbEntity
  8
0
  6
Continuous
370
    15
100
AcDbLine
 10
4.071293672926785
 20
-8.399295054760539
 30
0.0
 11
4.154121713291601
 21
-8.188171640041243
 31
0.0
  0
LINE
  5
14FB
330
1E
100
AcDbEntity
  8
0
  6
Continuous
370
    15
100
AcDbLine
 10
4.154121713291601
 20
-8.188171640041243
 30
0.0
 11
4.202339683621588
 21
-7.973498581278217
 31
0.0
  0
LINE
  5
14FC
330
1E
100
AcDbEntity
  8
0
  6
Continuous
370
    15
100
AcDbLine
 10
4.202339683621588
 20
-7.973498581278217
 30
0.0
 11
4.215798621149048
 21
-7.784230283497546
 31
0.0
  0
LINE
  5
14FD
330
1E
100
AcDbEntity
  8
0
  6
Continuous
370
    15
100
AcDbLine
 10
-4.284201296599931
 20
-7.865884530162855
 30
0.0
 11
-4.277319901618227
 21
-8.009494604767763
 31
0.0
  0
LINE
  5
14FE
330
1E
100
AcDbEntity
  8
0
  6
Continuous
370
    15
100
AcDbLine
 10
-4.277319901618227
 20
-8.009494604767763
 30
0.0
 11
-4.23775138656498
 21
-8.238174862302638
 31
0.0
  0
LINE
  5
14FF
330
1E
100
AcDbEntity
  8
0
  6
Continuous
370
    15
100
AcDbLine
 10
-4.23775138656498
 20
-8.238174862302638
 30
0.0
 11
-4.16332795462884
 21
-8.463941499622134
 31
0.0
  0
LINE
  5
1500
330
1E
100
AcDbEntity
  8
0
  6
Continuous
370
    15
100
AcDbLine
 10
-4.16332795462884
 20
-8.463941499622134
 30
0.0
 11
-4.054631759154844
 21
-8.685027488182267
 31
0.0
  0
LINE
  5
1501
330
1E
100
AcDbEntity
  8
0
  6
Continuous
370
    15
100
AcDbLine
 10
-4.054631759154844
 20
-8.685027488182267
 30
0.0
 11
-3.912513903065118
 21
-8.899702751929265
 31
0.0
  0
LINE
  5
1502
330
1E
100
AcDbEntity
  8
0
  6
Continuous
370
    15
100
AcDbLine
 10
-3.912513903065118
 20
-8.899702751929265
 30
0.0
 11
-3.738086272906954
 21
-9.106286788932006
 31
0.0
  0
LINE
  5
1503
330
1E
100
AcDbEntity
  8
0
  6
Continuous
370
    15
100
AcDbLine
 10
-3.738086272906954
 20
-9.106286788932006
 30
0.0
 11
-3.53271409729983
 21
-9.303163003777935
 31
0.0
  0
LINE
  5
1504
330
1E
100
AcDbEntity
  8
0
  6
Continuous
370
    15
100
AcDbLine
 10
-3.53271409729983
 20
-9.303163003777935
 30
0.0
 11
-3.298004751678845
 21
-9.488790644900131
 31
0.0
  0
LINE
  5
1505
330
1E
100
AcDbEntity
  8
0
  6
Continuous
370
    15
100
AcDbLine
 10
-3.298004751678845
 20
-9.488790644900131
 30
0.0
 11
-3.035795015458432
 21
-9.661716722895899
 31
0.0
  0
LINE
  5
1506
330
1E
100
AcDbEntity
  8
0
  6
Continuous
370
    15
100
AcDbLine
 10
-3.035795015458432
 20
-9.661716722895899
 30
0.0
 11
-2.748137407233841
 21
-9.820588156947192
 31
0.0
  0
LINE
  5
1507
330
1E
100
AcDbEntity
  8
0
  6
Continuous
370
    15
100
AcDbLine
 10
-2.748137407233841
 20
-9.820588156947192
 30
0.0
 11
-2.437282733351679
 21
-9.964161241044958
 31
0.0
  0
LINE
  5
1508
330
1E
100
AcDbEntity
  8
0
  6
Continuous
370
    15
100
AcDbLine
 10
-2.437282733351679
 20
-9.964161241044958
 30
0.0
 11
-2.105664282841729
 21
-10.09131259287502
 31
0.0
  0
LINE
  5
1509
330
1E
100
AcDbEntity
  8
0
  6
Continuous
370
    15
100
AcDbLine
 10
-2.105664282841729
 20
-10.09131259287502
 30
0.0
 11
-1.755877116192152
 21
-10.20104685225371
 31
0.0
  0
LINE
  5
150A
330
1E
100
AcDbEntity
  8
0
  6
Continuous
370
    15
100
AcDbLine
 10
-1.755877116192152
 20
-10.20104685225371
 30
0.0
 11
-1.390658934631517
 21
-10.29250529197035
 31
0.0
  0
LINE
  5
150B
330
1E
100
AcDbEntity
  8
0
  6
Continuous
370
    15
100
AcDbLine
 10
-1.390658934631517
 20
-10.29250529197035
 30
0.0
 11
-1.012868018887814
 21
-10.36497216662053
 31
0.0
  0
LINE
  5
150C
330
1E
100
AcDbEntity
  8
0
  6
Continuous
370
    15
100
AcDbLine
 10
-1.012868018887814
 20
-10.36497216662053
 30
0.0
 11
-0.6254612996563651
 21
-10.41788037713391
 31
0.0
  0
LINE
  5
150D
330
1E
100
AcDbEntity
  8
0
  6
Continuous
370
    15
100
AcDbLine
 10
-0.6254612996563651
 20
-10.41788037713391
 30
0.0
 11
-0.231470320725208
 21
-10.45081561462332
 31
0.0
  0
LINE
  5
150E
330
1E
100
AcDbEntity
  8
0
  6
Continuous
370
    15
100
AcDbLine
 10
-0.231470320725208
 20
-10.45081561462332
 30
0.0
 11
0.1660209539747939
 21
-10.46352035216635
 31
0.0
  0
LINE
  5
150F
330
1E
100
AcDbEntity
  8
0
  6
Continuous
370
    15
100
AcDbLine
 10
0.1660209539747939
 20
-10.46352035216635
 30
0.0
 11
0.5639019553146057
 21
-10.45589506134797
 31
0.0
  0
LINE
  5
1510
330
1E
100
AcDbEntity
  8
0
  6
Continuous
370
    15
100
AcDbLine
 10
0.5639019553146057
 20
-10.45589506134797
 30
0.0
 11
0.9590584263159911
 21
-10.42799927673577
 31
0.0
  0
LINE
  5
1511
330
1E
100
AcDbEntity
  8
0
  6
Continuous
370
    15
100
AcDbLine
 10
0.9590584263159911
 20
-10.42799927673577
 30
0.0
 11
1.348397973678387
 21
-10.3800515958798
 31
0.0
  0
LINE
  5
1512
330
1E
100
AcDbEntity
  8
0
  6
Continuous
370
    15
100
AcDbLine
 10
1.348397973678387
 20
-10.3800515958798
 30
0.0
 11
1.728873511963314
 21
-10.31242724622695
 31
0.0
  0
LINE
  5
1513
330
1E
100
AcDbEntity
  8
0
  6
Continuous
370
    15
100
AcDbLine
 10
1.728873511963314
 20
-10.31242724622695
 30
0.0
 11
2.097507037051258
 21
-10.22565530988231
 31
0.0
  0
LINE
  5
1514
330
1E
100
AcDbEntity
  8
0
  6
Continuous
370
    15
100
AcDbLine
 10
2.097507037051258
 20
-10.22565530988231
 30
0.0
 11
2.451413663016083
 21
-10.12041488389584
 31
0.0
  0
LINE
  5
1515
330
1E
100
AcDbEntity
  8
0
  6
Continuous
370
    15
100
AcDbLine
 10
2.451413663016083
 20
-10.12041488389584
 30
0.0
 11
2.787823485802761
 21
-9.997529757887118
 31
0.0
  0
LINE
  5
1516
330
1E
100
AcDbEntity
  8
0
  6
Continuous
370
    15
100
AcDbLine
 10
2.787823485802761
 20
-9.997529757887118
 30
0.0
 11
3.104103874958966
 21
-9.857961628017203
 31
0.0
  0
LINE
  5
1517
330
1E
100
AcDbEntity
  8
0
  6
Continuous
370
    15
100
AcDbLine
 10
3.104103874958966
 20
-9.857961628017203
 30
0.0
 11
3.397779394606388
 21
-9.702802854756523
 31
0.0
  0
LINE
  5
1518
330
1E
100
AcDbEntity
  8
0
  6
Continuous
370
    15
100
AcDbLine
 10
3.397779394606388
 20
-9.702802854756523
 30
0.0
 11
3.666551395139961
 21
-9.53326758592372
 31
0.0
  0
LINE
  5
1519
330
1E
100
AcDbEntity
  8
0
  6
Continuous
370
    15
100
AcDbLine
 10
3.666551395139961
 20
-9.53326758592372
 30
0.0
 11
3.908316682964525
 21
-9.350682803690201
 31
0.0
  0
LINE
  5
151A
330
1E
100
AcDbEntity
  8
0
  6
Continuous
370
    15
100
AcDbLine
 10
3.908316682964525
 20
-9.350682803690201
 30
0.0
 11
4.12118302921803
 21
-9.156477546770585
 31
0.0
  0
LINE
  5
151B
330
1E
100
AcDbEntity
  8
0
  6
Continuous
370
    15
100
AcDbLine
 10
4.12118302921803
 20
-9.156477546770585
 30
0.0
 11
4.303484546785895
 21
-8.952171600375432
 31
0.0
  0
LINE
  5
151C
330
1E
100
AcDbEntity
  8
0
  6
Continuous
370
    15
100
AcDbLine
 10
4.303484546785895
 20
-8.952171600375432
 30
0.0
 11
4.453794235573766
 21
-8.739363996079386
 31
0.0
  0
LINE
  5
151D
330
1E
100
AcDbEntity
  8
0
  6
Continuous
370
    15
100
AcDbLine
 10
4.453794235573766
 20
-8.739363996079386
 30
0.0
 11
4.570935737527022
 21
-8.51972014307837
 31
0.0
  0
LINE
  5
151E
330
1E
100
AcDbEntity
  8
0
  6
Continuous
370
    15
100
AcDbLine
 10
4.570935737527022
 20
-8.51972014307837
 30
0.0
 11
4.653992556253925
 21
-8.294959206557134
 31
0.0
  0
LINE
  5
151F
330
1E
100
AcDbEntity
  8
0
  6
Continuous
370
    15
100
AcDbLine
 10
4.653992556253925
 20
-8.294959206557134
 30
0.0
 11
4.702314708325062
 21
-8.066840231496936
 31
0.0
  0
LINE
  5
1520
330
1E
100
AcDbEntity
  8
0
  6
Continuous
370
    15
100
AcDbLine
 10
4.702314708325062
 20
-8.066840231496936
 30
0.0
 11
4.71579880225272
 21
-7.865884530162855
 31
0.0
  0
LINE
  5
1521
330
1E
100
AcDbEntity
  8
0
  6
Continuous
370
    15
100
AcDbLine
 10
-3.844482172414558
 20
-6.664214903883841
 30
0.0
 11
-3.951120284592192
 21
-6.803386954001506
 31
0.0
  0
LINE
  5
1522
330
1E
100
AcDbEntity
  8
0
  6
Continuous
370
    15
100
AcDbLine
 10
-3.951120284592192
 20
-6.803386954001506
 30
0.0
 11
-4.084977094955974
 21
-7.019824532188788
 31
0.0
  0
LINE
  5
1523
330
1E
100
AcDbEntity
  8
0
  6
Continuous
370
    15
100
AcDbLine
 10
-4.084977094955974
 20
-7.019824532188788
 30
0.0
 11
-4.185174246718844
 21
-7.242244688126785
 31
0.0
  0
LINE
  5
1524
330
1E
100
AcDbEntity
  8
0
  6
Continuous
370
    15
100
AcDbLine
 10
-4.185174246718844
 20
-7.242244688126785
 30
0.0
 11
-4.250928071916305
 21
-7.468906396875691
 31
0.0
  0
LINE
  5
1525
330
1E
100
AcDbEntity
  8
0
  6
Continuous
370
    15
100
AcDbLine
 10
-4.250928071916305
 20
-7.468906396875691
 30
0.0
 11
-4.281723588743105
 21
-7.698036090973541
 31
0.0
  0
LINE
  5
1526
330
1E
100
AcDbEntity
  8
0
  6
Continuous
370
    15
100
AcDbLine
 10
-4.281723588743105
 20
-7.698036090973541
 30
0.0
 11
-4.277319901618227
 21
-7.927840358102482
 31
0.0
  0
LINE
  5
1527
330
1E
100
AcDbEntity
  8
0
  6
Continuous
370
    15
100
AcDbLine
 10
-4.277319901618227
 20
-7.927840358102482
 30
0.0
 11
-4.23775138656498
 21
-8.156520615637344
 31
0.0
  0
LINE
  5
1528
330
1E
100
AcDbEntity
  8
0
  6
Continuous
370
    15
100
AcDbLine
 10
-4.23775138656498
 20
-8.156520615637344
 30
0.0
 11
-4.16332795462884
 21
-8.382287252956825
 31
0.0
  0
LINE
  5
1529
330
1E
100
AcDbEntity
  8
0
  6
Continuous
370
    15
100
AcDbLine
 10
-4.16332795462884
 20
-8.382287252956825
 30
0.0
 11
-4.054631759154844
 21
-8.603373241516958
 31
0.0
  0
LINE
  5
152A
330
1E
100
AcDbEntity
  8
0
  6
Continuous
370
    15
100
AcDbLine
 10
-4.054631759154844
 20
-8.603373241516958
 30
0.0
 11
-3.912513903065118
 21
-8.818048505263984
 31
0.0
  0
LINE
  5
152B
330
1E
100
AcDbEntity
  8
0
  6
Continuous
370
    15
100
AcDbLine
 10
-3.912513903065118
 20
-8.818048505263984
 30
0.0
 11
-3.738086272906954
 21
-9.024632542266697
 31
0.0
  0
LINE
  5
152C
330
1E
100
AcDbEntity
  8
0
  6
Continuous
370
    15
100
AcDbLine
 10
-3.738086272906954
 20
-9.024632542266697
 30
0.0
 11
-3.53271409729983
 21
-9.221508757112626
 31
0.0
  0
LINE
  5
152D
330
1E
100
AcDbEntity
  8
0
  6
Continuous
370
    15
100
AcDbLine
 10
-3.53271409729983
 20
-9.221508757112626
 30
0.0
 11
-3.298004751678845
 21
-9.407136398234822
 31
0.0
  0
LINE
  5
152E
330
1E
100
AcDbEntity
  8
0
  6
Continuous
370
    15
100
AcDbLine
 10
-3.298004751678845
 20
-9.407136398234822
 30
0.0
 11
-3.035795015458432
 21
-9.580062476230605
 31
0.0
  0
LINE
  5
152F
330
1E
100
AcDbEntity
  8
0
  6
Continuous
370
    15
100
AcDbLine
 10
-3.035795015458432
 20
-9.580062476230605
 30
0.0
 11
-2.748137407233841
 21
-9.738933910281911
 31
0.0
  0
LINE
  5
1530
330
1E
100
AcDbEntity
  8
0
  6
Continuous
370
    15
100
AcDbLine
 10
-2.748137407233841
 20
-9.738933910281911
 30
0.0
 11
-2.437282733351679
 21
-9.882506994379649
 31
0.0
  0
LINE
  5
1531
330
1E
100
AcDbEntity
  8
0
  6
Continuous
370
    15
100
AcDbLine
 10
-2.437282733351679
 20
-9.882506994379649
 30
0.0
 11
-2.105664282841729
 21
-10.00965834620971
 31
0.0
  0
LINE
  5
1532
330
1E
100
AcDbEntity
  8
0
  6
Continuous
370
    15
100
AcDbLine
 10
-2.105664282841729
 20
-10.00965834620971
 30
0.0
 11
-1.755877116192152
 21
-10.1193926055884
 31
0.0
  0
LINE
  5
1533
330
1E
100
AcDbEntity
  8
0
  6
Continuous
370
    15
100
AcDbLine
 10
-1.755877116192152
 20
-10.1193926055884
 30
0.0
 11
-1.390658934631517
 21
-10.21085104530504
 31
0.0
  0
LINE
  5
1534
330
1E
100
AcDbEntity
  8
0
  6
Continuous
370
    15
100
AcDbLine
 10
-1.390658934631517
 20
-10.21085104530504
 30
0.0
 11
-1.012868018887814
 21
-10.28331791995523
 31
0.0
  0
LINE
  5
1535
330
1E
100
AcDbEntity
  8
0
  6
Continuous
370
    15
100
AcDbLine
 10
-1.012868018887814
 20
-10.28331791995523
 30
0.0
 11
-0.6254612996563651
 21
-10.33622613046858
 31
0.0
  0
LINE
  5
1536
330
1E
100
AcDbEntity
  8
0
  6
Continuous
370
    15
100
AcDbLine
 10
-0.6254612996563651
 20
-10.33622613046858
 30
0.0
 11
-0.231470320725208
 21
-10.36916136795801
 31
0.0
  0
LINE
  5
1537
330
1E
100
AcDbEntity
  8
0
  6
Continuous
370
    15
100
AcDbLine
 10
-0.231470320725208
 20
-10.36916136795801
 30
0.0
 11
0.1660209539747939
 21
-10.38186610550103
 31
0.0
  0
LINE
  5
1538
330
1E
100
AcDbEntity
  8
0
  6
Continuous
370
    15
100
AcDbLine
 10
0.1660209539747939
 20
-10.38186610550103
 30
0.0
 11
0.5639019553146057
 21
-10.37424081468266
 31
0.0
  0
LINE
  5
1539
330
1E
100
AcDbEntity
  8
0
  6
Continuous
370
    15
100
AcDbLine
 10
0.5639019553146057
 20
-10.37424081468266
 30
0.0
 11
0.9590584263159911
 21
-10.34634503007046
 31
0.0
  0
LINE
  5
153A
330
1E
100
AcDbEntity
  8
0
  6
Continuous
370
    15
100
AcDbLine
 10
0.9590584263159911
 20
-10.34634503007046
 30
0.0
 11
1.348397973678387
 21
-10.29839734921452
 31
0.0
  0
LINE
  5
153B
330
1E
100
AcDbEntity
  8
0
  6
Continuous
370
    15
100
AcDbLine
 10
1.348397973678387
 20
-10.29839734921452
 30
0.0
 11
1.728873511963314
 21
-10.23077299956165
 31
0.0
  0
LINE
  5
153C
330
1E
100
AcDbEntity
  8
0
  6
Continuous
370
    15
100
AcDbLine
 10
1.728873511963314
 20
-10.23077299956165
 30
0.0
 11
2.097507037051258
 21
-10.14400106321701
 31
0.0
  0
LINE
  5
153D
330
1E
100
AcDbEntity
  8
0
  6
Continuous
370
    15
100
AcDbLine
 10
2.097507037051258
 20
-10.14400106321701
 30
0.0
 11
2.451413663016083
 21
-10.03876063723052
 31
0.0
  0
LINE
  5
153E
330
1E
100
AcDbEntity
  8
0
  6
Continuous
370
    15
100
AcDbLine
 10
2.451413663016083
 20
-10.03876063723052
 30
0.0
 11
2.787823485802761
 21
-9.915875511221837
 31
0.0
  0
LINE
  5
153F
330
1E
100
AcDbEntity
  8
0
  6
Continuous
370
    15
100
AcDbLine
 10
2.787823485802761
 20
-9.915875511221837
 30
0.0
 11
3.104103874958966
 21
-9.776307381351895
 31
0.0
  0
LINE
  5
1540
330
1E
100
AcDbEntity
  8
0
  6
Continuous
370
    15
100
AcDbLine
 10
3.104103874958966
 20
-9.776307381351895
 30
0.0
 11
3.397779394606388
 21
-9.621148608091214
 31
0.0
  0
LINE
  5
1541
330
1E
100
AcDbEntity
  8
0
  6
Continuous
370
    15
100
AcDbLine
 10
3.397779394606388
 20
-9.621148608091214
 30
0.0
 11
3.666551395139961
 21
-9.451613339258411
 31
0.0
  0
LINE
  5
1542
330
1E
100
AcDbEntity
  8
0
  6
Continuous
370
    15
100
AcDbLine
 10
3.666551395139961
 20
-9.451613339258411
 30
0.0
 11
3.908316682964525
 21
-9.26902855702492
 31
0.0
  0
LINE
  5
1543
330
1E
100
AcDbEntity
  8
0
  6
Continuous
370
    15
100
AcDbLine
 10
3.908316682964525
 20
-9.26902855702492
 30
0.0
 11
4.12118302921803
 21
-9.074823300105276
 31
0.0
  0
LINE
  5
1544
330
1E
100
AcDbEntity
  8
0
  6
Continuous
370
    15
100
AcDbLine
 10
4.12118302921803
 20
-9.074823300105276
 30
0.0
 11
4.303484546785895
 21
-8.870517353710138
 31
0.0
  0
LINE
  5
1545
330
1E
100
AcDbEntity
  8
0
  6
Continuous
370
    15
100
AcDbLine
 10
4.303484546785895
 20
-8.870517353710138
 30
0.0
 11
4.453794235573766
 21
-8.657709749414106
 31
0.0
  0
LINE
  5
1546
330
1E
100
AcDbEntity
  8
0
  6
Continuous
370
    15
100
AcDbLine
 10
4.453794235573766
 20
-8.657709749414106
 30
0.0
 11
4.570935737527022
 21
-8.438065896413075
 31
0.0
  0
LINE
  5
1547
330
1E
100
AcDbEntity
  8
0
  6
Continuous
370
    15
100
AcDbLine
 10
4.570935737527022
 20
-8.438065896413075
 30
0.0
 11
4.653992556253925
 21
-8.213304959891811
 31
0.0
  0
LINE
  5
1548
330
1E
100
AcDbEntity
  8
0
  6
Continuous
370
    15
100
AcDbLine
 10
4.653992556253925
 20
-8.213304959891811
 30
0.0
 11
4.702314708325062
 21
-7.985185984831627
 31
0.0
  0
LINE
  5
1549
330
1E
100
AcDbEntity
  8
0
  6
Continuous
370
    15
100
AcDbLine
 10
4.702314708325062
 20
-7.985185984831627
 30
0.0
 11
4.715523530648383
 21
-7.755494171885853
 31
0.0
  0
LINE
  5
154A
330
1E
100
AcDbEntity
  8
0
  6
Continuous
370
    15
100
AcDbLine
 10
4.715523530648383
 20
-7.755494171885853
 30
0.0
 11
4.693515895153922
 21
-7.526027343340341
 31
0.0
  0
LINE
  5
154B
330
1E
100
AcDbEntity
  8
0
  6
Continuous
370
    15
100
AcDbLine
 10
4.693515895153922
 20
-7.526027343340341
 30
0.0
 11
4.636464208793853
 21
-7.298581192530829
 31
0.0
  0
LINE
  5
154C
330
1E
100
AcDbEntity
  8
0
  6
Continuous
370
    15
100
AcDbLine
 10
4.636464208793853
 20
-7.298581192530829
 30
0.0
 11
4.544814569617884
 21
-7.074936053939122
 31
0.0
  0
LINE
  5
154D
330
1E
100
AcDbEntity
  8
0
  6
Continuous
370
    15
100
AcDbLine
 10
4.544814569617884
 20
-7.074936053939122
 30
0.0
 11
4.419284659430843
 21
-6.856842000542766
 31
0.0
  0
LINE
  5
154E
330
1E
100
AcDbEntity
  8
0
  6
Continuous
370
    15
100
AcDbLine
 10
4.419284659430843
 20
-6.856842000542766
 30
0.0
 11
4.260856829075279
 21
-6.64600603209757
 31
0.0
  0
LINE
  5
154F
330
1E
100
AcDbEntity
  8
0
  6
Continuous
370
    15
100
AcDbLine
 10
4.260856829075279
 20
-6.64600603209757
 30
0.0
 11
4.2157988187124
 21
-6.594121162254321
 31
0.0
  0
LINE
  5
1593
330
1E
100
AcDbEntity
  8
0
  6
Continuous
370
    15
100
AcDbLine
 10
3.244209564768141
 20
1.054478880437532
 30
0.0
 11
3.238404478466677
 21
1.057641040111253
 31
0.0
  0
LINE
  5
1594
330
1E
100
AcDbEntity
  8
0
  6
Continuous
370
    15
100
AcDbLine
 10
3.238404478466677
 20
1.057641040111253
 30
0.0
 11
3.169159305473883
 21
1.07320888499132
 31
0.0
  0
LINE
  5
1595
330
1E
100
AcDbEntity
  8
0
  6
Continuous
370
    15
100
AcDbLine
 10
3.169159305473883
 20
1.07320888499132
 30
0.0
 11
3.088813249389303
 21
1.056331598000117
 31
0.0
  0
LINE
  5
1596
330
1E
100
AcDbEntity
  8
0
  6
Continuous
370
    15
100
AcDbLine
 10
3.088813249389303
 20
1.056331598000117
 30
0.0
 11
3.004505401892387
 21
1.008508869268585
 31
0.0
  0
LINE
  5
1597
330
1E
100
AcDbEntity
  8
0
  6
Continuous
370
    15
100
AcDbLine
 10
3.004505401892387
 20
1.008508869268585
 30
0.0
 11
2.923726887861221
 21
0.9339899473122592
 31
0.0
  0
LINE
  5
1598
330
1E
100
AcDbEntity
  8
0
  6
Continuous
370
    15
100
AcDbLine
 10
2.923726887861221
 20
0.9339899473122592
 30
0.0
 11
2.853655233279113
 21
0.8393959177840066
 31
0.0
  0
LINE
  5
1599
330
1E
100
AcDbEntity
  8
0
  6
Continuous
370
    15
100
AcDbLine
 10
2.853655233279113
 20
0.8393959177840066
 30
0.0
 11
2.800516618385472
 21
0.733132222556808
 31
0.0
  0
LINE
  5
159A
330
1E
100
AcDbEntity
  8
0
  6
Continuous
370
    15
100
AcDbLine
 10
2.800516618385472
 20
0.733132222556808
 30
0.0
 11
2.769032626202815
 21
0.624640525468525
 31
0.0
  0
LINE
  5
159B
330
1E
100
AcDbEntity
  8
0
  6
Continuous
370
    15
100
AcDbLine
 10
2.769032626202815
 20
0.624640525468525
 30
0.0
 11
2.762000737337416
 21
0.5235610946814014
 31
0.0
  0
LINE
  5
159C
330
1E
100
AcDbEntity
  8
0
  6
Continuous
370
    15
100
AcDbLine
 10
2.762000737337416
 20
0.5235610946814014
 30
0.0
 11
2.780045828209296
 21
0.4388751189163749
 31
0.0
  0
LINE
  5
159D
330
1E
100
AcDbEntity
  8
0
  6
Continuous
370
    15
100
AcDbLine
 10
2.780045828209296
 20
0.4388751189163749
 30
0.0
 11
2.821564441723182
 21
0.3781073578351659
 31
0.0
  0
LINE
  5
159E
330
1E
100
AcDbEntity
  8
0
  6
Continuous
370
    15
100
AcDbLine
 10
2.821564441723182
 20
0.3781073578351659
 30
0.0
 11
2.844242063936448
 21
0.3616398299896737
 31
0.0
  0
LINE
  5
159F
330
1E
100
AcDbEntity
  8
0
  6
Continuous
370
    15
100
AcDbLine
 10
3.416997913009822
 20
0.9157199615903302
 30
0.0
 11
3.399622463120891
 21
0.9479561595557477
 31
0.0
  0
LINE
  5
15A0
330
1E
100
AcDbEntity
  8
0
  6
Continuous
370
    15
100
AcDbLine
 10
3.399622463120891
 20
0.9479561595557477
 30
0.0
 11
3.347630933978493
 21
0.9945859495096307
 31
0.0
  0
LINE
  5
15A1
330
1E
100
AcDbEntity
  8
0
  6
Continuous
370
    15
100
AcDbLine
 10
3.347630933978493
 20
0.9945859495096307
 30
0.0
 11
3.278385760985699
 21
1.010153794389655
 31
0.0
  0
LINE
  5
15A2
330
1E
100
AcDbEntity
  8
0
  6
Continuous
370
    15
100
AcDbLine
 10
3.278385760985699
 20
1.010153794389655
 30
0.0
 11
3.19803970490112
 21
0.9932765073984946
 31
0.0
  0
LINE
  5
15A3
330
1E
100
AcDbEntity
  8
0
  6
Continuous
370
    15
100
AcDbLine
 10
3.19803970490112
 20
0.9932765073984946
 30
0.0
 11
3.113731857404218
 21
0.9454537786669625
 31
0.0
  0
LINE
  5
15A4
330
1E
100
AcDbEntity
  8
0
  6
Continuous
370
    15
100
AcDbLine
 10
3.113731857404218
 20
0.9454537786669625
 30
0.0
 11
3.032953343373037
 21
0.8709348567105941
 31
0.0
  0
LINE
  5
15A5
330
1E
100
AcDbEntity
  8
0
  6
Continuous
370
    15
100
AcDbLine
 10
3.032953343373037
 20
0.8709348567105941
 30
0.0
 11
2.962881688790929
 21
0.7763408271823984
 31
0.0
  0
LINE
  5
15A6
330
1E
100
AcDbEntity
  8
0
  6
Continuous
370
    15
100
AcDbLine
 10
2.962881688790929
 20
0.7763408271823984
 30
0.0
 11
2.909743073897303
 21
0.6700771319551997
 31
0.0
  0
LINE
  5
15A7
330
1E
100
AcDbEntity
  8
0
  6
Continuous
370
    15
100
AcDbLine
 10
2.909743073897303
 20
0.6700771319551997
 30
0.0
 11
2.878259081714631
 21
0.5615854348668883
 31
0.0
  0
LINE
  5
15A8
330
1E
100
AcDbEntity
  8
0
  6
Continuous
370
    15
100
AcDbLine
 10
2.878259081714631
 20
0.5615854348668883
 30
0.0
 11
2.871227192849232
 21
0.4605060040797504
 31
0.0
  0
LINE
  5
15A9
330
1E
100
AcDbEntity
  8
0
  6
Continuous
370
    15
100
AcDbLine
 10
2.871227192849232
 20
0.4605060040797504
 30
0.0
 11
2.889272283721112
 21
0.3758200283147381
 31
0.0
  0
LINE
  5
15AA
330
1E
100
AcDbEntity
  8
0
  6
Continuous
370
    15
100
AcDbLine
 10
2.889272283721112
 20
0.3758200283147381
 30
0.0
 11
2.930790897234999
 21
0.3150522672335008
 31
0.0
  0
LINE
  5
15AB
330
1E
100
AcDbEntity
  8
0
  6
Continuous
370
    15
100
AcDbLine
 10
2.930790897234999
 20
0.3150522672335008
 30
0.0
 11
2.992093949375259
 21
0.2836020968656818
 31
0.0
  0
LINE
  5
15AC
330
1E
100
AcDbEntity
  8
0
  6
Continuous
370
    15
100
AcDbLine
 10
2.992093949375259
 20
0.2836020968656818
 30
0.0
 11
3.050812625911987
 21
0.2813995812993433
 31
0.0
  0
LINE
  5
15AD
330
1E
100
AcDbEntity
  8
0
  6
Continuous
370
    15
100
AcDbLine
 10
3.412576395792399
 20
0.6190264042106044
 30
0.0
 11
3.431029817186441
 21
0.6772932880788041
 31
0.0
  0
LINE
  5
15AE
330
1E
100
AcDbEntity
  8
0
  6
Continuous
370
    15
100
AcDbLine
 10
3.431029817186441
 20
0.6772932880788041
 30
0.0
 11
3.446354180814424
 21
0.7829797850365346
 31
0.0
  0
LINE
  5
15AF
330
1E
100
AcDbEntity
  8
0
  6
Continuous
370
    15
100
AcDbLine
 10
3.446354180814424
 20
0.7829797850365346
 30
0.0
 11
3.435013978532523
 21
0.8740016791961444
 31
0.0
  0
LINE
  5
15B0
330
1E
100
AcDbEntity
  8
0
  6
Continuous
370
    15
100
AcDbLine
 10
3.435013978532523
 20
0.8740016791961444
 30
0.0
 11
3.398119252963354
 21
0.9414494352581392
 31
0.0
  0
LINE
  5
15B1
330
1E
100
AcDbEntity
  8
0
  6
Continuous
370
    15
100
AcDbLine
 10
3.398119252963354
 20
0.9414494352581392
 30
0.0
 11
3.339281528043187
 21
0.9787205656362267
 31
0.0
  0
LINE
  5
15B2
330
1E
100
AcDbEntity
  8
0
  6
Continuous
370
    15
100
AcDbLine
 10
3.339281528043187
 20
0.9787205656362267
 30
0.0
 11
3.264260236475465
 21
0.9821667795315853
 31
0.0
  0
LINE
  5
15B3
330
1E
100
AcDbEntity
  8
0
  6
Continuous
370
    15
100
AcDbLine
 10
3.264260236475465
 20
0.9821667795315853
 30
0.0
 11
3.180399001516178
 21
0.9514506905475634
 31
0.0
  0
LINE
  5
15B4
330
1E
100
AcDbEntity
  8
0
  6
Continuous
370
    15
100
AcDbLine
 10
3.180399001516178
 20
0.9514506905475634
 30
0.0
 11
3.095906740977525
 21
0.8895790236931624
 31
0.0
  0
LINE
  5
15B5
330
1E
100
AcDbEntity
  8
0
  6
Continuous
370
    15
100
AcDbLine
 10
3.095906740977525
 20
0.8895790236931624
 30
0.0
 11
3.019054135914785
 21
0.8026083298541131
 31
0.0
  0
LINE
  5
15B6
330
1E
100
AcDbEntity
  8
0
  6
Continuous
370
    15
100
AcDbLine
 10
3.019054135914785
 20
0.8026083298541131
 30
0.0
 11
2.957364057167197
 21
0.6990518484209396
 31
0.0
  0
LINE
  5
15B7
330
1E
100
AcDbEntity
  8
0
  6
Continuous
370
    15
100
AcDbLine
 10
2.957364057167197
 20
0.6990518484209396
 30
0.0
 11
2.916875176773203
 21
0.5890461827274045
 31
0.0
  0
LINE
  5
15B8
330
1E
100
AcDbEntity
  8
0
  6
Continuous
370
    15
100
AcDbLine
 10
2.916875176773203
 20
0.5890461827274045
 30
0.0
 11
2.90155081314522
 21
0.4833598378622562
 31
0.0
  0
LINE
  5
15B9
330
1E
100
AcDbEntity
  8
0
  6
Continuous
370
    15
100
AcDbLine
 10
2.90155081314522
 20
0.4833598378622562
 30
0.0
 11
2.912891015427135
 21
0.3923377916100641
 31
0.0
  0
LINE
  5
15BA
330
1E
100
AcDbEntity
  8
0
  6
Continuous
370
    15
100
AcDbLine
 10
2.912891015427135
 20
0.3923377916100641
 30
0.0
 11
2.94978574099629
 21
0.3248901876406798
 31
0.0
  0
LINE
  5
15BB
330
1E
100
AcDbEntity
  8
0
  6
Continuous
370
    15
100
AcDbLine
 10
2.94978574099629
 20
0.3248901876406798
 30
0.0
 11
3.008623465916457
 21
0.2876190572625781
 31
0.0
  0
LINE
  5
15BC
330
1E
100
AcDbEntity
  8
0
  6
Continuous
370
    15
100
AcDbLine
 10
3.008623465916457
 20
0.2876190572625781
 30
0.0
 11
3.083644757484165
 21
0.2841728433672195
 31
0.0
  0
LINE
  5
15BD
330
1E
100
AcDbEntity
  8
0
  6
Continuous
370
    15
100
AcDbLine
 10
3.083644757484165
 20
0.2841728433672195
 30
0.0
 11
3.167505992443466
 21
0.3148889323512414
 31
0.0
  0
LINE
  5
15BE
330
1E
100
AcDbEntity
  8
0
  6
Continuous
370
    15
100
AcDbLine
 10
3.167505992443466
 20
0.3148889323512414
 30
0.0
 11
3.251998252982133
 21
0.3767604471130745
 31
0.0
  0
LINE
  5
15BF
330
1E
100
AcDbEntity
  8
0
  6
Continuous
370
    15
100
AcDbLine
 10
3.251998252982133
 20
0.3767604471130745
 30
0.0
 11
3.251998252982133
 21
0.3767604471130745
 31
0.0
  0
LINE
  5
15C0
330
1E
100
AcDbEntity
  8
0
  6
Continuous
370
    15
100
AcDbLine
 10
-0.7089826968382198
 20
-25.60024286464412
 30
0.0
 11
-0.7409327656646099
 21
-25.59871025345985
 31
0.0
  0
LINE
  5
15C1
330
1E
100
AcDbEntity
  8
0
  6
Continuous
370
    15
100
AcDbLine
 10
-0.7409327656646099
 20
-25.59871025345985
 30
0.0
 11
-0.7717121193396395
 21
-25.59353118090175
 31
0.0
  0
LINE
  5
15C2
330
1E
100
AcDbEntity
  8
0
  6
Continuous
370
    15
100
AcDbLine
 10
-0.7717121193396395
 20
-25.59353118090175
 30
0.0
 11
-0.8000850114417801
 21
-25.58491363065841
 31
0.0
  0
LINE
  5
15C3
330
1E
100
AcDbEntity
  8
0
  6
Continuous
370
    15
100
AcDbLine
 10
-0.8000850114417801
 20
-25.58491363065841
 30
0.0
 11
-0.824912172319955
 21
-25.57320354998524
 31
0.0
  0
LINE
  5
15C4
330
1E
100
AcDbEntity
  8
0
  6
Continuous
370
    15
100
AcDbLine
 10
-0.824912172319955
 20
-25.57320354998524
 30
0.0
 11
-0.8451968248909622
 21
-25.55887113508431
 31
0.0
  0
LINE
  5
15C5
330
1E
100
AcDbEntity
  8
0
  6
Continuous
370
    15
100
AcDbLine
 10
-0.8451968248909622
 20
-25.55887113508431
 30
0.0
 11
-0.860124477191448
 21
-25.54249181311741
 31
0.0
  0
LINE
  5
15C6
330
1E
100
AcDbEntity
  8
0
  6
Continuous
370
    15
100
AcDbLine
 10
-0.860124477191448
 20
-25.54249181311741
 30
0.0
 11
-0.8690958660668144
 21
-25.52472327045487
 31
0.0
  0
LINE
  5
15C7
330
1E
100
AcDbEntity
  8
0
  6
Continuous
370
    15
100
AcDbLine
 10
-0.8690958660668144
 20
-25.52472327045487
 30
0.0
 11
-0.8717507141645057
 21
-25.50627888832112
 31
0.0
  0
LINE
  5
15C8
330
1E
100
AcDbEntity
  8
0
  6
Continuous
370
    15
100
AcDbLine
 10
0.5996265790019777
 20
-10.56281142147251
 30
0.0
 11
0.5888640519624744
 21
-10.49530013195878
 31
0.0
  0
LINE
  5
15C9
330
1E
100
AcDbEntity
  8
0
  6
Continuous
370
    15
100
AcDbLine
 10
0.5888640519624744
 20
-10.49530013195878
 30
0.0
 11
0.5738202941493427
 21
-10.45544468445687
 31
0.0
  0
LINE
  5
15CA
330
1E
100
AcDbEntity
  8
0
  6
Continuous
370
    15
100
AcDbLine
 10
-0.1699304230526479
 20
-10.45411780836839
 30
0.0
 11
-0.1909247890399115
 21
-10.50916663704131
 31
0.0
  0
LINE
  5
15CB
330
1E
100
AcDbEntity
  8
0
  6
Continuous
370
    15
100
AcDbLine
 10
-0.1909247890399115
 20
-10.50916663704131
 30
0.0
 11
-0.2000079946568434
 21
-10.5869896377724
 31
0.0
  0
LINE
  5
15CC
330
1E
100
AcDbEntity
  8
0
  6
Continuous
370
    15
100
AcDbLine
 10
-1.987679119519299
 20
-6.008633265758856
 30
0.0
 11
-1.902637315936431
 21
-5.94388069220508
 31
0.0
  0
LINE
  5
15CD
330
1E
100
AcDbEntity
  8
0
  6
Continuous
370
    15
100
AcDbLine
 10
-1.902637315936431
 20
-5.94388069220508
 30
0.0
 11
-1.823877236706323
 21
-5.842044431010346
 31
0.0
  0
LINE
  5
15CE
330
1E
100
AcDbEntity
  8
0
  6
Continuous
370
    15
100
AcDbLine
 10
-1.823877236706323
 20
-5.842044431010346
 30
0.0
 11
-1.76780816460662
 21
-5.713857103882258
 31
0.0
  0
LINE
  5
15CF
330
1E
100
AcDbEntity
  8
0
  6
Continuous
370
    15
100
AcDbLine
 10
-1.76780816460662
 20
-5.713857103882258
 30
0.0
 11
-1.736043006846273
 21
-5.563006650909525
 31
0.0
  0
LINE
  5
15D0
330
1E
100
AcDbEntity
  8
0
  6
Continuous
370
    15
100
AcDbLine
 10
-1.736043006846273
 20
-5.563006650909525
 30
0.0
 11
-1.729495625639003
 21
-5.3938327773545
 31
0.0
  0
LINE
  5
15D1
330
1E
100
AcDbEntity
  8
0
  6
Continuous
370
    15
100
AcDbLine
 10
-1.729495625639003
 20
-5.3938327773545
 30
0.0
 11
-1.748354364714117
 21
-5.211202311301189
 31
0.0
  0
LINE
  5
15D2
330
1E
100
AcDbEntity
  8
0
  6
Continuous
370
    15
100
AcDbLine
 10
-1.748354364714117
 20
-5.211202311301189
 30
0.0
 11
-1.792076715105906
 21
-5.020369316005893
 31
0.0
  0
LINE
  5
15D3
330
1E
100
AcDbEntity
  8
0
  6
Continuous
370
    15
100
AcDbLine
 10
-1.792076715105906
 20
-5.020369316005893
 30
0.0
 11
-1.859404790949696
 21
-4.826823493071994
 31
0.0
  0
LINE
  5
15D4
330
1E
100
AcDbEntity
  8
0
  6
Continuous
370
    15
100
AcDbLine
 10
-1.859404790949696
 20
-4.826823493071994
 30
0.0
 11
-1.948401746993027
 21
-4.636132579932986
 31
0.0
  0
LINE
  5
15D5
330
1E
100
AcDbEntity
  8
0
  6
Continuous
370
    15
100
AcDbLine
 10
-1.948401746993027
 20
-4.636132579932986
 30
0.0
 11
-2.056507293897809
 21
-4.453783152155235
 31
0.0
  0
LINE
  5
15D6
330
1E
100
AcDbEntity
  8
0
  6
Continuous
370
    15
100
AcDbLine
 10
-2.056507293897809
 20
-4.453783152155235
 30
0.0
 11
-2.180611455225076
 21
-4.285020324781523
 31
0.0
  0
LINE
  5
15D7
330
1E
100
AcDbEntity
  8
0
  6
Continuous
370
    15
100
AcDbLine
 10
-2.180611455225076
 20
-4.285020324781523
 30
0.0
 11
-2.317143931924789
 21
-4.134699432429282
 31
0.0
  0
LINE
  5
15D8
330
1E
100
AcDbEntity
  8
0
  6
Continuous
370
    15
100
AcDbLine
 10
-2.317143931924789
 20
-4.134699432429282
 30
0.0
 11
-2.462176966987982
 21
-4.007144973076574
 31
0.0
  0
LINE
  5
15D9
330
1E
100
AcDbEntity
  8
0
  6
Continuous
370
    15
100
AcDbLine
 10
-2.462176966987982
 20
-4.007144973076574
 30
0.0
 11
-2.611538202868743
 21
-3.906026292846174
 31
0.0
  0
LINE
  5
15DA
330
1E
100
AcDbEntity
  8
0
  6
Continuous
370
    15
100
AcDbLine
 10
-2.611538202868743
 20
-3.906026292846174
 30
0.0
 11
-2.760930803217917
 21
-3.834252499448734
 31
0.0
  0
LINE
  5
15DB
330
1E
100
AcDbEntity
  8
0
  6
Continuous
370
    15
100
AcDbLine
 10
-2.760930803217917
 20
-3.834252499448734
 30
0.0
 11
-2.906057005865378
 21
-3.793888360787857
 31
0.0
  0
LINE
  5
15DC
330
1E
100
AcDbEntity
  8
0
  6
Continuous
370
    15
100
AcDbLine
 10
-2.906057005865378
 20
-3.793888360787857
 30
0.0
 11
-3.031635845909363
 21
-3.785482770614489
 31
0.0
  0
LINE
  5
15DD
330
1E
100
AcDbEntity
  8
0
  6
Continuous
370
    15
100
AcDbLine
 10
-4.257580721463185
 20
-5.262267671133397
 30
0.0
 11
-4.237848291389326
 21
-5.238155077450368
 31
0.0
  0
LINE
  5
15DE
330
1E
100
AcDbEntity
  8
0
  6
Continuous
370
    15
100
AcDbLine
 10
-3.695627323690132
 20
-6.177411032578401
 30
0.0
 11
-3.726321506980752
 21
-6.182435581882341
 31
0.0
  0
LINE
  5
15DF
330
1E
100
AcDbEntity
  8
0
  6
Continuous
370
    15
100
AcDbLine
 10
-3.726321506980752
 20
-6.182435581882341
 30
0.0
 11
-3.765359970633895
 21
-6.178572043124429
 31
0.0
  0
LINE
  5
15E0
330
1E
100
AcDbEntity
  8
0
  6
Continuous
370
    15
100
AcDbLine
 10
-3.859825427581441
 20
-6.231387020524632
 30
0.0
 11
-3.818245364089833
 21
-6.235502095038921
 31
0.0
  0
LINE
  5
15E1
330
1E
100
AcDbEntity
  8
0
  6
Continuous
370
    15
100
AcDbLine
 10
-3.818245364089833
 20
-6.235502095038921
 30
0.0
 11
-3.737699723744384
 21
-6.210630356947756
 31
0.0
  0
LINE
  5
15E2
330
1E
100
AcDbEntity
  8
0
  6
Continuous
370
    15
100
AcDbLine
 10
-3.737699723744384
 20
-6.210630356947756
 30
0.0
 11
-3.675894877152671
 21
-6.153298231764775
 31
0.0
  0
LINE
  5
15E3
330
1E
100
AcDbEntity
  8
0
  6
Continuous
370
    15
100
AcDbLine
 10
-3.675894877152671
 20
-6.153298231764775
 30
0.0
 11
-3.637042726815224
 21
-6.067413458593019
 31
0.0
  0
LINE
  5
15E4
330
1E
100
AcDbEntity
  8
0
  6
Continuous
370
    15
100
AcDbLine
 10
-3.637042726815224
 20
-6.067413458593019
 30
0.0
 11
-3.623791000317197
 21
-5.958828589654668
 31
0.0
  0
LINE
  5
15E5
330
1E
100
AcDbEntity
  8
0
  6
Continuous
370
    15
100
AcDbLine
 10
-3.623791000317197
 20
-5.958828589654668
 30
0.0
 11
-3.637042726815224
 21
-5.834943298788669
 31
0.0
  0
LINE
  5
15E6
330
1E
100
AcDbEntity
  8
0
  6
Continuous
370
    15
100
AcDbLine
 10
-3.637042726815224
 20
-5.834943298788669
 30
0.0
 11
-3.675894877152671
 21
-5.704200787661104
 31
0.0
  0
LINE
  5
15E7
330
1E
100
AcDbEntity
  8
0
  6
Continuous
370
    15
100
AcDbLine
 10
-3.675894877152671
 20
-5.704200787661104
 30
0.0
 11
-3.737699723744384
 21
-5.575510609693832
 31
0.0
  0
LINE
  5
15E8
330
1E
100
AcDbEntity
  8
0
  6
Continuous
370
    15
100
AcDbLine
 10
-3.737699723744384
 20
-5.575510609693832
 30
0.0
 11
-3.818245364089833
 21
-5.457642550550527
 31
0.0
  0
LINE
  5
15E9
330
1E
100
AcDbEntity
  8
0
  6
Continuous
370
    15
100
AcDbLine
 10
-3.818245364089833
 20
-5.457642550550527
 30
0.0
 11
-3.912042739165102
 21
-5.358629601393911
 31
0.0
  0
LINE
  5
15EA
330
1E
100
AcDbEntity
  8
0
  6
Continuous
370
    15
100
AcDbLine
 10
-3.912042739165102
 20
-5.358629601393911
 30
0.0
 11
-4.012699727862468
 21
-5.285218916016258
 31
0.0
  0
LINE
  5
15EB
330
1E
100
AcDbEntity
  8
0
  6
Continuous
370
    15
100
AcDbLine
 10
-4.012699727862468
 20
-5.285218916016258
 30
0.0
 11
-4.11335671655982
 21
-5.242413515972852
 31
0.0
  0
LINE
  5
15EC
330
1E
100
AcDbEntity
  8
0
  6
Continuous
370
    15
100
AcDbLine
 10
-4.11335671655982
 20
-5.242413515972852
 30
0.0
 11
-4.207154091635089
 21
-5.233130321015817
 31
0.0
  0
LINE
  5
15ED
330
1E
100
AcDbEntity
  8
0
  6
Continuous
370
    15
100
AcDbLine
 10
-4.207154091635089
 20
-5.233130321015817
 30
0.0
 11
-4.287699731980538
 21
-5.25800236329216
 31
0.0
  0
LINE
  5
15EE
330
1E
100
AcDbEntity
  8
0
  6
Continuous
370
    15
100
AcDbLine
 10
-4.287699731980538
 20
-5.25800236329216
 30
0.0
 11
-4.349504578572265
 21
-5.315334184289962
 31
0.0
  0
LINE
  5
15EF
330
1E
100
AcDbEntity
  8
0
  6
Continuous
370
    15
100
AcDbLine
 10
-4.138303874348054
 20
-6.388652861758
 30
0.0
 11
-4.012699727862468
 21
-6.489616620848178
 31
0.0
  0
LINE
  5
15F0
330
1E
100
AcDbEntity
  8
0
  6
Continuous
370
    15
100
AcDbLine
 10
-4.012699727862468
 20
-6.489616620848178
 30
0.0
 11
-3.765582300649015
 21
-6.57629315137731
 31
0.0
  0
LINE
  5
15F1
330
1E
100
AcDbEntity
  8
0
  6
Continuous
370
    15
100
AcDbLine
 10
-3.611797653592276
 20
-6.562542489586871
 30
0.0
 11
-3.446255237644706
 21
-6.438967934265331
 31
0.0
  0
LINE
  5
15F2
330
1E
100
AcDbEntity
  8
0
  6
Continuous
370
    15
100
AcDbLine
 10
-3.446255237644706
 20
-6.438967934265331
 30
0.0
 11
-3.364680209915235
 21
-6.210938713866166
 31
0.0
  0
LINE
  5
15F3
330
1E
100
AcDbEntity
  8
0
  6
Continuous
370
    15
100
AcDbLine
 10
-4.41360180213266
 20
-4.906090230653031
 30
0.0
 11
-4.579144218080216
 21
-5.029664785974571
 31
0.0
  0
LINE
  5
15F4
330
1E
100
AcDbEntity
  8
0
  6
Continuous
370
    15
100
AcDbLine
 10
-4.579144218080216
 20
-5.029664785974571
 30
0.0
 11
-4.660719245809701
 21
-5.257694006373707
 31
0.0
  0
LINE
  5
15F5
330
1E
100
AcDbEntity
  8
0
  6
Continuous
370
    15
100
AcDbLine
 10
-3.765582300649015
 20
-5.177655277207616
 30
0.0
 11
-4.012699727862468
 21
-4.979016099391696
 31
0.0
  0
LINE
  5
15F6
330
1E
100
AcDbEntity
  8
0
  6
Continuous
370
    15
100
AcDbLine
 10
-4.012699727862468
 20
-4.979016099391696
 30
0.0
 11
-4.259817155075907
 21
-4.89233956886262
 31
0.0
  0
LINE
  5
15F7
330
1E
100
AcDbEntity
  8
0
  6
Continuous
370
    15
100
AcDbLine
 10
-4.169917482684624
 20
-5.232790847528985
 30
0.0
 11
-4.179980042766587
 21
-5.246164683764728
 31
0.0
  0
LINE
  5
15F8
330
1E
100
AcDbEntity
  8
0
  6
Continuous
370
    15
100
AcDbLine
 10
-3.670275879065528
 20
-6.122993954775861
 30
0.0
 11
-3.657011179240711
 21
-6.121266782541464
 31
0.0
  0
ELLIPSE
  5
1668
330
1E
100
AcDbEntity
  8
0
100
AcDbEllipse
 10
0.2047873618173099
 20
7.203200984838776
 30
0.0
 11
-5.060288727570539
 21
0.0
 31
0.0
210
0.0
220
0.0
230
1.0
 40
0.5791339389539427
 41
0.0
 42
6.283185307179586
  0
ELLIPSE
  5
166A
330
1E
100
AcDbEntity
  8
0
100
AcDbEllipse
 10
0.2047873618173099
 20
6.373977468476327
 30
0.0
 11
-5.060288727570539
 21
0.0
 31
0.0
210
0.0
220
0.0
230
1.0
 40
0.5791339389539427
 41
0.0
 42
3.141592653589793
  0
LINE
  5
166B
330
1E
100
AcDbEntity
  8
0
100
AcDbLine
 10
-4.85550136575323
 20
7.203200984838819
 30
0.0
 11
-4.85550136575323
 21
6.373977468476368
 31
0.0
  0
LINE
  5
166C
330
1E
100
AcDbEntity
  8
0
100
AcDbLine
 10
5.26507608938785
 20
7.203200984838819
 30
0.0
 11
5.26507608938785
 21
6.373977468476368
 31
0.0
  0
TEXT
  5
1677
330
1E
100
AcDbEntity
  8
0
100
AcDbText
 10
16.3671728227838
 20
22.64457798732593
 30
0.0
 40
2.0
  1
アルミ（ダークシルバー塗装）
  7
bigfont
 11
16.3671728227838
 21
23.64457798732593
 31
0.0
100
AcDbText
 73
     2
  0
TEXT
  5
167E
330
1E
100
AcDbEntity
  8
0
100
AcDbText
 10
29.92988258996371
 20
-28.04255552071036
 30
0.0
 40
2.0
  1
電源電圧　100V専用
  7
bigfont
 11
29.92988258996371
 21
-27.04255552071036
 31
0.0
100
AcDbText
 73
     2
  0
TEXT
  5
167F
330
1E
100
AcDbEntity
  8
0
100
AcDbText
 10
29.92988258996371
 20
-31.04255552071036
 30
0.0
 40
2.0
  1
電源内蔵
  7
bigfont
 11
29.92988258996371
 21
-30.04255552071036
 31
0.0
100
AcDbText
 73
     2
  0
TEXT
  5
1680
330
1E
100
AcDbEntity
  8
0
100
AcDbText
 10
30.0
 20
-39.85709639422336
 30
0.0
 40
2.0
  1
片側配光
  7
bigfont
 11
30.0
 21
-38.85709639422336
 31
0.0
100
AcDbText
 73
     2
  0
TEXT
  5
1681
330
1E
100
AcDbEntity
  8
0
100
AcDbText
 10
30.07334318568331
 20
-45.4991640195701
 30
0.0
 40
2.0
  1
※LEDの発光色にはバラツキがあるため、
 41
0.7
  7
bigfont
 11
30.07334318568331
 21
-44.4991640195701
 31
0.0
100
AcDbText
 73
     2
  0
TEXT
  5
1682
330
1E
100
AcDbEntity
  8
0
100
AcDbText
 10
32.13975852017444
 20
-48.41209431984122
 30
0.0
 40
2.0
  1
光色や明るさに若干の違いが生じる場合があります。
 41
0.7
  7
bigfont
 11
32.13975852017444
 21
-47.41209431984121
 31
0.0
100
AcDbText
 73
     2
  0
ENDSEC
  0
SECTION
  2
OBJECTS
  0
DICTIONARY
  5
C
330
0
100
AcDbDictionary
281
     1
  3
ACAD_CIP_PREVIOUS_PRODUCT_INFO
350
1639
  3
ACAD_COLOR
350
61
  3
ACAD_DETAILVIEWSTYLE
350
1634
  3
ACAD_GROUP
350
D
  3
ACAD_LAYOUT
350
19
  3
ACAD_MATERIAL
350
37
  3
ACAD_MLEADERSTYLE
350
86
  3
ACAD_MLINESTYLE
350
16
  3
ACAD_PLOTSETTINGS
350
18
  3
ACAD_PLOTSTYLENAME
350
E
  3
ACAD_SCALELIST
350
64
  3
ACAD_SECTIONVIEWSTYLE
350
1632
  3
ACAD_TABLESTYLE
350
62
  3
ACAD_VISUALSTYLE
350
50
  3
ACDB_RECOMPOSE_DATA
350
16D7
  3
AcDbVariableDictionary
350
9C
  3
AcDsDecomposeData
350
16DE
  3
DWGPROPS
350
16D8
  0
DICTIONARY
  5
161C
330
8
100
AcDbDictionary
280
     1
281
     1
  0
DICTIONARY
  5
21E
330
2
100
AcDbDictionary
280
     1
281
     1
  3
ACAD_LAYERSTATES
360
21F
  0
DICTIONARY
  5
97
330
10
100
AcDbDictionary
280
     1
281
     1
  3
ADSK_XREC_LAYER_RECONCILED
360
98
  0
DICTIONARY
  5
19F
330
1E
100
AcDbDictionary
280
     1
281
     1
  3
ACAD_SORTENTS
360
1A0
  0
XRECORD
  5
1639
102
{ACAD_REACTORS
330
C
102
}
330
C
100
AcDbXrecord
280
     1
300
ACDLT
300
2014
300
ACDLT_F_S
  0
DICTIONARY
  5
61
102
{ACAD_REACTORS
330
C
102
}
330
C
100
AcDbDictionary
281
     1
  0
DICTIONARY
  5
1634
102
{ACAD_REACTORS
330
C
102
}
330
C
100
AcDbDictionary
281
     1
  3
Imperial24
350
1635
  0
DICTIONARY
  5
D
102
{ACAD_REACTORS
330
C
102
}
330
C
100
AcDbDictionary
281
     1
  0
DICTIONARY
  5
19
102
{ACAD_REACTORS
330
C
102
}
330
C
100
AcDbDictionary
281
     1
  3
Model
350
21
  3
ﾚｲｱｳﾄ1
350
1D
  0
DICTIONARY
  5
37
102
{ACAD_REACTORS
330
C
102
}
330
C
100
AcDbDictionary
281
     1
  3
ByBlock
350
40
  3
ByLayer
350
38
  3
Global
350
48
  0
DICTIONARY
  5
86
102
{ACAD_REACTORS
330
C
102
}
330
C
100
AcDbDictionary
281
     1
  3
Standard
350
87
  0
DICTIONARY
  5
16
102
{ACAD_REACTORS
330
C
102
}
330
C
100
AcDbDictionary
281
     1
  3
Standard
350
17
  0
DICTIONARY
  5
18
102
{ACAD_REACTORS
330
C
102
}
330
C
100
AcDbDictionary
281
     1
  0
ACDBDICTIONARYWDFLT
  5
E
102
{ACAD_REACTORS
330
C
102
}
330
C
100
AcDbDictionary
281
     1
  3
Normal
350
F
100
AcDbDictionaryWithDefault
340
F
  0
DICTIONARY
  5
64
102
{ACAD_REACTORS
330
C
102
}
330
C
100
AcDbDictionary
281
     1
  3
A0
350
65
  3
A1
350
66
  3
A2
350
67
  3
A3
350
68
  3
A4
350
69
  3
A5
350
6A
  3
A6
350
6B
  3
A7
350
6C
  3
A8
350
6D
  3
A9
350
6E
  3
B0
350
6F
  3
B1
350
70
  3
B2
350
71
  3
B3
350
72
  3
B4
350
73
  3
B5
350
74
  3
B6
350
75
  3
B7
350
76
  3
B8
350
77
  3
B9
350
78
  3
C0
350
79
  3
C1
350
7A
  3
C2
350
7B
  3
C3
350
7C
  3
C4
350
7D
  3
C5
350
7E
  3
C6
350
7F
  3
C7
350
80
  3
C8
350
81
  3
C9
350
82
  3
D0
350
83
  3
D1
350
84
  3
D2
350
85
  0
DICTIONARY
  5
1632
102
{ACAD_REACTORS
330
C
102
}
330
C
100
AcDbDictionary
281
     1
  3
Imperial24
350
1633
  0
DICTIONARY
  5
62
102
{ACAD_REACTORS
330
C
102
}
330
C
100
AcDbDictionary
281
     1
  3
Standard
350
63
  0
DICTIONARY
  5
50
102
{ACAD_REACTORS
330
C
102
}
330
C
100
AcDbDictionary
281
     1
  3
2dWireframe
350
56
  3
3D Hidden
350
58
  3
3dWireframe
350
57
  3
Basic
350
55
  3
Brighten
350
5C
  3
ColorChange
350
60
  3
Conceptual
350
59
  3
Dim
350
5B
  3
EdgeColorOff
350
1631
  3
Facepattern
350
5F
  3
Flat
350
51
  3
FlatWithEdges
350
52
  3
Gouraud
350
53
  3
GouraudWithEdges
350
54
  3
Hidden
350
1629
  3
JitterOff
350
162F
  3
Linepattern
350
5E
  3
OverhangOff
350
1630
  3
Realistic
350
5A
  3
Shaded
350
162E
  3
Shaded with edges
350
162D
  3
Shades of Gray
350
162A
  3
Sketchy
350
162B
  3
Thicken
350
5D
  3
Wireframe
350
1628
  3
X-Ray
350
162C
  0
XRECORD
  5
16D7
102
{ACAD_REACTORS
330
C
102
}
330
C
100
AcDbXrecord
280
     1
 90
        1
330
63
  0
DICTIONARY
  5
9C
102
{ACAD_REACTORS
330
C
102
}
330
C
100
AcDbDictionary
281
     1
  3
CANNOSCALE
350
A0
  3
CMLEADERSTYLE
350
9E
  3
CTABLESTYLE
350
9D
  3
CVIEWDETAILSTYLE
350
168F
  3
CVIEWSECTIONSTYLE
350
1690
  3
DIMASSOC
350
2C4
  3
INDEXCTL
350
2C3
  3
LAYEREVAL
350
1691
  3
LAYERNOTIFY
350
1692
  3
LIGHTINGUNITS
350
A1
  3
MSLTSCALE
350
9F
  3
SORTENTS
350
2C2
  3
XCLIPFRAME
350
16D5
  0
DICTIONARY
  5
16DE
102
{ACAD_REACTORS
330
C
102
}
330
C
100
AcDbDictionary
281
     1
  3
AcDsRecords
350
16E0
  3
AcDsSchemas
350
16DF
1001
ACAD
1070
     2
  0
XRECORD
  5
16D8
102
{ACAD_REACTORS
330
C
102
}
330
C
100
AcDbXrecord
280
     1
  1
DWGPROPS COOKIE
  2

  3

  4

  6

  7

  8
2235-katayama
  9

300
=
301
=
302
=
303
=
304
=
305
=
306
=
307
=
308
=
309
=
 40
0.1463534837962963
 41
2450043.599114352
 42
2458471.651317512
  1

 90
        0
  0
DICTIONARY
  5
21F
102
{ACAD_REACTORS
330
21E
102
}
330
21E
100
AcDbDictionary
281
     1
  0
XRECORD
  5
98
102
{ACAD_REACTORS
330
97
102
}
330
97
100
AcDbXrecord
280
     1
290
     1
  0
SORTENTSTABLE
  5
1A0
102
{ACAD_REACTORS
330
19F
102
}
330
19F
100
AcDbSortentsTable
330
1E
331
13B6
  5
13EC
331
13B2
  5
13E5
331
1444
  5
15D4
331
133F
  5
133F
331
13AE
  5
13E1
331
1440
  5
15D0
331
E1
  5
E1
331
133B
  5
133B
331
13AA
  5
13DA
331
143C
  5
15CC
331
13E9
  5
145E
331
83C
  5
83C
331
1337
  5
1337
331
1376
  5
1393
331
1438
  5
15C8
331
1333
  5
1333
331
1372
  5
138F
331
15CF
  5
1398
331
1515
  5
14F4
331
15CB
  5
13E8
331
1511
  5
14F0
331
15C7
  5
1414
331
150D
  5
14EC
331
154C
  5
14AF
331
15C3
  5
140E
331
1509
  5
14E8
331
1548
  5
14AB
331
13A6
  5
13D6
331
14B7
  5
154E
331
13E5
  5
145A
331
13A2
  5
13D2
331
14B3
  5
155D
331
13E1
  5
1456
331
132F
  5
132F
331
136E
  5
138B
331
13DD
  5
1428
331
139E
  5
13CE
331
1418
  5
15F6
331
14AF
  5
1559
331
132B
  5
132B
331
136A
  5
1386
331
13D9
  5
1424
331
139A
  5
13C9
331
1414
  5
15C7
331
14AB
  5
1555
331
1366
  5
1382
331
1327
  5
1327
331
1410
  5
1580
331
1362
  5
137E
331
1544
  5
14A7
331
1505
  5
14E4
331
15BF
  5
143B
331
1501
  5
14E0
331
15BB
  5
1437
331
1540
  5
14D2
331
153C
  5
14CE
331
14FD
  5
14DC
331
15B7
  5
1433
331
15F6
  5
134F
331
1538
  5
14CA
331
14F9
  5
1516
331
15B3
  5
142F
331
15F2
  5
1363
331
13D5
  5
1420
331
1396
  5
13C5
331
14A7
  5
1551
331
13D1
  5
141C
331
1392
  5
13C1
331
140C
  5
157C
331
14A3
  5
156C
331
135E
  5
137A
331
13CD
  5
1418
331
138E
  5
13BD
331
149F
  5
1568
331
135A
  5
1365
331
13C9
  5
1405
331
138A
  5
13B9
331
1404
  5
154C
331
149B
  5
1564
331
1356
  5
1360
331
FF7
  5
11F8
331
1400
  5
1548
331
1352
  5
1357
331
1534
  5
14C6
331
14F5
  5
1512
331
15AF
  5
142B
331
15EE
  5
1377
331
14F1
  5
150E
331
15AB
  5
1448
331
15EA
  5
1373
331
1530
  5
14C2
331
152C
  5
14BE
331
14ED
  5
150A
331
15A7
  5
1444
331
15E6
  5
136F
331
1528
  5
14BA
331
14E9
  5
1506
331
15A3
  5
1440
331
15E2
  5
1369
331
1386
  5
13B3
331
1497
  5
1579
331
13C5
  5
1401
331
1382
  5
13AF
331
13FC
  5
1544
331
1493
  5
1575
331
13C1
  5
13FD
331
134E
  5
1352
331
137E
  5
13AB
331
13F8
  5
1540
331
148F
  5
1571
331
13BD
  5
13F9
331
E0B
  5
E0B
331
134A
  5
134D
331
137A
  5
13A7
331
13F4
  5
153C
331
13B9
  5
13F5
331
1346
  5
1348
331
843
  5
843
331
1524
  5
14B6
331
14E5
  5
1502
331
159F
  5
143C
331
15DE
  5
1387
331
14E1
  5
14FE
331
159B
  5
1452
331
15DA
  5
13A3
331
1520
  5
14DB
331
151C
  5
14D7
331
14DD
  5
14FA
331
1597
  5
144E
331
15D6
  5
139F
331
1518
  5
14D3
331
1593
  5
144A
331
15D2
  5
139B
331
1447
  5
15D7
331
13B1
  5
13E4
331
133E
  5
133E
331
1443
  5
15D3
331
13AD
  5
13DD
331
133A
  5
133A
331
83F
  5
83F
331
143F
  5
15CF
331
13A9
  5
13D9
331
1375
  5
1392
331
143B
  5
15CB
331
13E8
  5
145D
331
1332
  5
1332
331
1371
  5
138E
331
1514
  5
14F3
331
15CE
  5
1397
331
1510
  5
14EF
331
15CA
  5
13E7
331
154F
  5
14B2
331
150C
  5
14EB
331
15C6
  5
1411
331
154B
  5
14AE
331
1508
  5
14E7
331
15C2
  5
140D
331
13A5
  5
13D5
331
14B6
  5
1560
331
13E4
  5
1459
331
13A1
  5
13D1
331
136D
  5
138A
331
132E
  5
132E
331
14B2
  5
155C
331
13DC
  5
1427
331
139D
  5
13CD
331
1369
  5
1385
331
132A
  5
132A
331
14AE
  5
1558
331
13D8
  5
1423
331
1399
  5
13C8
331
1365
  5
1381
331
1326
  5
1326
331
14AA
  5
1554
331
1361
  5
137D
331
1547
  5
14AA
331
1543
  5
14A6
331
1504
  5
14E3
331
15BE
  5
143A
331
153F
  5
14D1
331
1500
  5
14DF
331
15BA
  5
1436
331
153B
  5
14CD
331
14FC
  5
1519
331
15B6
  5
1432
331
15F5
  5
134E
331
14F8
  5
1515
331
15B2
  5
142E
331
15F1
  5
1362
331
166C
  5
166D
331
1668
  5
1669
331
13D4
  5
141F
331
1395
  5
13C4
331
140F
  5
157F
331
14A6
  5
1550
331
1391
  5
13C0
331
140B
  5
157B
331
14A2
  5
156B
331
13D0
  5
141B
331
13CC
  5
1416
331
138D
  5
13BC
331
1359
  5
1364
331
149E
  5
1567
331
13C8
  5
1404
331
1389
  5
13B8
331
1355
  5
135F
331
FF6
  5
11F7
331
1403
  5
154B
331
149A
  5
1563
331
1351
  5
1356
331
1537
  5
14C9
331
1533
  5
14C5
331
14F4
  5
1511
331
15AE
  5
142A
331
15ED
  5
1376
331
152F
  5
14C1
331
14F0
  5
150D
331
15AA
  5
1447
331
15E9
  5
1372
331
152B
  5
14BD
331
14EC
  5
1509
331
15A6
  5
1443
331
15E5
  5
136E
331
14E8
  5
1505
331
15A2
  5
143F
331
15E1
  5
1368
331
1385
  5
13B2
331
13FF
  5
1547
331
1496
  5
1578
331
13C4
  5
1400
331
1381
  5
13AE
331
E0E
  5
E0E
331
134D
  5
1351
331
13FB
  5
1543
331
1492
  5
1574
331
13C0
  5
13FC
331
137D
  5
13AA
331
1349
  5
134C
331
13F7
  5
153F
331
148E
  5
1570
331
13BC
  5
13F8
331
103
  5
103
331
1345
  5
1347
331
1379
  5
13A6
331
13B8
  5
13F4
331
842
  5
842
331
1527
  5
14B9
331
14E4
  5
1501
331
159E
  5
1455
331
15DD
  5
1389
331
1523
  5
14B5
331
151F
  5
14DA
331
14E0
  5
14FD
331
159A
  5
1451
331
15D9
  5
13A2
331
151B
  5
14D6
331
14DC
  5
14F9
331
1596
  5
144D
331
15D5
  5
139E
331
15D1
  5
139A
331
1446
  5
15D6
331
13B0
  5
13E3
331
E3
  5
E3
331
133D
  5
133D
331
1442
  5
15D2
331
13AC
  5
13DC
331
BF
  5
BF
331
1339
  5
1339
331
83E
  5
83E
331
143E
  5
15CE
331
13A8
  5
13D8
331
BB
  5
BB
331
1374
  5
1391
331
143A
  5
15CA
331
1331
  5
1331
331
1370
  5
138D
331
1517
  5
14F6
331
1513
  5
14F2
331
15CD
  5
1396
331
150F
  5
14EE
331
15C9
  5
13EB
331
154E
  5
14B1
331
150B
  5
14EA
331
15C5
  5
1410
331
154A
  5
14AD
331
15C1
  5
140C
331
13E7
  5
145C
331
13E3
  5
1458
331
14B5
  5
155F
331
13A4
  5
13D4
331
14B1
  5
155B
331
132D
  5
132D
331
141A
  5
15F8
331
13A0
  5
13D0
331
13DB
  5
1426
331
14AD
  5
1557
331
1329
  5
1329
331
1368
  5
1384
331
1416
  5
15D8
331
139C
  5
13CC
331
1364
  5
1380
331
14A9
  5
1553
331
1398
  5
13C7
331
1360
  5
137C
331
1546
  5
14A9
331
1507
  5
14E6
331
1542
  5
14A5
331
1503
  5
14E2
331
15BD
  5
1439
331
153E
  5
14D0
331
14FF
  5
14DE
331
15B9
  5
1435
331
15F8
  5
1345
331
153A
  5
14CC
331
14FB
  5
1518
331
15B5
  5
1431
331
15F4
  5
135E
331
15B1
  5
142D
331
15F0
  5
1367
331
166B
  5
166C
331
13D7
  5
1422
331
13D3
  5
141E
331
14A5
  5
156E
331
140E
  5
157E
331
1394
  5
13C3
331
14A1
  5
156A
331
140A
  5
157A
331
1390
  5
13BF
331
13CF
  5
141A
331
149D
  5
1566
331
138C
  5
13BB
331
1499
  5
1562
331
1402
  5
154A
331
1388
  5
13B7
331
1350
  5
1355
331
1536
  5
14C8
331
14F7
  5
1514
331
1532
  5
14C4
331
14F3
  5
1510
331
15AD
  5
1429
331
15EC
  5
1375
331
152E
  5
14C0
331
14EF
  5
150C
331
15A9
  5
1446
331
15E8
  5
1371
331
152A
  5
14BC
331
14EB
  5
1508
331
15A5
  5
1442
331
15E4
  5
136D
331
15A1
  5
143E
331
15E0
  5
1379
331
13C7
  5
1403
331
1495
  5
1577
331
13FE
  5
1546
331
1384
  5
13B1
331
13C3
  5
13FF
331
13BF
  5
13FB
331
1491
  5
1573
331
E0D
  5
E0D
331
134C
  5
1350
331
13FA
  5
1542
331
1380
  5
13AD
331
148D
  5
156F
331
1348
  5
134A
331
13F6
  5
153E
331
137C
  5
13A9
331
13BB
  5
13F7
331
1340
  5
1340
331
841
  5
841
331
1526
  5
14B8
331
14E7
  5
1504
331
1522
  5
14B4
331
14E3
  5
1500
331
159D
  5
1454
331
15DC
  5
13A5
331
151E
  5
14D9
331
14DF
  5
14FC
331
1599
  5
1450
331
15D8
  5
13A1
331
151A
  5
14D5
331
14DB
  5
14F8
331
1595
  5
144C
331
15D4
  5
139D
331
15D0
  5
1399
331
13B7
  5
13F1
331
13B3
  5
13E6
331
1445
  5
15D5
331
13AF
  5
13E2
331
E2
  5
E2
331
133C
  5
133C
331
1441
  5
15D1
331
13AB
  5
13DB
331
BE
  5
BE
331
1338
  5
1338
331
1377
  5
1394
331
143D
  5
15CD
331
14B8
  5
154F
331
BA
  5
BA
331
1373
  5
1390
331
1439
  5
15C9
331
1330
  5
1330
331
1516
  5
14F5
331
1512
  5
14F1
331
15CC
  5
1395
331
154D
  5
14B0
331
15C8
  5
13E9
331
150E
  5
14ED
331
1549
  5
14AC
331
15C4
  5
140F
331
150A
  5
14E9
331
15C0
  5
140B
331
13A7
  5
13D7
331
13E6
  5
145B
331
136F
  5
138C
331
14B4
  5
155E
331
13A3
  5
13D3
331
13E2
  5
1457
331
14B0
  5
155A
331
132C
  5
132C
331
1419
  5
15F7
331
139F
  5
13CF
331
13DA
  5
1425
331
1367
  5
1383
331
1328
  5
1328
331
14AC
  5
1556
331
139B
  5
13CA
331
14A8
  5
1552
331
239
  5
2A4
331
1363
  5
137F
331
1411
  5
1581
331
1506
  5
14E5
331
1545
  5
14A8
331
15BC
  5
1438
331
1502
  5
14E1
331
1541
  5
14A4
331
153D
  5
14CF
331
15B8
  5
1434
331
15F7
  5
1346
331
14FE
  5
14DD
331
1539
  5
14CB
331
15B4
  5
1430
331
15F3
  5
135A
331
14FA
  5
1517
331
15B0
  5
142C
331
166A
  5
166B
331
13D6
  5
1421
331
1397
  5
13C6
331
13D2
  5
141D
331
14A4
  5
156D
331
135F
  5
137B
331
140D
  5
157D
331
1393
  5
13C2
331
13CE
  5
1419
331
14A0
  5
1569
331
138F
  5
13BE
331
13CA
  5
140A
331
149C
  5
1565
331
1357
  5
1361
331
FF8
  5
11F9
331
1405
  5
154D
331
138B
  5
13BA
331
1498
  5
1561
331
1353
  5
1359
331
1401
  5
1549
331
1535
  5
14C7
331
15EF
  5
1366
331
14F6
  5
1513
331
15AC
  5
1449
331
15EB
  5
1374
331
14F2
  5
150F
331
1531
  5
14C3
331
152D
  5
14BF
331
15A8
  5
1445
331
15E7
  5
1370
331
14EE
  5
150B
331
1529
  5
14BB
331
15A4
  5
1441
331
15E3
  5
136A
331
14EA
  5
1507
331
15A0
  5
143D
331
1387
  5
13B6
331
13C6
  5
1402
331
1383
  5
13B0
331
134F
  5
1353
331
13FD
  5
1545
331
1494
  5
1576
331
13C2
  5
13FE
331
13BE
  5
13FA
331
137F
  5
13AC
331
E0C
  5
E0C
331
13F9
  5
1541
331
1490
  5
1572
331
137B
  5
13A8
331
1347
  5
1349
331
13F5
  5
153D
331
13BA
  5
13F6
331
13F1
  5
14F7
331
840
  5
840
331
1525
  5
14B7
331
15DF
  5
1388
331
14E6
  5
1503
331
159C
  5
1453
331
15DB
  5
13A4
331
14E2
  5
14FF
331
1521
  5
14B3
331
151D
  5
14D8
331
1598
  5
144F
331
15D7
  5
13A0
331
14DE
  5
14FB
331
1594
  5
144B
331
15D3
  5
139C
331
1519
  5
14D4
  0
ACDBDETAILVIEWSTYLE
  5
1635
102
{ACAD_XDICTIONARY
360
168C
102
}
102
{ACAD_REACTORS
330
1634
102
}
330
1634
100
AcDbModelDocViewStyle
 70
     0
  3
Imperial24
290
     0
100
AcDbDetailViewStyle
 70
     0
 71
     0
 90
        3
 71
     1
340
11
 40
0.24
340
0
 40
0.24
300

 40
0.36
280
     3
 71
     2
340
15
 90
       25
 71
     3
340
11
 40
0.24
 90
        1
 40
0.75
 90
        1
300
%<\AcVar ViewType \f "%tc1">% %<\AcVar ViewDetailId>%\PSCALE %<\AcVar ViewScale \f "%sn">%
 71
     4
340
15
 90
       25
340
15
 90
       25
280
     0
  0
LAYOUT
  5
21
102
{ACAD_XDICTIONARY
360
16E3
102
}
102
{ACAD_REACTORS
330
19
102
}
330
19
100
AcDbPlotSettings
  1

  2
C:\Program Files\AutoCAD LT 98\plotters\DWF Classic.pc3
  4

  6

 40
0.0
 41
0.0
 42
0.0
 43
0.0
 44
0.0
 45
0.0
 46
0.0
 47
0.0
 48
0.0
 49
0.0
140
0.0
141
0.0
142
1.0
143
1.0
 70
  1712
 72
     0
 73
     0
 74
     0
  7

 75
     0
147
1.0
148
0.0
149
0.0
100
AcDbLayout
  1
Model
 70
     1
 71
     0
 10
0.0
 20
0.0
 11
12.0
 21
9.0
 12
0.0
 22
0.0
 32
0.0
 14
0.0
 24
0.0
 34
0.0
 15
0.0
 25
0.0
 35
0.0
146
0.0
 13
0.0
 23
0.0
 33
0.0
 16
1.0
 26
0.0
 36
0.0
 17
0.0
 27
1.0
 37
0.0
 76
     0
330
1E
331
35
  0
LAYOUT
  5
1D
102
{ACAD_XDICTIONARY
360
16E1
102
}
102
{ACAD_REACTORS
330
19
102
}
330
19
100
AcDbPlotSettings
  1

  2
C:\Program Files\AutoCAD LT 98\plotters\DWF Classic.pc3
  4

  6

 40
0.0
 41
0.0
 42
0.0
 43
0.0
 44
0.0
 45
0.0
 46
0.0
 47
0.0
 48
0.0
 49
0.0
140
0.0
141
0.0
142
1.0
143
1.0
 70
   688
 72
     0
 73
     0
 74
     5
  7

 75
    16
147
1.0
148
0.0
149
0.0
100
AcDbLayout
  1
ﾚｲｱｳﾄ1
 70
     0
 71
     1
 10
0.0
 20
0.0
 11
12.0
 21
9.0
 12
0.0
 22
0.0
 32
0.0
 14
1.000000000000000E+20
 24
1.000000000000000E+20
 34
1.000000000000000E+20
 15
-1.000000000000000E+20
 25
-1.000000000000000E+20
 35
-1.000000000000000E+20
146
0.0
 13
0.0
 23
0.0
 33
0.0
 16
1.0
 26
0.0
 36
0.0
 17
0.0
 27
1.0
 37
0.0
 76
     0
330
1A
  0
MATERIAL
  5
40
102
{ACAD_XDICTIONARY
360
41
102
}
102
{ACAD_REACTORS
330
37
102
}
330
37
100
AcDbMaterial
  1
ByBlock
 72
     0
 43
0.0208333333333333
 43
0.0
 43
0.0
 43
0.0
 43
0.0
 43
0.0208333333333333
 43
0.0
 43
0.0
 43
0.0
 43
0.0
 43
1.0
 43
0.0
 43
0.0
 43
0.0
 43
0.0
 43
1.0
 77
     0
 47
0.0208333333333333
 47
0.0
 47
0.0
 47
0.0
 47
0.0
 47
0.0208333333333333
 47
0.0
 47
0.0
 47
0.0
 47
0.0
 47
1.0
 47
0.0
 47
0.0
 47
0.0
 47
0.0
 47
1.0
171
     0
 49
0.0208333333333333
 49
0.0
 49
0.0
 49
0.0
 49
0.0
 49
0.0208333333333333
 49
0.0
 49
0.0
 49
0.0
 49
0.0
 49
1.0
 49
0.0
 49
0.0
 49
0.0
 49
0.0
 49
1.0
175
     0
142
0.0208333333333333
142
0.0
142
0.0
142
0.0
142
0.0
142
0.0208333333333333
142
0.0
142
0.0
142
0.0
142
0.0
142
1.0
142
0.0
142
0.0
142
0.0
142
0.0
142
1.0
179
     0
144
0.0208333333333333
144
0.0
144
0.0
144
0.0
144
0.0
144
0.0208333333333333
144
0.0
144
0.0
144
0.0
144
0.0
144
1.0
144
0.0
144
0.0
144
0.0
144
0.0
144
1.0
147
0.0208333333333333
147
0.0
147
0.0
147
0.0
147
0.0
147
0.0208333333333333
147
0.0
147
0.0
147
0.0
147
0.0
147
1.0
147
0.0
147
0.0
147
0.0
147
0.0
147
1.0
  0
MATERIAL
  5
38
102
{ACAD_XDICTIONARY
360
39
102
}
102
{ACAD_REACTORS
330
37
102
}
330
37
100
AcDbMaterial
  1
ByLayer
 72
     0
 43
0.0208333333333333
 43
0.0
 43
0.0
 43
0.0
 43
0.0
 43
0.0208333333333333
 43
0.0
 43
0.0
 43
0.0
 43
0.0
 43
1.0
 43
0.0
 43
0.0
 43
0.0
 43
0.0
 43
1.0
 77
     0
 47
0.0208333333333333
 47
0.0
 47
0.0
 47
0.0
 47
0.0
 47
0.0208333333333333
 47
0.0
 47
0.0
 47
0.0
 47
0.0
 47
1.0
 47
0.0
 47
0.0
 47
0.0
 47
0.0
 47
1.0
171
     0
 49
0.0208333333333333
 49
0.0
 49
0.0
 49
0.0
 49
0.0
 49
0.0208333333333333
 49
0.0
 49
0.0
 49
0.0
 49
0.0
 49
1.0
 49
0.0
 49
0.0
 49
0.0
 49
0.0
 49
1.0
175
     0
142
0.0208333333333333
142
0.0
142
0.0
142
0.0
142
0.0
142
0.0208333333333333
142
0.0
142
0.0
142
0.0
142
0.0
142
1.0
142
0.0
142
0.0
142
0.0
142
0.0
142
1.0
179
     0
144
0.0208333333333333
144
0.0
144
0.0
144
0.0
144
0.0
144
0.0208333333333333
144
0.0
144
0.0
144
0.0
144
0.0
144
1.0
144
0.0
144
0.0
144
0.0
144
0.0
144
1.0
147
0.0208333333333333
147
0.0
147
0.0
147
0.0
147
0.0
147
0.0208333333333333
147
0.0
147
0.0
147
0.0
147
0.0
147
1.0
147
0.0
147
0.0
147
0.0
147
0.0
147
1.0
  0
MATERIAL
  5
48
102
{ACAD_XDICTIONARY
360
49
102
}
102
{ACAD_REACTORS
330
37
102
}
330
37
100
AcDbMaterial
  1
Global
 72
     0
 43
0.0208333333333333
 43
0.0
 43
0.0
 43
0.0
 43
0.0
 43
0.0208333333333333
 43
0.0
 43
0.0
 43
0.0
 43
0.0
 43
1.0
 43
0.0
 43
0.0
 43
0.0
 43
0.0
 43
1.0
 77
     0
 47
0.0208333333333333
 47
0.0
 47
0.0
 47
0.0
 47
0.0
 47
0.0208333333333333
 47
0.0
 47
0.0
 47
0.0
 47
0.0
 47
1.0
 47
0.0
 47
0.0
 47
0.0
 47
0.0
 47
1.0
171
     0
 49
0.0208333333333333
 49
0.0
 49
0.0
 49
0.0
 49
0.0
 49
0.0208333333333333
 49
0.0
 49
0.0
 49
0.0
 49
0.0
 49
1.0
 49
0.0
 49
0.0
 49
0.0
 49
0.0
 49
1.0
175
     0
142
0.0208333333333333
142
0.0
142
0.0
142
0.0
142
0.0
142
0.0208333333333333
142
0.0
142
0.0
142
0.0
142
0.0
142
1.0
142
0.0
142
0.0
142
0.0
142
0.0
142
1.0
179
     0
144
0.0208333333333333
144
0.0
144
0.0
144
0.0
144
0.0
144
0.0208333333333333
144
0.0
144
0.0
144
0.0
144
0.0
144
1.0
144
0.0
144
0.0
144
0.0
144
0.0
144
1.0
147
0.0208333333333333
147
0.0
147
0.0
147
0.0
147
0.0
147
0.0208333333333333
147
0.0
147
0.0
147
0.0
147
0.0
147
1.0
147
0.0
147
0.0
147
0.0
147
0.0
147
1.0
  0
MLEADERSTYLE
  5
87
102
{ACAD_REACTORS
330
86
102
}
330
86
100
AcDbMLeaderStyle
170
     2
171
     1
172
     0
 90
        2
 40
0.0
 41
0.0
173
     1
 91
-1056964608
340
13
 92
       -2
290
     1
 42
0.09
291
     1
 43
0.36
  3
Standard
 44
0.18
300

342
11
174
     1
178
     6
175
     1
176
     0
 93
-1056964608
 45
0.18
292
     0
297
     0
 46
0.18
 94
-1056964608
 47
1.0
 49
1.0
140
1.0
293
     1
141
0.0
294
     1
177
     0
142
1.0
295
     0
296
     0
143
0.125
1001
ACAD_MLEADERVER
1070
     2
  0
MLINESTYLE
  5
17
102
{ACAD_REACTORS
330
16
102
}
330
16
100
AcDbMlineStyle
  2
STANDARD
 70
     0
  3

 62
   256
 51
90.0
 52
90.0
 71
     2
 49
0.5
 62
   256
  6
BYLAYER
 49
-0.5
 62
   256
  6
BYLAYER
  0
ACDBPLACEHOLDER
  5
F
102
{ACAD_REACTORS
330
E
102
}
330
E
  0
SCALE
  5
65
102
{ACAD_REACTORS
330
64
102
}
330
64
100
AcDbScale
 70
     0
300
1:1
140
1.0
141
1.0
290
     1
  0
SCALE
  5
66
102
{ACAD_REACTORS
330
64
102
}
330
64
100
AcDbScale
 70
     0
300
1:2
140
1.0
141
2.0
290
     0
  0
SCALE
  5
67
102
{ACAD_REACTORS
330
64
102
}
330
64
100
AcDbScale
 70
     0
300
1:4
140
1.0
141
4.0
290
     0
  0
SCALE
  5
68
102
{ACAD_REACTORS
330
64
102
}
330
64
100
AcDbScale
 70
     0
300
1:5
140
1.0
141
5.0
290
     0
  0
SCALE
  5
69
102
{ACAD_REACTORS
330
64
102
}
330
64
100
AcDbScale
 70
     0
300
1:8
140
1.0
141
8.0
290
     0
  0
SCALE
  5
6A
102
{ACAD_REACTORS
330
64
102
}
330
64
100
AcDbScale
 70
     0
300
1:10
140
1.0
141
10.0
290
     0
  0
SCALE
  5
6B
102
{ACAD_REACTORS
330
64
102
}
330
64
100
AcDbScale
 70
     0
300
1:16
140
1.0
141
16.0
290
     0
  0
SCALE
  5
6C
102
{ACAD_REACTORS
330
64
102
}
330
64
100
AcDbScale
 70
     0
300
1:20
140
1.0
141
20.0
290
     0
  0
SCALE
  5
6D
102
{ACAD_REACTORS
330
64
102
}
330
64
100
AcDbScale
 70
     0
300
1:30
140
1.0
141
30.0
290
     0
  0
SCALE
  5
6E
102
{ACAD_REACTORS
330
64
102
}
330
64
100
AcDbScale
 70
     0
300
1:40
140
1.0
141
40.0
290
     0
  0
SCALE
  5
6F
102
{ACAD_REACTORS
330
64
102
}
330
64
100
AcDbScale
 70
     0
300
1:50
140
1.0
141
50.0
290
     0
  0
SCALE
  5
70
102
{ACAD_REACTORS
330
64
102
}
330
64
100
AcDbScale
 70
     0
300
1:100
140
1.0
141
100.0
290
     0
  0
SCALE
  5
71
102
{ACAD_REACTORS
330
64
102
}
330
64
100
AcDbScale
 70
     0
300
2:1
140
2.0
141
1.0
290
     0
  0
SCALE
  5
72
102
{ACAD_REACTORS
330
64
102
}
330
64
100
AcDbScale
 70
     0
300
4:1
140
4.0
141
1.0
290
     0
  0
SCALE
  5
73
102
{ACAD_REACTORS
330
64
102
}
330
64
100
AcDbScale
 70
     0
300
8:1
140
8.0
141
1.0
290
     0
  0
SCALE
  5
74
102
{ACAD_REACTORS
330
64
102
}
330
64
100
AcDbScale
 70
     0
300
10:1
140
10.0
141
1.0
290
     0
  0
SCALE
  5
75
102
{ACAD_REACTORS
330
64
102
}
330
64
100
AcDbScale
 70
     0
300
100:1
140
100.0
141
1.0
290
     0
  0
SCALE
  5
76
102
{ACAD_REACTORS
330
64
102
}
330
64
100
AcDbScale
 70
     0
300
1/128" = 1'-0"
140
0.0078125
141
12.0
290
     0
  0
SCALE
  5
77
102
{ACAD_REACTORS
330
64
102
}
330
64
100
AcDbScale
 70
     0
300
1/64" = 1'-0"
140
0.015625
141
12.0
290
     0
  0
SCALE
  5
78
102
{ACAD_REACTORS
330
64
102
}
330
64
100
AcDbScale
 70
     0
300
1/32" = 1'-0"
140
0.03125
141
12.0
290
     0
  0
SCALE
  5
79
102
{ACAD_REACTORS
330
64
102
}
330
64
100
AcDbScale
 70
     0
300
1/16" = 1'-0"
140
0.0625
141
12.0
290
     0
  0
SCALE
  5
7A
102
{ACAD_REACTORS
330
64
102
}
330
64
100
AcDbScale
 70
     0
300
3/32" = 1'-0"
140
0.09375
141
12.0
290
     0
  0
SCALE
  5
7B
102
{ACAD_REACTORS
330
64
102
}
330
64
100
AcDbScale
 70
     0
300
1/8" = 1'-0"
140
0.125
141
12.0
290
     0
  0
SCALE
  5
7C
102
{ACAD_REACTORS
330
64
102
}
330
64
100
AcDbScale
 70
     0
300
3/16" = 1'-0"
140
0.1875
141
12.0
290
     0
  0
SCALE
  5
7D
102
{ACAD_REACTORS
330
64
102
}
330
64
100
AcDbScale
 70
     0
300
1/4" = 1'-0"
140
0.25
141
12.0
290
     0
  0
SCALE
  5
7E
102
{ACAD_REACTORS
330
64
102
}
330
64
100
AcDbScale
 70
     0
300
3/8" = 1'-0"
140
0.375
141
12.0
290
     0
  0
SCALE
  5
7F
102
{ACAD_REACTORS
330
64
102
}
330
64
100
AcDbScale
 70
     0
300
1/2" = 1'-0"
140
0.5
141
12.0
290
     0
  0
SCALE
  5
80
102
{ACAD_REACTORS
330
64
102
}
330
64
100
AcDbScale
 70
     0
300
3/4" = 1'-0"
140
0.75
141
12.0
290
     0
  0
SCALE
  5
81
102
{ACAD_REACTORS
330
64
102
}
330
64
100
AcDbScale
 70
     0
300
1" = 1'-0"
140
1.0
141
12.0
290
     0
  0
SCALE
  5
82
102
{ACAD_REACTORS
330
64
102
}
330
64
100
AcDbScale
 70
     0
300
1-1/2" = 1'-0"
140
1.5
141
12.0
290
     0
  0
SCALE
  5
83
102
{ACAD_REACTORS
330
64
102
}
330
64
100
AcDbScale
 70
     0
300
3" = 1'-0"
140
3.0
141
12.0
290
     0
  0
SCALE
  5
84
102
{ACAD_REACTORS
330
64
102
}
330
64
100
AcDbScale
 70
     0
300
6" = 1'-0"
140
6.0
141
12.0
290
     0
  0
SCALE
  5
85
102
{ACAD_REACTORS
330
64
102
}
330
64
100
AcDbScale
 70
     0
300
1'-0" = 1'-0"
140
12.0
141
12.0
290
     0
  0
ACDBSECTIONVIEWSTYLE
  5
1633
102
{ACAD_XDICTIONARY
360
168A
102
}
102
{ACAD_REACTORS
330
1632
102
}
330
1632
100
AcDbModelDocViewStyle
 70
     0
  3
Imperial24
290
     0
100
AcDbSectionViewStyle
 70
     0
 71
     0
 90
       78
 71
     1
340
11
 40
0.24
340
0
340
0
 40
0.24
300
I, O, Q, S, X, Z
 40
0.48
 90
        3
 40
0.18
 90
        1
 71
     2
340
15
 90
       25
340
15
 90
       50
 40
0.24
 40
0.0
 40
0.24
 71
     3
340
11
 40
0.24
 90
        1
 40
0.75
 90
        1
300
%<\AcVar ViewType \f "%tc1">% %<\AcVar ViewSectionStartId>%-%<\AcVar ViewSectionEndId>%\PSCALE %<\AcVar ViewScale \f "%sn">%
 71
     4
300
ANSI31
 40
1.0
 90
        0
290
     0
290
     0
 90
        6
 40
0.0
 40
1.570796326794896
 40
0.2617993877991494
 40
1.308996938995747
 40
-0.2617993877991494
 40
1.832595714594046
  0
TABLESTYLE
  5
63
102
{ACAD_XDICTIONARY
360
99
102
}
102
{ACAD_REACTORS
330
62
102
}
330
62
100
AcDbTableStyle
  3
Standard
 70
     0
 71
     0
 40
0.06
 41
0.06
280
     0
281
     0
  7
STANDARD
140
0.18
170
     2
 62
     0
 63
     7
283
     0
274
    -2
284
     1
 64
     0
275
    -2
285
     1
 65
     0
276
    -2
286
     1
 66
     0
277
    -2
287
     1
 67
     0
278
    -2
288
     1
 68
     0
279
    -2
289
     1
 69
     0
  7
STANDARD
140
0.25
170
     5
 62
     0
 63
     7
283
     0
274
    -2
284
     1
 64
     0
275
    -2
285
     1
 65
     0
276
    -2
286
     1
 66
     0
277
    -2
287
     1
 67
     0
278
    -2
288
     1
 68
     0
279
    -2
289
     1
 69
     0
  7
STANDARD
140
0.18
170
     5
 62
     0
 63
     7
283
     0
274
    -2
284
     1
 64
     0
275
    -2
285
     1
 65
     0
276
    -2
286
     1
 66
     0
277
    -2
287
     1
 67
     0
278
    -2
288
     1
 68
     0
279
    -2
289
     1
 69
     0
  0
VISUALSTYLE
  5
56
102
{ACAD_XDICTIONARY
360
16F2
102
}
102
{ACAD_REACTORS
330
50
102
}
330
50
100
AcDbVisualStyle
  2
2dWireframe
 70
     4
 71
     0
 72
     2
 73
     0
 90
        0
 40
-0.6
 41
-30.0
 62
     5
 63
     7
 74
     1
 91
        4
 64
     7
 65
   257
 75
     1
175
     1
 42
1.0
 92
        0
 66
   257
 43
1.0
 76
     1
 77
     6
 78
     2
 67
     7
 79
     5
170
     0
171
     0
290
     0
174
     0
 93
        1
 44
0.0
173
     0
291
     0
 45
0.0
1001
ACAD
1000
AcDbSavedByObjectVersion
1070
     0
  0
VISUALSTYLE
  5
58
102
{ACAD_XDICTIONARY
360
16F6
102
}
102
{ACAD_REACTORS
330
50
102
}
330
50
100
AcDbVisualStyle
  2
3D Hidden
 70
     6
 71
     1
 72
     2
 73
     2
 90
        0
 40
-0.6
 41
-30.0
 62
     5
 63
     7
 74
     2
 91
        2
 64
     7
 65
   257
 75
     2
175
     1
 42
40.0
 92
        0
 66
   257
 43
1.0
 76
     1
 77
     6
 78
     2
 67
     7
 79
     3
170
     0
171
     0
290
     0
174
     0
 93
        1
 44
0.0
173
     0
291
     0
 45
0.0
1001
ACAD
1000
AcDbSavedByObjectVersion
1070
     0
  0
VISUALSTYLE
  5
57
102
{ACAD_XDICTIONARY
360
16F4
102
}
102
{ACAD_REACTORS
330
50
102
}
330
50
100
AcDbVisualStyle
  2
3dWireframe
 70
     5
 71
     0
 72
     2
 73
     0
 90
        0
 40
-0.6
 41
-30.0
 62
     5
 63
     7
 74
     1
 91
        4
 64
     7
 65
   257
 75
     1
175
     1
 42
1.0
 92
        0
 66
   257
 43
1.0
 76
     1
 77
     6
 78
     2
 67
     7
 79
     5
170
     0
171
     0
290
     0
174
     0
 93
        1
 44
0.0
173
     0
291
     0
 45
0.0
1001
ACAD
1000
AcDbSavedByObjectVersion
1070
     0
  0
VISUALSTYLE
  5
55
102
{ACAD_XDICTIONARY
360
16F0
102
}
102
{ACAD_REACTORS
330
50
102
}
330
50
100
AcDbVisualStyle
  2
Basic
 70
     7
 71
     1
 72
     0
 73
     1
 90
        0
 40
-0.6
 41
-30.0
 62
     5
 63
     7
 74
     0
 91
        4
 64
     7
 65
   257
 75
     1
175
     1
 42
1.0
 92
        8
 66
     7
 43
1.0
 76
     1
 77
     6
 78
     2
 67
     7
 79
     5
170
     0
171
     0
290
     0
174
     0
 93
        1
 44
0.0
173
     0
291
     1
 45
0.0
1001
ACAD
1000
AcDbSavedByObjectVersion
1070
     0
  0
VISUALSTYLE
  5
5C
102
{ACAD_XDICTIONARY
360
16FE
102
}
102
{ACAD_REACTORS
330
50
102
}
330
50
100
AcDbVisualStyle
  2
Brighten
 70
    12
 71
     2
 72
     2
 73
     0
 90
        0
 40
-0.6
 41
-30.0
 62
     5
 63
     7
 74
     1
 91
        4
 64
     7
 65
   257
 75
     1
175
     1
 42
1.0
 92
        8
 66
     7
 43
1.0
 76
     1
 77
     6
 78
     2
 67
     7
 79
     5
170
     0
171
     0
290
     0
174
     0
 93
        1
 44
50.0
173
     0
291
     1
 45
0.0
1001
ACAD
1000
AcDbSavedByObjectVersion
1070
     0
  0
VISUALSTYLE
  5
60
102
{ACAD_XDICTIONARY
360
1706
102
}
102
{ACAD_REACTORS
330
50
102
}
330
50
100
AcDbVisualStyle
  2
ColorChange
 70
    16
 71
     2
 72
     2
 73
     3
 90
        0
 40
-0.6
 41
-30.0
 62
     5
 63
     8
 74
     1
 91
        4
 64
     7
 65
   257
 75
     1
175
     1
 42
1.0
 92
        8
 66
     8
 43
1.0
 76
     1
 77
     6
 78
     2
 67
     7
 79
     5
170
     0
171
     0
290
     0
174
     0
 93
        1
 44
0.0
173
     0
291
     1
 45
0.0
1001
ACAD
1000
AcDbSavedByObjectVersion
1070
     0
  0
VISUALSTYLE
  5
59
102
{ACAD_XDICTIONARY
360
16F8
102
}
102
{ACAD_REACTORS
330
50
102
}
330
50
100
AcDbVisualStyle
  2
Conceptual
 70
     9
 71
     3
 72
     2
 73
     0
 90
        0
 40
-0.6
 41
-30.0
 62
     5
 63
     7
 74
     2
 91
        2
 64
     7
 65
   257
 75
     1
175
     1
 42
40.0
 92
        8
 66
     7
 43
1.0
 76
     1
 77
     6
 78
     2
 67
     7
 79
     3
170
     0
171
     0
290
     0
174
     0
 93
        1
 44
0.0
173
     0
291
     0
 45
0.0
1001
ACAD
1000
AcDbSavedByObjectVersion
1070
     0
  0
VISUALSTYLE
  5
5B
102
{ACAD_XDICTIONARY
360
16FC
102
}
102
{ACAD_REACTORS
330
50
102
}
330
50
100
AcDbVisualStyle
  2
Dim
 70
    11
 71
     2
 72
     2
 73
     0
 90
        0
 40
-0.6
 41
-30.0
 62
     5
 63
     7
 74
     1
 91
        4
 64
     7
 65
   257
 75
     1
175
     1
 42
1.0
 92
        8
 66
     7
 43
1.0
 76
     1
 77
     6
 78
     2
 67
     7
 79
     5
170
     0
171
     0
290
     0
174
     0
 93
        1
 44
-50.0
173
     0
291
     1
 45
0.0
1001
ACAD
1000
AcDbSavedByObjectVersion
1070
     0
  0
VISUALSTYLE
  5
1631
102
{ACAD_XDICTIONARY
360
171B
102
}
102
{ACAD_REACTORS
330
50
102
}
330
50
100
AcDbVisualStyle
  2
EdgeColorOff
 70
    22
 71
     2
 72
     2
 73
     0
 90
        0
 40
-0.6
 41
-30.0
 62
     5
 63
     7
 74
     1
 91
        4
 64
     7
 65
   257
 75
     1
175
     1
 42
1.0
 92
        8
 66
     7
 43
1.0
 76
     1
 77
     6
 78
     2
 67
     7
 79
     5
170
     0
171
     0
290
     0
174
     0
 93
        1
 44
0.0
173
     0
291
     1
 45
0.0
1001
ACAD
1000
AcDbSavedByObjectVersion
1070
     0
  0
VISUALSTYLE
  5
5F
102
{ACAD_XDICTIONARY
360
1704
102
}
102
{ACAD_REACTORS
330
50
102
}
330
50
100
AcDbVisualStyle
  2
Facepattern
 70
    15
 71
     2
 72
     2
 73
     0
 90
        0
 40
-0.6
 41
-30.0
 62
     5
 63
     7
 74
     1
 91
        4
 64
     7
 65
   257
 75
     1
175
     1
 42
1.0
 92
        8
 66
     7
 43
1.0
 76
     1
 77
     6
 78
     2
 67
     7
 79
     5
170
     0
171
     0
290
     0
174
     0
 93
        1
 44
0.0
173
     0
291
     1
 45
0.0
1001
ACAD
1000
AcDbSavedByObjectVersion
1070
     0
  0
VISUALSTYLE
  5
51
102
{ACAD_XDICTIONARY
360
16E8
102
}
102
{ACAD_REACTORS
330
50
102
}
330
50
100
AcDbVisualStyle
  2
Flat
 70
     0
 71
     2
 72
     1
 73
     1
 90
        2
 40
-0.6
 41
30.0
 62
     5
 63
     7
 74
     0
 91
        4
 64
     7
 65
   257
 75
     1
175
     1
 42
1.0
 92
        8
 66
     7
 43
1.0
 76
     1
 77
     6
 78
     2
 67
     7
 79
     5
170
     0
171
     0
290
     0
174
     0
 93
       13
 44
0.0
173
     0
291
     1
 45
0.0
1001
ACAD
1000
AcDbSavedByObjectVersion
1070
     0
  0
VISUALSTYLE
  5
52
102
{ACAD_XDICTIONARY
360
16EA
102
}
102
{ACAD_REACTORS
330
50
102
}
330
50
100
AcDbVisualStyle
  2
FlatWithEdges
 70
     1
 71
     2
 72
     1
 73
     1
 90
        2
 40
-0.6
 41
30.0
 62
     5
 63
     7
 74
     1
 91
        4
 64
     7
 65
   257
 75
     1
175
     1
 42
1.0
 92
        0
 66
   257
 43
1.0
 76
     1
 77
     6
 78
     2
 67
     7
 79
     5
170
     0
171
     0
290
     0
174
     0
 93
       13
 44
0.0
173
     0
291
     1
 45
0.0
1001
ACAD
1000
AcDbSavedByObjectVersion
1070
     0
  0
VISUALSTYLE
  5
53
102
{ACAD_XDICTIONARY
360
16EC
102
}
102
{ACAD_REACTORS
330
50
102
}
330
50
100
AcDbVisualStyle
  2
Gouraud
 70
     2
 71
     2
 72
     2
 73
     1
 90
        2
 40
-0.6
 41
30.0
 62
     5
 63
     7
 74
     0
 91
        4
 64
     7
 65
   257
 75
     1
175
     1
 42
1.0
 92
        0
 66
     7
 43
1.0
 76
     1
 77
     6
 78
     2
 67
     7
 79
     5
170
     0
171
     0
290
     0
174
     0
 93
       13
 44
0.0
173
     0
291
     1
 45
0.0
1001
ACAD
1000
AcDbSavedByObjectVersion
1070
     0
  0
VISUALSTYLE
  5
54
102
{ACAD_XDICTIONARY
360
16EE
102
}
102
{ACAD_REACTORS
330
50
102
}
330
50
100
AcDbVisualStyle
  2
GouraudWithEdges
 70
     3
 71
     2
 72
     2
 73
     1
 90
        2
 40
-0.6
 41
30.0
 62
     5
 63
     7
 74
     1
 91
        4
 64
     7
 65
   257
 75
     1
175
     1
 42
1.0
 92
        0
 66
   257
 43
1.0
 76
     1
 77
     6
 78
     2
 67
     7
 79
     5
170
     0
171
     0
290
     0
174
     0
 93
       13
 44
0.0
173
     0
291
     1
 45
0.0
1001
ACAD
1000
AcDbSavedByObjectVersion
1070
     0
  0
VISUALSTYLE
  5
1629
102
{ACAD_XDICTIONARY
360
170B
102
}
102
{ACAD_REACTORS
330
50
102
}
330
50
100
AcDbVisualStyle
  2
Hidden
 70
     6
 71
     1
 72
     2
 73
     2
 90
        0
 40
-0.6
 41
-30.0
 62
     5
 63
     7
 74
     2
 91
        2
 64
     7
 65
   257
 75
     2
175
     1
 42
40.0
 92
        0
 66
   257
 43
1.0
 76
     1
 77
     6
 78
     2
 67
     7
 79
     3
170
     0
171
     0
290
     0
174
     0
 93
        1
 44
0.0
173
     0
291
     0
 45
0.0
1001
ACAD
1000
AcDbSavedByObjectVersion
1070
     0
  0
VISUALSTYLE
  5
162F
102
{ACAD_XDICTIONARY
360
1717
102
}
102
{ACAD_REACTORS
330
50
102
}
330
50
100
AcDbVisualStyle
  2
JitterOff
 70
    20
 71
     2
 72
     2
 73
     0
 90
        0
 40
-0.6
 41
-30.0
 62
     5
 63
     7
 74
     1
 91
        4
 64
     7
 65
   257
 75
     1
175
     1
 42
1.0
 92
       10
 66
     7
 43
1.0
 76
     1
 77
     6
 78
     2
 67
     7
 79
     5
170
     0
171
     0
290
     0
174
     0
 93
        1
 44
0.0
173
     0
291
     1
 45
0.0
1001
ACAD
1000
AcDbSavedByObjectVersion
1070
     0
  0
VISUALSTYLE
  5
5E
102
{ACAD_XDICTIONARY
360
1702
102
}
102
{ACAD_REACTORS
330
50
102
}
330
50
100
AcDbVisualStyle
  2
Linepattern
 70
    14
 71
     2
 72
     2
 73
     0
 90
        0
 40
-0.6
 41
-30.0
 62
     5
 63
     7
 74
     1
 91
        4
 64
     7
 65
   257
 75
     7
175
     7
 42
1.0
 92
        8
 66
     7
 43
1.0
 76
     1
 77
     6
 78
     2
 67
     7
 79
     5
170
     0
171
     0
290
     0
174
     0
 93
        1
 44
0.0
173
     0
291
     1
 45
0.0
1001
ACAD
1000
AcDbSavedByObjectVersion
1070
     0
  0
VISUALSTYLE
  5
1630
102
{ACAD_XDICTIONARY
360
1719
102
}
102
{ACAD_REACTORS
330
50
102
}
330
50
100
AcDbVisualStyle
  2
OverhangOff
 70
    21
 71
     2
 72
     2
 73
     0
 90
        0
 40
-0.6
 41
-30.0
 62
     5
 63
     7
 74
     1
 91
        4
 64
     7
 65
   257
 75
     1
175
     1
 42
1.0
 92
        9
 66
     7
 43
1.0
 76
     1
 77
     6
 78
     2
 67
     7
 79
     5
170
     0
171
     0
290
     0
174
     0
 93
        1
 44
0.0
173
     0
291
     1
 45
0.0
1001
ACAD
1000
AcDbSavedByObjectVersion
1070
     0
  0
VISUALSTYLE
  5
5A
102
{ACAD_XDICTIONARY
360
16FA
102
}
102
{ACAD_REACTORS
330
50
102
}
330
50
100
AcDbVisualStyle
  2
Realistic
 70
     8
 71
     2
 72
     2
 73
     0
 90
        0
 40
-0.6
 41
-30.0
 62
     5
 63
     7
 74
     1
 91
        0
 64
     7
 65
   257
 75
     1
175
     1
 42
1.0
 92
        8
 66
     8
 43
1.0
 76
     1
 77
     6
 78
     2
 67
     7
 79
     5
170
     0
171
     0
290
     0
174
     0
 93
       13
 44
0.0
173
     0
291
     0
 45
0.0
1001
ACAD
1000
AcDbSavedByObjectVersion
1070
     0
  0
VISUALSTYLE
  5
162E
102
{ACAD_XDICTIONARY
360
1715
102
}
102
{ACAD_REACTORS
330
50
102
}
330
50
100
AcDbVisualStyle
  2
Shaded
 70
    27
 71
     2
 72
     2
 73
     1
 90
        2
 40
-0.6
 41
30.0
 62
     5
 63
     7
 74
     0
 91
        4
 64
     7
 65
   257
 75
     1
175
     1
 42
1.0
 92
        8
 66
   257
 43
1.0
 76
     1
 77
     6
 78
     2
 67
     8
 79
     3
170
     0
171
     0
290
     0
174
     0
 93
        5
 44
0.0
173
     0
291
     0
 45
0.0
1001
ACAD
1000
AcDbSavedByObjectVersion
1070
     0
  0
VISUALSTYLE
  5
162D
102
{ACAD_XDICTIONARY
360
1713
102
}
102
{ACAD_REACTORS
330
50
102
}
330
50
100
AcDbVisualStyle
  2
Shaded with edges
 70
    26
 71
     2
 72
     2
 73
     1
 90
        2
 40
-0.6
 41
30.0
 62
     5
 63
     7
 74
     1
 91
       10
 64
     7
 65
   257
 75
     2
175
     1
 42
1.0
 92
        8
 66
   257
 43
1.0
 76
     1
 77
     6
 78
     2
 67
     7
 79
     3
170
     0
171
     0
290
     0
174
     0
 93
        5
 44
0.0
173
     0
291
     0
 45
0.0
1001
ACAD
1000
AcDbSavedByObjectVersion
1070
     0
  0
VISUALSTYLE
  5
162A
102
{ACAD_XDICTIONARY
360
170D
102
}
102
{ACAD_REACTORS
330
50
102
}
330
50
100
AcDbVisualStyle
  2
Shades of Gray
 70
    23
 71
     2
 72
     2
 73
     3
 90
        0
 40
-0.6
 41
-30.0
 62
     5
 63
     7
 74
     2
 91
        2
 64
     7
 65
     7
 75
     1
175
     1
 42
40.0
 92
        8
 66
     7
 43
1.0
 76
     1
 77
     6
 78
     2
 67
     7
 79
     3
170
     0
171
     0
290
     0
174
     0
 93
        1
 44
0.0
173
     0
291
     0
 45
0.0
1001
ACAD
1000
AcDbSavedByObjectVersion
1070
     0
  0
VISUALSTYLE
  5
162B
102
{ACAD_XDICTIONARY
360
170F
102
}
102
{ACAD_REACTORS
330
50
102
}
330
50
100
AcDbVisualStyle
  2
Sketchy
 70
    24
 71
     1
 72
     2
 73
     2
 90
        0
 40
-0.6
 41
-30.0
 62
     5
 63
     7
 74
     2
 91
        2
 64
     7
 65
     7
 75
     1
175
     1
 42
40.0
 92
       11
 66
     7
 43
1.0
 76
     1
 77
     6
 78
     2
 67
     7
 79
     6
170
     0
171
     0
290
     0
174
     0
 93
        1
 44
0.0
173
     0
291
     0
 45
0.0
1001
ACAD
1000
AcDbSavedByObjectVersion
1070
     0
  0
VISUALSTYLE
  5
5D
102
{ACAD_XDICTIONARY
360
1700
102
}
102
{ACAD_REACTORS
330
50
102
}
330
50
100
AcDbVisualStyle
  2
Thicken
 70
    13
 71
     2
 72
     2
 73
     0
 90
        0
 40
-0.6
 41
-30.0
 62
     5
 63
     7
 74
     1
 91
        4
 64
     7
 65
   257
 75
     1
175
     1
 42
1.0
 92
       12
 66
     7
 43
1.0
 76
     1
 77
     6
 78
     2
 67
     7
 79
     5
170
     0
171
     0
290
     0
174
     0
 93
        1
 44
0.0
173
     0
291
     1
 45
0.0
1001
ACAD
1000
AcDbSavedByObjectVersion
1070
     0
  0
VISUALSTYLE
  5
1628
102
{ACAD_XDICTIONARY
360
1709
102
}
102
{ACAD_REACTORS
330
50
102
}
330
50
100
AcDbVisualStyle
  2
Wireframe
 70
     5
 71
     0
 72
     2
 73
     0
 90
        0
 40
-0.6
 41
-30.0
 62
     5
 63
     7
 74
     1
 91
        4
 64
     7
 65
   257
 75
     1
175
     1
 42
1.0
 92
        0
 66
   257
 43
1.0
 76
     1
 77
     6
 78
     2
 67
     7
 79
     3
170
     0
171
     0
290
     0
174
     0
 93
        1
 44
0.0
173
     0
291
     0
 45
0.0
1001
ACAD
1000
AcDbSavedByObjectVersion
1070
     0
  0
VISUALSTYLE
  5
162C
102
{ACAD_XDICTIONARY
360
1711
102
}
102
{ACAD_REACTORS
330
50
102
}
330
50
100
AcDbVisualStyle
  2
X-Ray
 70
    25
 71
     2
 72
     2
 73
     1
 90
        1
 40
0.5
 41
-30.0
 62
     5
 63
     7
 74
     1
 91
        0
 64
     7
 65
   257
 75
     1
175
     1
 42
1.0
 92
        8
 66
     7
 43
1.0
 76
     1
 77
     6
 78
     2
 67
     7
 79
     3
170
     0
171
     0
290
     0
174
     0
 93
       13
 44
0.0
173
     0
291
     0
 45
0.0
1001
ACAD
1000
AcDbSavedByObjectVersion
1070
     0
  0
DICTIONARYVAR
  5
A0
102
{ACAD_REACTORS
330
9C
102
}
330
9C
100
DictionaryVariables
280
     0
  1
1:1
  0
DICTIONARYVAR
  5
9E
102
{ACAD_REACTORS
330
9C
102
}
330
9C
100
DictionaryVariables
280
     0
  1
STANDARD
  0
DICTIONARYVAR
  5
9D
102
{ACAD_REACTORS
330
9C
102
}
330
9C
100
DictionaryVariables
280
     0
  1
STANDARD
  0
DICTIONARYVAR
  5
168F
102
{ACAD_REACTORS
330
9C
102
}
330
9C
100
DictionaryVariables
280
     0
  1
Imperial24
  0
DICTIONARYVAR
  5
1690
102
{ACAD_REACTORS
330
9C
102
}
330
9C
100
DictionaryVariables
280
     0
  1
Imperial24
  0
DICTIONARYVAR
  5
2C4
102
{ACAD_REACTORS
330
9C
102
}
330
9C
100
DictionaryVariables
280
     0
  1
1
  0
DICTIONARYVAR
  5
2C3
102
{ACAD_REACTORS
330
9C
102
}
330
9C
100
DictionaryVariables
280
     0
  1
0
  0
DICTIONARYVAR
  5
1691
102
{ACAD_REACTORS
330
9C
102
}
330
9C
100
DictionaryVariables
280
     0
  1
1
  0
DICTIONARYVAR
  5
1692
102
{ACAD_REACTORS
330
9C
102
}
330
9C
100
DictionaryVariables
280
     0
  1
15
  0
DICTIONARYVAR
  5
A1
102
{ACAD_REACTORS
330
9C
102
}
330
9C
100
DictionaryVariables
280
     0
  1
0
  0
DICTIONARYVAR
  5
9F
102
{ACAD_REACTORS
330
9C
102
}
330
9C
100
DictionaryVariables
280
     0
  1
0
  0
DICTIONARYVAR
  5
2C2
102
{ACAD_REACTORS
330
9C
102
}
330
9C
100
DictionaryVariables
280
     0
  1
127
  0
DICTIONARYVAR
  5
16D5
102
{ACAD_REACTORS
330
9C
102
}
330
9C
100
DictionaryVariables
280
     0
  1
2
  0
DICTIONARY
  5
16E0
102
{ACAD_REACTORS
330
16DE
102
}
330
16DE
100
AcDbDictionary
281
     1
  0
DICTIONARY
  5
16DF
102
{ACAD_REACTORS
330
16DE
102
}
330
16DE
100
AcDbDictionary
281
     1
  3
8796087195664
350
16D9
  3
8796087195680
350
16DA
  3
8796087195696
350
16DB
  3
8796087195712
350
16DC
  3
8796087195728
350
16DD
  0
DICTIONARY
  5
168C
330
1635
100
AcDbDictionary
280
     1
281
     1
  3
ACAD_XREC_ROUNDTRIP
360
171E
  0
DICTIONARY
  5
16E3
330
21
100
AcDbDictionary
280
     1
281
     1
  3
ACAD_XREC_ROUNDTRIP
360
16E4
  0
DICTIONARY
  5
16E1
330
1D
100
AcDbDictionary
280
     1
281
     1
  3
ACAD_XREC_ROUNDTRIP
360
16E2
  0
DICTIONARY
  5
41
330
40
100
AcDbDictionary
280
     1
281
     1
  3
ACAD_XREC_ROUNDTRIP
360
16E6
  3
BUMPTILE
360
43
  3
DIFFUSETILE
360
42
  3
OPACITYTILE
360
46
  3
REFLECTIONTILE
360
45
  3
REFRACTIONTILE
360
47
  3
SPECULARTILE
360
44
  0
DICTIONARY
  5
39
330
38
100
AcDbDictionary
280
     1
281
     1
  3
ACAD_XREC_ROUNDTRIP
360
16E5
  3
BUMPTILE
360
3B
  3
DIFFUSETILE
360
3A
  3
OPACITYTILE
360
3E
  3
REFLECTIONTILE
360
3D
  3
REFRACTIONTILE
360
3F
  3
SPECULARTILE
360
3C
  0
DICTIONARY
  5
49
330
48
100
AcDbDictionary
280
     1
281
     1
  3
ACAD_XREC_ROUNDTRIP
360
16E7
  3
BUMPTILE
360
4B
  3
DIFFUSETILE
360
4A
  3
OPACITYTILE
360
4E
  3
REFLECTIONTILE
360
4D
  3
REFRACTIONTILE
360
4F
  3
SPECULARTILE
360
4C
  0
DICTIONARY
  5
168A
330
1633
100
AcDbDictionary
280
     1
281
     1
  3
ACAD_XREC_ROUNDTRIP
360
171D
  0
DICTIONARY
  5
99
330
63
100
AcDbDictionary
280
     1
281
     1
  3
ACAD_ROUNDTRIP_2008_TABLESTYLE_CELLSTYLEMAP
360
16D6
  3
ACAD_XREC_ROUNDTRIP
360
1708
  0
DICTIONARY
  5
16F2
330
56
100
AcDbDictionary
280
     1
281
     1
  3
ACAD_XREC_ROUNDTRIP
360
16F3
  0
DICTIONARY
  5
16F6
330
58
100
AcDbDictionary
280
     1
281
     1
  3
ACAD_XREC_ROUNDTRIP
360
16F7
  0
DICTIONARY
  5
16F4
330
57
100
AcDbDictionary
280
     1
281
     1
  3
ACAD_XREC_ROUNDTRIP
360
16F5
  0
DICTIONARY
  5
16F0
330
55
100
AcDbDictionary
280
     1
281
     1
  3
ACAD_XREC_ROUNDTRIP
360
16F1
  0
DICTIONARY
  5
16FE
330
5C
100
AcDbDictionary
280
     1
281
     1
  3
ACAD_XREC_ROUNDTRIP
360
16FF
  0
DICTIONARY
  5
1706
330
60
100
AcDbDictionary
280
     1
281
     1
  3
ACAD_XREC_ROUNDTRIP
360
1707
  0
DICTIONARY
  5
16F8
330
59
100
AcDbDictionary
280
     1
281
     1
  3
ACAD_XREC_ROUNDTRIP
360
16F9
  0
DICTIONARY
  5
16FC
330
5B
100
AcDbDictionary
280
     1
281
     1
  3
ACAD_XREC_ROUNDTRIP
360
16FD
  0
DICTIONARY
  5
171B
330
1631
100
AcDbDictionary
280
     1
281
     1
  3
ACAD_XREC_ROUNDTRIP
360
171C
  0
DICTIONARY
  5
1704
330
5F
100
AcDbDictionary
280
     1
281
     1
  3
ACAD_XREC_ROUNDTRIP
360
1705
  0
DICTIONARY
  5
16E8
330
51
100
AcDbDictionary
280
     1
281
     1
  3
ACAD_XREC_ROUNDTRIP
360
16E9
  0
DICTIONARY
  5
16EA
330
52
100
AcDbDictionary
280
     1
281
     1
  3
ACAD_XREC_ROUNDTRIP
360
16EB
  0
DICTIONARY
  5
16EC
330
53
100
AcDbDictionary
280
     1
281
     1
  3
ACAD_XREC_ROUNDTRIP
360
16ED
  0
DICTIONARY
  5
16EE
330
54
100
AcDbDictionary
280
     1
281
     1
  3
ACAD_XREC_ROUNDTRIP
360
16EF
  0
DICTIONARY
  5
170B
330
1629
100
AcDbDictionary
280
     1
281
     1
  3
ACAD_XREC_ROUNDTRIP
360
170C
  0
DICTIONARY
  5
1717
330
162F
100
AcDbDictionary
280
     1
281
     1
  3
ACAD_XREC_ROUNDTRIP
360
1718
  0
DICTIONARY
  5
1702
330
5E
100
AcDbDictionary
280
     1
281
     1
  3
ACAD_XREC_ROUNDTRIP
360
1703
  0
DICTIONARY
  5
1719
330
1630
100
AcDbDictionary
280
     1
281
     1
  3
ACAD_XREC_ROUNDTRIP
360
171A
  0
DICTIONARY
  5
16FA
330
5A
100
AcDbDictionary
280
     1
281
     1
  3
ACAD_XREC_ROUNDTRIP
360
16FB
  0
DICTIONARY
  5
1715
330
162E
100
AcDbDictionary
280
     1
281
     1
  3
ACAD_XREC_ROUNDTRIP
360
1716
  0
DICTIONARY
  5
1713
330
162D
100
AcDbDictionary
280
     1
281
     1
  3
ACAD_XREC_ROUNDTRIP
360
1714
  0
DICTIONARY
  5
170D
330
162A
100
AcDbDictionary
280
     1
281
     1
  3
ACAD_XREC_ROUNDTRIP
360
170E
  0
DICTIONARY
  5
170F
330
162B
100
AcDbDictionary
280
     1
281
     1
  3
ACAD_XREC_ROUNDTRIP
360
1710
  0
DICTIONARY
  5
1700
330
5D
100
AcDbDictionary
280
     1
281
     1
  3
ACAD_XREC_ROUNDTRIP
360
1701
  0
DICTIONARY
  5
1709
330
1628
100
AcDbDictionary
280
     1
281
     1
  3
ACAD_XREC_ROUNDTRIP
360
170A
  0
DICTIONARY
  5
1711
330
162C
100
AcDbDictionary
280
     1
281
     1
  3
ACAD_XREC_ROUNDTRIP
360
1712
  0
XRECORD
  5
16D9
102
{ACAD_REACTORS
330
16DF
102
}
330
16DF
100
AcDbXrecord
280
     1
  1
AcDb_Thumbnail_Schema
102
{ATTRRECORD
341
16DA
  2
AcDbDs::TreatedAsObjectData
280
     1
291
     1
102
ATTRRECORD}
102
{ATTRRECORD
341
16DB
  2
AcDbDs::Legacy
280
     1
291
     1
102
ATTRRECORD}
  2
AcDbDs::ID
280
    10
 91
        8
102
{ATTRRECORD
341
16DC
  2
AcDs:Indexable
280
     1
291
     1
102
ATTRRECORD}
102
{ATTRRECORD
341
16DD
  2
AcDbDs::HandleAttribute
280
     7
282
     1
102
ATTRRECORD}
  2
Thumbnail_Data
280
    15
 91
        0
  0
XRECORD
  5
16DA
102
{ACAD_REACTORS
330
16DF
102
}
330
16DF
100
AcDbXrecord
280
     1
  1
AcDbDs::TreatedAsObjectDataSchema
  2
AcDbDs::TreatedAsObjectData
280
     1
 91
        0
  0
XRECORD
  5
16DB
102
{ACAD_REACTORS
330
16DF
102
}
330
16DF
100
AcDbXrecord
280
     1
  1
AcDbDs::LegacySchema
  2
AcDbDs::Legacy
280
     1
 91
        0
  0
XRECORD
  5
16DC
102
{ACAD_REACTORS
330
16DF
102
}
330
16DF
100
AcDbXrecord
280
     1
  1
AcDbDs::IndexedPropertySchema
  2
AcDs:Indexable
280
     1
 91
        0
  0
XRECORD
  5
16DD
102
{ACAD_REACTORS
330
16DF
102
}
330
16DF
100
AcDbXrecord
280
     1
  1
AcDbDs::HandleAttributeSchema
  2
AcDbDs::HandleAttribute
280
     7
 91
        1
284
     1
  0
XRECORD
  5
171E
102
{ACAD_REACTORS
330
168C
102
}
330
168C
100
AcDbXrecord
280
     1
102
DISPLAYNAME
  1
Imperial24
102
FLAGS
 90
        0
  0
XRECORD
  5
16E4
102
{ACAD_REACTORS
330
16E3
102
}
330
16E3
100
AcDbXrecord
280
     1
102
SHADEPLOT
 70
     0
102
SHADEPLOTRESLEVEL
 70
     2
102
SHADEPLOTCUSTOMDPI
 70
   300
  0
XRECORD
  5
16E2
102
{ACAD_REACTORS
330
16E1
102
}
330
16E1
100
AcDbXrecord
280
     1
102
SHADEPLOT
 70
     0
102
SHADEPLOTRESLEVEL
 70
     2
102
SHADEPLOTCUSTOMDPI
 70
   300
  0
XRECORD
  5
16E6
102
{ACAD_REACTORS
330
41
102
}
330
41
100
AcDbXrecord
280
     1
102
MATERIAL
148
0.0
149
0.0
149
0.0
 93
        0
 94
      127
282
     0
 72
     0
 77
     0
171
     0
175
     0
179
     0
273
     0
  0
XRECORD
  5
43
102
{ACAD_REACTORS
330
41
102
}
330
41
100
AcDbXrecord
280
     1
270
     1
271
     1
  0
XRECORD
  5
42
102
{ACAD_REACTORS
330
41
102
}
330
41
100
AcDbXrecord
280
     1
270
     1
271
     1
  0
XRECORD
  5
46
102
{ACAD_REACTORS
330
41
102
}
330
41
100
AcDbXrecord
280
     1
270
     1
271
     1
  0
XRECORD
  5
45
102
{ACAD_REACTORS
330
41
102
}
330
41
100
AcDbXrecord
280
     1
270
     1
271
     1
  0
XRECORD
  5
47
102
{ACAD_REACTORS
330
41
102
}
330
41
100
AcDbXrecord
280
     1
270
     1
271
     1
  0
XRECORD
  5
44
102
{ACAD_REACTORS
330
41
102
}
330
41
100
AcDbXrecord
280
     1
270
     1
271
     1
  0
XRECORD
  5
16E5
102
{ACAD_REACTORS
330
39
102
}
330
39
100
AcDbXrecord
280
     1
102
MATERIAL
148
0.0
149
0.0
149
0.0
 93
        0
 94
      127
282
     0
 72
     0
 77
     0
171
     0
175
     0
179
     0
273
     0
  0
XRECORD
  5
3B
102
{ACAD_REACTORS
330
39
102
}
330
39
100
AcDbXrecord
280
     1
270
     1
271
     1
  0
XRECORD
  5
3A
102
{ACAD_REACTORS
330
39
102
}
330
39
100
AcDbXrecord
280
     1
270
     1
271
     1
  0
XRECORD
  5
3E
102
{ACAD_REACTORS
330
39
102
}
330
39
100
AcDbXrecord
280
     1
270
     1
271
     1
  0
XRECORD
  5
3D
102
{ACAD_REACTORS
330
39
102
}
330
39
100
AcDbXrecord
280
     1
270
     1
271
     1
  0
XRECORD
  5
3F
102
{ACAD_REACTORS
330
39
102
}
330
39
100
AcDbXrecord
280
     1
270
     1
271
     1
  0
XRECORD
  5
3C
102
{ACAD_REACTORS
330
39
102
}
330
39
100
AcDbXrecord
280
     1
270
     1
271
     1
  0
XRECORD
  5
16E7
102
{ACAD_REACTORS
330
49
102
}
330
49
100
AcDbXrecord
280
     1
102
MATERIAL
148
0.0
149
0.0
149
0.0
 93
        0
 94
      127
282
     0
 72
     0
 77
     0
171
     0
175
     0
179
     0
273
     0
  0
XRECORD
  5
4B
102
{ACAD_REACTORS
330
49
102
}
330
49
100
AcDbXrecord
280
     1
270
     1
271
     1
  0
XRECORD
  5
4A
102
{ACAD_REACTORS
330
49
102
}
330
49
100
AcDbXrecord
280
     1
270
     1
271
     1
  0
XRECORD
  5
4E
102
{ACAD_REACTORS
330
49
102
}
330
49
100
AcDbXrecord
280
     1
270
     1
271
     1
  0
XRECORD
  5
4D
102
{ACAD_REACTORS
330
49
102
}
330
49
100
AcDbXrecord
280
     1
270
     1
271
     1
  0
XRECORD
  5
4F
102
{ACAD_REACTORS
330
49
102
}
330
49
100
AcDbXrecord
280
     1
270
     1
271
     1
  0
XRECORD
  5
4C
102
{ACAD_REACTORS
330
49
102
}
330
49
100
AcDbXrecord
280
     1
270
     1
271
     1
  0
XRECORD
  5
171D
102
{ACAD_REACTORS
330
168A
102
}
330
168A
100
AcDbXrecord
280
     1
102
DISPLAYNAME
  1
Imperial24
102
FLAGS
 90
        0
  0
CELLSTYLEMAP
  5
16D6
102
{ACAD_REACTORS
330
99
102
}
330
99
100
AcDbCellStyleMap
 90
        3
300
CELLSTYLE
  1
TABLEFORMAT_BEGIN
 90
        5
170
     1
 91
        0
 92
    32768
 62
   257
 93
        1
300
CONTENTFORMAT
  1
CONTENTFORMAT_BEGIN
 90
        0
 91
        0
 92
      512
 93
        0
300

 40
0.0
140
1.0
 94
        5
 62
     0
340
11
144
0.25
309
CONTENTFORMAT_END
171
     0
 94
        0
309
TABLEFORMAT_END
  1
CELLSTYLE_BEGIN
 90
        1
 91
        1
300
_TITLE
309
CELLSTYLE_END
300
CELLSTYLE
  1
TABLEFORMAT_BEGIN
 90
        5
170
     1
 91
        0
 92
        0
 62
   257
 93
        1
300
CONTENTFORMAT
  1
CONTENTFORMAT_BEGIN
 90
        0
 91
        0
 92
      512
 93
        0
300

 40
0.0
140
1.0
 94
        5
 62
     0
340
11
144
0.18
309
CONTENTFORMAT_END
171
     0
 94
        0
309
TABLEFORMAT_END
  1
CELLSTYLE_BEGIN
 90
        2
 91
        1
300
_HEADER
309
CELLSTYLE_END
300
CELLSTYLE
  1
TABLEFORMAT_BEGIN
 90
        5
170
     1
 91
        0
 92
        0
 62
   257
 93
        1
300
CONTENTFORMAT
  1
CONTENTFORMAT_BEGIN
 90
        0
 91
        0
 92
      512
 93
        0
300

 40
0.0
140
1.0
 94
        2
 62
     0
340
11
144
0.18
309
CONTENTFORMAT_END
171
     0
 94
        0
309
TABLEFORMAT_END
  1
CELLSTYLE_BEGIN
 90
        3
 91
        2
300
_DATA
309
CELLSTYLE_END
  0
XRECORD
  5
1708
102
{ACAD_REACTORS
330
99
102
}
330
99
100
AcDbXrecord
280
     1
102
ACAD_ROUNDTRIP_PRE2007_TABLESTYLE
 90
      512
 91
        0
  1

 92
      512
 93
        0
  2

 94
      512
 95
        0
  3

  0
XRECORD
  5
16F3
102
{ACAD_REACTORS
330
16F2
102
}
330
16F2
100
AcDbXrecord
280
     1
102
RTVSPost2010Prop28
280
     1
102
RTVSPost2010PropOp28
 70
     1
102
RTVSPost2010Prop29
280
     1
102
RTVSPost2010PropOp29
 70
     1
102
RTVSPost2010Prop30
280
     0
102
RTVSPost2010PropOp30
 70
     1
102
RTVSPost2010Prop31
280
     0
102
RTVSPost2010PropOp31
 70
     1
102
RTVSPost2010Prop32
280
     0
102
RTVSPost2010PropOp32
 70
     1
102
RTVSPost2010Prop33
280
     0
102
RTVSPost2010PropOp33
 70
     1
102
RTVSPost2010Prop34
280
     0
102
RTVSPost2010PropOp34
 70
     1
102
RTVSPost2010Prop35
280
     0
102
RTVSPost2010PropOp35
 70
     1
102
RTVSPost2010Prop36
280
     0
102
RTVSPost2010PropOp36
 70
     1
102
RTVSPost2010Prop37
 90
       50
102
RTVSPost2010PropOp37
 70
     1
102
RTVSPost2010Prop38
140
0.0
102
RTVSPost2010PropOp38
 70
     1
102
RTVSPost2010Prop39
140
1.0
102
RTVSPost2010PropOp39
 70
     1
102
RTVSPost2010Prop40
 90
        0
102
RTVSPost2010PropOp40
 70
     1
102
RTVSPost2010Prop41ColorIndex
 90
       18
102
RTVSPost2010Prop41ColorRGB
 90
        0
102
RTVSPost2010PropOp41
 70
     1
102
RTVSPost2010Prop42
 90
       50
102
RTVSPost2010PropOp42
 70
     1
102
RTVSPost2010Prop43
 90
        3
102
RTVSPost2010PropOp43
 70
     1
102
RTVSPost2010Prop44ColorIndex
 90
        5
102
RTVSPost2010Prop44ColorRGB
 90
      255
102
RTVSPost2010PropOp44
 70
     1
102
RTVSPost2010Prop45
280
     0
102
RTVSPost2010PropOp45
 70
     1
102
RTVSPost2010Prop46
 90
       50
102
RTVSPost2010PropOp46
 70
     1
102
RTVSPost2010Prop47
 90
       50
102
RTVSPost2010PropOp47
 70
     1
102
RTVSPost2010Prop48
 90
       50
102
RTVSPost2010PropOp48
 70
     1
102
RTVSPost2010Prop49
280
     0
102
RTVSPost2010PropOp49
 70
     1
102
RTVSPost2010Prop50
 90
       50
102
RTVSPost2010PropOp50
 70
     1
102
RTVSPost2010Prop51ColorIndex
 90
      256
102
RTVSPost2010Prop51ColorRGB
 90
-16777216
102
RTVSPost2010PropOp51
 70
     0
102
RTVSPost2010Prop52
140
1.0
102
RTVSPost2010PropOp52
 70
     0
102
RTVSPost2010Prop53
 90
        2
102
RTVSPost2010PropOp53
 70
     1
102
RTVSPost2010Prop54
  1
strokes_ogs.tif
102
RTVSPost2010PropOp54
 70
     1
102
RTVSPost2010Prop55
280
     0
102
RTVSPost2010PropOp55
 70
     1
102
RTVSPost2010Prop56
140
1.0
102
RTVSPost2010PropOp56
 70
     1
102
RTVSPost2010Prop57
140
1.0
102
RTVSPost2010PropOp57
 70
     1
102
RTVSPropertyOp0
 70
     1
102
RTVSPropertyOp1
 70
     1
102
RTVSPropertyOp2
 70
     1
102
RTVSPropertyOp3
 70
     1
102
RTVSPropertyOp4
 70
     1
102
RTVSPropertyOp5
 70
     1
102
RTVSPropertyOp6
 70
     1
102
RTVSPropertyOp7
 70
     1
102
RTVSPropertyOp8
 70
     1
102
RTVSPropertyOp9
 70
     1
102
RTVSPropertyOp10
 70
     1
102
RTVSPropertyOp11
 70
     1
102
RTVSPropertyOp12
 70
     1
102
RTVSPropertyOp13
 70
     1
102
RTVSPropertyOp14
 70
     1
102
RTVSPropertyOp15
 70
     1
102
RTVSPropertyOp16
 70
     1
102
RTVSPropertyOp17
 70
     1
102
RTVSPropertyOp18
 70
     1
102
RTVSPropertyOp19
 70
     1
102
RTVSPropertyOp20
 70
     1
102
RTVSPropertyOp21
 70
     1
102
RTVSPropertyOp22
 70
     1
102
RTVSPropertyOp23
 70
     1
102
RTVSPropertyOp24
 70
     1
102
RTVSPropertyOp25
 70
     1
102
RTVSPropertyOp26
 70
     1
102
RTVSPropertyOp27
 70
     1
102
RTVSPropertyOp28
 70
     1
102
RTVSPropertyOp29
 70
     1
102
RTVSPropertyOp30
 70
     1
102
RTVSPropertyOp31
 70
     1
102
RTVSPropertyOp32
 70
     1
102
RTVSPropertyOp33
 70
     1
102
RTVSPropertyOp34
 70
     1
102
RTVSPropertyOp35
 70
     1
102
RTVSPropertyOp36
 70
     1
102
RTVSPropertyOp37
 70
     1
102
RTVSPropertyOp38
 70
     1
102
RTVSPropertyOp39
 70
     1
102
RTVSPropertyOp40
 70
     1
102
RTVSPropertyOp41
 70
     1
102
RTVSPropertyOp42
 70
     1
102
RTVSPropertyOp43
 70
     1
102
RTVSPropertyOp44
 70
     1
102
RTVSPropertyOp45
 70
     1
102
RTVSPropertyOp46
 70
     1
102
RTVSPropertyOp47
 70
     1
102
RTVSPropertyOp48
 70
     1
102
RTVSPropertyOp49
 70
     1
102
RTVSPropertyOp50
 70
     1
102
RTVSPropertyOp51
 70
     0
102
RTVSPropertyOp52
 70
     0
102
RTVSPropertyOp53
 70
     1
102
RTVSPropertyOp54
 70
     1
102
RTVSPropertyOp55
 70
     1
102
RTVSPropertyOp56
 70
     1
102
RTVSPropertyOp57
 70
     1
102
RTVSPropertyOp58
 70
     1
102
RTVSPropertyOp59
 70
     1
102
RTVSPropertyOp60
 70
     1
102
RTVSPropertyOp61
 70
     1
102
RTVSPropertyOp62
 70
     1
  0
XRECORD
  5
16F7
102
{ACAD_REACTORS
330
16F6
102
}
330
16F6
100
AcDbXrecord
280
     1
102
RTVSPost2010Prop28
280
     0
102
RTVSPost2010PropOp28
 70
     1
102
RTVSPost2010Prop29
280
     1
102
RTVSPost2010PropOp29
 70
     1
102
RTVSPost2010Prop30
280
     1
102
RTVSPost2010PropOp30
 70
     1
102
RTVSPost2010Prop31
280
     0
102
RTVSPost2010PropOp31
 70
     1
102
RTVSPost2010Prop32
280
     0
102
RTVSPost2010PropOp32
 70
     1
102
RTVSPost2010Prop33
280
     0
102
RTVSPost2010PropOp33
 70
     1
102
RTVSPost2010Prop34
280
     0
102
RTVSPost2010PropOp34
 70
     1
102
RTVSPost2010Prop35
280
     0
102
RTVSPost2010PropOp35
 70
     1
102
RTVSPost2010Prop36
280
     0
102
RTVSPost2010PropOp36
 70
     1
102
RTVSPost2010Prop37
 90
       50
102
RTVSPost2010PropOp37
 70
     1
102
RTVSPost2010Prop38
140
0.0
102
RTVSPost2010PropOp38
 70
     1
102
RTVSPost2010Prop39
140
1.0
102
RTVSPost2010PropOp39
 70
     1
102
RTVSPost2010Prop40
 90
        0
102
RTVSPost2010PropOp40
 70
     1
102
RTVSPost2010Prop41ColorIndex
 90
       18
102
RTVSPost2010Prop41ColorRGB
 90
        0
102
RTVSPost2010PropOp41
 70
     1
102
RTVSPost2010Prop42
 90
       50
102
RTVSPost2010PropOp42
 70
     1
102
RTVSPost2010Prop43
 90
        3
102
RTVSPost2010PropOp43
 70
     1
102
RTVSPost2010Prop44ColorIndex
 90
        5
102
RTVSPost2010Prop44ColorRGB
 90
      255
102
RTVSPost2010PropOp44
 70
     1
102
RTVSPost2010Prop45
280
     0
102
RTVSPost2010PropOp45
 70
     1
102
RTVSPost2010Prop46
 90
       50
102
RTVSPost2010PropOp46
 70
     1
102
RTVSPost2010Prop47
 90
       50
102
RTVSPost2010PropOp47
 70
     1
102
RTVSPost2010Prop48
 90
       50
102
RTVSPost2010PropOp48
 70
     1
102
RTVSPost2010Prop49
280
     0
102
RTVSPost2010PropOp49
 70
     1
102
RTVSPost2010Prop50
 90
       50
102
RTVSPost2010PropOp50
 70
     1
102
RTVSPost2010Prop51ColorIndex
 90
      256
102
RTVSPost2010Prop51ColorRGB
 90
-16777216
102
RTVSPost2010PropOp51
 70
     0
102
RTVSPost2010Prop52
140
1.0
102
RTVSPost2010PropOp52
 70
     0
102
RTVSPost2010Prop53
 90
        2
102
RTVSPost2010PropOp53
 70
     1
102
RTVSPost2010Prop54
  1
strokes_ogs.tif
102
RTVSPost2010PropOp54
 70
     1
102
RTVSPost2010Prop55
280
     0
102
RTVSPost2010PropOp55
 70
     1
102
RTVSPost2010Prop56
140
1.0
102
RTVSPost2010PropOp56
 70
     1
102
RTVSPost2010Prop57
140
1.0
102
RTVSPost2010PropOp57
 70
     1
102
RTVSPropertyOp0
 70
     1
102
RTVSPropertyOp1
 70
     1
102
RTVSPropertyOp2
 70
     1
102
RTVSPropertyOp3
 70
     1
102
RTVSPropertyOp4
 70
     1
102
RTVSPropertyOp5
 70
     1
102
RTVSPropertyOp6
 70
     1
102
RTVSPropertyOp7
 70
     1
102
RTVSPropertyOp8
 70
     1
102
RTVSPropertyOp9
 70
     1
102
RTVSPropertyOp10
 70
     1
102
RTVSPropertyOp11
 70
     1
102
RTVSPropertyOp12
 70
     1
102
RTVSPropertyOp13
 70
     1
102
RTVSPropertyOp14
 70
     1
102
RTVSPropertyOp15
 70
     1
102
RTVSPropertyOp16
 70
     1
102
RTVSPropertyOp17
 70
     1
102
RTVSPropertyOp18
 70
     1
102
RTVSPropertyOp19
 70
     1
102
RTVSPropertyOp20
 70
     1
102
RTVSPropertyOp21
 70
     1
102
RTVSPropertyOp22
 70
     1
102
RTVSPropertyOp23
 70
     1
102
RTVSPropertyOp24
 70
     1
102
RTVSPropertyOp25
 70
     1
102
RTVSPropertyOp26
 70
     1
102
RTVSPropertyOp27
 70
     1
102
RTVSPropertyOp28
 70
     1
102
RTVSPropertyOp29
 70
     1
102
RTVSPropertyOp30
 70
     1
102
RTVSPropertyOp31
 70
     1
102
RTVSPropertyOp32
 70
     1
102
RTVSPropertyOp33
 70
     1
102
RTVSPropertyOp34
 70
     1
102
RTVSPropertyOp35
 70
     1
102
RTVSPropertyOp36
 70
     1
102
RTVSPropertyOp37
 70
     1
102
RTVSPropertyOp38
 70
     1
102
RTVSPropertyOp39
 70
     1
102
RTVSPropertyOp40
 70
     1
102
RTVSPropertyOp41
 70
     1
102
RTVSPropertyOp42
 70
     1
102
RTVSPropertyOp43
 70
     1
102
RTVSPropertyOp44
 70
     1
102
RTVSPropertyOp45
 70
     1
102
RTVSPropertyOp46
 70
     1
102
RTVSPropertyOp47
 70
     1
102
RTVSPropertyOp48
 70
     1
102
RTVSPropertyOp49
 70
     1
102
RTVSPropertyOp50
 70
     1
102
RTVSPropertyOp51
 70
     0
102
RTVSPropertyOp52
 70
     0
102
RTVSPropertyOp53
 70
     1
102
RTVSPropertyOp54
 70
     1
102
RTVSPropertyOp55
 70
     1
102
RTVSPropertyOp56
 70
     1
102
RTVSPropertyOp57
 70
     1
102
RTVSPropertyOp58
 70
     1
102
RTVSPropertyOp59
 70
     1
102
RTVSPropertyOp60
 70
     1
102
RTVSPropertyOp61
 70
     1
102
RTVSPropertyOp62
 70
     1
  0
XRECORD
  5
16F5
102
{ACAD_REACTORS
330
16F4
102
}
330
16F4
100
AcDbXrecord
280
     1
102
RTVSPost2010Prop28
280
     0
102
RTVSPost2010PropOp28
 70
     1
102
RTVSPost2010Prop29
280
     1
102
RTVSPost2010PropOp29
 70
     1
102
RTVSPost2010Prop30
280
     1
102
RTVSPost2010PropOp30
 70
     1
102
RTVSPost2010Prop31
280
     0
102
RTVSPost2010PropOp31
 70
     1
102
RTVSPost2010Prop32
280
     0
102
RTVSPost2010PropOp32
 70
     1
102
RTVSPost2010Prop33
280
     0
102
RTVSPost2010PropOp33
 70
     1
102
RTVSPost2010Prop34
280
     0
102
RTVSPost2010PropOp34
 70
     1
102
RTVSPost2010Prop35
280
     0
102
RTVSPost2010PropOp35
 70
     1
102
RTVSPost2010Prop36
280
     0
102
RTVSPost2010PropOp36
 70
     1
102
RTVSPost2010Prop37
 90
       50
102
RTVSPost2010PropOp37
 70
     1
102
RTVSPost2010Prop38
140
0.0
102
RTVSPost2010PropOp38
 70
     1
102
RTVSPost2010Prop39
140
1.0
102
RTVSPost2010PropOp39
 70
     1
102
RTVSPost2010Prop40
 90
        0
102
RTVSPost2010PropOp40
 70
     1
102
RTVSPost2010Prop41ColorIndex
 90
       18
102
RTVSPost2010Prop41ColorRGB
 90
        0
102
RTVSPost2010PropOp41
 70
     1
102
RTVSPost2010Prop42
 90
       50
102
RTVSPost2010PropOp42
 70
     1
102
RTVSPost2010Prop43
 90
        3
102
RTVSPost2010PropOp43
 70
     1
102
RTVSPost2010Prop44ColorIndex
 90
        5
102
RTVSPost2010Prop44ColorRGB
 90
      255
102
RTVSPost2010PropOp44
 70
     1
102
RTVSPost2010Prop45
280
     0
102
RTVSPost2010PropOp45
 70
     1
102
RTVSPost2010Prop46
 90
       50
102
RTVSPost2010PropOp46
 70
     1
102
RTVSPost2010Prop47
 90
       50
102
RTVSPost2010PropOp47
 70
     1
102
RTVSPost2010Prop48
 90
       50
102
RTVSPost2010PropOp48
 70
     1
102
RTVSPost2010Prop49
280
     0
102
RTVSPost2010PropOp49
 70
     1
102
RTVSPost2010Prop50
 90
       50
102
RTVSPost2010PropOp50
 70
     1
102
RTVSPost2010Prop51ColorIndex
 90
      256
102
RTVSPost2010Prop51ColorRGB
 90
-16777216
102
RTVSPost2010PropOp51
 70
     0
102
RTVSPost2010Prop52
140
1.0
102
RTVSPost2010PropOp52
 70
     0
102
RTVSPost2010Prop53
 90
        2
102
RTVSPost2010PropOp53
 70
     1
102
RTVSPost2010Prop54
  1
strokes_ogs.tif
102
RTVSPost2010PropOp54
 70
     1
102
RTVSPost2010Prop55
280
     0
102
RTVSPost2010PropOp55
 70
     1
102
RTVSPost2010Prop56
140
1.0
102
RTVSPost2010PropOp56
 70
     1
102
RTVSPost2010Prop57
140
1.0
102
RTVSPost2010PropOp57
 70
     1
102
RTVSPropertyOp0
 70
     1
102
RTVSPropertyOp1
 70
     1
102
RTVSPropertyOp2
 70
     1
102
RTVSPropertyOp3
 70
     1
102
RTVSPropertyOp4
 70
     1
102
RTVSPropertyOp5
 70
     1
102
RTVSPropertyOp6
 70
     1
102
RTVSPropertyOp7
 70
     1
102
RTVSPropertyOp8
 70
     1
102
RTVSPropertyOp9
 70
     1
102
RTVSPropertyOp10
 70
     1
102
RTVSPropertyOp11
 70
     1
102
RTVSPropertyOp12
 70
     1
102
RTVSPropertyOp13
 70
     1
102
RTVSPropertyOp14
 70
     1
102
RTVSPropertyOp15
 70
     1
102
RTVSPropertyOp16
 70
     1
102
RTVSPropertyOp17
 70
     1
102
RTVSPropertyOp18
 70
     1
102
RTVSPropertyOp19
 70
     1
102
RTVSPropertyOp20
 70
     1
102
RTVSPropertyOp21
 70
     1
102
RTVSPropertyOp22
 70
     1
102
RTVSPropertyOp23
 70
     1
102
RTVSPropertyOp24
 70
     1
102
RTVSPropertyOp25
 70
     1
102
RTVSPropertyOp26
 70
     1
102
RTVSPropertyOp27
 70
     1
102
RTVSPropertyOp28
 70
     1
102
RTVSPropertyOp29
 70
     1
102
RTVSPropertyOp30
 70
     1
102
RTVSPropertyOp31
 70
     1
102
RTVSPropertyOp32
 70
     1
102
RTVSPropertyOp33
 70
     1
102
RTVSPropertyOp34
 70
     1
102
RTVSPropertyOp35
 70
     1
102
RTVSPropertyOp36
 70
     1
102
RTVSPropertyOp37
 70
     1
102
RTVSPropertyOp38
 70
     1
102
RTVSPropertyOp39
 70
     1
102
RTVSPropertyOp40
 70
     1
102
RTVSPropertyOp41
 70
     1
102
RTVSPropertyOp42
 70
     1
102
RTVSPropertyOp43
 70
     1
102
RTVSPropertyOp44
 70
     1
102
RTVSPropertyOp45
 70
     1
102
RTVSPropertyOp46
 70
     1
102
RTVSPropertyOp47
 70
     1
102
RTVSPropertyOp48
 70
     1
102
RTVSPropertyOp49
 70
     1
102
RTVSPropertyOp50
 70
     1
102
RTVSPropertyOp51
 70
     0
102
RTVSPropertyOp52
 70
     0
102
RTVSPropertyOp53
 70
     1
102
RTVSPropertyOp54
 70
     1
102
RTVSPropertyOp55
 70
     1
102
RTVSPropertyOp56
 70
     1
102
RTVSPropertyOp57
 70
     1
102
RTVSPropertyOp58
 70
     1
102
RTVSPropertyOp59
 70
     1
102
RTVSPropertyOp60
 70
     1
102
RTVSPropertyOp61
 70
     1
102
RTVSPropertyOp62
 70
     1
  0
XRECORD
  5
16F1
102
{ACAD_REACTORS
330
16F0
102
}
330
16F0
100
AcDbXrecord
280
     1
102
RTVSPost2010Prop28
280
     0
102
RTVSPost2010PropOp28
 70
     1
102
RTVSPost2010Prop29
280
     1
102
RTVSPost2010PropOp29
 70
     1
102
RTVSPost2010Prop30
280
     1
102
RTVSPost2010PropOp30
 70
     1
102
RTVSPost2010Prop31
280
     0
102
RTVSPost2010PropOp31
 70
     1
102
RTVSPost2010Prop32
280
     0
102
RTVSPost2010PropOp32
 70
     1
102
RTVSPost2010Prop33
280
     0
102
RTVSPost2010PropOp33
 70
     1
102
RTVSPost2010Prop34
280
     0
102
RTVSPost2010PropOp34
 70
     1
102
RTVSPost2010Prop35
280
     0
102
RTVSPost2010PropOp35
 70
     1
102
RTVSPost2010Prop36
280
     0
102
RTVSPost2010PropOp36
 70
     1
102
RTVSPost2010Prop37
 90
       50
102
RTVSPost2010PropOp37
 70
     1
102
RTVSPost2010Prop38
140
0.0
102
RTVSPost2010PropOp38
 70
     1
102
RTVSPost2010Prop39
140
1.0
102
RTVSPost2010PropOp39
 70
     1
102
RTVSPost2010Prop40
 90
        0
102
RTVSPost2010PropOp40
 70
     1
102
RTVSPost2010Prop41ColorIndex
 90
       18
102
RTVSPost2010Prop41ColorRGB
 90
        0
102
RTVSPost2010PropOp41
 70
     1
102
RTVSPost2010Prop42
 90
       50
102
RTVSPost2010PropOp42
 70
     1
102
RTVSPost2010Prop43
 90
        3
102
RTVSPost2010PropOp43
 70
     1
102
RTVSPost2010Prop44ColorIndex
 90
        5
102
RTVSPost2010Prop44ColorRGB
 90
      255
102
RTVSPost2010PropOp44
 70
     1
102
RTVSPost2010Prop45
280
     0
102
RTVSPost2010PropOp45
 70
     1
102
RTVSPost2010Prop46
 90
       50
102
RTVSPost2010PropOp46
 70
     1
102
RTVSPost2010Prop47
 90
       50
102
RTVSPost2010PropOp47
 70
     1
102
RTVSPost2010Prop48
 90
       50
102
RTVSPost2010PropOp48
 70
     1
102
RTVSPost2010Prop49
280
     0
102
RTVSPost2010PropOp49
 70
     1
102
RTVSPost2010Prop50
 90
       50
102
RTVSPost2010PropOp50
 70
     1
102
RTVSPost2010Prop51ColorIndex
 90
      256
102
RTVSPost2010Prop51ColorRGB
 90
-16777216
102
RTVSPost2010PropOp51
 70
     0
102
RTVSPost2010Prop52
140
1.0
102
RTVSPost2010PropOp52
 70
     0
102
RTVSPost2010Prop53
 90
        2
102
RTVSPost2010PropOp53
 70
     1
102
RTVSPost2010Prop54
  1
strokes_ogs.tif
102
RTVSPost2010PropOp54
 70
     1
102
RTVSPost2010Prop55
280
     0
102
RTVSPost2010PropOp55
 70
     1
102
RTVSPost2010Prop56
140
1.0
102
RTVSPost2010PropOp56
 70
     1
102
RTVSPost2010Prop57
140
1.0
102
RTVSPost2010PropOp57
 70
     1
102
RTVSPropertyOp0
 70
     1
102
RTVSPropertyOp1
 70
     1
102
RTVSPropertyOp2
 70
     1
102
RTVSPropertyOp3
 70
     1
102
RTVSPropertyOp4
 70
     1
102
RTVSPropertyOp5
 70
     1
102
RTVSPropertyOp6
 70
     1
102
RTVSPropertyOp7
 70
     1
102
RTVSPropertyOp8
 70
     1
102
RTVSPropertyOp9
 70
     1
102
RTVSPropertyOp10
 70
     1
102
RTVSPropertyOp11
 70
     1
102
RTVSPropertyOp12
 70
     1
102
RTVSPropertyOp13
 70
     1
102
RTVSPropertyOp14
 70
     1
102
RTVSPropertyOp15
 70
     1
102
RTVSPropertyOp16
 70
     1
102
RTVSPropertyOp17
 70
     1
102
RTVSPropertyOp18
 70
     1
102
RTVSPropertyOp19
 70
     1
102
RTVSPropertyOp20
 70
     1
102
RTVSPropertyOp21
 70
     1
102
RTVSPropertyOp22
 70
     1
102
RTVSPropertyOp23
 70
     1
102
RTVSPropertyOp24
 70
     1
102
RTVSPropertyOp25
 70
     1
102
RTVSPropertyOp26
 70
     1
102
RTVSPropertyOp27
 70
     1
102
RTVSPropertyOp28
 70
     1
102
RTVSPropertyOp29
 70
     1
102
RTVSPropertyOp30
 70
     1
102
RTVSPropertyOp31
 70
     1
102
RTVSPropertyOp32
 70
     1
102
RTVSPropertyOp33
 70
     1
102
RTVSPropertyOp34
 70
     1
102
RTVSPropertyOp35
 70
     1
102
RTVSPropertyOp36
 70
     1
102
RTVSPropertyOp37
 70
     1
102
RTVSPropertyOp38
 70
     1
102
RTVSPropertyOp39
 70
     1
102
RTVSPropertyOp40
 70
     1
102
RTVSPropertyOp41
 70
     1
102
RTVSPropertyOp42
 70
     1
102
RTVSPropertyOp43
 70
     1
102
RTVSPropertyOp44
 70
     1
102
RTVSPropertyOp45
 70
     1
102
RTVSPropertyOp46
 70
     1
102
RTVSPropertyOp47
 70
     1
102
RTVSPropertyOp48
 70
     1
102
RTVSPropertyOp49
 70
     1
102
RTVSPropertyOp50
 70
     1
102
RTVSPropertyOp51
 70
     0
102
RTVSPropertyOp52
 70
     0
102
RTVSPropertyOp53
 70
     1
102
RTVSPropertyOp54
 70
     1
102
RTVSPropertyOp55
 70
     1
102
RTVSPropertyOp56
 70
     1
102
RTVSPropertyOp57
 70
     1
102
RTVSPropertyOp58
 70
     1
102
RTVSPropertyOp59
 70
     1
102
RTVSPropertyOp60
 70
     1
102
RTVSPropertyOp61
 70
     1
102
RTVSPropertyOp62
 70
     1
  0
XRECORD
  5
16FF
102
{ACAD_REACTORS
330
16FE
102
}
330
16FE
100
AcDbXrecord
280
     1
102
RTVSPost2010Prop28
280
     0
102
RTVSPost2010PropOp28
 70
     1
102
RTVSPost2010Prop29
280
     1
102
RTVSPost2010PropOp29
 70
     1
102
RTVSPost2010Prop30
280
     1
102
RTVSPost2010PropOp30
 70
     1
102
RTVSPost2010Prop31
280
     0
102
RTVSPost2010PropOp31
 70
     1
102
RTVSPost2010Prop32
280
     0
102
RTVSPost2010PropOp32
 70
     1
102
RTVSPost2010Prop33
280
     0
102
RTVSPost2010PropOp33
 70
     1
102
RTVSPost2010Prop34
280
     0
102
RTVSPost2010PropOp34
 70
     1
102
RTVSPost2010Prop35
280
     0
102
RTVSPost2010PropOp35
 70
     1
102
RTVSPost2010Prop36
280
     0
102
RTVSPost2010PropOp36
 70
     1
102
RTVSPost2010Prop37
 90
       50
102
RTVSPost2010PropOp37
 70
     1
102
RTVSPost2010Prop38
140
0.0
102
RTVSPost2010PropOp38
 70
     1
102
RTVSPost2010Prop39
140
1.0
102
RTVSPost2010PropOp39
 70
     1
102
RTVSPost2010Prop40
 90
        0
102
RTVSPost2010PropOp40
 70
     1
102
RTVSPost2010Prop41ColorIndex
 90
       18
102
RTVSPost2010Prop41ColorRGB
 90
        0
102
RTVSPost2010PropOp41
 70
     1
102
RTVSPost2010Prop42
 90
       50
102
RTVSPost2010PropOp42
 70
     1
102
RTVSPost2010Prop43
 90
        3
102
RTVSPost2010PropOp43
 70
     1
102
RTVSPost2010Prop44ColorIndex
 90
        5
102
RTVSPost2010Prop44ColorRGB
 90
      255
102
RTVSPost2010PropOp44
 70
     1
102
RTVSPost2010Prop45
280
     0
102
RTVSPost2010PropOp45
 70
     1
102
RTVSPost2010Prop46
 90
       50
102
RTVSPost2010PropOp46
 70
     1
102
RTVSPost2010Prop47
 90
       50
102
RTVSPost2010PropOp47
 70
     1
102
RTVSPost2010Prop48
 90
       50
102
RTVSPost2010PropOp48
 70
     1
102
RTVSPost2010Prop49
280
     0
102
RTVSPost2010PropOp49
 70
     1
102
RTVSPost2010Prop50
 90
       50
102
RTVSPost2010PropOp50
 70
     1
102
RTVSPost2010Prop51ColorIndex
 90
      256
102
RTVSPost2010Prop51ColorRGB
 90
-16777216
102
RTVSPost2010PropOp51
 70
     0
102
RTVSPost2010Prop52
140
1.0
102
RTVSPost2010PropOp52
 70
     0
102
RTVSPost2010Prop53
 90
        2
102
RTVSPost2010PropOp53
 70
     1
102
RTVSPost2010Prop54
  1
strokes_ogs.tif
102
RTVSPost2010PropOp54
 70
     1
102
RTVSPost2010Prop55
280
     0
102
RTVSPost2010PropOp55
 70
     1
102
RTVSPost2010Prop56
140
1.0
102
RTVSPost2010PropOp56
 70
     1
102
RTVSPost2010Prop57
140
1.0
102
RTVSPost2010PropOp57
 70
     1
102
RTVSPropertyOp0
 70
     1
102
RTVSPropertyOp1
 70
     1
102
RTVSPropertyOp2
 70
     1
102
RTVSPropertyOp3
 70
     1
102
RTVSPropertyOp4
 70
     1
102
RTVSPropertyOp5
 70
     1
102
RTVSPropertyOp6
 70
     1
102
RTVSPropertyOp7
 70
     1
102
RTVSPropertyOp8
 70
     1
102
RTVSPropertyOp9
 70
     1
102
RTVSPropertyOp10
 70
     1
102
RTVSPropertyOp11
 70
     1
102
RTVSPropertyOp12
 70
     1
102
RTVSPropertyOp13
 70
     1
102
RTVSPropertyOp14
 70
     1
102
RTVSPropertyOp15
 70
     1
102
RTVSPropertyOp16
 70
     1
102
RTVSPropertyOp17
 70
     1
102
RTVSPropertyOp18
 70
     1
102
RTVSPropertyOp19
 70
     1
102
RTVSPropertyOp20
 70
     1
102
RTVSPropertyOp21
 70
     1
102
RTVSPropertyOp22
 70
     1
102
RTVSPropertyOp23
 70
     1
102
RTVSPropertyOp24
 70
     1
102
RTVSPropertyOp25
 70
     1
102
RTVSPropertyOp26
 70
     1
102
RTVSPropertyOp27
 70
     1
102
RTVSPropertyOp28
 70
     1
102
RTVSPropertyOp29
 70
     1
102
RTVSPropertyOp30
 70
     1
102
RTVSPropertyOp31
 70
     1
102
RTVSPropertyOp32
 70
     1
102
RTVSPropertyOp33
 70
     1
102
RTVSPropertyOp34
 70
     1
102
RTVSPropertyOp35
 70
     1
102
RTVSPropertyOp36
 70
     1
102
RTVSPropertyOp37
 70
     1
102
RTVSPropertyOp38
 70
     1
102
RTVSPropertyOp39
 70
     1
102
RTVSPropertyOp40
 70
     1
102
RTVSPropertyOp41
 70
     1
102
RTVSPropertyOp42
 70
     1
102
RTVSPropertyOp43
 70
     1
102
RTVSPropertyOp44
 70
     1
102
RTVSPropertyOp45
 70
     1
102
RTVSPropertyOp46
 70
     1
102
RTVSPropertyOp47
 70
     1
102
RTVSPropertyOp48
 70
     1
102
RTVSPropertyOp49
 70
     1
102
RTVSPropertyOp50
 70
     1
102
RTVSPropertyOp51
 70
     0
102
RTVSPropertyOp52
 70
     0
102
RTVSPropertyOp53
 70
     1
102
RTVSPropertyOp54
 70
     1
102
RTVSPropertyOp55
 70
     1
102
RTVSPropertyOp56
 70
     1
102
RTVSPropertyOp57
 70
     1
102
RTVSPropertyOp58
 70
     1
102
RTVSPropertyOp59
 70
     1
102
RTVSPropertyOp60
 70
     1
102
RTVSPropertyOp61
 70
     1
102
RTVSPropertyOp62
 70
     1
  0
XRECORD
  5
1707
102
{ACAD_REACTORS
330
1706
102
}
330
1706
100
AcDbXrecord
280
     1
102
RTVSPost2010Prop28
280
     0
102
RTVSPost2010PropOp28
 70
     1
102
RTVSPost2010Prop29
280
     1
102
RTVSPost2010PropOp29
 70
     1
102
RTVSPost2010Prop30
280
     1
102
RTVSPost2010PropOp30
 70
     1
102
RTVSPost2010Prop31
280
     0
102
RTVSPost2010PropOp31
 70
     1
102
RTVSPost2010Prop32
280
     0
102
RTVSPost2010PropOp32
 70
     1
102
RTVSPost2010Prop33
280
     0
102
RTVSPost2010PropOp33
 70
     1
102
RTVSPost2010Prop34
280
     0
102
RTVSPost2010PropOp34
 70
     1
102
RTVSPost2010Prop35
280
     0
102
RTVSPost2010PropOp35
 70
     1
102
RTVSPost2010Prop36
280
     0
102
RTVSPost2010PropOp36
 70
     1
102
RTVSPost2010Prop37
 90
       50
102
RTVSPost2010PropOp37
 70
     1
102
RTVSPost2010Prop38
140
0.0
102
RTVSPost2010PropOp38
 70
     1
102
RTVSPost2010Prop39
140
1.0
102
RTVSPost2010PropOp39
 70
     1
102
RTVSPost2010Prop40
 90
        0
102
RTVSPost2010PropOp40
 70
     1
102
RTVSPost2010Prop41ColorIndex
 90
       18
102
RTVSPost2010Prop41ColorRGB
 90
        0
102
RTVSPost2010PropOp41
 70
     1
102
RTVSPost2010Prop42
 90
       50
102
RTVSPost2010PropOp42
 70
     1
102
RTVSPost2010Prop43
 90
        3
102
RTVSPost2010PropOp43
 70
     1
102
RTVSPost2010Prop44ColorIndex
 90
        5
102
RTVSPost2010Prop44ColorRGB
 90
      255
102
RTVSPost2010PropOp44
 70
     1
102
RTVSPost2010Prop45
280
     0
102
RTVSPost2010PropOp45
 70
     1
102
RTVSPost2010Prop46
 90
       50
102
RTVSPost2010PropOp46
 70
     1
102
RTVSPost2010Prop47
 90
       50
102
RTVSPost2010PropOp47
 70
     1
102
RTVSPost2010Prop48
 90
       50
102
RTVSPost2010PropOp48
 70
     1
102
RTVSPost2010Prop49
280
     0
102
RTVSPost2010PropOp49
 70
     1
102
RTVSPost2010Prop50
 90
       50
102
RTVSPost2010PropOp50
 70
     1
102
RTVSPost2010Prop51ColorIndex
 90
      256
102
RTVSPost2010Prop51ColorRGB
 90
-16777216
102
RTVSPost2010PropOp51
 70
     0
102
RTVSPost2010Prop52
140
1.0
102
RTVSPost2010PropOp52
 70
     0
102
RTVSPost2010Prop53
 90
        2
102
RTVSPost2010PropOp53
 70
     1
102
RTVSPost2010Prop54
  1
strokes_ogs.tif
102
RTVSPost2010PropOp54
 70
     1
102
RTVSPost2010Prop55
280
     0
102
RTVSPost2010PropOp55
 70
     1
102
RTVSPost2010Prop56
140
1.0
102
RTVSPost2010PropOp56
 70
     1
102
RTVSPost2010Prop57
140
1.0
102
RTVSPost2010PropOp57
 70
     1
102
RTVSPropertyOp0
 70
     1
102
RTVSPropertyOp1
 70
     1
102
RTVSPropertyOp2
 70
     1
102
RTVSPropertyOp3
 70
     1
102
RTVSPropertyOp4
 70
     1
102
RTVSPropertyOp5
 70
     1
102
RTVSPropertyOp6
 70
     1
102
RTVSPropertyOp7
 70
     1
102
RTVSPropertyOp8
 70
     1
102
RTVSPropertyOp9
 70
     1
102
RTVSPropertyOp10
 70
     1
102
RTVSPropertyOp11
 70
     1
102
RTVSPropertyOp12
 70
     1
102
RTVSPropertyOp13
 70
     1
102
RTVSPropertyOp14
 70
     1
102
RTVSPropertyOp15
 70
     1
102
RTVSPropertyOp16
 70
     1
102
RTVSPropertyOp17
 70
     1
102
RTVSPropertyOp18
 70
     1
102
RTVSPropertyOp19
 70
     1
102
RTVSPropertyOp20
 70
     1
102
RTVSPropertyOp21
 70
     1
102
RTVSPropertyOp22
 70
     1
102
RTVSPropertyOp23
 70
     1
102
RTVSPropertyOp24
 70
     1
102
RTVSPropertyOp25
 70
     1
102
RTVSPropertyOp26
 70
     1
102
RTVSPropertyOp27
 70
     1
102
RTVSPropertyOp28
 70
     1
102
RTVSPropertyOp29
 70
     1
102
RTVSPropertyOp30
 70
     1
102
RTVSPropertyOp31
 70
     1
102
RTVSPropertyOp32
 70
     1
102
RTVSPropertyOp33
 70
     1
102
RTVSPropertyOp34
 70
     1
102
RTVSPropertyOp35
 70
     1
102
RTVSPropertyOp36
 70
     1
102
RTVSPropertyOp37
 70
     1
102
RTVSPropertyOp38
 70
     1
102
RTVSPropertyOp39
 70
     1
102
RTVSPropertyOp40
 70
     1
102
RTVSPropertyOp41
 70
     1
102
RTVSPropertyOp42
 70
     1
102
RTVSPropertyOp43
 70
     1
102
RTVSPropertyOp44
 70
     1
102
RTVSPropertyOp45
 70
     1
102
RTVSPropertyOp46
 70
     1
102
RTVSPropertyOp47
 70
     1
102
RTVSPropertyOp48
 70
     1
102
RTVSPropertyOp49
 70
     1
102
RTVSPropertyOp50
 70
     1
102
RTVSPropertyOp51
 70
     0
102
RTVSPropertyOp52
 70
     0
102
RTVSPropertyOp53
 70
     1
102
RTVSPropertyOp54
 70
     1
102
RTVSPropertyOp55
 70
     1
102
RTVSPropertyOp56
 70
     1
102
RTVSPropertyOp57
 70
     1
102
RTVSPropertyOp58
 70
     1
102
RTVSPropertyOp59
 70
     1
102
RTVSPropertyOp60
 70
     1
102
RTVSPropertyOp61
 70
     1
102
RTVSPropertyOp62
 70
     1
  0
XRECORD
  5
16F9
102
{ACAD_REACTORS
330
16F8
102
}
330
16F8
100
AcDbXrecord
280
     1
102
RTVSPost2010Prop28
280
     0
102
RTVSPost2010PropOp28
 70
     1
102
RTVSPost2010Prop29
280
     1
102
RTVSPost2010PropOp29
 70
     1
102
RTVSPost2010Prop30
280
     1
102
RTVSPost2010PropOp30
 70
     1
102
RTVSPost2010Prop31
280
     0
102
RTVSPost2010PropOp31
 70
     1
102
RTVSPost2010Prop32
280
     0
102
RTVSPost2010PropOp32
 70
     1
102
RTVSPost2010Prop33
280
     0
102
RTVSPost2010PropOp33
 70
     1
102
RTVSPost2010Prop34
280
     0
102
RTVSPost2010PropOp34
 70
     1
102
RTVSPost2010Prop35
280
     0
102
RTVSPost2010PropOp35
 70
     1
102
RTVSPost2010Prop36
280
     0
102
RTVSPost2010PropOp36
 70
     1
102
RTVSPost2010Prop37
 90
       50
102
RTVSPost2010PropOp37
 70
     1
102
RTVSPost2010Prop38
140
0.0
102
RTVSPost2010PropOp38
 70
     1
102
RTVSPost2010Prop39
140
1.0
102
RTVSPost2010PropOp39
 70
     1
102
RTVSPost2010Prop40
 90
        0
102
RTVSPost2010PropOp40
 70
     1
102
RTVSPost2010Prop41ColorIndex
 90
       18
102
RTVSPost2010Prop41ColorRGB
 90
        0
102
RTVSPost2010PropOp41
 70
     1
102
RTVSPost2010Prop42
 90
       50
102
RTVSPost2010PropOp42
 70
     1
102
RTVSPost2010Prop43
 90
        3
102
RTVSPost2010PropOp43
 70
     1
102
RTVSPost2010Prop44ColorIndex
 90
        5
102
RTVSPost2010Prop44ColorRGB
 90
      255
102
RTVSPost2010PropOp44
 70
     1
102
RTVSPost2010Prop45
280
     0
102
RTVSPost2010PropOp45
 70
     1
102
RTVSPost2010Prop46
 90
       50
102
RTVSPost2010PropOp46
 70
     1
102
RTVSPost2010Prop47
 90
       50
102
RTVSPost2010PropOp47
 70
     1
102
RTVSPost2010Prop48
 90
       50
102
RTVSPost2010PropOp48
 70
     1
102
RTVSPost2010Prop49
280
     0
102
RTVSPost2010PropOp49
 70
     1
102
RTVSPost2010Prop50
 90
       50
102
RTVSPost2010PropOp50
 70
     1
102
RTVSPost2010Prop51ColorIndex
 90
      256
102
RTVSPost2010Prop51ColorRGB
 90
-16777216
102
RTVSPost2010PropOp51
 70
     0
102
RTVSPost2010Prop52
140
1.0
102
RTVSPost2010PropOp52
 70
     0
102
RTVSPost2010Prop53
 90
        2
102
RTVSPost2010PropOp53
 70
     1
102
RTVSPost2010Prop54
  1
strokes_ogs.tif
102
RTVSPost2010PropOp54
 70
     1
102
RTVSPost2010Prop55
280
     0
102
RTVSPost2010PropOp55
 70
     1
102
RTVSPost2010Prop56
140
1.0
102
RTVSPost2010PropOp56
 70
     1
102
RTVSPost2010Prop57
140
1.0
102
RTVSPost2010PropOp57
 70
     1
102
RTVSPropertyOp0
 70
     1
102
RTVSPropertyOp1
 70
     1
102
RTVSPropertyOp2
 70
     1
102
RTVSPropertyOp3
 70
     1
102
RTVSPropertyOp4
 70
     1
102
RTVSPropertyOp5
 70
     1
102
RTVSPropertyOp6
 70
     1
102
RTVSPropertyOp7
 70
     1
102
RTVSPropertyOp8
 70
     1
102
RTVSPropertyOp9
 70
     1
102
RTVSPropertyOp10
 70
     1
102
RTVSPropertyOp11
 70
     1
102
RTVSPropertyOp12
 70
     1
102
RTVSPropertyOp13
 70
     1
102
RTVSPropertyOp14
 70
     1
102
RTVSPropertyOp15
 70
     1
102
RTVSPropertyOp16
 70
     1
102
RTVSPropertyOp17
 70
     1
102
RTVSPropertyOp18
 70
     1
102
RTVSPropertyOp19
 70
     1
102
RTVSPropertyOp20
 70
     1
102
RTVSPropertyOp21
 70
     1
102
RTVSPropertyOp22
 70
     1
102
RTVSPropertyOp23
 70
     1
102
RTVSPropertyOp24
 70
     1
102
RTVSPropertyOp25
 70
     1
102
RTVSPropertyOp26
 70
     1
102
RTVSPropertyOp27
 70
     1
102
RTVSPropertyOp28
 70
     1
102
RTVSPropertyOp29
 70
     1
102
RTVSPropertyOp30
 70
     1
102
RTVSPropertyOp31
 70
     1
102
RTVSPropertyOp32
 70
     1
102
RTVSPropertyOp33
 70
     1
102
RTVSPropertyOp34
 70
     1
102
RTVSPropertyOp35
 70
     1
102
RTVSPropertyOp36
 70
     1
102
RTVSPropertyOp37
 70
     1
102
RTVSPropertyOp38
 70
     1
102
RTVSPropertyOp39
 70
     1
102
RTVSPropertyOp40
 70
     1
102
RTVSPropertyOp41
 70
     1
102
RTVSPropertyOp42
 70
     1
102
RTVSPropertyOp43
 70
     1
102
RTVSPropertyOp44
 70
     1
102
RTVSPropertyOp45
 70
     1
102
RTVSPropertyOp46
 70
     1
102
RTVSPropertyOp47
 70
     1
102
RTVSPropertyOp48
 70
     1
102
RTVSPropertyOp49
 70
     1
102
RTVSPropertyOp50
 70
     1
102
RTVSPropertyOp51
 70
     0
102
RTVSPropertyOp52
 70
     0
102
RTVSPropertyOp53
 70
     1
102
RTVSPropertyOp54
 70
     1
102
RTVSPropertyOp55
 70
     1
102
RTVSPropertyOp56
 70
     1
102
RTVSPropertyOp57
 70
     1
102
RTVSPropertyOp58
 70
     1
102
RTVSPropertyOp59
 70
     1
102
RTVSPropertyOp60
 70
     1
102
RTVSPropertyOp61
 70
     1
102
RTVSPropertyOp62
 70
     1
  0
XRECORD
  5
16FD
102
{ACAD_REACTORS
330
16FC
102
}
330
16FC
100
AcDbXrecord
280
     1
102
RTVSPost2010Prop28
280
     0
102
RTVSPost2010PropOp28
 70
     1
102
RTVSPost2010Prop29
280
     1
102
RTVSPost2010PropOp29
 70
     1
102
RTVSPost2010Prop30
280
     1
102
RTVSPost2010PropOp30
 70
     1
102
RTVSPost2010Prop31
280
     0
102
RTVSPost2010PropOp31
 70
     1
102
RTVSPost2010Prop32
280
     0
102
RTVSPost2010PropOp32
 70
     1
102
RTVSPost2010Prop33
280
     0
102
RTVSPost2010PropOp33
 70
     1
102
RTVSPost2010Prop34
280
     0
102
RTVSPost2010PropOp34
 70
     1
102
RTVSPost2010Prop35
280
     0
102
RTVSPost2010PropOp35
 70
     1
102
RTVSPost2010Prop36
280
     0
102
RTVSPost2010PropOp36
 70
     1
102
RTVSPost2010Prop37
 90
       50
102
RTVSPost2010PropOp37
 70
     1
102
RTVSPost2010Prop38
140
0.0
102
RTVSPost2010PropOp38
 70
     1
102
RTVSPost2010Prop39
140
1.0
102
RTVSPost2010PropOp39
 70
     1
102
RTVSPost2010Prop40
 90
        0
102
RTVSPost2010PropOp40
 70
     1
102
RTVSPost2010Prop41ColorIndex
 90
       18
102
RTVSPost2010Prop41ColorRGB
 90
        0
102
RTVSPost2010PropOp41
 70
     1
102
RTVSPost2010Prop42
 90
       50
102
RTVSPost2010PropOp42
 70
     1
102
RTVSPost2010Prop43
 90
        3
102
RTVSPost2010PropOp43
 70
     1
102
RTVSPost2010Prop44ColorIndex
 90
        5
102
RTVSPost2010Prop44ColorRGB
 90
      255
102
RTVSPost2010PropOp44
 70
     1
102
RTVSPost2010Prop45
280
     0
102
RTVSPost2010PropOp45
 70
     1
102
RTVSPost2010Prop46
 90
       50
102
RTVSPost2010PropOp46
 70
     1
102
RTVSPost2010Prop47
 90
       50
102
RTVSPost2010PropOp47
 70
     1
102
RTVSPost2010Prop48
 90
       50
102
RTVSPost2010PropOp48
 70
     1
102
RTVSPost2010Prop49
280
     0
102
RTVSPost2010PropOp49
 70
     1
102
RTVSPost2010Prop50
 90
       50
102
RTVSPost2010PropOp50
 70
     1
102
RTVSPost2010Prop51ColorIndex
 90
      256
102
RTVSPost2010Prop51ColorRGB
 90
-16777216
102
RTVSPost2010PropOp51
 70
     0
102
RTVSPost2010Prop52
140
1.0
102
RTVSPost2010PropOp52
 70
     0
102
RTVSPost2010Prop53
 90
        2
102
RTVSPost2010PropOp53
 70
     1
102
RTVSPost2010Prop54
  1
strokes_ogs.tif
102
RTVSPost2010PropOp54
 70
     1
102
RTVSPost2010Prop55
280
     0
102
RTVSPost2010PropOp55
 70
     1
102
RTVSPost2010Prop56
140
1.0
102
RTVSPost2010PropOp56
 70
     1
102
RTVSPost2010Prop57
140
1.0
102
RTVSPost2010PropOp57
 70
     1
102
RTVSPropertyOp0
 70
     1
102
RTVSPropertyOp1
 70
     1
102
RTVSPropertyOp2
 70
     1
102
RTVSPropertyOp3
 70
     1
102
RTVSPropertyOp4
 70
     1
102
RTVSPropertyOp5
 70
     1
102
RTVSPropertyOp6
 70
     1
102
RTVSPropertyOp7
 70
     1
102
RTVSPropertyOp8
 70
     1
102
RTVSPropertyOp9
 70
     1
102
RTVSPropertyOp10
 70
     1
102
RTVSPropertyOp11
 70
     1
102
RTVSPropertyOp12
 70
     1
102
RTVSPropertyOp13
 70
     1
102
RTVSPropertyOp14
 70
     1
102
RTVSPropertyOp15
 70
     1
102
RTVSPropertyOp16
 70
     1
102
RTVSPropertyOp17
 70
     1
102
RTVSPropertyOp18
 70
     1
102
RTVSPropertyOp19
 70
     1
102
RTVSPropertyOp20
 70
     1
102
RTVSPropertyOp21
 70
     1
102
RTVSPropertyOp22
 70
     1
102
RTVSPropertyOp23
 70
     1
102
RTVSPropertyOp24
 70
     1
102
RTVSPropertyOp25
 70
     1
102
RTVSPropertyOp26
 70
     1
102
RTVSPropertyOp27
 70
     1
102
RTVSPropertyOp28
 70
     1
102
RTVSPropertyOp29
 70
     1
102
RTVSPropertyOp30
 70
     1
102
RTVSPropertyOp31
 70
     1
102
RTVSPropertyOp32
 70
     1
102
RTVSPropertyOp33
 70
     1
102
RTVSPropertyOp34
 70
     1
102
RTVSPropertyOp35
 70
     1
102
RTVSPropertyOp36
 70
     1
102
RTVSPropertyOp37
 70
     1
102
RTVSPropertyOp38
 70
     1
102
RTVSPropertyOp39
 70
     1
102
RTVSPropertyOp40
 70
     1
102
RTVSPropertyOp41
 70
     1
102
RTVSPropertyOp42
 70
     1
102
RTVSPropertyOp43
 70
     1
102
RTVSPropertyOp44
 70
     1
102
RTVSPropertyOp45
 70
     1
102
RTVSPropertyOp46
 70
     1
102
RTVSPropertyOp47
 70
     1
102
RTVSPropertyOp48
 70
     1
102
RTVSPropertyOp49
 70
     1
102
RTVSPropertyOp50
 70
     1
102
RTVSPropertyOp51
 70
     0
102
RTVSPropertyOp52
 70
     0
102
RTVSPropertyOp53
 70
     1
102
RTVSPropertyOp54
 70
     1
102
RTVSPropertyOp55
 70
     1
102
RTVSPropertyOp56
 70
     1
102
RTVSPropertyOp57
 70
     1
102
RTVSPropertyOp58
 70
     1
102
RTVSPropertyOp59
 70
     1
102
RTVSPropertyOp60
 70
     1
102
RTVSPropertyOp61
 70
     1
102
RTVSPropertyOp62
 70
     1
  0
XRECORD
  5
171C
102
{ACAD_REACTORS
330
171B
102
}
330
171B
100
AcDbXrecord
280
     1
102
RTVSPost2010Prop28
280
     0
102
RTVSPost2010PropOp28
 70
     0
102
RTVSPost2010Prop29
280
     1
102
RTVSPost2010PropOp29
 70
     0
102
RTVSPost2010Prop30
280
     1
102
RTVSPost2010PropOp30
 70
     0
102
RTVSPost2010Prop31
280
     0
102
RTVSPost2010PropOp31
 70
     0
102
RTVSPost2010Prop32
280
     0
102
RTVSPost2010PropOp32
 70
     0
102
RTVSPost2010Prop33
280
     0
102
RTVSPost2010PropOp33
 70
     0
102
RTVSPost2010Prop34
280
     0
102
RTVSPost2010PropOp34
 70
     0
102
RTVSPost2010Prop35
280
     0
102
RTVSPost2010PropOp35
 70
     0
102
RTVSPost2010Prop36
280
     0
102
RTVSPost2010PropOp36
 70
     0
102
RTVSPost2010Prop37
 90
       50
102
RTVSPost2010PropOp37
 70
     0
102
RTVSPost2010Prop38
140
0.0
102
RTVSPost2010PropOp38
 70
     0
102
RTVSPost2010Prop39
140
1.0
102
RTVSPost2010PropOp39
 70
     0
102
RTVSPost2010Prop40
 90
        0
102
RTVSPost2010PropOp40
 70
     0
102
RTVSPost2010Prop41ColorIndex
 90
       18
102
RTVSPost2010Prop41ColorRGB
 90
        0
102
RTVSPost2010PropOp41
 70
     0
102
RTVSPost2010Prop42
 90
       50
102
RTVSPost2010PropOp42
 70
     0
102
RTVSPost2010Prop43
 90
        3
102
RTVSPost2010PropOp43
 70
     0
102
RTVSPost2010Prop44ColorIndex
 90
        5
102
RTVSPost2010Prop44ColorRGB
 90
      255
102
RTVSPost2010PropOp44
 70
     0
102
RTVSPost2010Prop45
280
     0
102
RTVSPost2010PropOp45
 70
     0
102
RTVSPost2010Prop46
 90
       50
102
RTVSPost2010PropOp46
 70
     0
102
RTVSPost2010Prop47
 90
       50
102
RTVSPost2010PropOp47
 70
     0
102
RTVSPost2010Prop48
 90
       50
102
RTVSPost2010PropOp48
 70
     0
102
RTVSPost2010Prop49
280
     0
102
RTVSPost2010PropOp49
 70
     0
102
RTVSPost2010Prop50
 90
       50
102
RTVSPost2010PropOp50
 70
     0
102
RTVSPost2010Prop51ColorIndex
 90
      256
102
RTVSPost2010Prop51ColorRGB
 90
-16777216
102
RTVSPost2010PropOp51
 70
     0
102
RTVSPost2010Prop52
140
1.0
102
RTVSPost2010PropOp52
 70
     0
102
RTVSPost2010Prop53
 90
        2
102
RTVSPost2010PropOp53
 70
     0
102
RTVSPost2010Prop54
  1
strokes_ogs.tif
102
RTVSPost2010PropOp54
 70
     0
102
RTVSPost2010Prop55
280
     0
102
RTVSPost2010PropOp55
 70
     0
102
RTVSPost2010Prop56
140
1.0
102
RTVSPost2010PropOp56
 70
     0
102
RTVSPost2010Prop57
140
1.0
102
RTVSPost2010PropOp57
 70
     0
102
RTVSPropertyOp0
 70
     0
102
RTVSPropertyOp1
 70
     0
102
RTVSPropertyOp2
 70
     0
102
RTVSPropertyOp3
 70
     0
102
RTVSPropertyOp4
 70
     0
102
RTVSPropertyOp5
 70
     0
102
RTVSPropertyOp6
 70
     0
102
RTVSPropertyOp7
 70
     0
102
RTVSPropertyOp8
 70
     0
102
RTVSPropertyOp9
 70
     0
102
RTVSPropertyOp10
 70
     0
102
RTVSPropertyOp11
 70
     0
102
RTVSPropertyOp12
 70
     0
102
RTVSPropertyOp13
 70
     0
102
RTVSPropertyOp14
 70
     2
102
RTVSPropertyOp15
 70
     0
102
RTVSPropertyOp16
 70
     0
102
RTVSPropertyOp17
 70
     0
102
RTVSPropertyOp18
 70
     0
102
RTVSPropertyOp19
 70
     0
102
RTVSPropertyOp20
 70
     0
102
RTVSPropertyOp21
 70
     0
102
RTVSPropertyOp22
 70
     0
102
RTVSPropertyOp23
 70
     0
102
RTVSPropertyOp24
 70
     0
102
RTVSPropertyOp25
 70
     0
102
RTVSPropertyOp26
 70
     0
102
RTVSPropertyOp27
 70
     0
102
RTVSPropertyOp28
 70
     0
102
RTVSPropertyOp29
 70
     0
102
RTVSPropertyOp30
 70
     0
102
RTVSPropertyOp31
 70
     0
102
RTVSPropertyOp32
 70
     0
102
RTVSPropertyOp33
 70
     0
102
RTVSPropertyOp34
 70
     0
102
RTVSPropertyOp35
 70
     0
102
RTVSPropertyOp36
 70
     0
102
RTVSPropertyOp37
 70
     0
102
RTVSPropertyOp38
 70
     0
102
RTVSPropertyOp39
 70
     0
102
RTVSPropertyOp40
 70
     0
102
RTVSPropertyOp41
 70
     0
102
RTVSPropertyOp42
 70
     0
102
RTVSPropertyOp43
 70
     0
102
RTVSPropertyOp44
 70
     0
102
RTVSPropertyOp45
 70
     0
102
RTVSPropertyOp46
 70
     0
102
RTVSPropertyOp47
 70
     0
102
RTVSPropertyOp48
 70
     0
102
RTVSPropertyOp49
 70
     0
102
RTVSPropertyOp50
 70
     0
102
RTVSPropertyOp51
 70
     0
102
RTVSPropertyOp52
 70
     0
102
RTVSPropertyOp53
 70
     0
102
RTVSPropertyOp54
 70
     0
102
RTVSPropertyOp55
 70
     0
102
RTVSPropertyOp56
 70
     0
102
RTVSPropertyOp57
 70
     0
102
RTVSPropertyOp58
 70
     1
102
RTVSPropertyOp59
 70
     1
102
RTVSPropertyOp60
 70
     1
102
RTVSPropertyOp61
 70
     1
102
RTVSPropertyOp62
 70
     1
  0
XRECORD
  5
1705
102
{ACAD_REACTORS
330
1704
102
}
330
1704
100
AcDbXrecord
280
     1
102
RTVSPost2010Prop28
280
     0
102
RTVSPost2010PropOp28
 70
     1
102
RTVSPost2010Prop29
280
     1
102
RTVSPost2010PropOp29
 70
     1
102
RTVSPost2010Prop30
280
     1
102
RTVSPost2010PropOp30
 70
     1
102
RTVSPost2010Prop31
280
     0
102
RTVSPost2010PropOp31
 70
     1
102
RTVSPost2010Prop32
280
     0
102
RTVSPost2010PropOp32
 70
     1
102
RTVSPost2010Prop33
280
     0
102
RTVSPost2010PropOp33
 70
     1
102
RTVSPost2010Prop34
280
     0
102
RTVSPost2010PropOp34
 70
     1
102
RTVSPost2010Prop35
280
     0
102
RTVSPost2010PropOp35
 70
     1
102
RTVSPost2010Prop36
280
     0
102
RTVSPost2010PropOp36
 70
     1
102
RTVSPost2010Prop37
 90
       50
102
RTVSPost2010PropOp37
 70
     1
102
RTVSPost2010Prop38
140
0.0
102
RTVSPost2010PropOp38
 70
     1
102
RTVSPost2010Prop39
140
1.0
102
RTVSPost2010PropOp39
 70
     1
102
RTVSPost2010Prop40
 90
        0
102
RTVSPost2010PropOp40
 70
     1
102
RTVSPost2010Prop41ColorIndex
 90
       18
102
RTVSPost2010Prop41ColorRGB
 90
        0
102
RTVSPost2010PropOp41
 70
     1
102
RTVSPost2010Prop42
 90
       50
102
RTVSPost2010PropOp42
 70
     1
102
RTVSPost2010Prop43
 90
        3
102
RTVSPost2010PropOp43
 70
     1
102
RTVSPost2010Prop44ColorIndex
 90
        5
102
RTVSPost2010Prop44ColorRGB
 90
      255
102
RTVSPost2010PropOp44
 70
     1
102
RTVSPost2010Prop45
280
     0
102
RTVSPost2010PropOp45
 70
     1
102
RTVSPost2010Prop46
 90
       50
102
RTVSPost2010PropOp46
 70
     1
102
RTVSPost2010Prop47
 90
       50
102
RTVSPost2010PropOp47
 70
     1
102
RTVSPost2010Prop48
 90
       50
102
RTVSPost2010PropOp48
 70
     1
102
RTVSPost2010Prop49
280
     0
102
RTVSPost2010PropOp49
 70
     1
102
RTVSPost2010Prop50
 90
       50
102
RTVSPost2010PropOp50
 70
     1
102
RTVSPost2010Prop51ColorIndex
 90
      256
102
RTVSPost2010Prop51ColorRGB
 90
-16777216
102
RTVSPost2010PropOp51
 70
     0
102
RTVSPost2010Prop52
140
1.0
102
RTVSPost2010PropOp52
 70
     0
102
RTVSPost2010Prop53
 90
        2
102
RTVSPost2010PropOp53
 70
     1
102
RTVSPost2010Prop54
  1
strokes_ogs.tif
102
RTVSPost2010PropOp54
 70
     1
102
RTVSPost2010Prop55
280
     0
102
RTVSPost2010PropOp55
 70
     1
102
RTVSPost2010Prop56
140
1.0
102
RTVSPost2010PropOp56
 70
     1
102
RTVSPost2010Prop57
140
1.0
102
RTVSPost2010PropOp57
 70
     1
102
RTVSPropertyOp0
 70
     1
102
RTVSPropertyOp1
 70
     1
102
RTVSPropertyOp2
 70
     1
102
RTVSPropertyOp3
 70
     1
102
RTVSPropertyOp4
 70
     1
102
RTVSPropertyOp5
 70
     1
102
RTVSPropertyOp6
 70
     1
102
RTVSPropertyOp7
 70
     1
102
RTVSPropertyOp8
 70
     1
102
RTVSPropertyOp9
 70
     1
102
RTVSPropertyOp10
 70
     1
102
RTVSPropertyOp11
 70
     1
102
RTVSPropertyOp12
 70
     1
102
RTVSPropertyOp13
 70
     1
102
RTVSPropertyOp14
 70
     1
102
RTVSPropertyOp15
 70
     1
102
RTVSPropertyOp16
 70
     1
102
RTVSPropertyOp17
 70
     1
102
RTVSPropertyOp18
 70
     1
102
RTVSPropertyOp19
 70
     1
102
RTVSPropertyOp20
 70
     1
102
RTVSPropertyOp21
 70
     1
102
RTVSPropertyOp22
 70
     1
102
RTVSPropertyOp23
 70
     1
102
RTVSPropertyOp24
 70
     1
102
RTVSPropertyOp25
 70
     1
102
RTVSPropertyOp26
 70
     1
102
RTVSPropertyOp27
 70
     1
102
RTVSPropertyOp28
 70
     1
102
RTVSPropertyOp29
 70
     1
102
RTVSPropertyOp30
 70
     1
102
RTVSPropertyOp31
 70
     1
102
RTVSPropertyOp32
 70
     1
102
RTVSPropertyOp33
 70
     1
102
RTVSPropertyOp34
 70
     1
102
RTVSPropertyOp35
 70
     1
102
RTVSPropertyOp36
 70
     1
102
RTVSPropertyOp37
 70
     1
102
RTVSPropertyOp38
 70
     1
102
RTVSPropertyOp39
 70
     1
102
RTVSPropertyOp40
 70
     1
102
RTVSPropertyOp41
 70
     1
102
RTVSPropertyOp42
 70
     1
102
RTVSPropertyOp43
 70
     1
102
RTVSPropertyOp44
 70
     1
102
RTVSPropertyOp45
 70
     1
102
RTVSPropertyOp46
 70
     1
102
RTVSPropertyOp47
 70
     1
102
RTVSPropertyOp48
 70
     1
102
RTVSPropertyOp49
 70
     1
102
RTVSPropertyOp50
 70
     1
102
RTVSPropertyOp51
 70
     0
102
RTVSPropertyOp52
 70
     0
102
RTVSPropertyOp53
 70
     1
102
RTVSPropertyOp54
 70
     1
102
RTVSPropertyOp55
 70
     1
102
RTVSPropertyOp56
 70
     1
102
RTVSPropertyOp57
 70
     1
102
RTVSPropertyOp58
 70
     1
102
RTVSPropertyOp59
 70
     1
102
RTVSPropertyOp60
 70
     1
102
RTVSPropertyOp61
 70
     1
102
RTVSPropertyOp62
 70
     1
  0
XRECORD
  5
16E9
102
{ACAD_REACTORS
330
16E8
102
}
330
16E8
100
AcDbXrecord
280
     1
102
RTVSPost2010Prop28
280
     0
102
RTVSPost2010PropOp28
 70
     1
102
RTVSPost2010Prop29
280
     1
102
RTVSPost2010PropOp29
 70
     1
102
RTVSPost2010Prop30
280
     1
102
RTVSPost2010PropOp30
 70
     1
102
RTVSPost2010Prop31
280
     0
102
RTVSPost2010PropOp31
 70
     1
102
RTVSPost2010Prop32
280
     0
102
RTVSPost2010PropOp32
 70
     1
102
RTVSPost2010Prop33
280
     0
102
RTVSPost2010PropOp33
 70
     1
102
RTVSPost2010Prop34
280
     0
102
RTVSPost2010PropOp34
 70
     1
102
RTVSPost2010Prop35
280
     0
102
RTVSPost2010PropOp35
 70
     1
102
RTVSPost2010Prop36
280
     0
102
RTVSPost2010PropOp36
 70
     1
102
RTVSPost2010Prop37
 90
       50
102
RTVSPost2010PropOp37
 70
     1
102
RTVSPost2010Prop38
140
0.0
102
RTVSPost2010PropOp38
 70
     1
102
RTVSPost2010Prop39
140
1.0
102
RTVSPost2010PropOp39
 70
     1
102
RTVSPost2010Prop40
 90
        0
102
RTVSPost2010PropOp40
 70
     1
102
RTVSPost2010Prop41ColorIndex
 90
       18
102
RTVSPost2010Prop41ColorRGB
 90
        0
102
RTVSPost2010PropOp41
 70
     1
102
RTVSPost2010Prop42
 90
       50
102
RTVSPost2010PropOp42
 70
     1
102
RTVSPost2010Prop43
 90
        3
102
RTVSPost2010PropOp43
 70
     1
102
RTVSPost2010Prop44ColorIndex
 90
        5
102
RTVSPost2010Prop44ColorRGB
 90
      255
102
RTVSPost2010PropOp44
 70
     1
102
RTVSPost2010Prop45
280
     0
102
RTVSPost2010PropOp45
 70
     1
102
RTVSPost2010Prop46
 90
       50
102
RTVSPost2010PropOp46
 70
     1
102
RTVSPost2010Prop47
 90
       50
102
RTVSPost2010PropOp47
 70
     1
102
RTVSPost2010Prop48
 90
       50
102
RTVSPost2010PropOp48
 70
     1
102
RTVSPost2010Prop49
280
     0
102
RTVSPost2010PropOp49
 70
     1
102
RTVSPost2010Prop50
 90
       50
102
RTVSPost2010PropOp50
 70
     1
102
RTVSPost2010Prop51ColorIndex
 90
      256
102
RTVSPost2010Prop51ColorRGB
 90
-16777216
102
RTVSPost2010PropOp51
 70
     0
102
RTVSPost2010Prop52
140
1.0
102
RTVSPost2010PropOp52
 70
     0
102
RTVSPost2010Prop53
 90
        2
102
RTVSPost2010PropOp53
 70
     1
102
RTVSPost2010Prop54
  1
strokes_ogs.tif
102
RTVSPost2010PropOp54
 70
     1
102
RTVSPost2010Prop55
280
     0
102
RTVSPost2010PropOp55
 70
     1
102
RTVSPost2010Prop56
140
1.0
102
RTVSPost2010PropOp56
 70
     1
102
RTVSPost2010Prop57
140
1.0
102
RTVSPost2010PropOp57
 70
     1
102
RTVSPropertyOp0
 70
     1
102
RTVSPropertyOp1
 70
     1
102
RTVSPropertyOp2
 70
     1
102
RTVSPropertyOp3
 70
     1
102
RTVSPropertyOp4
 70
     1
102
RTVSPropertyOp5
 70
     1
102
RTVSPropertyOp6
 70
     1
102
RTVSPropertyOp7
 70
     1
102
RTVSPropertyOp8
 70
     1
102
RTVSPropertyOp9
 70
     1
102
RTVSPropertyOp10
 70
     1
102
RTVSPropertyOp11
 70
     1
102
RTVSPropertyOp12
 70
     1
102
RTVSPropertyOp13
 70
     1
102
RTVSPropertyOp14
 70
     1
102
RTVSPropertyOp15
 70
     1
102
RTVSPropertyOp16
 70
     1
102
RTVSPropertyOp17
 70
     1
102
RTVSPropertyOp18
 70
     1
102
RTVSPropertyOp19
 70
     1
102
RTVSPropertyOp20
 70
     1
102
RTVSPropertyOp21
 70
     1
102
RTVSPropertyOp22
 70
     1
102
RTVSPropertyOp23
 70
     1
102
RTVSPropertyOp24
 70
     1
102
RTVSPropertyOp25
 70
     1
102
RTVSPropertyOp26
 70
     1
102
RTVSPropertyOp27
 70
     1
102
RTVSPropertyOp28
 70
     1
102
RTVSPropertyOp29
 70
     1
102
RTVSPropertyOp30
 70
     1
102
RTVSPropertyOp31
 70
     1
102
RTVSPropertyOp32
 70
     1
102
RTVSPropertyOp33
 70
     1
102
RTVSPropertyOp34
 70
     1
102
RTVSPropertyOp35
 70
     1
102
RTVSPropertyOp36
 70
     1
102
RTVSPropertyOp37
 70
     1
102
RTVSPropertyOp38
 70
     1
102
RTVSPropertyOp39
 70
     1
102
RTVSPropertyOp40
 70
     1
102
RTVSPropertyOp41
 70
     1
102
RTVSPropertyOp42
 70
     1
102
RTVSPropertyOp43
 70
     1
102
RTVSPropertyOp44
 70
     1
102
RTVSPropertyOp45
 70
     1
102
RTVSPropertyOp46
 70
     1
102
RTVSPropertyOp47
 70
     1
102
RTVSPropertyOp48
 70
     1
102
RTVSPropertyOp49
 70
     1
102
RTVSPropertyOp50
 70
     1
102
RTVSPropertyOp51
 70
     0
102
RTVSPropertyOp52
 70
     0
102
RTVSPropertyOp53
 70
     1
102
RTVSPropertyOp54
 70
     1
102
RTVSPropertyOp55
 70
     1
102
RTVSPropertyOp56
 70
     1
102
RTVSPropertyOp57
 70
     1
102
RTVSPropertyOp58
 70
     1
102
RTVSPropertyOp59
 70
     1
102
RTVSPropertyOp60
 70
     1
102
RTVSPropertyOp61
 70
     1
102
RTVSPropertyOp62
 70
     1
  0
XRECORD
  5
16EB
102
{ACAD_REACTORS
330
16EA
102
}
330
16EA
100
AcDbXrecord
280
     1
102
RTVSPost2010Prop28
280
     0
102
RTVSPost2010PropOp28
 70
     1
102
RTVSPost2010Prop29
280
     1
102
RTVSPost2010PropOp29
 70
     1
102
RTVSPost2010Prop30
280
     1
102
RTVSPost2010PropOp30
 70
     1
102
RTVSPost2010Prop31
280
     0
102
RTVSPost2010PropOp31
 70
     1
102
RTVSPost2010Prop32
280
     0
102
RTVSPost2010PropOp32
 70
     1
102
RTVSPost2010Prop33
280
     0
102
RTVSPost2010PropOp33
 70
     1
102
RTVSPost2010Prop34
280
     0
102
RTVSPost2010PropOp34
 70
     1
102
RTVSPost2010Prop35
280
     0
102
RTVSPost2010PropOp35
 70
     1
102
RTVSPost2010Prop36
280
     0
102
RTVSPost2010PropOp36
 70
     1
102
RTVSPost2010Prop37
 90
       50
102
RTVSPost2010PropOp37
 70
     1
102
RTVSPost2010Prop38
140
0.0
102
RTVSPost2010PropOp38
 70
     1
102
RTVSPost2010Prop39
140
1.0
102
RTVSPost2010PropOp39
 70
     1
102
RTVSPost2010Prop40
 90
        0
102
RTVSPost2010PropOp40
 70
     1
102
RTVSPost2010Prop41ColorIndex
 90
       18
102
RTVSPost2010Prop41ColorRGB
 90
        0
102
RTVSPost2010PropOp41
 70
     1
102
RTVSPost2010Prop42
 90
       50
102
RTVSPost2010PropOp42
 70
     1
102
RTVSPost2010Prop43
 90
        3
102
RTVSPost2010PropOp43
 70
     1
102
RTVSPost2010Prop44ColorIndex
 90
        5
102
RTVSPost2010Prop44ColorRGB
 90
      255
102
RTVSPost2010PropOp44
 70
     1
102
RTVSPost2010Prop45
280
     0
102
RTVSPost2010PropOp45
 70
     1
102
RTVSPost2010Prop46
 90
       50
102
RTVSPost2010PropOp46
 70
     1
102
RTVSPost2010Prop47
 90
       50
102
RTVSPost2010PropOp47
 70
     1
102
RTVSPost2010Prop48
 90
       50
102
RTVSPost2010PropOp48
 70
     1
102
RTVSPost2010Prop49
280
     0
102
RTVSPost2010PropOp49
 70
     1
102
RTVSPost2010Prop50
 90
       50
102
RTVSPost2010PropOp50
 70
     1
102
RTVSPost2010Prop51ColorIndex
 90
      256
102
RTVSPost2010Prop51ColorRGB
 90
-16777216
102
RTVSPost2010PropOp51
 70
     0
102
RTVSPost2010Prop52
140
1.0
102
RTVSPost2010PropOp52
 70
     0
102
RTVSPost2010Prop53
 90
        2
102
RTVSPost2010PropOp53
 70
     1
102
RTVSPost2010Prop54
  1
strokes_ogs.tif
102
RTVSPost2010PropOp54
 70
     1
102
RTVSPost2010Prop55
280
     0
102
RTVSPost2010PropOp55
 70
     1
102
RTVSPost2010Prop56
140
1.0
102
RTVSPost2010PropOp56
 70
     1
102
RTVSPost2010Prop57
140
1.0
102
RTVSPost2010PropOp57
 70
     1
102
RTVSPropertyOp0
 70
     1
102
RTVSPropertyOp1
 70
     1
102
RTVSPropertyOp2
 70
     1
102
RTVSPropertyOp3
 70
     1
102
RTVSPropertyOp4
 70
     1
102
RTVSPropertyOp5
 70
     1
102
RTVSPropertyOp6
 70
     1
102
RTVSPropertyOp7
 70
     1
102
RTVSPropertyOp8
 70
     1
102
RTVSPropertyOp9
 70
     1
102
RTVSPropertyOp10
 70
     1
102
RTVSPropertyOp11
 70
     1
102
RTVSPropertyOp12
 70
     1
102
RTVSPropertyOp13
 70
     1
102
RTVSPropertyOp14
 70
     1
102
RTVSPropertyOp15
 70
     1
102
RTVSPropertyOp16
 70
     1
102
RTVSPropertyOp17
 70
     1
102
RTVSPropertyOp18
 70
     1
102
RTVSPropertyOp19
 70
     1
102
RTVSPropertyOp20
 70
     1
102
RTVSPropertyOp21
 70
     1
102
RTVSPropertyOp22
 70
     1
102
RTVSPropertyOp23
 70
     1
102
RTVSPropertyOp24
 70
     1
102
RTVSPropertyOp25
 70
     1
102
RTVSPropertyOp26
 70
     1
102
RTVSPropertyOp27
 70
     1
102
RTVSPropertyOp28
 70
     1
102
RTVSPropertyOp29
 70
     1
102
RTVSPropertyOp30
 70
     1
102
RTVSPropertyOp31
 70
     1
102
RTVSPropertyOp32
 70
     1
102
RTVSPropertyOp33
 70
     1
102
RTVSPropertyOp34
 70
     1
102
RTVSPropertyOp35
 70
     1
102
RTVSPropertyOp36
 70
     1
102
RTVSPropertyOp37
 70
     1
102
RTVSPropertyOp38
 70
     1
102
RTVSPropertyOp39
 70
     1
102
RTVSPropertyOp40
 70
     1
102
RTVSPropertyOp41
 70
     1
102
RTVSPropertyOp42
 70
     1
102
RTVSPropertyOp43
 70
     1
102
RTVSPropertyOp44
 70
     1
102
RTVSPropertyOp45
 70
     1
102
RTVSPropertyOp46
 70
     1
102
RTVSPropertyOp47
 70
     1
102
RTVSPropertyOp48
 70
     1
102
RTVSPropertyOp49
 70
     1
102
RTVSPropertyOp50
 70
     1
102
RTVSPropertyOp51
 70
     0
102
RTVSPropertyOp52
 70
     0
102
RTVSPropertyOp53
 70
     1
102
RTVSPropertyOp54
 70
     1
102
RTVSPropertyOp55
 70
     1
102
RTVSPropertyOp56
 70
     1
102
RTVSPropertyOp57
 70
     1
102
RTVSPropertyOp58
 70
     1
102
RTVSPropertyOp59
 70
     1
102
RTVSPropertyOp60
 70
     1
102
RTVSPropertyOp61
 70
     1
102
RTVSPropertyOp62
 70
     1
  0
XRECORD
  5
16ED
102
{ACAD_REACTORS
330
16EC
102
}
330
16EC
100
AcDbXrecord
280
     1
102
RTVSPost2010Prop28
280
     0
102
RTVSPost2010PropOp28
 70
     1
102
RTVSPost2010Prop29
280
     1
102
RTVSPost2010PropOp29
 70
     1
102
RTVSPost2010Prop30
280
     1
102
RTVSPost2010PropOp30
 70
     1
102
RTVSPost2010Prop31
280
     0
102
RTVSPost2010PropOp31
 70
     1
102
RTVSPost2010Prop32
280
     0
102
RTVSPost2010PropOp32
 70
     1
102
RTVSPost2010Prop33
280
     0
102
RTVSPost2010PropOp33
 70
     1
102
RTVSPost2010Prop34
280
     0
102
RTVSPost2010PropOp34
 70
     1
102
RTVSPost2010Prop35
280
     0
102
RTVSPost2010PropOp35
 70
     1
102
RTVSPost2010Prop36
280
     0
102
RTVSPost2010PropOp36
 70
     1
102
RTVSPost2010Prop37
 90
       50
102
RTVSPost2010PropOp37
 70
     1
102
RTVSPost2010Prop38
140
0.0
102
RTVSPost2010PropOp38
 70
     1
102
RTVSPost2010Prop39
140
1.0
102
RTVSPost2010PropOp39
 70
     1
102
RTVSPost2010Prop40
 90
        0
102
RTVSPost2010PropOp40
 70
     1
102
RTVSPost2010Prop41ColorIndex
 90
       18
102
RTVSPost2010Prop41ColorRGB
 90
        0
102
RTVSPost2010PropOp41
 70
     1
102
RTVSPost2010Prop42
 90
       50
102
RTVSPost2010PropOp42
 70
     1
102
RTVSPost2010Prop43
 90
        3
102
RTVSPost2010PropOp43
 70
     1
102
RTVSPost2010Prop44ColorIndex
 90
        5
102
RTVSPost2010Prop44ColorRGB
 90
      255
102
RTVSPost2010PropOp44
 70
     1
102
RTVSPost2010Prop45
280
     0
102
RTVSPost2010PropOp45
 70
     1
102
RTVSPost2010Prop46
 90
       50
102
RTVSPost2010PropOp46
 70
     1
102
RTVSPost2010Prop47
 90
       50
102
RTVSPost2010PropOp47
 70
     1
102
RTVSPost2010Prop48
 90
       50
102
RTVSPost2010PropOp48
 70
     1
102
RTVSPost2010Prop49
280
     0
102
RTVSPost2010PropOp49
 70
     1
102
RTVSPost2010Prop50
 90
       50
102
RTVSPost2010PropOp50
 70
     1
102
RTVSPost2010Prop51ColorIndex
 90
      256
102
RTVSPost2010Prop51ColorRGB
 90
-16777216
102
RTVSPost2010PropOp51
 70
     0
102
RTVSPost2010Prop52
140
1.0
102
RTVSPost2010PropOp52
 70
     0
102
RTVSPost2010Prop53
 90
        2
102
RTVSPost2010PropOp53
 70
     1
102
RTVSPost2010Prop54
  1
strokes_ogs.tif
102
RTVSPost2010PropOp54
 70
     1
102
RTVSPost2010Prop55
280
     0
102
RTVSPost2010PropOp55
 70
     1
102
RTVSPost2010Prop56
140
1.0
102
RTVSPost2010PropOp56
 70
     1
102
RTVSPost2010Prop57
140
1.0
102
RTVSPost2010PropOp57
 70
     1
102
RTVSPropertyOp0
 70
     1
102
RTVSPropertyOp1
 70
     1
102
RTVSPropertyOp2
 70
     1
102
RTVSPropertyOp3
 70
     1
102
RTVSPropertyOp4
 70
     1
102
RTVSPropertyOp5
 70
     1
102
RTVSPropertyOp6
 70
     1
102
RTVSPropertyOp7
 70
     1
102
RTVSPropertyOp8
 70
     1
102
RTVSPropertyOp9
 70
     1
102
RTVSPropertyOp10
 70
     1
102
RTVSPropertyOp11
 70
     1
102
RTVSPropertyOp12
 70
     1
102
RTVSPropertyOp13
 70
     1
102
RTVSPropertyOp14
 70
     1
102
RTVSPropertyOp15
 70
     1
102
RTVSPropertyOp16
 70
     1
102
RTVSPropertyOp17
 70
     1
102
RTVSPropertyOp18
 70
     1
102
RTVSPropertyOp19
 70
     1
102
RTVSPropertyOp20
 70
     1
102
RTVSPropertyOp21
 70
     1
102
RTVSPropertyOp22
 70
     1
102
RTVSPropertyOp23
 70
     1
102
RTVSPropertyOp24
 70
     1
102
RTVSPropertyOp25
 70
     1
102
RTVSPropertyOp26
 70
     1
102
RTVSPropertyOp27
 70
     1
102
RTVSPropertyOp28
 70
     1
102
RTVSPropertyOp29
 70
     1
102
RTVSPropertyOp30
 70
     1
102
RTVSPropertyOp31
 70
     1
102
RTVSPropertyOp32
 70
     1
102
RTVSPropertyOp33
 70
     1
102
RTVSPropertyOp34
 70
     1
102
RTVSPropertyOp35
 70
     1
102
RTVSPropertyOp36
 70
     1
102
RTVSPropertyOp37
 70
     1
102
RTVSPropertyOp38
 70
     1
102
RTVSPropertyOp39
 70
     1
102
RTVSPropertyOp40
 70
     1
102
RTVSPropertyOp41
 70
     1
102
RTVSPropertyOp42
 70
     1
102
RTVSPropertyOp43
 70
     1
102
RTVSPropertyOp44
 70
     1
102
RTVSPropertyOp45
 70
     1
102
RTVSPropertyOp46
 70
     1
102
RTVSPropertyOp47
 70
     1
102
RTVSPropertyOp48
 70
     1
102
RTVSPropertyOp49
 70
     1
102
RTVSPropertyOp50
 70
     1
102
RTVSPropertyOp51
 70
     0
102
RTVSPropertyOp52
 70
     0
102
RTVSPropertyOp53
 70
     1
102
RTVSPropertyOp54
 70
     1
102
RTVSPropertyOp55
 70
     1
102
RTVSPropertyOp56
 70
     1
102
RTVSPropertyOp57
 70
     1
102
RTVSPropertyOp58
 70
     1
102
RTVSPropertyOp59
 70
     1
102
RTVSPropertyOp60
 70
     1
102
RTVSPropertyOp61
 70
     1
102
RTVSPropertyOp62
 70
     1
  0
XRECORD
  5
16EF
102
{ACAD_REACTORS
330
16EE
102
}
330
16EE
100
AcDbXrecord
280
     1
102
RTVSPost2010Prop28
280
     0
102
RTVSPost2010PropOp28
 70
     1
102
RTVSPost2010Prop29
280
     1
102
RTVSPost2010PropOp29
 70
     1
102
RTVSPost2010Prop30
280
     1
102
RTVSPost2010PropOp30
 70
     1
102
RTVSPost2010Prop31
280
     0
102
RTVSPost2010PropOp31
 70
     1
102
RTVSPost2010Prop32
280
     0
102
RTVSPost2010PropOp32
 70
     1
102
RTVSPost2010Prop33
280
     0
102
RTVSPost2010PropOp33
 70
     1
102
RTVSPost2010Prop34
280
     0
102
RTVSPost2010PropOp34
 70
     1
102
RTVSPost2010Prop35
280
     0
102
RTVSPost2010PropOp35
 70
     1
102
RTVSPost2010Prop36
280
     0
102
RTVSPost2010PropOp36
 70
     1
102
RTVSPost2010Prop37
 90
       50
102
RTVSPost2010PropOp37
 70
     1
102
RTVSPost2010Prop38
140
0.0
102
RTVSPost2010PropOp38
 70
     1
102
RTVSPost2010Prop39
140
1.0
102
RTVSPost2010PropOp39
 70
     1
102
RTVSPost2010Prop40
 90
        0
102
RTVSPost2010PropOp40
 70
     1
102
RTVSPost2010Prop41ColorIndex
 90
       18
102
RTVSPost2010Prop41ColorRGB
 90
        0
102
RTVSPost2010PropOp41
 70
     1
102
RTVSPost2010Prop42
 90
       50
102
RTVSPost2010PropOp42
 70
     1
102
RTVSPost2010Prop43
 90
        3
102
RTVSPost2010PropOp43
 70
     1
102
RTVSPost2010Prop44ColorIndex
 90
        5
102
RTVSPost2010Prop44ColorRGB
 90
      255
102
RTVSPost2010PropOp44
 70
     1
102
RTVSPost2010Prop45
280
     0
102
RTVSPost2010PropOp45
 70
     1
102
RTVSPost2010Prop46
 90
       50
102
RTVSPost2010PropOp46
 70
     1
102
RTVSPost2010Prop47
 90
       50
102
RTVSPost2010PropOp47
 70
     1
102
RTVSPost2010Prop48
 90
       50
102
RTVSPost2010PropOp48
 70
     1
102
RTVSPost2010Prop49
280
     0
102
RTVSPost2010PropOp49
 70
     1
102
RTVSPost2010Prop50
 90
       50
102
RTVSPost2010PropOp50
 70
     1
102
RTVSPost2010Prop51ColorIndex
 90
      256
102
RTVSPost2010Prop51ColorRGB
 90
-16777216
102
RTVSPost2010PropOp51
 70
     0
102
RTVSPost2010Prop52
140
1.0
102
RTVSPost2010PropOp52
 70
     0
102
RTVSPost2010Prop53
 90
        2
102
RTVSPost2010PropOp53
 70
     1
102
RTVSPost2010Prop54
  1
strokes_ogs.tif
102
RTVSPost2010PropOp54
 70
     1
102
RTVSPost2010Prop55
280
     0
102
RTVSPost2010PropOp55
 70
     1
102
RTVSPost2010Prop56
140
1.0
102
RTVSPost2010PropOp56
 70
     1
102
RTVSPost2010Prop57
140
1.0
102
RTVSPost2010PropOp57
 70
     1
102
RTVSPropertyOp0
 70
     1
102
RTVSPropertyOp1
 70
     1
102
RTVSPropertyOp2
 70
     1
102
RTVSPropertyOp3
 70
     1
102
RTVSPropertyOp4
 70
     1
102
RTVSPropertyOp5
 70
     1
102
RTVSPropertyOp6
 70
     1
102
RTVSPropertyOp7
 70
     1
102
RTVSPropertyOp8
 70
     1
102
RTVSPropertyOp9
 70
     1
102
RTVSPropertyOp10
 70
     1
102
RTVSPropertyOp11
 70
     1
102
RTVSPropertyOp12
 70
     1
102
RTVSPropertyOp13
 70
     1
102
RTVSPropertyOp14
 70
     1
102
RTVSPropertyOp15
 70
     1
102
RTVSPropertyOp16
 70
     1
102
RTVSPropertyOp17
 70
     1
102
RTVSPropertyOp18
 70
     1
102
RTVSPropertyOp19
 70
     1
102
RTVSPropertyOp20
 70
     1
102
RTVSPropertyOp21
 70
     1
102
RTVSPropertyOp22
 70
     1
102
RTVSPropertyOp23
 70
     1
102
RTVSPropertyOp24
 70
     1
102
RTVSPropertyOp25
 70
     1
102
RTVSPropertyOp26
 70
     1
102
RTVSPropertyOp27
 70
     1
102
RTVSPropertyOp28
 70
     1
102
RTVSPropertyOp29
 70
     1
102
RTVSPropertyOp30
 70
     1
102
RTVSPropertyOp31
 70
     1
102
RTVSPropertyOp32
 70
     1
102
RTVSPropertyOp33
 70
     1
102
RTVSPropertyOp34
 70
     1
102
RTVSPropertyOp35
 70
     1
102
RTVSPropertyOp36
 70
     1
102
RTVSPropertyOp37
 70
     1
102
RTVSPropertyOp38
 70
     1
102
RTVSPropertyOp39
 70
     1
102
RTVSPropertyOp40
 70
     1
102
RTVSPropertyOp41
 70
     1
102
RTVSPropertyOp42
 70
     1
102
RTVSPropertyOp43
 70
     1
102
RTVSPropertyOp44
 70
     1
102
RTVSPropertyOp45
 70
     1
102
RTVSPropertyOp46
 70
     1
102
RTVSPropertyOp47
 70
     1
102
RTVSPropertyOp48
 70
     1
102
RTVSPropertyOp49
 70
     1
102
RTVSPropertyOp50
 70
     1
102
RTVSPropertyOp51
 70
     0
102
RTVSPropertyOp52
 70
     0
102
RTVSPropertyOp53
 70
     1
102
RTVSPropertyOp54
 70
     1
102
RTVSPropertyOp55
 70
     1
102
RTVSPropertyOp56
 70
     1
102
RTVSPropertyOp57
 70
     1
102
RTVSPropertyOp58
 70
     1
102
RTVSPropertyOp59
 70
     1
102
RTVSPropertyOp60
 70
     1
102
RTVSPropertyOp61
 70
     1
102
RTVSPropertyOp62
 70
     1
  0
XRECORD
  5
170C
102
{ACAD_REACTORS
330
170B
102
}
330
170B
100
AcDbXrecord
280
     1
102
RTVSPost2010Prop28
280
     0
102
RTVSPost2010PropOp28
 70
     1
102
RTVSPost2010Prop29
280
     1
102
RTVSPost2010PropOp29
 70
     1
102
RTVSPost2010Prop30
280
     1
102
RTVSPost2010PropOp30
 70
     1
102
RTVSPost2010Prop31
280
     0
102
RTVSPost2010PropOp31
 70
     1
102
RTVSPost2010Prop32
280
     0
102
RTVSPost2010PropOp32
 70
     1
102
RTVSPost2010Prop33
280
     0
102
RTVSPost2010PropOp33
 70
     1
102
RTVSPost2010Prop34
280
     0
102
RTVSPost2010PropOp34
 70
     1
102
RTVSPost2010Prop35
280
     0
102
RTVSPost2010PropOp35
 70
     1
102
RTVSPost2010Prop36
280
     0
102
RTVSPost2010PropOp36
 70
     1
102
RTVSPost2010Prop37
 90
       50
102
RTVSPost2010PropOp37
 70
     1
102
RTVSPost2010Prop38
140
0.0
102
RTVSPost2010PropOp38
 70
     1
102
RTVSPost2010Prop39
140
1.0
102
RTVSPost2010PropOp39
 70
     1
102
RTVSPost2010Prop40
 90
        0
102
RTVSPost2010PropOp40
 70
     1
102
RTVSPost2010Prop41ColorIndex
 90
       18
102
RTVSPost2010Prop41ColorRGB
 90
        0
102
RTVSPost2010PropOp41
 70
     1
102
RTVSPost2010Prop42
 90
       50
102
RTVSPost2010PropOp42
 70
     1
102
RTVSPost2010Prop43
 90
        3
102
RTVSPost2010PropOp43
 70
     1
102
RTVSPost2010Prop44ColorIndex
 90
        5
102
RTVSPost2010Prop44ColorRGB
 90
      255
102
RTVSPost2010PropOp44
 70
     1
102
RTVSPost2010Prop45
280
     0
102
RTVSPost2010PropOp45
 70
     1
102
RTVSPost2010Prop46
 90
       50
102
RTVSPost2010PropOp46
 70
     1
102
RTVSPost2010Prop47
 90
       50
102
RTVSPost2010PropOp47
 70
     1
102
RTVSPost2010Prop48
 90
       50
102
RTVSPost2010PropOp48
 70
     1
102
RTVSPost2010Prop49
280
     0
102
RTVSPost2010PropOp49
 70
     1
102
RTVSPost2010Prop50
 90
       50
102
RTVSPost2010PropOp50
 70
     1
102
RTVSPost2010Prop51ColorIndex
 90
      256
102
RTVSPost2010Prop51ColorRGB
 90
-16777216
102
RTVSPost2010PropOp51
 70
     0
102
RTVSPost2010Prop52
140
1.0
102
RTVSPost2010PropOp52
 70
     0
102
RTVSPost2010Prop53
 90
        2
102
RTVSPost2010PropOp53
 70
     1
102
RTVSPost2010Prop54
  1
strokes_ogs.tif
102
RTVSPost2010PropOp54
 70
     1
102
RTVSPost2010Prop55
280
     0
102
RTVSPost2010PropOp55
 70
     1
102
RTVSPost2010Prop56
140
1.0
102
RTVSPost2010PropOp56
 70
     1
102
RTVSPost2010Prop57
140
1.0
102
RTVSPost2010PropOp57
 70
     1
102
RTVSPropertyOp0
 70
     1
102
RTVSPropertyOp1
 70
     1
102
RTVSPropertyOp2
 70
     1
102
RTVSPropertyOp3
 70
     1
102
RTVSPropertyOp4
 70
     1
102
RTVSPropertyOp5
 70
     1
102
RTVSPropertyOp6
 70
     1
102
RTVSPropertyOp7
 70
     1
102
RTVSPropertyOp8
 70
     1
102
RTVSPropertyOp9
 70
     1
102
RTVSPropertyOp10
 70
     1
102
RTVSPropertyOp11
 70
     1
102
RTVSPropertyOp12
 70
     1
102
RTVSPropertyOp13
 70
     1
102
RTVSPropertyOp14
 70
     1
102
RTVSPropertyOp15
 70
     1
102
RTVSPropertyOp16
 70
     1
102
RTVSPropertyOp17
 70
     1
102
RTVSPropertyOp18
 70
     1
102
RTVSPropertyOp19
 70
     1
102
RTVSPropertyOp20
 70
     1
102
RTVSPropertyOp21
 70
     1
102
RTVSPropertyOp22
 70
     1
102
RTVSPropertyOp23
 70
     1
102
RTVSPropertyOp24
 70
     1
102
RTVSPropertyOp25
 70
     1
102
RTVSPropertyOp26
 70
     1
102
RTVSPropertyOp27
 70
     1
102
RTVSPropertyOp28
 70
     1
102
RTVSPropertyOp29
 70
     1
102
RTVSPropertyOp30
 70
     1
102
RTVSPropertyOp31
 70
     1
102
RTVSPropertyOp32
 70
     1
102
RTVSPropertyOp33
 70
     1
102
RTVSPropertyOp34
 70
     1
102
RTVSPropertyOp35
 70
     1
102
RTVSPropertyOp36
 70
     1
102
RTVSPropertyOp37
 70
     1
102
RTVSPropertyOp38
 70
     1
102
RTVSPropertyOp39
 70
     1
102
RTVSPropertyOp40
 70
     1
102
RTVSPropertyOp41
 70
     1
102
RTVSPropertyOp42
 70
     1
102
RTVSPropertyOp43
 70
     1
102
RTVSPropertyOp44
 70
     1
102
RTVSPropertyOp45
 70
     1
102
RTVSPropertyOp46
 70
     1
102
RTVSPropertyOp47
 70
     1
102
RTVSPropertyOp48
 70
     1
102
RTVSPropertyOp49
 70
     1
102
RTVSPropertyOp50
 70
     1
102
RTVSPropertyOp51
 70
     0
102
RTVSPropertyOp52
 70
     0
102
RTVSPropertyOp53
 70
     1
102
RTVSPropertyOp54
 70
     1
102
RTVSPropertyOp55
 70
     1
102
RTVSPropertyOp56
 70
     1
102
RTVSPropertyOp57
 70
     1
102
RTVSPropertyOp58
 70
     1
102
RTVSPropertyOp59
 70
     1
102
RTVSPropertyOp60
 70
     1
102
RTVSPropertyOp61
 70
     1
102
RTVSPropertyOp62
 70
     1
  0
XRECORD
  5
1718
102
{ACAD_REACTORS
330
1717
102
}
330
1717
100
AcDbXrecord
280
     1
102
RTVSPost2010Prop28
280
     0
102
RTVSPost2010PropOp28
 70
     0
102
RTVSPost2010Prop29
280
     1
102
RTVSPost2010PropOp29
 70
     0
102
RTVSPost2010Prop30
280
     1
102
RTVSPost2010PropOp30
 70
     0
102
RTVSPost2010Prop31
280
     0
102
RTVSPost2010PropOp31
 70
     0
102
RTVSPost2010Prop32
280
     0
102
RTVSPost2010PropOp32
 70
     0
102
RTVSPost2010Prop33
280
     0
102
RTVSPost2010PropOp33
 70
     0
102
RTVSPost2010Prop34
280
     0
102
RTVSPost2010PropOp34
 70
     0
102
RTVSPost2010Prop35
280
     0
102
RTVSPost2010PropOp35
 70
     0
102
RTVSPost2010Prop36
280
     0
102
RTVSPost2010PropOp36
 70
     0
102
RTVSPost2010Prop37
 90
       50
102
RTVSPost2010PropOp37
 70
     0
102
RTVSPost2010Prop38
140
0.0
102
RTVSPost2010PropOp38
 70
     0
102
RTVSPost2010Prop39
140
1.0
102
RTVSPost2010PropOp39
 70
     0
102
RTVSPost2010Prop40
 90
        0
102
RTVSPost2010PropOp40
 70
     0
102
RTVSPost2010Prop41ColorIndex
 90
       18
102
RTVSPost2010Prop41ColorRGB
 90
        0
102
RTVSPost2010PropOp41
 70
     0
102
RTVSPost2010Prop42
 90
       50
102
RTVSPost2010PropOp42
 70
     0
102
RTVSPost2010Prop43
 90
        3
102
RTVSPost2010PropOp43
 70
     0
102
RTVSPost2010Prop44ColorIndex
 90
        5
102
RTVSPost2010Prop44ColorRGB
 90
      255
102
RTVSPost2010PropOp44
 70
     0
102
RTVSPost2010Prop45
280
     0
102
RTVSPost2010PropOp45
 70
     0
102
RTVSPost2010Prop46
 90
       50
102
RTVSPost2010PropOp46
 70
     0
102
RTVSPost2010Prop47
 90
       50
102
RTVSPost2010PropOp47
 70
     0
102
RTVSPost2010Prop48
 90
       50
102
RTVSPost2010PropOp48
 70
     0
102
RTVSPost2010Prop49
280
     0
102
RTVSPost2010PropOp49
 70
     0
102
RTVSPost2010Prop50
 90
       50
102
RTVSPost2010PropOp50
 70
     0
102
RTVSPost2010Prop51ColorIndex
 90
      256
102
RTVSPost2010Prop51ColorRGB
 90
-16777216
102
RTVSPost2010PropOp51
 70
     0
102
RTVSPost2010Prop52
140
1.0
102
RTVSPost2010PropOp52
 70
     0
102
RTVSPost2010Prop53
 90
        2
102
RTVSPost2010PropOp53
 70
     0
102
RTVSPost2010Prop54
  1
strokes_ogs.tif
102
RTVSPost2010PropOp54
 70
     0
102
RTVSPost2010Prop55
280
     0
102
RTVSPost2010PropOp55
 70
     0
102
RTVSPost2010Prop56
140
1.0
102
RTVSPost2010PropOp56
 70
     0
102
RTVSPost2010Prop57
140
1.0
102
RTVSPost2010PropOp57
 70
     0
102
RTVSPropertyOp0
 70
     0
102
RTVSPropertyOp1
 70
     0
102
RTVSPropertyOp2
 70
     0
102
RTVSPropertyOp3
 70
     0
102
RTVSPropertyOp4
 70
     0
102
RTVSPropertyOp5
 70
     0
102
RTVSPropertyOp6
 70
     0
102
RTVSPropertyOp7
 70
     0
102
RTVSPropertyOp8
 70
     0
102
RTVSPropertyOp9
 70
     0
102
RTVSPropertyOp10
 70
     0
102
RTVSPropertyOp11
 70
     0
102
RTVSPropertyOp12
 70
     0
102
RTVSPropertyOp13
 70
     0
102
RTVSPropertyOp14
 70
     2
102
RTVSPropertyOp15
 70
     0
102
RTVSPropertyOp16
 70
     0
102
RTVSPropertyOp17
 70
     0
102
RTVSPropertyOp18
 70
     0
102
RTVSPropertyOp19
 70
     0
102
RTVSPropertyOp20
 70
     0
102
RTVSPropertyOp21
 70
     0
102
RTVSPropertyOp22
 70
     0
102
RTVSPropertyOp23
 70
     0
102
RTVSPropertyOp24
 70
     0
102
RTVSPropertyOp25
 70
     0
102
RTVSPropertyOp26
 70
     0
102
RTVSPropertyOp27
 70
     0
102
RTVSPropertyOp28
 70
     0
102
RTVSPropertyOp29
 70
     0
102
RTVSPropertyOp30
 70
     0
102
RTVSPropertyOp31
 70
     0
102
RTVSPropertyOp32
 70
     0
102
RTVSPropertyOp33
 70
     0
102
RTVSPropertyOp34
 70
     0
102
RTVSPropertyOp35
 70
     0
102
RTVSPropertyOp36
 70
     0
102
RTVSPropertyOp37
 70
     0
102
RTVSPropertyOp38
 70
     0
102
RTVSPropertyOp39
 70
     0
102
RTVSPropertyOp40
 70
     0
102
RTVSPropertyOp41
 70
     0
102
RTVSPropertyOp42
 70
     0
102
RTVSPropertyOp43
 70
     0
102
RTVSPropertyOp44
 70
     0
102
RTVSPropertyOp45
 70
     0
102
RTVSPropertyOp46
 70
     0
102
RTVSPropertyOp47
 70
     0
102
RTVSPropertyOp48
 70
     0
102
RTVSPropertyOp49
 70
     0
102
RTVSPropertyOp50
 70
     0
102
RTVSPropertyOp51
 70
     0
102
RTVSPropertyOp52
 70
     0
102
RTVSPropertyOp53
 70
     0
102
RTVSPropertyOp54
 70
     0
102
RTVSPropertyOp55
 70
     0
102
RTVSPropertyOp56
 70
     0
102
RTVSPropertyOp57
 70
     0
102
RTVSPropertyOp58
 70
     1
102
RTVSPropertyOp59
 70
     1
102
RTVSPropertyOp60
 70
     1
102
RTVSPropertyOp61
 70
     1
102
RTVSPropertyOp62
 70
     1
  0
XRECORD
  5
1703
102
{ACAD_REACTORS
330
1702
102
}
330
1702
100
AcDbXrecord
280
     1
102
RTVSPost2010Prop28
280
     0
102
RTVSPost2010PropOp28
 70
     1
102
RTVSPost2010Prop29
280
     1
102
RTVSPost2010PropOp29
 70
     1
102
RTVSPost2010Prop30
280
     1
102
RTVSPost2010PropOp30
 70
     1
102
RTVSPost2010Prop31
280
     0
102
RTVSPost2010PropOp31
 70
     1
102
RTVSPost2010Prop32
280
     0
102
RTVSPost2010PropOp32
 70
     1
102
RTVSPost2010Prop33
280
     0
102
RTVSPost2010PropOp33
 70
     1
102
RTVSPost2010Prop34
280
     0
102
RTVSPost2010PropOp34
 70
     1
102
RTVSPost2010Prop35
280
     0
102
RTVSPost2010PropOp35
 70
     1
102
RTVSPost2010Prop36
280
     0
102
RTVSPost2010PropOp36
 70
     1
102
RTVSPost2010Prop37
 90
       50
102
RTVSPost2010PropOp37
 70
     1
102
RTVSPost2010Prop38
140
0.0
102
RTVSPost2010PropOp38
 70
     1
102
RTVSPost2010Prop39
140
1.0
102
RTVSPost2010PropOp39
 70
     1
102
RTVSPost2010Prop40
 90
        0
102
RTVSPost2010PropOp40
 70
     1
102
RTVSPost2010Prop41ColorIndex
 90
       18
102
RTVSPost2010Prop41ColorRGB
 90
        0
102
RTVSPost2010PropOp41
 70
     1
102
RTVSPost2010Prop42
 90
       50
102
RTVSPost2010PropOp42
 70
     1
102
RTVSPost2010Prop43
 90
        3
102
RTVSPost2010PropOp43
 70
     1
102
RTVSPost2010Prop44ColorIndex
 90
        5
102
RTVSPost2010Prop44ColorRGB
 90
      255
102
RTVSPost2010PropOp44
 70
     1
102
RTVSPost2010Prop45
280
     0
102
RTVSPost2010PropOp45
 70
     1
102
RTVSPost2010Prop46
 90
       50
102
RTVSPost2010PropOp46
 70
     1
102
RTVSPost2010Prop47
 90
       50
102
RTVSPost2010PropOp47
 70
     1
102
RTVSPost2010Prop48
 90
       50
102
RTVSPost2010PropOp48
 70
     1
102
RTVSPost2010Prop49
280
     0
102
RTVSPost2010PropOp49
 70
     1
102
RTVSPost2010Prop50
 90
       50
102
RTVSPost2010PropOp50
 70
     1
102
RTVSPost2010Prop51ColorIndex
 90
      256
102
RTVSPost2010Prop51ColorRGB
 90
-16777216
102
RTVSPost2010PropOp51
 70
     0
102
RTVSPost2010Prop52
140
1.0
102
RTVSPost2010PropOp52
 70
     0
102
RTVSPost2010Prop53
 90
        2
102
RTVSPost2010PropOp53
 70
     1
102
RTVSPost2010Prop54
  1
strokes_ogs.tif
102
RTVSPost2010PropOp54
 70
     1
102
RTVSPost2010Prop55
280
     0
102
RTVSPost2010PropOp55
 70
     1
102
RTVSPost2010Prop56
140
1.0
102
RTVSPost2010PropOp56
 70
     1
102
RTVSPost2010Prop57
140
1.0
102
RTVSPost2010PropOp57
 70
     1
102
RTVSPropertyOp0
 70
     1
102
RTVSPropertyOp1
 70
     1
102
RTVSPropertyOp2
 70
     1
102
RTVSPropertyOp3
 70
     1
102
RTVSPropertyOp4
 70
     1
102
RTVSPropertyOp5
 70
     1
102
RTVSPropertyOp6
 70
     1
102
RTVSPropertyOp7
 70
     1
102
RTVSPropertyOp8
 70
     1
102
RTVSPropertyOp9
 70
     1
102
RTVSPropertyOp10
 70
     1
102
RTVSPropertyOp11
 70
     1
102
RTVSPropertyOp12
 70
     1
102
RTVSPropertyOp13
 70
     1
102
RTVSPropertyOp14
 70
     1
102
RTVSPropertyOp15
 70
     1
102
RTVSPropertyOp16
 70
     1
102
RTVSPropertyOp17
 70
     1
102
RTVSPropertyOp18
 70
     1
102
RTVSPropertyOp19
 70
     1
102
RTVSPropertyOp20
 70
     1
102
RTVSPropertyOp21
 70
     1
102
RTVSPropertyOp22
 70
     1
102
RTVSPropertyOp23
 70
     1
102
RTVSPropertyOp24
 70
     1
102
RTVSPropertyOp25
 70
     1
102
RTVSPropertyOp26
 70
     1
102
RTVSPropertyOp27
 70
     1
102
RTVSPropertyOp28
 70
     1
102
RTVSPropertyOp29
 70
     1
102
RTVSPropertyOp30
 70
     1
102
RTVSPropertyOp31
 70
     1
102
RTVSPropertyOp32
 70
     1
102
RTVSPropertyOp33
 70
     1
102
RTVSPropertyOp34
 70
     1
102
RTVSPropertyOp35
 70
     1
102
RTVSPropertyOp36
 70
     1
102
RTVSPropertyOp37
 70
     1
102
RTVSPropertyOp38
 70
     1
102
RTVSPropertyOp39
 70
     1
102
RTVSPropertyOp40
 70
     1
102
RTVSPropertyOp41
 70
     1
102
RTVSPropertyOp42
 70
     1
102
RTVSPropertyOp43
 70
     1
102
RTVSPropertyOp44
 70
     1
102
RTVSPropertyOp45
 70
     1
102
RTVSPropertyOp46
 70
     1
102
RTVSPropertyOp47
 70
     1
102
RTVSPropertyOp48
 70
     1
102
RTVSPropertyOp49
 70
     1
102
RTVSPropertyOp50
 70
     1
102
RTVSPropertyOp51
 70
     0
102
RTVSPropertyOp52
 70
     0
102
RTVSPropertyOp53
 70
     1
102
RTVSPropertyOp54
 70
     1
102
RTVSPropertyOp55
 70
     1
102
RTVSPropertyOp56
 70
     1
102
RTVSPropertyOp57
 70
     1
102
RTVSPropertyOp58
 70
     1
102
RTVSPropertyOp59
 70
     1
102
RTVSPropertyOp60
 70
     1
102
RTVSPropertyOp61
 70
     1
102
RTVSPropertyOp62
 70
     1
  0
XRECORD
  5
171A
102
{ACAD_REACTORS
330
1719
102
}
330
1719
100
AcDbXrecord
280
     1
102
RTVSPost2010Prop28
280
     0
102
RTVSPost2010PropOp28
 70
     0
102
RTVSPost2010Prop29
280
     1
102
RTVSPost2010PropOp29
 70
     0
102
RTVSPost2010Prop30
280
     1
102
RTVSPost2010PropOp30
 70
     0
102
RTVSPost2010Prop31
280
     0
102
RTVSPost2010PropOp31
 70
     0
102
RTVSPost2010Prop32
280
     0
102
RTVSPost2010PropOp32
 70
     0
102
RTVSPost2010Prop33
280
     0
102
RTVSPost2010PropOp33
 70
     0
102
RTVSPost2010Prop34
280
     0
102
RTVSPost2010PropOp34
 70
     0
102
RTVSPost2010Prop35
280
     0
102
RTVSPost2010PropOp35
 70
     0
102
RTVSPost2010Prop36
280
     0
102
RTVSPost2010PropOp36
 70
     0
102
RTVSPost2010Prop37
 90
       50
102
RTVSPost2010PropOp37
 70
     0
102
RTVSPost2010Prop38
140
0.0
102
RTVSPost2010PropOp38
 70
     0
102
RTVSPost2010Prop39
140
1.0
102
RTVSPost2010PropOp39
 70
     0
102
RTVSPost2010Prop40
 90
        0
102
RTVSPost2010PropOp40
 70
     0
102
RTVSPost2010Prop41ColorIndex
 90
       18
102
RTVSPost2010Prop41ColorRGB
 90
        0
102
RTVSPost2010PropOp41
 70
     0
102
RTVSPost2010Prop42
 90
       50
102
RTVSPost2010PropOp42
 70
     0
102
RTVSPost2010Prop43
 90
        3
102
RTVSPost2010PropOp43
 70
     0
102
RTVSPost2010Prop44ColorIndex
 90
        5
102
RTVSPost2010Prop44ColorRGB
 90
      255
102
RTVSPost2010PropOp44
 70
     0
102
RTVSPost2010Prop45
280
     0
102
RTVSPost2010PropOp45
 70
     0
102
RTVSPost2010Prop46
 90
       50
102
RTVSPost2010PropOp46
 70
     0
102
RTVSPost2010Prop47
 90
       50
102
RTVSPost2010PropOp47
 70
     0
102
RTVSPost2010Prop48
 90
       50
102
RTVSPost2010PropOp48
 70
     0
102
RTVSPost2010Prop49
280
     0
102
RTVSPost2010PropOp49
 70
     0
102
RTVSPost2010Prop50
 90
       50
102
RTVSPost2010PropOp50
 70
     0
102
RTVSPost2010Prop51ColorIndex
 90
      256
102
RTVSPost2010Prop51ColorRGB
 90
-16777216
102
RTVSPost2010PropOp51
 70
     0
102
RTVSPost2010Prop52
140
1.0
102
RTVSPost2010PropOp52
 70
     0
102
RTVSPost2010Prop53
 90
        2
102
RTVSPost2010PropOp53
 70
     0
102
RTVSPost2010Prop54
  1
strokes_ogs.tif
102
RTVSPost2010PropOp54
 70
     0
102
RTVSPost2010Prop55
280
     0
102
RTVSPost2010PropOp55
 70
     0
102
RTVSPost2010Prop56
140
1.0
102
RTVSPost2010PropOp56
 70
     0
102
RTVSPost2010Prop57
140
1.0
102
RTVSPost2010PropOp57
 70
     0
102
RTVSPropertyOp0
 70
     0
102
RTVSPropertyOp1
 70
     0
102
RTVSPropertyOp2
 70
     0
102
RTVSPropertyOp3
 70
     0
102
RTVSPropertyOp4
 70
     0
102
RTVSPropertyOp5
 70
     0
102
RTVSPropertyOp6
 70
     0
102
RTVSPropertyOp7
 70
     0
102
RTVSPropertyOp8
 70
     0
102
RTVSPropertyOp9
 70
     0
102
RTVSPropertyOp10
 70
     0
102
RTVSPropertyOp11
 70
     0
102
RTVSPropertyOp12
 70
     0
102
RTVSPropertyOp13
 70
     0
102
RTVSPropertyOp14
 70
     2
102
RTVSPropertyOp15
 70
     0
102
RTVSPropertyOp16
 70
     0
102
RTVSPropertyOp17
 70
     0
102
RTVSPropertyOp18
 70
     0
102
RTVSPropertyOp19
 70
     0
102
RTVSPropertyOp20
 70
     0
102
RTVSPropertyOp21
 70
     0
102
RTVSPropertyOp22
 70
     0
102
RTVSPropertyOp23
 70
     0
102
RTVSPropertyOp24
 70
     0
102
RTVSPropertyOp25
 70
     0
102
RTVSPropertyOp26
 70
     0
102
RTVSPropertyOp27
 70
     0
102
RTVSPropertyOp28
 70
     0
102
RTVSPropertyOp29
 70
     0
102
RTVSPropertyOp30
 70
     0
102
RTVSPropertyOp31
 70
     0
102
RTVSPropertyOp32
 70
     0
102
RTVSPropertyOp33
 70
     0
102
RTVSPropertyOp34
 70
     0
102
RTVSPropertyOp35
 70
     0
102
RTVSPropertyOp36
 70
     0
102
RTVSPropertyOp37
 70
     0
102
RTVSPropertyOp38
 70
     0
102
RTVSPropertyOp39
 70
     0
102
RTVSPropertyOp40
 70
     0
102
RTVSPropertyOp41
 70
     0
102
RTVSPropertyOp42
 70
     0
102
RTVSPropertyOp43
 70
     0
102
RTVSPropertyOp44
 70
     0
102
RTVSPropertyOp45
 70
     0
102
RTVSPropertyOp46
 70
     0
102
RTVSPropertyOp47
 70
     0
102
RTVSPropertyOp48
 70
     0
102
RTVSPropertyOp49
 70
     0
102
RTVSPropertyOp50
 70
     0
102
RTVSPropertyOp51
 70
     0
102
RTVSPropertyOp52
 70
     0
102
RTVSPropertyOp53
 70
     0
102
RTVSPropertyOp54
 70
     0
102
RTVSPropertyOp55
 70
     0
102
RTVSPropertyOp56
 70
     0
102
RTVSPropertyOp57
 70
     0
102
RTVSPropertyOp58
 70
     1
102
RTVSPropertyOp59
 70
     1
102
RTVSPropertyOp60
 70
     1
102
RTVSPropertyOp61
 70
     1
102
RTVSPropertyOp62
 70
     1
  0
XRECORD
  5
16FB
102
{ACAD_REACTORS
330
16FA
102
}
330
16FA
100
AcDbXrecord
280
     1
102
RTVSPost2010Prop28
280
     0
102
RTVSPost2010PropOp28
 70
     1
102
RTVSPost2010Prop29
280
     1
102
RTVSPost2010PropOp29
 70
     1
102
RTVSPost2010Prop30
280
     1
102
RTVSPost2010PropOp30
 70
     1
102
RTVSPost2010Prop31
280
     0
102
RTVSPost2010PropOp31
 70
     1
102
RTVSPost2010Prop32
280
     0
102
RTVSPost2010PropOp32
 70
     1
102
RTVSPost2010Prop33
280
     0
102
RTVSPost2010PropOp33
 70
     1
102
RTVSPost2010Prop34
280
     0
102
RTVSPost2010PropOp34
 70
     1
102
RTVSPost2010Prop35
280
     0
102
RTVSPost2010PropOp35
 70
     1
102
RTVSPost2010Prop36
280
     0
102
RTVSPost2010PropOp36
 70
     1
102
RTVSPost2010Prop37
 90
       50
102
RTVSPost2010PropOp37
 70
     1
102
RTVSPost2010Prop38
140
0.0
102
RTVSPost2010PropOp38
 70
     1
102
RTVSPost2010Prop39
140
1.0
102
RTVSPost2010PropOp39
 70
     1
102
RTVSPost2010Prop40
 90
        0
102
RTVSPost2010PropOp40
 70
     1
102
RTVSPost2010Prop41ColorIndex
 90
       18
102
RTVSPost2010Prop41ColorRGB
 90
        0
102
RTVSPost2010PropOp41
 70
     1
102
RTVSPost2010Prop42
 90
       50
102
RTVSPost2010PropOp42
 70
     1
102
RTVSPost2010Prop43
 90
        3
102
RTVSPost2010PropOp43
 70
     1
102
RTVSPost2010Prop44ColorIndex
 90
        5
102
RTVSPost2010Prop44ColorRGB
 90
      255
102
RTVSPost2010PropOp44
 70
     1
102
RTVSPost2010Prop45
280
     0
102
RTVSPost2010PropOp45
 70
     1
102
RTVSPost2010Prop46
 90
       50
102
RTVSPost2010PropOp46
 70
     1
102
RTVSPost2010Prop47
 90
       50
102
RTVSPost2010PropOp47
 70
     1
102
RTVSPost2010Prop48
 90
       50
102
RTVSPost2010PropOp48
 70
     1
102
RTVSPost2010Prop49
280
     0
102
RTVSPost2010PropOp49
 70
     1
102
RTVSPost2010Prop50
 90
       50
102
RTVSPost2010PropOp50
 70
     1
102
RTVSPost2010Prop51ColorIndex
 90
      256
102
RTVSPost2010Prop51ColorRGB
 90
-16777216
102
RTVSPost2010PropOp51
 70
     0
102
RTVSPost2010Prop52
140
1.0
102
RTVSPost2010PropOp52
 70
     0
102
RTVSPost2010Prop53
 90
        2
102
RTVSPost2010PropOp53
 70
     1
102
RTVSPost2010Prop54
  1
strokes_ogs.tif
102
RTVSPost2010PropOp54
 70
     1
102
RTVSPost2010Prop55
280
     0
102
RTVSPost2010PropOp55
 70
     1
102
RTVSPost2010Prop56
140
1.0
102
RTVSPost2010PropOp56
 70
     1
102
RTVSPost2010Prop57
140
1.0
102
RTVSPost2010PropOp57
 70
     1
102
RTVSPropertyOp0
 70
     1
102
RTVSPropertyOp1
 70
     1
102
RTVSPropertyOp2
 70
     1
102
RTVSPropertyOp3
 70
     1
102
RTVSPropertyOp4
 70
     1
102
RTVSPropertyOp5
 70
     1
102
RTVSPropertyOp6
 70
     1
102
RTVSPropertyOp7
 70
     1
102
RTVSPropertyOp8
 70
     1
102
RTVSPropertyOp9
 70
     1
102
RTVSPropertyOp10
 70
     1
102
RTVSPropertyOp11
 70
     1
102
RTVSPropertyOp12
 70
     1
102
RTVSPropertyOp13
 70
     1
102
RTVSPropertyOp14
 70
     1
102
RTVSPropertyOp15
 70
     1
102
RTVSPropertyOp16
 70
     1
102
RTVSPropertyOp17
 70
     1
102
RTVSPropertyOp18
 70
     1
102
RTVSPropertyOp19
 70
     1
102
RTVSPropertyOp20
 70
     1
102
RTVSPropertyOp21
 70
     1
102
RTVSPropertyOp22
 70
     1
102
RTVSPropertyOp23
 70
     1
102
RTVSPropertyOp24
 70
     1
102
RTVSPropertyOp25
 70
     1
102
RTVSPropertyOp26
 70
     1
102
RTVSPropertyOp27
 70
     1
102
RTVSPropertyOp28
 70
     1
102
RTVSPropertyOp29
 70
     1
102
RTVSPropertyOp30
 70
     1
102
RTVSPropertyOp31
 70
     1
102
RTVSPropertyOp32
 70
     1
102
RTVSPropertyOp33
 70
     1
102
RTVSPropertyOp34
 70
     1
102
RTVSPropertyOp35
 70
     1
102
RTVSPropertyOp36
 70
     1
102
RTVSPropertyOp37
 70
     1
102
RTVSPropertyOp38
 70
     1
102
RTVSPropertyOp39
 70
     1
102
RTVSPropertyOp40
 70
     1
102
RTVSPropertyOp41
 70
     1
102
RTVSPropertyOp42
 70
     1
102
RTVSPropertyOp43
 70
     1
102
RTVSPropertyOp44
 70
     1
102
RTVSPropertyOp45
 70
     1
102
RTVSPropertyOp46
 70
     1
102
RTVSPropertyOp47
 70
     1
102
RTVSPropertyOp48
 70
     1
102
RTVSPropertyOp49
 70
     1
102
RTVSPropertyOp50
 70
     1
102
RTVSPropertyOp51
 70
     0
102
RTVSPropertyOp52
 70
     0
102
RTVSPropertyOp53
 70
     1
102
RTVSPropertyOp54
 70
     1
102
RTVSPropertyOp55
 70
     1
102
RTVSPropertyOp56
 70
     1
102
RTVSPropertyOp57
 70
     1
102
RTVSPropertyOp58
 70
     1
102
RTVSPropertyOp59
 70
     1
102
RTVSPropertyOp60
 70
     1
102
RTVSPropertyOp61
 70
     1
102
RTVSPropertyOp62
 70
     1
  0
XRECORD
  5
1716
102
{ACAD_REACTORS
330
1715
102
}
330
1715
100
AcDbXrecord
280
     1
102
RTVSPost2010Prop28
280
     0
102
RTVSPost2010PropOp28
 70
     1
102
RTVSPost2010Prop29
280
     1
102
RTVSPost2010PropOp29
 70
     1
102
RTVSPost2010Prop30
280
     1
102
RTVSPost2010PropOp30
 70
     1
102
RTVSPost2010Prop31
280
     0
102
RTVSPost2010PropOp31
 70
     1
102
RTVSPost2010Prop32
280
     0
102
RTVSPost2010PropOp32
 70
     1
102
RTVSPost2010Prop33
280
     0
102
RTVSPost2010PropOp33
 70
     1
102
RTVSPost2010Prop34
280
     0
102
RTVSPost2010PropOp34
 70
     1
102
RTVSPost2010Prop35
280
     0
102
RTVSPost2010PropOp35
 70
     1
102
RTVSPost2010Prop36
280
     0
102
RTVSPost2010PropOp36
 70
     1
102
RTVSPost2010Prop37
 90
       50
102
RTVSPost2010PropOp37
 70
     1
102
RTVSPost2010Prop38
140
0.0
102
RTVSPost2010PropOp38
 70
     1
102
RTVSPost2010Prop39
140
1.0
102
RTVSPost2010PropOp39
 70
     1
102
RTVSPost2010Prop40
 90
        0
102
RTVSPost2010PropOp40
 70
     1
102
RTVSPost2010Prop41ColorIndex
 90
       18
102
RTVSPost2010Prop41ColorRGB
 90
        0
102
RTVSPost2010PropOp41
 70
     1
102
RTVSPost2010Prop42
 90
       50
102
RTVSPost2010PropOp42
 70
     1
102
RTVSPost2010Prop43
 90
        3
102
RTVSPost2010PropOp43
 70
     1
102
RTVSPost2010Prop44ColorIndex
 90
        5
102
RTVSPost2010Prop44ColorRGB
 90
      255
102
RTVSPost2010PropOp44
 70
     1
102
RTVSPost2010Prop45
280
     0
102
RTVSPost2010PropOp45
 70
     1
102
RTVSPost2010Prop46
 90
       50
102
RTVSPost2010PropOp46
 70
     1
102
RTVSPost2010Prop47
 90
       50
102
RTVSPost2010PropOp47
 70
     1
102
RTVSPost2010Prop48
 90
       50
102
RTVSPost2010PropOp48
 70
     1
102
RTVSPost2010Prop49
280
     0
102
RTVSPost2010PropOp49
 70
     1
102
RTVSPost2010Prop50
 90
       50
102
RTVSPost2010PropOp50
 70
     1
102
RTVSPost2010Prop51ColorIndex
 90
      256
102
RTVSPost2010Prop51ColorRGB
 90
-16777216
102
RTVSPost2010PropOp51
 70
     0
102
RTVSPost2010Prop52
140
1.0
102
RTVSPost2010PropOp52
 70
     0
102
RTVSPost2010Prop53
 90
        2
102
RTVSPost2010PropOp53
 70
     1
102
RTVSPost2010Prop54
  1
strokes_ogs.tif
102
RTVSPost2010PropOp54
 70
     1
102
RTVSPost2010Prop55
280
     0
102
RTVSPost2010PropOp55
 70
     1
102
RTVSPost2010Prop56
140
1.0
102
RTVSPost2010PropOp56
 70
     1
102
RTVSPost2010Prop57
140
1.0
102
RTVSPost2010PropOp57
 70
     1
102
RTVSPropertyOp0
 70
     1
102
RTVSPropertyOp1
 70
     1
102
RTVSPropertyOp2
 70
     1
102
RTVSPropertyOp3
 70
     1
102
RTVSPropertyOp4
 70
     1
102
RTVSPropertyOp5
 70
     1
102
RTVSPropertyOp6
 70
     1
102
RTVSPropertyOp7
 70
     1
102
RTVSPropertyOp8
 70
     1
102
RTVSPropertyOp9
 70
     1
102
RTVSPropertyOp10
 70
     1
102
RTVSPropertyOp11
 70
     1
102
RTVSPropertyOp12
 70
     1
102
RTVSPropertyOp13
 70
     1
102
RTVSPropertyOp14
 70
     1
102
RTVSPropertyOp15
 70
     1
102
RTVSPropertyOp16
 70
     1
102
RTVSPropertyOp17
 70
     1
102
RTVSPropertyOp18
 70
     1
102
RTVSPropertyOp19
 70
     1
102
RTVSPropertyOp20
 70
     1
102
RTVSPropertyOp21
 70
     1
102
RTVSPropertyOp22
 70
     1
102
RTVSPropertyOp23
 70
     1
102
RTVSPropertyOp24
 70
     1
102
RTVSPropertyOp25
 70
     1
102
RTVSPropertyOp26
 70
     1
102
RTVSPropertyOp27
 70
     1
102
RTVSPropertyOp28
 70
     1
102
RTVSPropertyOp29
 70
     1
102
RTVSPropertyOp30
 70
     1
102
RTVSPropertyOp31
 70
     1
102
RTVSPropertyOp32
 70
     1
102
RTVSPropertyOp33
 70
     1
102
RTVSPropertyOp34
 70
     1
102
RTVSPropertyOp35
 70
     1
102
RTVSPropertyOp36
 70
     1
102
RTVSPropertyOp37
 70
     1
102
RTVSPropertyOp38
 70
     1
102
RTVSPropertyOp39
 70
     1
102
RTVSPropertyOp40
 70
     1
102
RTVSPropertyOp41
 70
     1
102
RTVSPropertyOp42
 70
     1
102
RTVSPropertyOp43
 70
     1
102
RTVSPropertyOp44
 70
     1
102
RTVSPropertyOp45
 70
     1
102
RTVSPropertyOp46
 70
     1
102
RTVSPropertyOp47
 70
     1
102
RTVSPropertyOp48
 70
     1
102
RTVSPropertyOp49
 70
     1
102
RTVSPropertyOp50
 70
     1
102
RTVSPropertyOp51
 70
     0
102
RTVSPropertyOp52
 70
     0
102
RTVSPropertyOp53
 70
     1
102
RTVSPropertyOp54
 70
     1
102
RTVSPropertyOp55
 70
     1
102
RTVSPropertyOp56
 70
     1
102
RTVSPropertyOp57
 70
     1
102
RTVSPropertyOp58
 70
     1
102
RTVSPropertyOp59
 70
     1
102
RTVSPropertyOp60
 70
     1
102
RTVSPropertyOp61
 70
     1
102
RTVSPropertyOp62
 70
     1
  0
XRECORD
  5
1714
102
{ACAD_REACTORS
330
1713
102
}
330
1713
100
AcDbXrecord
280
     1
102
RTVSPost2010Prop28
280
     0
102
RTVSPost2010PropOp28
 70
     1
102
RTVSPost2010Prop29
280
     1
102
RTVSPost2010PropOp29
 70
     1
102
RTVSPost2010Prop30
280
     1
102
RTVSPost2010PropOp30
 70
     1
102
RTVSPost2010Prop31
280
     0
102
RTVSPost2010PropOp31
 70
     1
102
RTVSPost2010Prop32
280
     0
102
RTVSPost2010PropOp32
 70
     1
102
RTVSPost2010Prop33
280
     0
102
RTVSPost2010PropOp33
 70
     1
102
RTVSPost2010Prop34
280
     0
102
RTVSPost2010PropOp34
 70
     1
102
RTVSPost2010Prop35
280
     0
102
RTVSPost2010PropOp35
 70
     1
102
RTVSPost2010Prop36
280
     0
102
RTVSPost2010PropOp36
 70
     1
102
RTVSPost2010Prop37
 90
       50
102
RTVSPost2010PropOp37
 70
     1
102
RTVSPost2010Prop38
140
0.0
102
RTVSPost2010PropOp38
 70
     1
102
RTVSPost2010Prop39
140
1.0
102
RTVSPost2010PropOp39
 70
     1
102
RTVSPost2010Prop40
 90
        0
102
RTVSPost2010PropOp40
 70
     1
102
RTVSPost2010Prop41ColorIndex
 90
       18
102
RTVSPost2010Prop41ColorRGB
 90
        0
102
RTVSPost2010PropOp41
 70
     1
102
RTVSPost2010Prop42
 90
       50
102
RTVSPost2010PropOp42
 70
     1
102
RTVSPost2010Prop43
 90
        3
102
RTVSPost2010PropOp43
 70
     1
102
RTVSPost2010Prop44ColorIndex
 90
        5
102
RTVSPost2010Prop44ColorRGB
 90
      255
102
RTVSPost2010PropOp44
 70
     1
102
RTVSPost2010Prop45
280
     0
102
RTVSPost2010PropOp45
 70
     1
102
RTVSPost2010Prop46
 90
       50
102
RTVSPost2010PropOp46
 70
     1
102
RTVSPost2010Prop47
 90
       50
102
RTVSPost2010PropOp47
 70
     1
102
RTVSPost2010Prop48
 90
       50
102
RTVSPost2010PropOp48
 70
     1
102
RTVSPost2010Prop49
280
     0
102
RTVSPost2010PropOp49
 70
     1
102
RTVSPost2010Prop50
 90
       50
102
RTVSPost2010PropOp50
 70
     1
102
RTVSPost2010Prop51ColorIndex
 90
      256
102
RTVSPost2010Prop51ColorRGB
 90
-16777216
102
RTVSPost2010PropOp51
 70
     0
102
RTVSPost2010Prop52
140
1.0
102
RTVSPost2010PropOp52
 70
     0
102
RTVSPost2010Prop53
 90
        2
102
RTVSPost2010PropOp53
 70
     1
102
RTVSPost2010Prop54
  1
strokes_ogs.tif
102
RTVSPost2010PropOp54
 70
     1
102
RTVSPost2010Prop55
280
     0
102
RTVSPost2010PropOp55
 70
     1
102
RTVSPost2010Prop56
140
1.0
102
RTVSPost2010PropOp56
 70
     1
102
RTVSPost2010Prop57
140
1.0
102
RTVSPost2010PropOp57
 70
     1
102
RTVSPropertyOp0
 70
     1
102
RTVSPropertyOp1
 70
     1
102
RTVSPropertyOp2
 70
     1
102
RTVSPropertyOp3
 70
     1
102
RTVSPropertyOp4
 70
     1
102
RTVSPropertyOp5
 70
     1
102
RTVSPropertyOp6
 70
     1
102
RTVSPropertyOp7
 70
     1
102
RTVSPropertyOp8
 70
     1
102
RTVSPropertyOp9
 70
     1
102
RTVSPropertyOp10
 70
     1
102
RTVSPropertyOp11
 70
     1
102
RTVSPropertyOp12
 70
     1
102
RTVSPropertyOp13
 70
     1
102
RTVSPropertyOp14
 70
     1
102
RTVSPropertyOp15
 70
     1
102
RTVSPropertyOp16
 70
     1
102
RTVSPropertyOp17
 70
     1
102
RTVSPropertyOp18
 70
     1
102
RTVSPropertyOp19
 70
     1
102
RTVSPropertyOp20
 70
     1
102
RTVSPropertyOp21
 70
     1
102
RTVSPropertyOp22
 70
     1
102
RTVSPropertyOp23
 70
     1
102
RTVSPropertyOp24
 70
     1
102
RTVSPropertyOp25
 70
     1
102
RTVSPropertyOp26
 70
     1
102
RTVSPropertyOp27
 70
     1
102
RTVSPropertyOp28
 70
     1
102
RTVSPropertyOp29
 70
     1
102
RTVSPropertyOp30
 70
     1
102
RTVSPropertyOp31
 70
     1
102
RTVSPropertyOp32
 70
     1
102
RTVSPropertyOp33
 70
     1
102
RTVSPropertyOp34
 70
     1
102
RTVSPropertyOp35
 70
     1
102
RTVSPropertyOp36
 70
     1
102
RTVSPropertyOp37
 70
     1
102
RTVSPropertyOp38
 70
     1
102
RTVSPropertyOp39
 70
     1
102
RTVSPropertyOp40
 70
     1
102
RTVSPropertyOp41
 70
     1
102
RTVSPropertyOp42
 70
     1
102
RTVSPropertyOp43
 70
     1
102
RTVSPropertyOp44
 70
     1
102
RTVSPropertyOp45
 70
     1
102
RTVSPropertyOp46
 70
     1
102
RTVSPropertyOp47
 70
     1
102
RTVSPropertyOp48
 70
     1
102
RTVSPropertyOp49
 70
     1
102
RTVSPropertyOp50
 70
     1
102
RTVSPropertyOp51
 70
     0
102
RTVSPropertyOp52
 70
     0
102
RTVSPropertyOp53
 70
     1
102
RTVSPropertyOp54
 70
     1
102
RTVSPropertyOp55
 70
     1
102
RTVSPropertyOp56
 70
     1
102
RTVSPropertyOp57
 70
     1
102
RTVSPropertyOp58
 70
     1
102
RTVSPropertyOp59
 70
     1
102
RTVSPropertyOp60
 70
     1
102
RTVSPropertyOp61
 70
     1
102
RTVSPropertyOp62
 70
     1
  0
XRECORD
  5
170E
102
{ACAD_REACTORS
330
170D
102
}
330
170D
100
AcDbXrecord
280
     1
102
RTVSPost2010Prop28
280
     0
102
RTVSPost2010PropOp28
 70
     1
102
RTVSPost2010Prop29
280
     1
102
RTVSPost2010PropOp29
 70
     1
102
RTVSPost2010Prop30
280
     1
102
RTVSPost2010PropOp30
 70
     1
102
RTVSPost2010Prop31
280
     0
102
RTVSPost2010PropOp31
 70
     1
102
RTVSPost2010Prop32
280
     0
102
RTVSPost2010PropOp32
 70
     1
102
RTVSPost2010Prop33
280
     0
102
RTVSPost2010PropOp33
 70
     1
102
RTVSPost2010Prop34
280
     0
102
RTVSPost2010PropOp34
 70
     1
102
RTVSPost2010Prop35
280
     0
102
RTVSPost2010PropOp35
 70
     1
102
RTVSPost2010Prop36
280
     0
102
RTVSPost2010PropOp36
 70
     1
102
RTVSPost2010Prop37
 90
       50
102
RTVSPost2010PropOp37
 70
     1
102
RTVSPost2010Prop38
140
0.0
102
RTVSPost2010PropOp38
 70
     1
102
RTVSPost2010Prop39
140
1.0
102
RTVSPost2010PropOp39
 70
     1
102
RTVSPost2010Prop40
 90
        0
102
RTVSPost2010PropOp40
 70
     1
102
RTVSPost2010Prop41ColorIndex
 90
       18
102
RTVSPost2010Prop41ColorRGB
 90
        0
102
RTVSPost2010PropOp41
 70
     1
102
RTVSPost2010Prop42
 90
       50
102
RTVSPost2010PropOp42
 70
     1
102
RTVSPost2010Prop43
 90
        3
102
RTVSPost2010PropOp43
 70
     1
102
RTVSPost2010Prop44ColorIndex
 90
        5
102
RTVSPost2010Prop44ColorRGB
 90
      255
102
RTVSPost2010PropOp44
 70
     1
102
RTVSPost2010Prop45
280
     0
102
RTVSPost2010PropOp45
 70
     1
102
RTVSPost2010Prop46
 90
       50
102
RTVSPost2010PropOp46
 70
     1
102
RTVSPost2010Prop47
 90
       50
102
RTVSPost2010PropOp47
 70
     1
102
RTVSPost2010Prop48
 90
       50
102
RTVSPost2010PropOp48
 70
     1
102
RTVSPost2010Prop49
280
     0
102
RTVSPost2010PropOp49
 70
     1
102
RTVSPost2010Prop50
 90
       50
102
RTVSPost2010PropOp50
 70
     1
102
RTVSPost2010Prop51ColorIndex
 90
      256
102
RTVSPost2010Prop51ColorRGB
 90
-16777216
102
RTVSPost2010PropOp51
 70
     0
102
RTVSPost2010Prop52
140
1.0
102
RTVSPost2010PropOp52
 70
     0
102
RTVSPost2010Prop53
 90
        2
102
RTVSPost2010PropOp53
 70
     1
102
RTVSPost2010Prop54
  1
strokes_ogs.tif
102
RTVSPost2010PropOp54
 70
     1
102
RTVSPost2010Prop55
280
     0
102
RTVSPost2010PropOp55
 70
     1
102
RTVSPost2010Prop56
140
1.0
102
RTVSPost2010PropOp56
 70
     1
102
RTVSPost2010Prop57
140
1.0
102
RTVSPost2010PropOp57
 70
     1
102
RTVSPropertyOp0
 70
     1
102
RTVSPropertyOp1
 70
     1
102
RTVSPropertyOp2
 70
     1
102
RTVSPropertyOp3
 70
     1
102
RTVSPropertyOp4
 70
     1
102
RTVSPropertyOp5
 70
     1
102
RTVSPropertyOp6
 70
     1
102
RTVSPropertyOp7
 70
     1
102
RTVSPropertyOp8
 70
     1
102
RTVSPropertyOp9
 70
     1
102
RTVSPropertyOp10
 70
     1
102
RTVSPropertyOp11
 70
     1
102
RTVSPropertyOp12
 70
     1
102
RTVSPropertyOp13
 70
     1
102
RTVSPropertyOp14
 70
     1
102
RTVSPropertyOp15
 70
     1
102
RTVSPropertyOp16
 70
     1
102
RTVSPropertyOp17
 70
     1
102
RTVSPropertyOp18
 70
     1
102
RTVSPropertyOp19
 70
     1
102
RTVSPropertyOp20
 70
     1
102
RTVSPropertyOp21
 70
     1
102
RTVSPropertyOp22
 70
     1
102
RTVSPropertyOp23
 70
     1
102
RTVSPropertyOp24
 70
     1
102
RTVSPropertyOp25
 70
     1
102
RTVSPropertyOp26
 70
     1
102
RTVSPropertyOp27
 70
     1
102
RTVSPropertyOp28
 70
     1
102
RTVSPropertyOp29
 70
     1
102
RTVSPropertyOp30
 70
     1
102
RTVSPropertyOp31
 70
     1
102
RTVSPropertyOp32
 70
     1
102
RTVSPropertyOp33
 70
     1
102
RTVSPropertyOp34
 70
     1
102
RTVSPropertyOp35
 70
     1
102
RTVSPropertyOp36
 70
     1
102
RTVSPropertyOp37
 70
     1
102
RTVSPropertyOp38
 70
     1
102
RTVSPropertyOp39
 70
     1
102
RTVSPropertyOp40
 70
     1
102
RTVSPropertyOp41
 70
     1
102
RTVSPropertyOp42
 70
     1
102
RTVSPropertyOp43
 70
     1
102
RTVSPropertyOp44
 70
     1
102
RTVSPropertyOp45
 70
     1
102
RTVSPropertyOp46
 70
     1
102
RTVSPropertyOp47
 70
     1
102
RTVSPropertyOp48
 70
     1
102
RTVSPropertyOp49
 70
     1
102
RTVSPropertyOp50
 70
     1
102
RTVSPropertyOp51
 70
     0
102
RTVSPropertyOp52
 70
     0
102
RTVSPropertyOp53
 70
     1
102
RTVSPropertyOp54
 70
     1
102
RTVSPropertyOp55
 70
     1
102
RTVSPropertyOp56
 70
     1
102
RTVSPropertyOp57
 70
     1
102
RTVSPropertyOp58
 70
     1
102
RTVSPropertyOp59
 70
     1
102
RTVSPropertyOp60
 70
     1
102
RTVSPropertyOp61
 70
     1
102
RTVSPropertyOp62
 70
     1
  0
XRECORD
  5
1710
102
{ACAD_REACTORS
330
170F
102
}
330
170F
100
AcDbXrecord
280
     1
102
RTVSPost2010Prop28
280
     0
102
RTVSPost2010PropOp28
 70
     1
102
RTVSPost2010Prop29
280
     1
102
RTVSPost2010PropOp29
 70
     1
102
RTVSPost2010Prop30
280
     1
102
RTVSPost2010PropOp30
 70
     1
102
RTVSPost2010Prop31
280
     0
102
RTVSPost2010PropOp31
 70
     1
102
RTVSPost2010Prop32
280
     0
102
RTVSPost2010PropOp32
 70
     1
102
RTVSPost2010Prop33
280
     0
102
RTVSPost2010PropOp33
 70
     1
102
RTVSPost2010Prop34
280
     0
102
RTVSPost2010PropOp34
 70
     1
102
RTVSPost2010Prop35
280
     0
102
RTVSPost2010PropOp35
 70
     1
102
RTVSPost2010Prop36
280
     0
102
RTVSPost2010PropOp36
 70
     1
102
RTVSPost2010Prop37
 90
       50
102
RTVSPost2010PropOp37
 70
     1
102
RTVSPost2010Prop38
140
0.0
102
RTVSPost2010PropOp38
 70
     1
102
RTVSPost2010Prop39
140
1.0
102
RTVSPost2010PropOp39
 70
     1
102
RTVSPost2010Prop40
 90
        0
102
RTVSPost2010PropOp40
 70
     1
102
RTVSPost2010Prop41ColorIndex
 90
       18
102
RTVSPost2010Prop41ColorRGB
 90
        0
102
RTVSPost2010PropOp41
 70
     1
102
RTVSPost2010Prop42
 90
       50
102
RTVSPost2010PropOp42
 70
     1
102
RTVSPost2010Prop43
 90
        3
102
RTVSPost2010PropOp43
 70
     1
102
RTVSPost2010Prop44ColorIndex
 90
        5
102
RTVSPost2010Prop44ColorRGB
 90
      255
102
RTVSPost2010PropOp44
 70
     1
102
RTVSPost2010Prop45
280
     0
102
RTVSPost2010PropOp45
 70
     1
102
RTVSPost2010Prop46
 90
       50
102
RTVSPost2010PropOp46
 70
     1
102
RTVSPost2010Prop47
 90
       50
102
RTVSPost2010PropOp47
 70
     1
102
RTVSPost2010Prop48
 90
       50
102
RTVSPost2010PropOp48
 70
     1
102
RTVSPost2010Prop49
280
     0
102
RTVSPost2010PropOp49
 70
     1
102
RTVSPost2010Prop50
 90
       50
102
RTVSPost2010PropOp50
 70
     1
102
RTVSPost2010Prop51ColorIndex
 90
      256
102
RTVSPost2010Prop51ColorRGB
 90
-16777216
102
RTVSPost2010PropOp51
 70
     0
102
RTVSPost2010Prop52
140
1.0
102
RTVSPost2010PropOp52
 70
     0
102
RTVSPost2010Prop53
 90
        2
102
RTVSPost2010PropOp53
 70
     1
102
RTVSPost2010Prop54
  1
strokes_ogs.tif
102
RTVSPost2010PropOp54
 70
     1
102
RTVSPost2010Prop55
280
     0
102
RTVSPost2010PropOp55
 70
     1
102
RTVSPost2010Prop56
140
1.0
102
RTVSPost2010PropOp56
 70
     1
102
RTVSPost2010Prop57
140
1.0
102
RTVSPost2010PropOp57
 70
     1
102
RTVSPropertyOp0
 70
     1
102
RTVSPropertyOp1
 70
     1
102
RTVSPropertyOp2
 70
     1
102
RTVSPropertyOp3
 70
     1
102
RTVSPropertyOp4
 70
     1
102
RTVSPropertyOp5
 70
     1
102
RTVSPropertyOp6
 70
     1
102
RTVSPropertyOp7
 70
     1
102
RTVSPropertyOp8
 70
     1
102
RTVSPropertyOp9
 70
     1
102
RTVSPropertyOp10
 70
     1
102
RTVSPropertyOp11
 70
     1
102
RTVSPropertyOp12
 70
     1
102
RTVSPropertyOp13
 70
     1
102
RTVSPropertyOp14
 70
     1
102
RTVSPropertyOp15
 70
     1
102
RTVSPropertyOp16
 70
     1
102
RTVSPropertyOp17
 70
     1
102
RTVSPropertyOp18
 70
     1
102
RTVSPropertyOp19
 70
     1
102
RTVSPropertyOp20
 70
     1
102
RTVSPropertyOp21
 70
     1
102
RTVSPropertyOp22
 70
     1
102
RTVSPropertyOp23
 70
     1
102
RTVSPropertyOp24
 70
     1
102
RTVSPropertyOp25
 70
     1
102
RTVSPropertyOp26
 70
     1
102
RTVSPropertyOp27
 70
     1
102
RTVSPropertyOp28
 70
     1
102
RTVSPropertyOp29
 70
     1
102
RTVSPropertyOp30
 70
     1
102
RTVSPropertyOp31
 70
     1
102
RTVSPropertyOp32
 70
     1
102
RTVSPropertyOp33
 70
     1
102
RTVSPropertyOp34
 70
     1
102
RTVSPropertyOp35
 70
     1
102
RTVSPropertyOp36
 70
     1
102
RTVSPropertyOp37
 70
     1
102
RTVSPropertyOp38
 70
     1
102
RTVSPropertyOp39
 70
     1
102
RTVSPropertyOp40
 70
     1
102
RTVSPropertyOp41
 70
     1
102
RTVSPropertyOp42
 70
     1
102
RTVSPropertyOp43
 70
     1
102
RTVSPropertyOp44
 70
     1
102
RTVSPropertyOp45
 70
     1
102
RTVSPropertyOp46
 70
     1
102
RTVSPropertyOp47
 70
     1
102
RTVSPropertyOp48
 70
     1
102
RTVSPropertyOp49
 70
     1
102
RTVSPropertyOp50
 70
     1
102
RTVSPropertyOp51
 70
     0
102
RTVSPropertyOp52
 70
     0
102
RTVSPropertyOp53
 70
     1
102
RTVSPropertyOp54
 70
     1
102
RTVSPropertyOp55
 70
     1
102
RTVSPropertyOp56
 70
     1
102
RTVSPropertyOp57
 70
     1
102
RTVSPropertyOp58
 70
     1
102
RTVSPropertyOp59
 70
     1
102
RTVSPropertyOp60
 70
     1
102
RTVSPropertyOp61
 70
     1
102
RTVSPropertyOp62
 70
     1
  0
XRECORD
  5
1701
102
{ACAD_REACTORS
330
1700
102
}
330
1700
100
AcDbXrecord
280
     1
102
RTVSPost2010Prop28
280
     0
102
RTVSPost2010PropOp28
 70
     1
102
RTVSPost2010Prop29
280
     1
102
RTVSPost2010PropOp29
 70
     1
102
RTVSPost2010Prop30
280
     1
102
RTVSPost2010PropOp30
 70
     1
102
RTVSPost2010Prop31
280
     0
102
RTVSPost2010PropOp31
 70
     1
102
RTVSPost2010Prop32
280
     0
102
RTVSPost2010PropOp32
 70
     1
102
RTVSPost2010Prop33
280
     0
102
RTVSPost2010PropOp33
 70
     1
102
RTVSPost2010Prop34
280
     0
102
RTVSPost2010PropOp34
 70
     1
102
RTVSPost2010Prop35
280
     0
102
RTVSPost2010PropOp35
 70
     1
102
RTVSPost2010Prop36
280
     0
102
RTVSPost2010PropOp36
 70
     1
102
RTVSPost2010Prop37
 90
       50
102
RTVSPost2010PropOp37
 70
     1
102
RTVSPost2010Prop38
140
0.0
102
RTVSPost2010PropOp38
 70
     1
102
RTVSPost2010Prop39
140
1.0
102
RTVSPost2010PropOp39
 70
     1
102
RTVSPost2010Prop40
 90
        0
102
RTVSPost2010PropOp40
 70
     1
102
RTVSPost2010Prop41ColorIndex
 90
       18
102
RTVSPost2010Prop41ColorRGB
 90
        0
102
RTVSPost2010PropOp41
 70
     1
102
RTVSPost2010Prop42
 90
       50
102
RTVSPost2010PropOp42
 70
     1
102
RTVSPost2010Prop43
 90
        3
102
RTVSPost2010PropOp43
 70
     1
102
RTVSPost2010Prop44ColorIndex
 90
        5
102
RTVSPost2010Prop44ColorRGB
 90
      255
102
RTVSPost2010PropOp44
 70
     1
102
RTVSPost2010Prop45
280
     0
102
RTVSPost2010PropOp45
 70
     1
102
RTVSPost2010Prop46
 90
       50
102
RTVSPost2010PropOp46
 70
     1
102
RTVSPost2010Prop47
 90
       50
102
RTVSPost2010PropOp47
 70
     1
102
RTVSPost2010Prop48
 90
       50
102
RTVSPost2010PropOp48
 70
     1
102
RTVSPost2010Prop49
280
     0
102
RTVSPost2010PropOp49
 70
     1
102
RTVSPost2010Prop50
 90
       50
102
RTVSPost2010PropOp50
 70
     1
102
RTVSPost2010Prop51ColorIndex
 90
      256
102
RTVSPost2010Prop51ColorRGB
 90
-16777216
102
RTVSPost2010PropOp51
 70
     0
102
RTVSPost2010Prop52
140
1.0
102
RTVSPost2010PropOp52
 70
     0
102
RTVSPost2010Prop53
 90
        2
102
RTVSPost2010PropOp53
 70
     1
102
RTVSPost2010Prop54
  1
strokes_ogs.tif
102
RTVSPost2010PropOp54
 70
     1
102
RTVSPost2010Prop55
280
     0
102
RTVSPost2010PropOp55
 70
     1
102
RTVSPost2010Prop56
140
1.0
102
RTVSPost2010PropOp56
 70
     1
102
RTVSPost2010Prop57
140
1.0
102
RTVSPost2010PropOp57
 70
     1
102
RTVSPropertyOp0
 70
     1
102
RTVSPropertyOp1
 70
     1
102
RTVSPropertyOp2
 70
     1
102
RTVSPropertyOp3
 70
     1
102
RTVSPropertyOp4
 70
     1
102
RTVSPropertyOp5
 70
     1
102
RTVSPropertyOp6
 70
     1
102
RTVSPropertyOp7
 70
     1
102
RTVSPropertyOp8
 70
     1
102
RTVSPropertyOp9
 70
     1
102
RTVSPropertyOp10
 70
     1
102
RTVSPropertyOp11
 70
     1
102
RTVSPropertyOp12
 70
     1
102
RTVSPropertyOp13
 70
     1
102
RTVSPropertyOp14
 70
     1
102
RTVSPropertyOp15
 70
     1
102
RTVSPropertyOp16
 70
     1
102
RTVSPropertyOp17
 70
     1
102
RTVSPropertyOp18
 70
     1
102
RTVSPropertyOp19
 70
     1
102
RTVSPropertyOp20
 70
     1
102
RTVSPropertyOp21
 70
     1
102
RTVSPropertyOp22
 70
     1
102
RTVSPropertyOp23
 70
     1
102
RTVSPropertyOp24
 70
     1
102
RTVSPropertyOp25
 70
     1
102
RTVSPropertyOp26
 70
     1
102
RTVSPropertyOp27
 70
     1
102
RTVSPropertyOp28
 70
     1
102
RTVSPropertyOp29
 70
     1
102
RTVSPropertyOp30
 70
     1
102
RTVSPropertyOp31
 70
     1
102
RTVSPropertyOp32
 70
     1
102
RTVSPropertyOp33
 70
     1
102
RTVSPropertyOp34
 70
     1
102
RTVSPropertyOp35
 70
     1
102
RTVSPropertyOp36
 70
     1
102
RTVSPropertyOp37
 70
     1
102
RTVSPropertyOp38
 70
     1
102
RTVSPropertyOp39
 70
     1
102
RTVSPropertyOp40
 70
     1
102
RTVSPropertyOp41
 70
     1
102
RTVSPropertyOp42
 70
     1
102
RTVSPropertyOp43
 70
     1
102
RTVSPropertyOp44
 70
     1
102
RTVSPropertyOp45
 70
     1
102
RTVSPropertyOp46
 70
     1
102
RTVSPropertyOp47
 70
     1
102
RTVSPropertyOp48
 70
     1
102
RTVSPropertyOp49
 70
     1
102
RTVSPropertyOp50
 70
     1
102
RTVSPropertyOp51
 70
     0
102
RTVSPropertyOp52
 70
     0
102
RTVSPropertyOp53
 70
     1
102
RTVSPropertyOp54
 70
     1
102
RTVSPropertyOp55
 70
     1
102
RTVSPropertyOp56
 70
     1
102
RTVSPropertyOp57
 70
     1
102
RTVSPropertyOp58
 70
     1
102
RTVSPropertyOp59
 70
     1
102
RTVSPropertyOp60
 70
     1
102
RTVSPropertyOp61
 70
     1
102
RTVSPropertyOp62
 70
     1
  0
XRECORD
  5
170A
102
{ACAD_REACTORS
330
1709
102
}
330
1709
100
AcDbXrecord
280
     1
102
RTVSPost2010Prop28
280
     0
102
RTVSPost2010PropOp28
 70
     1
102
RTVSPost2010Prop29
280
     1
102
RTVSPost2010PropOp29
 70
     1
102
RTVSPost2010Prop30
280
     1
102
RTVSPost2010PropOp30
 70
     1
102
RTVSPost2010Prop31
280
     0
102
RTVSPost2010PropOp31
 70
     1
102
RTVSPost2010Prop32
280
     0
102
RTVSPost2010PropOp32
 70
     1
102
RTVSPost2010Prop33
280
     0
102
RTVSPost2010PropOp33
 70
     1
102
RTVSPost2010Prop34
280
     0
102
RTVSPost2010PropOp34
 70
     1
102
RTVSPost2010Prop35
280
     0
102
RTVSPost2010PropOp35
 70
     1
102
RTVSPost2010Prop36
280
     0
102
RTVSPost2010PropOp36
 70
     1
102
RTVSPost2010Prop37
 90
       50
102
RTVSPost2010PropOp37
 70
     1
102
RTVSPost2010Prop38
140
0.0
102
RTVSPost2010PropOp38
 70
     1
102
RTVSPost2010Prop39
140
1.0
102
RTVSPost2010PropOp39
 70
     1
102
RTVSPost2010Prop40
 90
        0
102
RTVSPost2010PropOp40
 70
     1
102
RTVSPost2010Prop41ColorIndex
 90
       18
102
RTVSPost2010Prop41ColorRGB
 90
        0
102
RTVSPost2010PropOp41
 70
     1
102
RTVSPost2010Prop42
 90
       50
102
RTVSPost2010PropOp42
 70
     1
102
RTVSPost2010Prop43
 90
        3
102
RTVSPost2010PropOp43
 70
     1
102
RTVSPost2010Prop44ColorIndex
 90
        5
102
RTVSPost2010Prop44ColorRGB
 90
      255
102
RTVSPost2010PropOp44
 70
     1
102
RTVSPost2010Prop45
280
     0
102
RTVSPost2010PropOp45
 70
     1
102
RTVSPost2010Prop46
 90
       50
102
RTVSPost2010PropOp46
 70
     1
102
RTVSPost2010Prop47
 90
       50
102
RTVSPost2010PropOp47
 70
     1
102
RTVSPost2010Prop48
 90
       50
102
RTVSPost2010PropOp48
 70
     1
102
RTVSPost2010Prop49
280
     0
102
RTVSPost2010PropOp49
 70
     1
102
RTVSPost2010Prop50
 90
       50
102
RTVSPost2010PropOp50
 70
     1
102
RTVSPost2010Prop51ColorIndex
 90
      256
102
RTVSPost2010Prop51ColorRGB
 90
-16777216
102
RTVSPost2010PropOp51
 70
     0
102
RTVSPost2010Prop52
140
1.0
102
RTVSPost2010PropOp52
 70
     0
102
RTVSPost2010Prop53
 90
        2
102
RTVSPost2010PropOp53
 70
     1
102
RTVSPost2010Prop54
  1
strokes_ogs.tif
102
RTVSPost2010PropOp54
 70
     1
102
RTVSPost2010Prop55
280
     0
102
RTVSPost2010PropOp55
 70
     1
102
RTVSPost2010Prop56
140
1.0
102
RTVSPost2010PropOp56
 70
     1
102
RTVSPost2010Prop57
140
1.0
102
RTVSPost2010PropOp57
 70
     1
102
RTVSPropertyOp0
 70
     1
102
RTVSPropertyOp1
 70
     1
102
RTVSPropertyOp2
 70
     1
102
RTVSPropertyOp3
 70
     1
102
RTVSPropertyOp4
 70
     1
102
RTVSPropertyOp5
 70
     1
102
RTVSPropertyOp6
 70
     1
102
RTVSPropertyOp7
 70
     1
102
RTVSPropertyOp8
 70
     1
102
RTVSPropertyOp9
 70
     1
102
RTVSPropertyOp10
 70
     1
102
RTVSPropertyOp11
 70
     1
102
RTVSPropertyOp12
 70
     1
102
RTVSPropertyOp13
 70
     1
102
RTVSPropertyOp14
 70
     1
102
RTVSPropertyOp15
 70
     1
102
RTVSPropertyOp16
 70
     1
102
RTVSPropertyOp17
 70
     1
102
RTVSPropertyOp18
 70
     1
102
RTVSPropertyOp19
 70
     1
102
RTVSPropertyOp20
 70
     1
102
RTVSPropertyOp21
 70
     1
102
RTVSPropertyOp22
 70
     1
102
RTVSPropertyOp23
 70
     1
102
RTVSPropertyOp24
 70
     1
102
RTVSPropertyOp25
 70
     1
102
RTVSPropertyOp26
 70
     1
102
RTVSPropertyOp27
 70
     1
102
RTVSPropertyOp28
 70
     1
102
RTVSPropertyOp29
 70
     1
102
RTVSPropertyOp30
 70
     1
102
RTVSPropertyOp31
 70
     1
102
RTVSPropertyOp32
 70
     1
102
RTVSPropertyOp33
 70
     1
102
RTVSPropertyOp34
 70
     1
102
RTVSPropertyOp35
 70
     1
102
RTVSPropertyOp36
 70
     1
102
RTVSPropertyOp37
 70
     1
102
RTVSPropertyOp38
 70
     1
102
RTVSPropertyOp39
 70
     1
102
RTVSPropertyOp40
 70
     1
102
RTVSPropertyOp41
 70
     1
102
RTVSPropertyOp42
 70
     1
102
RTVSPropertyOp43
 70
     1
102
RTVSPropertyOp44
 70
     1
102
RTVSPropertyOp45
 70
     1
102
RTVSPropertyOp46
 70
     1
102
RTVSPropertyOp47
 70
     1
102
RTVSPropertyOp48
 70
     1
102
RTVSPropertyOp49
 70
     1
102
RTVSPropertyOp50
 70
     1
102
RTVSPropertyOp51
 70
     0
102
RTVSPropertyOp52
 70
     0
102
RTVSPropertyOp53
 70
     1
102
RTVSPropertyOp54
 70
     1
102
RTVSPropertyOp55
 70
     1
102
RTVSPropertyOp56
 70
     1
102
RTVSPropertyOp57
 70
     1
102
RTVSPropertyOp58
 70
     1
102
RTVSPropertyOp59
 70
     1
102
RTVSPropertyOp60
 70
     1
102
RTVSPropertyOp61
 70
     1
102
RTVSPropertyOp62
 70
     1
  0
XRECORD
  5
1712
102
{ACAD_REACTORS
330
1711
102
}
330
1711
100
AcDbXrecord
280
     1
102
RTVSPost2010Prop28
280
     0
102
RTVSPost2010PropOp28
 70
     1
102
RTVSPost2010Prop29
280
     1
102
RTVSPost2010PropOp29
 70
     1
102
RTVSPost2010Prop30
280
     1
102
RTVSPost2010PropOp30
 70
     1
102
RTVSPost2010Prop31
280
     0
102
RTVSPost2010PropOp31
 70
     1
102
RTVSPost2010Prop32
280
     0
102
RTVSPost2010PropOp32
 70
     1
102
RTVSPost2010Prop33
280
     0
102
RTVSPost2010PropOp33
 70
     1
102
RTVSPost2010Prop34
280
     0
102
RTVSPost2010PropOp34
 70
     1
102
RTVSPost2010Prop35
280
     0
102
RTVSPost2010PropOp35
 70
     1
102
RTVSPost2010Prop36
280
     0
102
RTVSPost2010PropOp36
 70
     1
102
RTVSPost2010Prop37
 90
       50
102
RTVSPost2010PropOp37
 70
     1
102
RTVSPost2010Prop38
140
0.0
102
RTVSPost2010PropOp38
 70
     1
102
RTVSPost2010Prop39
140
1.0
102
RTVSPost2010PropOp39
 70
     1
102
RTVSPost2010Prop40
 90
        0
102
RTVSPost2010PropOp40
 70
     1
102
RTVSPost2010Prop41ColorIndex
 90
       18
102
RTVSPost2010Prop41ColorRGB
 90
        0
102
RTVSPost2010PropOp41
 70
     1
102
RTVSPost2010Prop42
 90
       50
102
RTVSPost2010PropOp42
 70
     1
102
RTVSPost2010Prop43
 90
        3
102
RTVSPost2010PropOp43
 70
     1
102
RTVSPost2010Prop44ColorIndex
 90
        5
102
RTVSPost2010Prop44ColorRGB
 90
      255
102
RTVSPost2010PropOp44
 70
     1
102
RTVSPost2010Prop45
280
     0
102
RTVSPost2010PropOp45
 70
     1
102
RTVSPost2010Prop46
 90
       50
102
RTVSPost2010PropOp46
 70
     1
102
RTVSPost2010Prop47
 90
       50
102
RTVSPost2010PropOp47
 70
     1
102
RTVSPost2010Prop48
 90
       50
102
RTVSPost2010PropOp48
 70
     1
102
RTVSPost2010Prop49
280
     0
102
RTVSPost2010PropOp49
 70
     1
102
RTVSPost2010Prop50
 90
       50
102
RTVSPost2010PropOp50
 70
     1
102
RTVSPost2010Prop51ColorIndex
 90
      256
102
RTVSPost2010Prop51ColorRGB
 90
-16777216
102
RTVSPost2010PropOp51
 70
     0
102
RTVSPost2010Prop52
140
1.0
102
RTVSPost2010PropOp52
 70
     0
102
RTVSPost2010Prop53
 90
        2
102
RTVSPost2010PropOp53
 70
     1
102
RTVSPost2010Prop54
  1
strokes_ogs.tif
102
RTVSPost2010PropOp54
 70
     1
102
RTVSPost2010Prop55
280
     0
102
RTVSPost2010PropOp55
 70
     1
102
RTVSPost2010Prop56
140
1.0
102
RTVSPost2010PropOp56
 70
     1
102
RTVSPost2010Prop57
140
1.0
102
RTVSPost2010PropOp57
 70
     1
102
RTVSPropertyOp0
 70
     1
102
RTVSPropertyOp1
 70
     1
102
RTVSPropertyOp2
 70
     1
102
RTVSPropertyOp3
 70
     1
102
RTVSPropertyOp4
 70
     1
102
RTVSPropertyOp5
 70
     1
102
RTVSPropertyOp6
 70
     1
102
RTVSPropertyOp7
 70
     1
102
RTVSPropertyOp8
 70
     1
102
RTVSPropertyOp9
 70
     1
102
RTVSPropertyOp10
 70
     1
102
RTVSPropertyOp11
 70
     1
102
RTVSPropertyOp12
 70
     1
102
RTVSPropertyOp13
 70
     1
102
RTVSPropertyOp14
 70
     1
102
RTVSPropertyOp15
 70
     1
102
RTVSPropertyOp16
 70
     1
102
RTVSPropertyOp17
 70
     1
102
RTVSPropertyOp18
 70
     1
102
RTVSPropertyOp19
 70
     1
102
RTVSPropertyOp20
 70
     1
102
RTVSPropertyOp21
 70
     1
102
RTVSPropertyOp22
 70
     1
102
RTVSPropertyOp23
 70
     1
102
RTVSPropertyOp24
 70
     1
102
RTVSPropertyOp25
 70
     1
102
RTVSPropertyOp26
 70
     1
102
RTVSPropertyOp27
 70
     1
102
RTVSPropertyOp28
 70
     1
102
RTVSPropertyOp29
 70
     1
102
RTVSPropertyOp30
 70
     1
102
RTVSPropertyOp31
 70
     1
102
RTVSPropertyOp32
 70
     1
102
RTVSPropertyOp33
 70
     1
102
RTVSPropertyOp34
 70
     1
102
RTVSPropertyOp35
 70
     1
102
RTVSPropertyOp36
 70
     1
102
RTVSPropertyOp37
 70
     1
102
RTVSPropertyOp38
 70
     1
102
RTVSPropertyOp39
 70
     1
102
RTVSPropertyOp40
 70
     1
102
RTVSPropertyOp41
 70
     1
102
RTVSPropertyOp42
 70
     1
102
RTVSPropertyOp43
 70
     1
102
RTVSPropertyOp44
 70
     1
102
RTVSPropertyOp45
 70
     1
102
RTVSPropertyOp46
 70
     1
102
RTVSPropertyOp47
 70
     1
102
RTVSPropertyOp48
 70
     1
102
RTVSPropertyOp49
 70
     1
102
RTVSPropertyOp50
 70
     1
102
RTVSPropertyOp51
 70
     0
102
RTVSPropertyOp52
 70
     0
102
RTVSPropertyOp53
 70
     1
102
RTVSPropertyOp54
 70
     1
102
RTVSPropertyOp55
 70
     1
102
RTVSPropertyOp56
 70
     1
102
RTVSPropertyOp57
 70
     1
102
RTVSPropertyOp58
 70
     1
102
RTVSPropertyOp59
 70
     1
102
RTVSPropertyOp60
 70
     1
102
RTVSPropertyOp61
 70
     1
102
RTVSPropertyOp62
 70
     1
  0
ENDSEC
  0
EOF
