  0
SECTION
  2
HEADER
  9
$ACADVER
  1
AC1015
  9
$ACADMAINTVER
 70
    20
  9
$DWGCODEPAGE
  3
ANSI_932
  9
$INSBASE
 10
0.0
 20
0.0
 30
0.0
  9
$EXTMIN
 10
-38.00180575771492
 20
-46.50756807009173
 30
-0.0000000000112498
  9
$EXTMAX
 10
69.20932391229889
 20
61.50634793157962
 30
0.0000000000002956
  9
$LIMMIN
 10
-60.0
 20
-55.0
  9
$LIMMAX
 10
60.0
 20
65.0
  9
$ORTHOMODE
 70
     1
  9
$REGENMODE
 70
     1
  9
$FILLMODE
 70
     1
  9
$QTEXTMODE
 70
     0
  9
$MIRRTEXT
 70
     1
  9
$LTSCALE
 40
6.0
  9
$ATTMODE
 70
     1
  9
$TEXTSIZE
 40
3.0
  9
$TRACEWID
 40
0.05
  9
$TEXTSTYLE
  7
BIGFONT
  9
$CLAYER
  8
0
  9
$CELTYPE
  6
BYLAYER
  9
$CECOLOR
 62
   256
  9
$CELTSCALE
 40
1.0
  9
$DISPSILH
 70
     0
  9
$DIMSCALE
 40
1.0
  9
$DIMASZ
 40
1.5
  9
$DIMEXO
 40
2.0
  9
$DIMDLI
 40
5.0
  9
$DIMRND
 40
0.0
  9
$DIMDLE
 40
0.0
  9
$DIMEXE
 40
1.0
  9
$DIMTP
 40
0.0
  9
$DIMTM
 40
0.0
  9
$DIMTXT
 40
3.149999999999999
  9
$DIMCEN
 40
0.0
  9
$DIMTSZ
 40
0.0
  9
$DIMTOL
 70
     0
  9
$DIMLIM
 70
     0
  9
$DIMTIH
 70
     0
  9
$DIMTOH
 70
     0
  9
$DIMSE1
 70
     0
  9
$DIMSE2
 70
     0
  9
$DIMTAD
 70
     3
  9
$DIMZIN
 70
     8
  9
$DIMBLK
  1

  9
$DIMASO
 70
     1
  9
$DIMSHO
 70
     1
  9
$DIMPOST
  1

  9
$DIMAPOST
  1

  9
$DIMALT
 70
     0
  9
$DIMALTD
 70
     2
  9
$DIMALTF
 40
25.4
  9
$DIMLFAC
 40
1.0
  9
$DIMTOFL
 70
     1
  9
$DIMTVP
 40
0.0
  9
$DIMTIX
 70
     0
  9
$DIMSOXD
 70
     0
  9
$DIMSAH
 70
     0
  9
$DIMBLK1
  1

  9
$DIMBLK2
  1

  9
$DIMSTYLE
  2
ARW_DEF
  9
$DIMCLRD
 70
     2
  9
$DIMCLRE
 70
     2
  9
$DIMCLRT
 70
     1
  9
$DIMTFAC
 40
1.0
  9
$DIMGAP
 40
0.5
  9
$DIMJUST
 70
     0
  9
$DIMSD1
 70
     0
  9
$DIMSD2
 70
     0
  9
$DIMTOLJ
 70
     1
  9
$DIMTZIN
 70
     8
  9
$DIMALTZ
 70
     0
  9
$DIMALTTZ
 70
     0
  9
$DIMUPT
 70
     0
  9
$DIMDEC
 70
     4
  9
$DIMTDEC
 70
     4
  9
$DIMALTU
 70
     2
  9
$DIMALTTD
 70
     2
  9
$DIMTXSTY
  7
BIGFONT
  9
$DIMAUNIT
 70
     0
  9
$DIMADEC
 70
     0
  9
$DIMALTRND
 40
0.0
  9
$DIMAZIN
 70
     0
  9
$DIMDSEP
 70
    46
  9
$DIMATFIT
 70
     3
  9
$DIMFRAC
 70
     0
  9
$DIMLDRBLK
  1

  9
$DIMLUNIT
 70
     2
  9
$DIMLWD
 70
    -2
  9
$DIMLWE
 70
    -2
  9
$DIMTMOVE
 70
     0
  9
$LUNITS
 70
     2
  9
$LUPREC
 70
     4
  9
$SKETCHINC
 40
0.1
  9
$FILLETRAD
 40
0.5
  9
$AUNITS
 70
     0
  9
$AUPREC
 70
     0
  9
$MENU
  1
acad
  9
$ELEVATION
 40
0.0
  9
$PELEVATION
 40
0.0
  9
$THICKNESS
 40
0.0
  9
$LIMCHECK
 70
     0
  9
$CHAMFERA
 40
0.5
  9
$CHAMFERB
 40
0.5
  9
$CHAMFERC
 40
1.0
  9
$CHAMFERD
 40
0.0
  9
$SKPOLY
 70
     0
  9
$TDCREATE
 40
2457639.451154884
  9
$TDUCREATE
 40
2457639.076154884
  9
$TDUPDATE
 40
2458543.393577269
  9
$TDUUPDATE
 40
2458543.018577269
  9
$TDINDWG
 40
0.0202281944
  9
$TDUSRTIMER
 40
0.0202280324
  9
$USRTIMER
 70
     1
  9
$ANGBASE
 50
0.0
  9
$ANGDIR
 70
     0
  9
$PDMODE
 70
     0
  9
$PDSIZE
 40
0.0
  9
$PLINEWID
 40
0.0
  9
$SPLFRAME
 70
     0
  9
$SPLINETYPE
 70
     6
  9
$SPLINESEGS
 70
     8
  9
$HANDSEED
  5
3362
  9
$SURFTAB1
 70
     6
  9
$SURFTAB2
 70
     6
  9
$SURFTYPE
 70
     6
  9
$SURFU
 70
     6
  9
$SURFV
 70
     6
  9
$UCSBASE
  2

  9
$UCSNAME
  2

  9
$UCSORG
 10
0.0
 20
0.0
 30
0.0
  9
$UCSXDIR
 10
1.0
 20
0.0
 30
0.0
  9
$UCSYDIR
 10
0.0
 20
1.0
 30
0.0
  9
$UCSORTHOREF
  2

  9
$UCSORTHOVIEW
 70
     0
  9
$UCSORGTOP
 10
0.0
 20
0.0
 30
0.0
  9
$UCSORGBOTTOM
 10
0.0
 20
0.0
 30
0.0
  9
$UCSORGLEFT
 10
0.0
 20
0.0
 30
0.0
  9
$UCSORGRIGHT
 10
0.0
 20
0.0
 30
0.0
  9
$UCSORGFRONT
 10
0.0
 20
0.0
 30
0.0
  9
$UCSORGBACK
 10
0.0
 20
0.0
 30
0.0
  9
$PUCSBASE
  2

  9
$PUCSNAME
  2

  9
$PUCSORG
 10
0.0
 20
0.0
 30
0.0
  9
$PUCSXDIR
 10
1.0
 20
0.0
 30
0.0
  9
$PUCSYDIR
 10
0.0
 20
1.0
 30
0.0
  9
$PUCSORTHOREF
  2

  9
$PUCSORTHOVIEW
 70
     0
  9
$PUCSORGTOP
 10
0.0
 20
0.0
 30
0.0
  9
$PUCSORGBOTTOM
 10
0.0
 20
0.0
 30
0.0
  9
$PUCSORGLEFT
 10
0.0
 20
0.0
 30
0.0
  9
$PUCSORGRIGHT
 10
0.0
 20
0.0
 30
0.0
  9
$PUCSORGFRONT
 10
0.0
 20
0.0
 30
0.0
  9
$PUCSORGBACK
 10
0.0
 20
0.0
 30
0.0
  9
$USERI1
 70
     0
  9
$USERI2
 70
     0
  9
$USERI3
 70
     0
  9
$USERI4
 70
     0
  9
$USERI5
 70
     0
  9
$USERR1
 40
0.0
  9
$USERR2
 40
0.0
  9
$USERR3
 40
0.0
  9
$USERR4
 40
0.0
  9
$USERR5
 40
0.0
  9
$WORLDVIEW
 70
     1
  9
$SHADEDGE
 70
     3
  9
$SHADEDIF
 70
    70
  9
$TILEMODE
 70
     1
  9
$MAXACTVP
 70
    48
  9
$PINSBASE
 10
0.0
 20
0.0
 30
0.0
  9
$PLIMCHECK
 70
     0
  9
$PEXTMIN
 10
1.000000000000000E+20
 20
1.000000000000000E+20
 30
1.000000000000000E+20
  9
$PEXTMAX
 10
-1.000000000000000E+20
 20
-1.000000000000000E+20
 30
-1.000000000000000E+20
  9
$PLIMMIN
 10
0.0
 20
0.0
  9
$PLIMMAX
 10
12.0
 20
9.0
  9
$UNITMODE
 70
     0
  9
$VISRETAIN
 70
     1
  9
$PLINEGEN
 70
     0
  9
$PSLTSCALE
 70
     1
  9
$TREEDEPTH
 70
  3020
  9
$CMLSTYLE
  2
STANDARD
  9
$CMLJUST
 70
     0
  9
$CMLSCALE
 40
1.0
  9
$PROXYGRAPHICS
 70
     1
  9
$MEASUREMENT
 70
     1
  9
$CELWEIGHT
370
    -1
  9
$ENDCAPS
280
     0
  9
$JOINSTYLE
280
     0
  9
$LWDISPLAY
290
     0
  9
$INSUNITS
 70
     0
  9
$HYPERLINKBASE
  1

  9
$STYLESHEET
  1

  9
$XEDIT
290
     1
  9
$CEPSNTYPE
380
     0
  9
$PSTYLEMODE
290
     1
  9
$FINGERPRINTGUID
  2
{02CE8946-42F4-4711-96DF-53B01A931725}
  9
$VERSIONGUID
  2
{CD6FD779-032A-4E89-B944-1349A9553F36}
  9
$EXTNAMES
290
     1
  9
$PSVPSCALE
 40
0.0
  9
$OLESTARTUP
290
     0
  0
ENDSEC
  0
SECTION
  2
CLASSES
  0
CLASS
  1
ACDBDICTIONARYWDFLT
  2
AcDbDictionaryWithDefault
  3
ObjectDBX Classes
 90
        0
280
     0
281
     0
  0
CLASS
  1
ACDBPLACEHOLDER
  2
AcDbPlaceHolder
  3
ObjectDBX Classes
 90
        0
280
     0
281
     0
  0
CLASS
  1
LAYOUT
  2
AcDbLayout
  3
ObjectDBX Classes
 90
        0
280
     0
281
     0
  0
CLASS
  1
MATERIAL
  2
AcDbMaterial
  3
ObjectDBX Classes
 90
     1153
280
     0
281
     0
  0
CLASS
  1
VISUALSTYLE
  2
AcDbVisualStyle
  3
ObjectDBX Classes
 90
     4095
280
     0
281
     0
  0
CLASS
  1
TABLESTYLE
  2
AcDbTableStyle
  3
ObjectDBX Classes
 90
     4095
280
     0
281
     0
  0
CLASS
  1
SCALE
  2
AcDbScale
  3
ObjectDBX Classes
 90
     1153
280
     0
281
     0
  0
CLASS
  1
MLEADERSTYLE
  2
AcDbMLeaderStyle
  3
ACDB_MLEADERSTYLE_CLASS
 90
     4095
280
     0
281
     0
  0
CLASS
  1
ACDBSECTIONVIEWSTYLE
  2
AcDbSectionViewStyle
  3
ObjectDBX Classes
 90
     1025
280
     0
281
     0
  0
CLASS
  1
ACDBDETAILVIEWSTYLE
  2
AcDbDetailViewStyle
  3
ObjectDBX Classes
 90
     1025
280
     0
281
     0
  0
CLASS
  1
SORTENTSTABLE
  2
AcDbSortentsTable
  3
ObjectDBX Classes
 90
        0
280
     0
281
     0
  0
CLASS
  1
CELLSTYLEMAP
  2
AcDbCellStyleMap
  3
ObjectDBX Classes
 90
     1152
280
     0
281
     0
  0
CLASS
  1
DICTIONARYVAR
  2
AcDbDictionaryVar
  3
ObjectDBX Classes
 90
        0
280
     0
281
     0
  0
ENDSEC
  0
SECTION
  2
TABLES
  0
TABLE
  2
VPORT
  5
8
102
{ACAD_XDICTIONARY
360
2E35
102
}
330
0
100
AcDbSymbolTable
 70
     1
  0
VPORT
  5
2BBF
330
8
100
AcDbSymbolTableRecord
100
AcDbViewportTableRecord
  2
*Active
 70
     0
 10
0.0
 20
0.0
 11
1.0
 21
1.0
 12
4.604661956149456
 22
5.0
 13
0.0
 23
0.0
 14
10.0
 24
10.0
 15
0.5
 25
0.5
 16
0.0
 26
0.0
 36
1.0
 17
0.0
 27
0.0
 37
0.0
 40
121.4754098360655
 41
2.328542094455852
 42
50.0
 43
0.0
 44
0.0
 50
0.0
 51
0.0
 71
     0
 72
   100
 73
     1
 74
     1
 75
     0
 76
     0
 77
     0
 78
     2
281
     0
 65
     1
110
0.0
120
0.0
130
0.0
111
1.0
121
0.0
131
0.0
112
0.0
122
1.0
132
0.0
 79
     0
146
0.0
1001
ACAD_NAV_VCDISPLAY
1070
     3
  0
ENDTAB
  0
TABLE
  2
LTYPE
  5
5
330
0
100
AcDbSymbolTable
 70
     3
  0
LTYPE
  5
12
330
5
100
AcDbSymbolTableRecord
100
AcDbLinetypeTableRecord
  2
BYBLOCK
 70
     0
  3

 72
    65
 73
     0
 40
0.0
  0
LTYPE
  5
13
330
5
100
AcDbSymbolTableRecord
100
AcDbLinetypeTableRecord
  2
BYLAYER
 70
     0
  3

 72
    65
 73
     0
 40
0.0
  0
LTYPE
  5
14
330
5
100
AcDbSymbolTableRecord
100
AcDbLinetypeTableRecord
  2
CONTINUOUS
 70
     0
  3
Solid line
 72
    65
 73
     0
 40
0.0
  0
LTYPE
  5
2FA1
330
5
100
AcDbSymbolTableRecord
100
AcDbLinetypeTableRecord
  2
PHANTOM
 70
     0
  3
Phantom ______  __  __  ______  __  __  ______
 72
    65
 73
     6
 40
2.5
 49
1.25
 74
     0
 49
-0.25
 74
     0
 49
0.25
 74
     0
 49
-0.25
 74
     0
 49
0.25
 74
     0
 49
-0.25
 74
     0
  0
ENDTAB
  0
TABLE
  2
LAYER
  5
2
102
{ACAD_XDICTIONARY
360
2C16
102
}
330
0
100
AcDbSymbolTable
 70
     2
  0
LAYER
  5
E
102
{ACAD_XDICTIONARY
360
2E2F
102
}
330
2
100
AcDbSymbolTableRecord
100
AcDbLayerTableRecord
  2
0
 70
     0
 62
     7
  6
CONTINUOUS
370
    -3
390
2BB0
  0
LAYER
  5
1B1B
330
2
100
AcDbSymbolTableRecord
100
AcDbLayerTableRecord
  2
DEFPOINTS
 70
     0
 62
     7
  6
CONTINUOUS
290
     0
370
    -3
390
2BB0
  0
ENDTAB
  0
TABLE
  2
STYLE
  5
3
330
0
100
AcDbSymbolTable
 70
     2
  0
STYLE
  5
F
330
3
100
AcDbSymbolTableRecord
100
AcDbTextStyleTableRecord
  2
STANDARD
 70
     0
 40
0.0
 41
1.0
 50
0.0
 71
     0
 42
3.0
  3
txt
  4

  0
STYLE
  5
E7
330
3
100
AcDbSymbolTableRecord
100
AcDbTextStyleTableRecord
  2
BIGFONT
 70
     0
 40
0.0
 41
1.0
 50
0.0
 71
     0
 42
3.0
  3
simplex.shx
  4
bigfont.shx
  0
ENDTAB
  0
TABLE
  2
VIEW
  5
6
330
0
100
AcDbSymbolTable
 70
     0
  0
ENDTAB
  0
TABLE
  2
UCS
  5
7
330
0
100
AcDbSymbolTable
 70
     0
  0
ENDTAB
  0
TABLE
  2
APPID
  5
9
330
0
100
AcDbSymbolTable
 70
    11
  0
APPID
  5
10
330
9
100
AcDbSymbolTableRecord
100
AcDbRegAppTableRecord
  2
ACAD
 70
     0
  0
APPID
  5
24
330
9
100
AcDbSymbolTableRecord
100
AcDbRegAppTableRecord
  2
CONTENTTABDATA
 70
     0
  0
APPID
  5
25
330
9
100
AcDbSymbolTableRecord
100
AcDbRegAppTableRecord
  2
CONTENTCURRENTTAB
 70
     0
  0
APPID
  5
2C14
330
9
100
AcDbSymbolTableRecord
100
AcDbRegAppTableRecord
  2
ACAD_NAV_VCDISPLAY
 70
     0
  0
APPID
  5
2C15
330
9
100
AcDbSymbolTableRecord
100
AcDbRegAppTableRecord
  2
ACAD_PSEXT
 70
     0
  0
APPID
  5
2E6F
330
9
100
AcDbSymbolTableRecord
100
AcDbRegAppTableRecord
  2
ACAD_MLEADERVER
 70
     0
  0
APPID
  5
2EC3
330
9
100
AcDbSymbolTableRecord
100
AcDbRegAppTableRecord
  2
ACAD_EXEMPT_FROM_CAD_STANDARDS
 70
     0
  0
APPID
  5
2EC9
330
9
100
AcDbSymbolTableRecord
100
AcDbRegAppTableRecord
  2
ACAD_DSTYLE_DIMJAG
 70
     0
  0
APPID
  5
2ECA
330
9
100
AcDbSymbolTableRecord
100
AcDbRegAppTableRecord
  2
ACAD_DSTYLE_DIMTALN
 70
     0
  0
APPID
  5
2FA7
330
9
100
AcDbSymbolTableRecord
100
AcDbRegAppTableRecord
  2
GradientColor1ACI
 70
     0
  0
APPID
  5
2FA8
330
9
100
AcDbSymbolTableRecord
100
AcDbRegAppTableRecord
  2
GradientColor2ACI
 70
     0
  0
ENDTAB
  0
TABLE
  2
DIMSTYLE
  5
A
330
0
100
AcDbSymbolTable
 70
     2
100
AcDbDimStyleTable
 71
     1
340
E8
  0
DIMSTYLE
105
1D
330
A
100
AcDbSymbolTableRecord
100
AcDbDimStyleTableRecord
  2
STANDARD
 70
     0
340
F
  0
DIMSTYLE
105
E8
330
A
100
AcDbSymbolTableRecord
100
AcDbDimStyleTableRecord
  2
ARW_DEF
 70
     0
 41
1.5
 42
2.0
 43
5.0
 44
1.0
 73
     0
 74
     0
 77
     3
 78
     8
140
3.149999999999999
141
0.0
147
0.5
172
     1
176
     2
177
     2
178
     1
284
     8
340
E7
  0
ENDTAB
  0
TABLE
  2
BLOCK_RECORD
  5
1
330
0
100
AcDbSymbolTable
 70
     0
  0
BLOCK_RECORD
  5
18
102
{ACAD_XDICTIONARY
360
30D9
102
}
330
1
100
AcDbSymbolTableRecord
100
AcDbBlockTableRecord
  2
*MODEL_SPACE
340
2BB3
  0
BLOCK_RECORD
  5
15
330
1
100
AcDbSymbolTableRecord
100
AcDbBlockTableRecord
  2
*PAPER_SPACE
340
2BB4
  0
ENDTAB
  0
ENDSEC
  0
SECTION
  2
BLOCKS
  0
BLOCK
  5
19
330
18
100
AcDbEntity
  8
0
100
AcDbBlockBegin
  2
*MODEL_SPACE
 70
     0
 10
0.0
 20
0.0
 30
0.0
  3
*MODEL_SPACE
  1

  0
ENDBLK
  5
1A
330
18
100
AcDbEntity
  8
0
100
AcDbBlockEnd
  0
BLOCK
  5
16
330
15
100
AcDbEntity
 67
     1
  8
0
100
AcDbBlockBegin
  2
*PAPER_SPACE
 70
     0
 10
0.0
 20
0.0
 30
0.0
  3
*PAPER_SPACE
  1

  0
ENDBLK
  5
17
330
15
100
AcDbEntity
 67
     1
  8
0
100
AcDbBlockEnd
  0
ENDSEC
  0
SECTION
  2
ENTITIES
  0
TEXT
  5
2DA6
330
18
100
AcDbEntity
  8
0
  6
ByBlock
100
AcDbText
 10
30.0
 20
-34.0
 30
0.0
 40
2.0
  1
対応機種：IR-AD-3119H
  7
BIGFONT
 11
30.0
 21
-33.0
 31
0.0
100
AcDbText
 73
     2
  0
TEXT
  5
2DA7
330
18
100
AcDbEntity
  8
0
  6
ByBlock
100
AcDbText
 10
30.0
 20
-31.0
 30
0.0
 40
2.0
  1
鋼管（溶融亜鉛メッキ下地黒色塗装）
  7
BIGFONT
 11
30.0
 21
-30.0
 31
0.0
100
AcDbText
 73
     2
  0
TEXT
  5
2DA8
330
18
100
AcDbEntity
  8
0
  6
ByBlock
100
AcDbText
 10
-38.0
 20
58.5
 30
0.0
 40
3.0
  1
ポール灯
  7
BIGFONT
 11
-38.0
 21
60.0
 31
0.0
100
AcDbText
 73
     2
  0
TEXT
  5
2DA9
330
18
100
AcDbEntity
  8
0
  6
ByBlock
100
AcDbText
 10
-38.0
 20
48.5
 30
0.0
 40
3.0
  1
IR-AD-3119H 専用組立式ポール 
  7
BIGFONT
 11
-38.0
 21
50.0
 31
0.0
100
AcDbText
 73
     2
  0
TEXT
  5
2DAA
330
18
100
AcDbEntity
  8
0
  6
ByBlock
100
AcDbText
 10
-13.57142857142857
 20
-46.5
 30
0.0
 40
3.0
  1
IR-TG-1062
  7
BIGFONT
 72
     4
 11
0.0
 21
-45.0
 31
0.0
100
AcDbText
  0
LINE
  5
2FFE
330
18
100
AcDbEntity
  8
0
100
AcDbLine
 10
0.4537500000000989
 20
31.99710300836258
 30
0.0
 11
0.4537499999999284
 21
2.072103008362602
 31
0.0
  0
LINE
  5
2FFF
330
18
100
AcDbEntity
  8
0
100
AcDbLine
 10
-0.4537499999999284
 20
31.99710300836258
 30
0.0
 11
-0.4537500000000989
 21
2.072103008362602
 31
0.0
  0
LINE
  5
3000
330
18
100
AcDbEntity
  8
0
100
AcDbLine
 10
-0.8572499999999363
 20
1.997103008362607
 30
0.0
 11
-0.8572499999999363
 21
-6.552896991637396
 31
0.0
  0
LINE
  5
3001
330
18
100
AcDbEntity
  8
0
100
AcDbLine
 10
-0.8572499999999363
 20
-13.6028969916374
 30
0.0
 11
-0.8572499999999363
 21
-31.00289699163762
 31
0.0
  0
LINE
  5
3002
330
18
100
AcDbEntity
  8
0
100
AcDbLine
 10
0.8572500000001069
 20
1.997103008362607
 30
0.0
 11
0.8572500000001069
 21
-6.552896991637396
 31
0.0
  0
LINE
  5
3003
330
18
100
AcDbEntity
  8
0
100
AcDbLine
 10
0.8572500000001069
 20
-13.6028969916374
 30
0.0
 11
0.8572500000001069
 21
-31.00289699163762
 31
0.0
  0
CIRCLE
  5
3004
330
18
100
AcDbEntity
  8
0
  6
PHANTOM
 48
0.5
100
AcDbCircle
 10
-0.0000000000000853
 20
-19.75289699163739
 30
0.0
 40
0.06
  0
LINE
  5
3005
330
18
100
AcDbEntity
  8
0
  6
Continuous
100
AcDbLine
 10
0.8785136970918472
 20
-13.6028969916374
 30
0.0
 11
-0.8785136970920175
 21
-13.6028969916374
 31
0.0
  0
LINE
  5
3006
330
18
100
AcDbEntity
  8
0
  6
Continuous
100
AcDbLine
 10
0.8785136970918472
 20
-6.552896991637396
 30
0.0
 11
-0.8785136970920175
 21
-6.552896991637396
 31
0.0
  0
LINE
  5
3007
330
18
100
AcDbEntity
  8
0
  6
Continuous
100
AcDbLine
 10
-0.8785136970920175
 20
-6.552896991637396
 30
0.0
 11
-0.8785136970920175
 21
-13.6028969916374
 31
0.0
  0
LINE
  5
3008
330
18
100
AcDbEntity
  8
0
  6
Continuous
100
AcDbLine
 10
0.3644999999999925
 20
34.77210300836262
 30
0.0
 11
-0.3644999999999925
 21
34.77210300836262
 31
0.0
  0
LINE
  5
3009
330
18
100
AcDbEntity
  8
0
  6
Continuous
100
AcDbLine
 10
0.4537500000000989
 20
31.99710300836258
 30
0.0
 11
-0.4537499999999284
 21
31.99710300836258
 31
0.0
  0
LINE
  5
300A
330
18
100
AcDbEntity
  8
0
100
AcDbLine
 10
-0.3644999999999925
 20
34.77210300836262
 30
0.0
 11
-0.3644999999999925
 21
31.99710300836258
 31
0.0
  0
LINE
  5
300B
330
18
100
AcDbEntity
  8
0
100
AcDbLine
 10
0.3644999999999925
 20
34.77210300836262
 30
0.0
 11
0.3644999999999925
 21
31.99710300836258
 31
0.0
  0
ARC
  5
300C
330
18
100
AcDbEntity
  8
0
100
AcDbCircle
 10
-0.0000000000000853
 20
-6.777896991637405
 30
0.0
 40
0.09
100
AcDbArc
 50
90.0
 51
270.0
  0
ARC
  5
300D
330
18
100
AcDbEntity
  8
0
100
AcDbCircle
 10
-0.0000000000000853
 20
-6.777896991637405
 30
0.0
 40
0.12
100
AcDbArc
 50
90.0
 51
270.0
  0
ARC
  5
300E
330
18
100
AcDbEntity
  8
0
100
AcDbCircle
 10
-0.0000000000000853
 20
-6.777896991637405
 30
0.0
 40
0.1275
100
AcDbArc
 50
90.0
 51
270.0
  0
ARC
  5
3010
330
18
100
AcDbEntity
  8
0
100
AcDbCircle
 10
-0.0000000000000853
 20
-6.777896991637405
 30
0.0
 40
0.09
100
AcDbArc
 50
270.0
 51
90.0
  0
ARC
  5
3011
330
18
100
AcDbEntity
  8
0
100
AcDbCircle
 10
-0.0000000000000853
 20
-6.777896991637405
 30
0.0
 40
0.12
100
AcDbArc
 50
270.0
 51
90.0
  0
ARC
  5
3012
330
18
100
AcDbEntity
  8
0
100
AcDbCircle
 10
-0.0000000000000853
 20
-6.777896991637405
 30
0.0
 40
0.1275
100
AcDbArc
 50
270.0
 51
90.0
  0
LINE
  5
3014
330
18
100
AcDbEntity
  8
0
  6
Continuous
100
AcDbLine
 10
0.8785136970918472
 20
-6.552896991637396
 30
0.0
 11
0.8785136970918472
 21
-13.6028969916374
 31
0.0
  0
ARC
  5
3015
330
18
100
AcDbEntity
  8
0
100
AcDbCircle
 10
-0.0000000000000853
 20
-13.2278969916374
 30
0.0
 40
0.09
100
AcDbArc
 50
90.0
 51
270.0
  0
ARC
  5
3016
330
18
100
AcDbEntity
  8
0
100
AcDbCircle
 10
-0.0000000000000853
 20
-13.2278969916374
 30
0.0
 40
0.12
100
AcDbArc
 50
90.0
 51
270.0
  0
ARC
  5
3017
330
18
100
AcDbEntity
  8
0
100
AcDbCircle
 10
-0.0000000000000853
 20
-13.2278969916374
 30
0.0
 40
0.1275
100
AcDbArc
 50
90.0
 51
270.0
  0
ARC
  5
3019
330
18
100
AcDbEntity
  8
0
100
AcDbCircle
 10
-0.0000000000000853
 20
-13.2278969916374
 30
0.0
 40
0.09
100
AcDbArc
 50
270.0
 51
90.0
  0
ARC
  5
301A
330
18
100
AcDbEntity
  8
0
100
AcDbCircle
 10
-0.0000000000000853
 20
-13.2278969916374
 30
0.0
 40
0.12
100
AcDbArc
 50
270.0
 51
90.0
  0
ARC
  5
301B
330
18
100
AcDbEntity
  8
0
100
AcDbCircle
 10
-0.0000000000000853
 20
-13.2278969916374
 30
0.0
 40
0.1275
100
AcDbArc
 50
270.0
 51
90.0
  0
LINE
  5
301D
330
18
100
AcDbEntity
  8
0
  6
PHANTOM
 48
0.5
100
AcDbLine
 10
-4.500007603763292
 20
-20.50289699163739
 30
0.0
 11
-4.499990278765409
 21
-32.50290296778418
 31
0.0
  0
LINE
  5
301E
330
18
100
AcDbEntity
  8
0
  6
PHANTOM
 48
0.5
100
AcDbLine
 10
4.499994324421122
 20
-20.50289699163739
 30
0.0
 11
4.500010411920158
 21
-32.50290296778418
 31
0.0
  0
LINE
  5
3020
330
18
100
AcDbEntity
  8
0
  6
PHANTOM
 48
0.5
100
AcDbLine
 10
5.399999999999948
 20
-32.50290296778417
 30
0.0
 11
5.399999999999948
 21
-34.77210300836262
 31
0.0
  0
LINE
  5
3021
330
18
100
AcDbEntity
  8
0
  6
PHANTOM
 48
0.5
100
AcDbLine
 10
-5.399999999999948
 20
-32.50290296778417
 30
0.0
 11
-5.399999999999948
 21
-34.77210300836262
 31
0.0
  0
LINE
  5
3022
330
18
100
AcDbEntity
  8
0
  6
PHANTOM
 48
0.5
100
AcDbLine
 10
-5.399999999999948
 20
-34.77210300836262
 30
0.0
 11
5.399999999999948
 21
-34.77210300836262
 31
0.0
  0
LINE
  5
3023
330
18
100
AcDbEntity
  8
0
  6
PHANTOM
 48
0.5
100
AcDbLine
 10
-5.399999999999948
 20
-32.50290296778417
 30
0.0
 11
5.399999999999948
 21
-32.50290296778417
 31
0.0
  0
LINE
  5
3024
330
18
100
AcDbEntity
  8
0
  6
PHANTOM
 48
0.5
100
AcDbLine
 10
7.349994324421145
 20
-20.5028969916376
 30
0.0
 11
1.232250001630545
 21
-20.5028969916376
 31
0.0
  0
LINE
  5
3025
330
18
100
AcDbEntity
  8
0
  6
PHANTOM
 48
0.5
100
AcDbLine
 10
0.8572500000001069
 20
-31.00289699163762
 30
0.0
 11
-0.8572499999999363
 21
-31.00289699163762
 31
0.0
  0
LINE
  5
3028
330
18
100
AcDbEntity
  8
0
  6
PHANTOM
 48
0.5
100
AcDbLine
 10
1.232250001630545
 20
-20.5028969916376
 30
0.0
 11
1.232250001630545
 21
-20.12789289544715
 31
0.0
  0
LINE
  5
3029
330
18
100
AcDbEntity
  8
0
  6
PHANTOM
 48
0.5
100
AcDbLine
 10
-1.232249999538992
 20
-20.5028969916376
 30
0.0
 11
-1.232249999538992
 21
-20.12789339746269
 31
0.0
  0
LINE
  5
302A
330
18
100
AcDbEntity
  8
0
  6
PHANTOM
 48
0.5
100
AcDbLine
 10
-1.232249999538992
 20
-20.12789339746269
 30
0.0
 11
1.232250001630545
 21
-20.12789289544715
 31
0.0
  0
LINE
  5
302B
330
18
100
AcDbEntity
  8
0
100
AcDbLine
 10
-0.4650000000000034
 20
2.072103008362602
 30
0.0
 11
-0.4650000000000034
 21
1.997103008362607
 31
0.0
  0
LINE
  5
302C
330
18
100
AcDbEntity
  8
0
 48
15.0
100
AcDbLine
 10
-0.8572499999999363
 20
1.997103008362607
 30
0.0
 11
0.8572500000001069
 21
1.997103008362607
 31
0.0
  0
LINE
  5
302D
330
18
100
AcDbEntity
  8
0
100
AcDbLine
 10
-0.4537500000000989
 20
2.072103008362602
 30
0.0
 11
0.4537499999999284
 21
2.072103008362602
 31
0.0
  0
LINE
  5
302E
330
18
100
AcDbEntity
  8
0
100
AcDbLine
 10
0.4649999999998329
 20
2.072103008362816
 30
0.0
 11
-0.4650000000000034
 21
2.072103008362602
 31
0.0
  0
LINE
  5
302F
330
18
100
AcDbEntity
  8
0
100
AcDbLine
 10
0.4649999999998329
 20
2.072103008362816
 30
0.0
 11
0.4649999999998329
 21
1.99710300836282
 31
0.0
  0
LINE
  5
3030
330
18
100
AcDbEntity
  8
0
100
AcDbLine
 10
-0.4837499999999011
 20
4.577103008362605
 30
0.0
 11
-0.4837499999999011
 21
4.817103008362599
 31
0.0
  0
LINE
  5
3031
330
18
100
AcDbEntity
  8
0
100
AcDbLine
 10
-0.4537500000000989
 20
4.577103008362605
 30
0.0
 11
-0.4537500000000989
 21
4.817103008362599
 31
0.0
  0
LINE
  5
3032
330
18
100
AcDbEntity
  8
0
100
AcDbLine
 10
-0.5287500000000307
 20
4.598889705463363
 30
0.0
 11
-0.5287500000000307
 21
4.795316311261841
 31
0.0
  0
LINE
  5
3033
330
18
100
AcDbEntity
  8
0
100
AcDbLine
 10
-0.4537500000000989
 20
4.817103008362599
 30
0.0
 11
-0.4837499999999011
 21
4.817103008362599
 31
0.0
  0
LINE
  5
3034
330
18
100
AcDbEntity
  8
0
100
AcDbLine
 10
-0.4537500000000989
 20
4.577103008362605
 30
0.0
 11
-0.4837499999999011
 21
4.577103008362605
 31
0.0
  0
ARC
  5
3035
330
18
100
AcDbEntity
  8
0
100
AcDbCircle
 10
-0.4729649929554114
 20
4.696586916381846
 30
0.0
 40
0.1125020534577696
100
AcDbArc
 50
240.2736774636552
 51
264.4988932807859
  0
ARC
  5
3036
330
18
100
AcDbEntity
  8
0
100
AcDbCircle
 10
-0.4729649929554114
 20
4.697619100343358
 30
0.0
 40
0.1125020534577696
100
AcDbArc
 50
95.50110671921414
 51
119.7263225363448
  0
LINE
  5
3037
330
18
100
AcDbEntity
  8
0
100
AcDbLine
 10
0.4837499999999011
 20
4.577103008362391
 30
0.0
 11
0.4837499999999011
 21
4.817103008362386
 31
0.0
  0
LINE
  5
3038
330
18
100
AcDbEntity
  8
0
100
AcDbLine
 10
0.4537499999999284
 20
4.577103008362391
 30
0.0
 11
0.4537499999999284
 21
4.817103008362386
 31
0.0
  0
LINE
  5
3039
330
18
100
AcDbEntity
  8
0
100
AcDbLine
 10
0.5287499999998602
 20
4.598889705463149
 30
0.0
 11
0.5287499999998602
 21
4.795316311261628
 31
0.0
  0
LINE
  5
303A
330
18
100
AcDbEntity
  8
0
100
AcDbLine
 10
0.4537499999999284
 20
4.817103008362386
 30
0.0
 11
0.4837499999999011
 21
4.817103008362386
 31
0.0
  0
LINE
  5
303B
330
18
100
AcDbEntity
  8
0
100
AcDbLine
 10
0.4537499999999284
 20
4.577103008362391
 30
0.0
 11
0.4837499999999011
 21
4.577103008362391
 31
0.0
  0
ARC
  5
303C
330
18
100
AcDbEntity
  8
0
100
AcDbCircle
 10
0.4729649929554114
 20
4.696586916381846
 30
0.0
 40
0.1125020534577696
100
AcDbArc
 50
275.5011067192141
 51
299.7263225363448
  0
ARC
  5
303D
330
18
100
AcDbEntity
  8
0
100
AcDbCircle
 10
0.4729649929554114
 20
4.697619100343358
 30
0.0
 40
0.1125020534577696
100
AcDbArc
 50
60.27367746365514
 51
84.49889328078581
  0
ARC
  5
303E
330
18
100
AcDbEntity
  8
0
100
AcDbCircle
 10
-0.0000000000000853
 20
2.447103008361728
 30
0.0
 40
0.09
100
AcDbArc
 50
90.0
 51
270.0
  0
ARC
  5
303F
330
18
100
AcDbEntity
  8
0
100
AcDbCircle
 10
-0.0000000000000853
 20
2.447103008361728
 30
0.0
 40
0.12
100
AcDbArc
 50
90.0
 51
270.0
  0
ARC
  5
3040
330
18
100
AcDbEntity
  8
0
100
AcDbCircle
 10
-0.0000000000000853
 20
2.447103008361728
 30
0.0
 40
0.1275
100
AcDbArc
 50
90.0
 51
270.0
  0
ARC
  5
3042
330
18
100
AcDbEntity
  8
0
100
AcDbCircle
 10
-0.0000000000000853
 20
2.447103008361728
 30
0.0
 40
0.09
100
AcDbArc
 50
270.0
 51
90.0
  0
ARC
  5
3043
330
18
100
AcDbEntity
  8
0
100
AcDbCircle
 10
-0.0000000000000853
 20
2.447103008361728
 30
0.0
 40
0.12
100
AcDbArc
 50
270.0
 51
90.0
  0
ARC
  5
3044
330
18
100
AcDbEntity
  8
0
100
AcDbCircle
 10
-0.0000000000000853
 20
2.447103008361728
 30
0.0
 40
0.1275
100
AcDbArc
 50
270.0
 51
90.0
  0
LINE
  5
3046
330
18
100
AcDbEntity
  8
0
  6
PHANTOM
 48
0.5
100
AcDbLine
 10
-7.350007603763371
 20
-20.5028969916376
 30
0.0
 11
-1.232249999538992
 21
-20.5028969916376
 31
0.0
  0
LINE
  5
3047
330
18
100
AcDbEntity
  8
0
  6
PHANTOM
 48
0.2
100
AcDbLine
 10
-5.399999999999948
 20
-32.50290296778415
 30
0.0
 11
-5.399999999999948
 21
-34.77210300836266
 31
0.0
  0
LINE
  5
3067
330
18
100
AcDbEntity
  8
0
100
AcDbLine
 10
18.99734822877781
 20
7.123303299017265
 30
0.0
 11
60.70974965805947
 21
7.123303299017265
 31
0.0
  0
TEXT
  5
3068
330
18
100
AcDbEntity
  8
0
100
AcDbText
 10
20.25898492211053
 20
7.928997755300883
 30
0.0
 40
2.0
  1
鋼管（溶融亜鉛メッキ下地黒色塗装）
  7
BIGFONT
 11
20.25898492211053
 21
8.928997755300883
 31
0.0
100
AcDbText
 73
     2
  0
LINE
  5
30B0
330
18
100
AcDbEntity
  8
0
100
AcDbLine
 10
0.8572500000001072
 20
-1.85367047054033
 30
0.0
 11
18.99734822877795
 21
7.123303299017265
 31
0.0
  0
LINE
  5
30B1
330
18
100
AcDbEntity
  8
0
100
AcDbLine
 10
0.8572500000001069
 20
-1.853670470540329
 30
0.0
 11
2.977558575046914
 21
0.6139744477999651
 31
0.0
  0
LINE
  5
30B9
330
18
100
AcDbEntity
  8
0
100
AcDbLine
 10
-4.500005636698516
 20
-21.86536690161273
 30
0.0
 11
-3.137535726723455
 21
-20.50289699163764
 31
0.0
1001
GradientColor1ACI
1070
     5
1001
GradientColor2ACI
1070
     2
1001
ACAD
1010
0.0
1020
0.0
1030
0.0
  0
LINE
  5
30BA
330
18
100
AcDbEntity
  8
0
100
AcDbLine
 10
-4.500002719524473
 20
-23.88592161167924
 30
0.0
 11
-0.8572499999999081
 21
-20.24316889215467
 31
0.0
1001
GradientColor1ACI
1070
     5
1001
GradientColor2ACI
1070
     2
1001
ACAD
1010
0.0
1020
0.0
1030
0.0
  0
LINE
  5
30BB
330
18
100
AcDbEntity
  8
0
100
AcDbLine
 10
-4.499999802350429
 20
-25.90647632174577
 30
0.0
 11
-0.8572499999998797
 21
-22.26372651939522
 31
0.0
1001
GradientColor1ACI
1070
     5
1001
GradientColor2ACI
1070
     2
1001
ACAD
1010
0.0
1020
0.0
1030
0.0
  0
LINE
  5
30BC
330
18
100
AcDbEntity
  8
0
100
AcDbLine
 10
0.8572500000001639
 20
-20.54922651939518
 30
0.0
 11
1.232250001630603
 21
-20.17422651776477
 31
0.0
1001
GradientColor1ACI
1070
     5
1001
GradientColor2ACI
1070
     2
1001
ACAD
1010
0.0
1020
0.0
1030
0.0
  0
LINE
  5
30BD
330
18
100
AcDbEntity
  8
0
100
AcDbLine
 10
-4.499996885176386
 20
-27.92703103181225
 30
0.0
 11
-0.8572499999999648
 21
-24.28428414663583
 31
0.0
1001
GradientColor1ACI
1070
     5
1001
GradientColor2ACI
1070
     2
1001
ACAD
1010
0.0
1020
0.0
1030
0.0
  0
LINE
  5
30BE
330
18
100
AcDbEntity
  8
0
100
AcDbLine
 10
0.8572500000001355
 20
-22.56978414663572
 30
0.0
 11
2.924137154998192
 21
-20.50289699163767
 31
0.0
1001
GradientColor1ACI
1070
     5
1001
GradientColor2ACI
1070
     2
1001
ACAD
1010
0.0
1020
0.0
1030
0.0
  0
LINE
  5
30BF
330
18
100
AcDbEntity
  8
0
100
AcDbLine
 10
-4.499993968002342
 20
-29.94758574187878
 30
0.0
 11
-0.8572499999999363
 21
-26.30484177387638
 31
0.0
1001
GradientColor1ACI
1070
     5
1001
GradientColor2ACI
1070
     2
1001
ACAD
1010
0.0
1020
0.0
1030
0.0
  0
LINE
  5
30C0
330
18
100
AcDbEntity
  8
0
100
AcDbLine
 10
0.8572500000001639
 20
-24.59034177387628
 30
0.0
 11
4.499994920596519
 21
-20.94759685327992
 31
0.0
1001
GradientColor1ACI
1070
     5
1001
GradientColor2ACI
1070
     2
1001
ACAD
1010
0.0
1020
0.0
1030
0.0
  0
LINE
  5
30C1
330
18
100
AcDbEntity
  8
0
100
AcDbLine
 10
-4.499991050828298
 20
-31.96814045194527
 30
0.0
 11
-0.8572499999999648
 21
-28.32539940111693
 31
0.0
1001
GradientColor1ACI
1070
     5
1001
GradientColor2ACI
1070
     2
1001
ACAD
1010
0.0
1020
0.0
1030
0.0
  0
LINE
  5
30C2
330
18
100
AcDbEntity
  8
0
100
AcDbLine
 10
0.8572500000001355
 20
-26.61089940111683
 30
0.0
 11
4.499997629401491
 21
-22.9681517717155
 31
0.0
1001
GradientColor1ACI
1070
     5
1001
GradientColor2ACI
1070
     2
1001
ACAD
1010
0.0
1020
0.0
1030
0.0
  0
LINE
  5
30C3
330
18
100
AcDbEntity
  8
0
100
AcDbLine
 10
-3.014195939426683
 20
-32.50290296778422
 30
0.0
 11
-0.8572499999999363
 21
-30.34595702835748
 31
0.0
1001
GradientColor1ACI
1070
     5
1001
GradientColor2ACI
1070
     2
1001
ACAD
1010
0.0
1020
0.0
1030
0.0
  0
LINE
  5
30C4
330
18
100
AcDbEntity
  8
0
100
AcDbLine
 10
0.8572500000001639
 20
-28.63145702835737
 30
0.0
 11
4.500000338206405
 21
-24.98870669015114
 31
0.0
1001
GradientColor1ACI
1070
     5
1001
GradientColor2ACI
1070
     2
1001
ACAD
1010
0.0
1020
0.0
1030
0.0
  0
LINE
  5
30C5
330
18
100
AcDbEntity
  8
0
100
AcDbLine
 10
-0.9936383121861068
 20
-32.50290296778425
 30
0.0
 11
0.5063676639604468
 21
-31.00289699163767
 31
0.0
1001
GradientColor1ACI
1070
     5
1001
GradientColor2ACI
1070
     2
1001
ACAD
1010
0.0
1020
0.0
1030
0.0
  0
LINE
  5
30C6
330
18
100
AcDbEntity
  8
0
100
AcDbLine
 10
0.8572500000001921
 20
-30.65201465559793
 30
0.0
 11
4.500003047011347
 21
-27.0092616085868
 31
0.0
1001
GradientColor1ACI
1070
     5
1001
GradientColor2ACI
1070
     2
1001
ACAD
1010
0.0
1020
0.0
1030
0.0
  0
LINE
  5
30C7
330
18
100
AcDbEntity
  8
0
100
AcDbLine
 10
1.026919315054469
 20
-32.50290296778422
 30
0.0
 11
4.50000575581626
 21
-29.02981652702243
 31
0.0
1001
GradientColor1ACI
1070
     5
1001
GradientColor2ACI
1070
     2
1001
ACAD
1010
0.0
1020
0.0
1030
0.0
  0
LINE
  5
30C8
330
18
100
AcDbEntity
  8
0
100
AcDbLine
 10
3.047476942294963
 20
-32.50290296778425
 30
0.0
 11
4.500008464621146
 21
-31.0503714454581
 31
0.0
1001
GradientColor1ACI
1070
     5
1001
GradientColor2ACI
1070
     2
1001
ACAD
1010
0.0
1020
0.0
1030
0.0
  0
LINE
  5
30C9
330
18
100
AcDbEntity
  8
0
100
AcDbLine
 10
-4.500007581480815
 20
-20.51833071915448
 30
0.0
 11
-4.484573853964008
 21
-20.50289699163767
 31
0.0
1001
GradientColor1ACI
1070
     5
1001
GradientColor2ACI
1070
     2
1001
ACAD
1010
0.0
1020
0.0
1030
0.0
  0
LINE
  5
30CA
330
18
100
AcDbEntity
  8
0
100
AcDbLine
 10
-4.500004664306799
 20
-22.53888542922104
 30
0.0
 11
-2.4640162267234
 21
-20.50289699163764
 31
0.0
1001
GradientColor1ACI
1070
     5
1001
GradientColor2ACI
1070
     2
1001
ACAD
1010
0.0
1020
0.0
1030
0.0
  0
LINE
  5
30CB
330
18
100
AcDbEntity
  8
0
100
AcDbLine
 10
-4.500001747132699
 20
-24.55944013928752
 30
0.0
 11
-0.8572499999999363
 21
-20.91668839215478
 31
0.0
1001
GradientColor1ACI
1070
     5
1001
GradientColor2ACI
1070
     2
1001
ACAD
1010
0.0
1020
0.0
1030
0.0
  0
LINE
  5
30CC
330
18
100
AcDbEntity
  8
0
100
AcDbLine
 10
-4.499998829958656
 20
-26.57999484935405
 30
0.0
 11
-0.8572499999999363
 21
-22.93724601939533
 31
0.0
1001
GradientColor1ACI
1070
     5
1001
GradientColor2ACI
1070
     2
1001
ACAD
1010
0.0
1020
0.0
1030
0.0
  0
LINE
  5
30CD
330
18
100
AcDbEntity
  8
0
100
AcDbLine
 10
0.8572500000001355
 20
-21.22274601939526
 30
0.0
 11
1.577099027757696
 21
-20.5028969916377
 31
0.0
1001
GradientColor1ACI
1070
     5
1001
GradientColor2ACI
1070
     2
1001
ACAD
1010
0.0
1020
0.0
1030
0.0
  0
LINE
  5
30CE
330
18
100
AcDbEntity
  8
0
100
AcDbLine
 10
-4.499995912784668
 20
-28.60054955942059
 30
0.0
 11
-0.8572499999999648
 21
-24.95780364663588
 31
0.0
1001
GradientColor1ACI
1070
     5
1001
GradientColor2ACI
1070
     2
1001
ACAD
1010
0.0
1020
0.0
1030
0.0
  0
LINE
  5
30CF
330
18
100
AcDbEntity
  8
0
100
AcDbLine
 10
0.8572500000000502
 20
-23.24330364663587
 30
0.0
 11
3.597656654998246
 21
-20.50289699163767
 31
0.0
1001
GradientColor1ACI
1070
     5
1001
GradientColor2ACI
1070
     2
1001
ACAD
1010
0.0
1020
0.0
1030
0.0
  0
LINE
  5
30D0
330
18
100
AcDbEntity
  8
0
100
AcDbLine
 10
-4.499992995610568
 20
-30.62110426948706
 30
0.0
 11
-0.8572499999999648
 21
-26.97836127387649
 31
0.0
1001
GradientColor1ACI
1070
     5
1001
GradientColor2ACI
1070
     2
1001
ACAD
1010
0.0
1020
0.0
1030
0.0
  0
LINE
  5
30D1
330
18
100
AcDbEntity
  8
0
100
AcDbLine
 10
0.8572500000000784
 20
-25.26386127387642
 30
0.0
 11
4.499995823531917
 21
-21.62111545034461
 31
0.0
1001
GradientColor1ACI
1070
     5
1001
GradientColor2ACI
1070
     2
1001
ACAD
1010
0.0
1020
0.0
1030
0.0
  0
LINE
  5
30D2
330
18
100
AcDbEntity
  8
0
100
AcDbLine
 10
-4.361234066667208
 20
-32.50290296778422
 30
0.0
 11
-0.8572499999999363
 21
-28.99891890111698
 31
0.0
1001
GradientColor1ACI
1070
     5
1001
GradientColor2ACI
1070
     2
1001
ACAD
1010
0.0
1020
0.0
1030
0.0
  0
LINE
  5
30D3
330
18
100
AcDbEntity
  8
0
100
AcDbLine
 10
0.8572500000001069
 20
-27.28441890111691
 30
0.0
 11
4.49999853233686
 21
-23.64167036878015
 31
0.0
1001
GradientColor1ACI
1070
     5
1001
GradientColor2ACI
1070
     2
1001
ACAD
1010
0.0
1020
0.0
1030
0.0
  0
LINE
  5
30D4
330
18
100
AcDbEntity
  8
0
100
AcDbLine
 10
-2.340676439426629
 20
-32.50290296778422
 30
0.0
 11
-0.8406704632800483
 21
-31.00289699163764
 31
0.0
1001
GradientColor1ACI
1070
     5
1001
GradientColor2ACI
1070
     2
1001
ACAD
1010
0.0
1020
0.0
1030
0.0
  0
LINE
  5
30D5
330
18
100
AcDbEntity
  8
0
100
AcDbLine
 10
0.8572500000001355
 20
-29.30497652835747
 30
0.0
 11
4.500001241141801
 21
-25.66222528721579
 31
0.0
1001
GradientColor1ACI
1070
     5
1001
GradientColor2ACI
1070
     2
1001
ACAD
1010
0.0
1020
0.0
1030
0.0
  0
LINE
  5
30D6
330
18
100
AcDbEntity
  8
0
100
AcDbLine
 10
-0.3201188121860525
 20
-32.50290296778425
 30
0.0
 11
4.500003949946715
 21
-27.68278020565146
 31
0.0
1001
GradientColor1ACI
1070
     5
1001
GradientColor2ACI
1070
     2
1001
ACAD
1010
0.0
1020
0.0
1030
0.0
  0
LINE
  5
30D7
330
18
100
AcDbEntity
  8
0
100
AcDbLine
 10
1.700438815054496
 20
-32.50290296778425
 30
0.0
 11
4.500006658751658
 21
-29.70333512408709
 31
0.0
1001
GradientColor1ACI
1070
     5
1001
GradientColor2ACI
1070
     2
1001
ACAD
1010
0.0
1020
0.0
1030
0.0
  0
LINE
  5
30D8
330
18
100
AcDbEntity
  8
0
100
AcDbLine
 10
3.720996442295017
 20
-32.50290296778425
 30
0.0
 11
4.500009367556572
 21
-31.72389004252273
 31
0.0
1001
GradientColor1ACI
1070
     5
1001
GradientColor2ACI
1070
     2
1001
ACAD
1010
0.0
1020
0.0
1030
0.0
  0
LINE
  5
30DB
330
18
100
AcDbEntity
  8
0
100
AcDbLine
 10
4.499994324421152
 20
-21.03509550776232
 30
0.0
 11
5.032192840546061
 21
-20.50289699163741
 31
0.0
1001
ACAD
1010
0.0
1020
0.0
1030
0.0
  0
LINE
  5
30DC
330
18
100
AcDbEntity
  8
0
100
AcDbLine
 10
4.499994324421152
 20
-21.6816739484793
 30
0.0
 11
5.442635590560973
 21
-20.73903268233948
 31
0.0
1001
ACAD
1010
0.0
1020
0.0
1030
0.0
  0
LINE
  5
30DD
330
18
100
AcDbEntity
  8
0
100
AcDbLine
 10
4.825350383055705
 20
-22.00289633056172
 30
0.0
 11
5.442635590560964
 21
-21.38561112305647
 31
0.0
1001
ACAD
1010
0.0
1020
0.0
1030
0.0
  0
LINE
  5
30DE
330
18
100
AcDbEntity
  8
0
100
AcDbLine
 10
5.765924810919454
 20
-21.06232190269798
 30
0.0
 11
6.325349721980011
 21
-20.50289699163743
 31
0.0
1001
ACAD
1010
0.0
1020
0.0
1030
0.0
  0
LINE
  5
30DF
330
18
100
AcDbEntity
  8
0
100
AcDbLine
 10
5.765924810919464
 20
-21.70890034341494
 30
0.0
 11
6.735792471994932
 21
-20.73903268233948
 31
0.0
1001
ACAD
1010
0.0
1020
0.0
1030
0.0
  0
LINE
  5
30E0
330
18
100
AcDbEntity
  8
0
100
AcDbLine
 10
6.118507264489692
 20
-22.0028963305617
 30
0.0
 11
6.73579247199495
 21
-21.38561112305644
 31
0.0
1001
ACAD
1010
0.0
1020
0.0
1030
0.0
  0
LINE
  5
30E1
330
18
100
AcDbEntity
  8
0
100
AcDbLine
 10
7.059081692353442
 20
-21.06232190269795
 30
0.0
 11
7.349994324422664
 21
-20.77140927062873
 31
0.0
1001
ACAD
1010
0.0
1020
0.0
1030
0.0
  0
LINE
  5
30E2
330
18
100
AcDbEntity
  8
0
100
AcDbLine
 10
7.059081692353422
 20
-21.70890034341494
 30
0.0
 11
7.349994324422687
 21
-21.41798771134568
 31
0.0
1001
ACAD
1010
0.0
1020
0.0
1030
0.0
  0
LINE
  5
30E3
330
18
100
AcDbEntity
  8
0
100
AcDbLine
 10
4.766763475915396
 20
-22.00289633056176
 30
0.0
 11
4.499994324421119
 21
-21.73612717906748
 31
0.0
1001
ACAD
1010
0.0
1020
0.0
1030
0.0
  0
LINE
  5
30E4
330
18
100
AcDbEntity
  8
0
100
AcDbLine
 10
5.413341916632361
 20
-22.00289633056174
 30
0.0
 11
5.119346149843934
 21
-21.70890056377331
 31
0.0
1001
ACAD
1010
0.0
1020
0.0
1030
0.0
  0
LINE
  5
30E5
330
18
100
AcDbEntity
  8
0
100
AcDbLine
 10
4.796056929485446
 20
-21.38561134341482
 30
0.0
 11
4.499994324421143
 21
-21.08954873835052
 31
0.0
1001
ACAD
1010
0.0
1020
0.0
1030
0.0
  0
LINE
  5
30E6
330
18
100
AcDbEntity
  8
0
100
AcDbLine
 10
6.059920357349355
 20
-22.00289633056176
 30
0.0
 11
5.119346149843948
 21
-21.06232212305635
 31
0.0
1001
ACAD
1010
0.0
1020
0.0
1030
0.0
  0
LINE
  5
30E7
330
18
100
AcDbEntity
  8
0
100
AcDbLine
 10
4.79605692948546
 20
-20.73903290269786
 30
0.0
 11
4.55992101842493
 21
-20.50289699163733
 31
0.0
1001
ACAD
1010
0.0
1020
0.0
1030
0.0
  0
LINE
  5
30E8
330
18
100
AcDbEntity
  8
0
100
AcDbLine
 10
6.70649879806632
 20
-22.00289633056174
 30
0.0
 11
6.412503031277894
 21
-21.70890056377331
 31
0.0
1001
ACAD
1010
0.0
1020
0.0
1030
0.0
  0
LINE
  5
30E9
330
18
100
AcDbEntity
  8
0
100
AcDbLine
 10
6.089213810919402
 20
-21.38561134341482
 30
0.0
 11
5.206499459141974
 21
-20.50289699163739
 31
0.0
1001
ACAD
1010
0.0
1020
0.0
1030
0.0
  0
LINE
  5
30EA
330
18
100
AcDbEntity
  8
0
100
AcDbLine
 10
7.349994324422723
 20
-21.99981341620116
 30
0.0
 11
6.412503031277937
 21
-21.06232212305638
 31
0.0
1001
ACAD
1010
0.0
1020
0.0
1030
0.0
  0
LINE
  5
30EB
330
18
100
AcDbEntity
  8
0
100
AcDbLine
 10
6.089213810919448
 20
-20.73903290269789
 30
0.0
 11
5.853077899858959
 21
-20.5028969916374
 31
0.0
1001
ACAD
1010
0.0
1020
0.0
1030
0.0
  0
LINE
  5
30EC
330
18
100
AcDbEntity
  8
0
100
AcDbLine
 10
7.349994324422723
 20
-21.35323497548418
 30
0.0
 11
6.49965634057594
 21
-20.5028969916374
 31
0.0
1001
ACAD
1010
0.0
1020
0.0
1030
0.0
  0
LINE
  5
30ED
330
18
100
AcDbEntity
  8
0
100
AcDbLine
 10
7.349994324422636
 20
-20.70665653476714
 30
0.0
 11
7.146234781292914
 21
-20.50289699163741
 31
0.0
1001
ACAD
1010
0.0
1020
0.0
1030
0.0
  0
LINE
  5
30EE
330
18
100
AcDbEntity
  8
0
100
AcDbLine
 10
-7.35000760376343
 20
-21.03984045629073
 30
0.0
 11
-6.813064139110043
 21
-20.50289699163735
 31
0.0
1001
ACAD
1010
0.0
1020
0.0
1030
0.0
  0
LINE
  5
30EF
330
18
100
AcDbEntity
  8
0
100
AcDbLine
 10
-7.350007603763401
 20
-21.68641889700774
 30
0.0
 11
-6.402621389095102
 21
-20.73903268233944
 31
0.0
1001
ACAD
1010
0.0
1020
0.0
1030
0.0
  0
LINE
  5
30F0
330
18
100
AcDbEntity
  8
0
100
AcDbLine
 10
-7.019906596600463
 20
-22.00289633056178
 30
0.0
 11
-6.402621389095124
 21
-21.38561112305644
 31
0.0
1001
ACAD
1010
0.0
1020
0.0
1030
0.0
  0
LINE
  5
30F1
330
18
100
AcDbEntity
  8
0
100
AcDbLine
 10
-6.079332168736637
 20
-21.06232190269796
 30
0.0
 11
-5.519907257676118
 21
-20.50289699163744
 31
0.0
1001
ACAD
1010
0.0
1020
0.0
1030
0.0
  0
LINE
  5
30F2
330
18
100
AcDbEntity
  8
0
100
AcDbLine
 10
-6.079332168736637
 20
-21.70890034341491
 30
0.0
 11
-5.109464507661166
 21
-20.73903268233944
 31
0.0
1001
ACAD
1010
0.0
1020
0.0
1030
0.0
  0
LINE
  5
30F3
330
18
100
AcDbEntity
  8
0
100
AcDbLine
 10
-5.726749715166504
 20
-22.00289633056176
 30
0.0
 11
-5.109464507661166
 21
-21.38561112305642
 31
0.0
1001
ACAD
1010
0.0
1020
0.0
1030
0.0
  0
LINE
  5
30F4
330
18
100
AcDbEntity
  8
0
100
AcDbLine
 10
-4.786175287302676
 20
-21.06232190269793
 30
0.0
 11
-4.500007603763296
 21
-20.77615421915854
 31
0.0
1001
ACAD
1010
0.0
1020
0.0
1030
0.0
  0
LINE
  5
30F5
330
18
100
AcDbEntity
  8
0
100
AcDbLine
 10
-4.78617528730269
 20
-21.70890034341494
 30
0.0
 11
-4.500007603763348
 21
-21.42273265987561
 31
0.0
1001
ACAD
1010
0.0
1020
0.0
1030
0.0
  0
LINE
  5
30F6
330
18
100
AcDbEntity
  8
0
100
AcDbLine
 10
-7.078493503740759
 20
-22.00289633056174
 30
0.0
 11
-7.350007603763472
 21
-21.73138223053903
 31
0.0
1001
ACAD
1010
0.0
1020
0.0
1030
0.0
  0
LINE
  5
30F7
330
18
100
AcDbEntity
  8
0
100
AcDbLine
 10
-6.431915063023764
 20
-22.00289633056172
 30
0.0
 11
-6.725910829812193
 21
-21.7089005637733
 31
0.0
1001
ACAD
1010
0.0
1020
0.0
1030
0.0
  0
LINE
  5
30F8
330
18
100
AcDbEntity
  8
0
100
AcDbLine
 10
-7.049200050170681
 20
-21.38561134341481
 30
0.0
 11
-7.350007603763419
 21
-21.08480378982207
 31
0.0
1001
ACAD
1010
0.0
1020
0.0
1030
0.0
  0
LINE
  5
30F9
330
18
100
AcDbEntity
  8
0
100
AcDbLine
 10
-5.78533662230683
 20
-22.00289633056171
 30
0.0
 11
-6.725910829812193
 21
-21.06232212305635
 31
0.0
1001
ACAD
1010
0.0
1020
0.0
1030
0.0
  0
LINE
  5
30FA
330
18
100
AcDbEntity
  8
0
100
AcDbLine
 10
-7.049200050170683
 20
-20.73903290269786
 30
0.0
 11
-7.285335961231132
 21
-20.50289699163741
 31
0.0
1001
ACAD
1010
0.0
1020
0.0
1030
0.0
  0
LINE
  5
30FB
330
18
100
AcDbEntity
  8
0
100
AcDbLine
 10
-5.138758181589821
 20
-22.00289633056171
 30
0.0
 11
-5.432753948378246
 21
-21.70890056377329
 31
0.0
1001
ACAD
1010
0.0
1020
0.0
1030
0.0
  0
LINE
  5
30FC
330
18
100
AcDbEntity
  8
0
100
AcDbLine
 10
-5.756043168736736
 20
-21.38561134341479
 30
0.0
 11
-6.638757520514166
 21
-20.50289699163736
 31
0.0
1001
ACAD
1010
0.0
1020
0.0
1030
0.0
  0
LINE
  5
30FD
330
18
100
AcDbEntity
  8
0
100
AcDbLine
 10
-4.500007603763407
 20
-21.99506846767118
 30
0.0
 11
-5.432753948378226
 21
-21.06232212305636
 31
0.0
1001
ACAD
1010
0.0
1020
0.0
1030
0.0
  0
LINE
  5
30FE
330
18
100
AcDbEntity
  8
0
100
AcDbLine
 10
-5.756043168736717
 20
-20.73903290269786
 30
0.0
 11
-5.992179079797206
 21
-20.50289699163737
 31
0.0
1001
ACAD
1010
0.0
1020
0.0
1030
0.0
  0
LINE
  5
30FF
330
18
100
AcDbEntity
  8
0
100
AcDbLine
 10
-4.500007603763362
 20
-21.34849002695421
 30
0.0
 11
-5.345600639080223
 21
-20.50289699163735
 31
0.0
1001
ACAD
1010
0.0
1020
0.0
1030
0.0
  0
LINE
  5
3100
330
18
100
AcDbEntity
  8
0
100
AcDbLine
 10
-4.500007603763322
 20
-20.7019115862373
 30
0.0
 11
-4.699022198363242
 21
-20.50289699163738
 31
0.0
1001
ACAD
1010
0.0
1020
0.0
1030
0.0
  0
LINE
  5
3101
330
18
100
AcDbEntity
  8
0
100
AcDbLine
 10
-0.0000000000000853
 20
2.498630160491088
 30
0.0
 11
0.0446238227286529
 21
2.472866584426525
 31
0.0
  0
LINE
  5
3102
330
18
100
AcDbEntity
  8
0
100
AcDbLine
 10
0.0446238227286529
 20
2.472866584426525
 30
0.0
 11
0.0446238227286529
 21
2.421339432296953
 31
0.0
  0
LINE
  5
3103
330
18
100
AcDbEntity
  8
0
100
AcDbLine
 10
0.0446238227286529
 20
2.421339432296953
 30
0.0
 11
-0.0000000000000853
 21
2.395575856232389
 31
0.0
  0
LINE
  5
3104
330
18
100
AcDbEntity
  8
0
100
AcDbLine
 10
-0.0000000000000853
 20
2.498630160491088
 30
0.0
 11
-0.0446238227286529
 21
2.472866584426525
 31
0.0
  0
LINE
  5
3105
330
18
100
AcDbEntity
  8
0
100
AcDbLine
 10
-0.0446238227286529
 20
2.472866584426525
 30
0.0
 11
-0.0446238227286529
 21
2.421339432296953
 31
0.0
  0
LINE
  5
3106
330
18
100
AcDbEntity
  8
0
100
AcDbLine
 10
-0.0446238227286529
 20
2.421339432296953
 30
0.0
 11
-0.0000000000000853
 21
2.395575856232389
 31
0.0
  0
LINE
  5
3107
330
18
100
AcDbEntity
  8
0
  6
PHANTOM
 48
0.5
100
AcDbLine
 10
-0.002593196181607
 20
-22.75289699163761
 30
0.0
 11
-0.0010372800381617
 21
-22.75289268783244
 31
0.0
  0
ARC
  5
3108
330
18
100
AcDbEntity
  8
0
  6
PHANTOM
 48
0.5
100
AcDbCircle
 10
-0.0000000000000639
 20
-23.12789125322993
 30
0.0
 40
0.3750000000000639
100
AcDbArc
 50
0.1584849177168134
 51
90.15848491771684
  0
LINE
  5
3109
330
18
100
AcDbEntity
  8
0
  6
PHANTOM
 48
0.5
100
AcDbLine
 10
0.3749985653974193
 20
-23.12685397319183
 30
0.0
 11
0.3770731254734017
 21
-23.87685110398671
 31
0.0
  0
ARC
  5
310A
330
18
100
AcDbEntity
  8
0
  6
PHANTOM
 48
0.5
100
AcDbCircle
 10
0.0020745600761529
 20
-23.8778883840247
 30
0.0
 40
0.3749999999998291
100
AcDbArc
 50
270.1584849177006
 51
0.1584849177006281
  0
LINE
  5
310B
330
18
100
AcDbEntity
  8
0
  6
PHANTOM
 48
0.5
100
AcDbLine
 10
0.0031118401141441
 20
-24.25288694942195
 30
0.0
 11
0.001555922720712
 21
-24.25289125323063
 31
0.0
  0
LINE
  5
310C
330
18
100
AcDbEntity
  8
0
  6
PHANTOM
 48
0.5
100
AcDbLine
 10
-0.002593196181607
 20
-22.75289699163761
 30
0.0
 11
-0.0041491123250523
 21
-22.75290129544017
 31
0.0
  0
ARC
  5
310D
330
18
100
AcDbEntity
  8
0
  6
PHANTOM
 48
0.5
100
AcDbCircle
 10
-0.0031118329120758
 20
-23.12789986083927
 30
0.0
 40
0.3749999999999548
100
AcDbArc
 50
90.15848482220496
 51
180.158484822205
  0
LINE
  5
310E
330
18
100
AcDbEntity
  8
0
  6
PHANTOM
 48
0.5
100
AcDbLine
 10
-0.3781103983111791
 20
-23.12893714025225
 30
0.0
 11
-0.3760358394848424
 21
-23.8789342710506
 31
0.0
  0
ARC
  5
310F
330
18
100
AcDbEntity
  8
0
  6
PHANTOM
 48
0.5
100
AcDbCircle
 10
-0.0010372740857392
 20
-23.87789699163759
 30
0.0
 40
0.3749999999999549
100
AcDbArc
 50
180.1584848222115
 51
270.1584848222115
  0
LINE
  5
3110
330
18
100
AcDbEntity
  8
0
  6
PHANTOM
 48
0.5
100
AcDbLine
 10
0.00000000532728
 20
-24.25289555703669
 30
0.0
 11
0.001555922720712
 21
-24.25289125323063
 31
0.0
  0
LINE
  5
3111
330
18
100
AcDbEntity
  8
0
100
AcDbLine
 10
4.037243601561183
 20
-34.03761061923311
 30
0.0
 11
3.857243923293426
 21
-34.23761026175155
 31
0.0
1001
GradientColor1ACI
1070
     5
1001
GradientColor2ACI
1070
     2
1001
ACAD
1010
0.0
1020
0.0
1030
0.0
  0
LINE
  5
3112
330
18
100
AcDbEntity
  8
0
100
AcDbLine
 10
2.037243600986321
 20
-34.03761061871489
 30
0.0
 11
1.857243922718565
 21
-34.23761026123333
 31
0.0
1001
GradientColor1ACI
1070
     5
1001
GradientColor2ACI
1070
     2
1001
ACAD
1010
0.0
1020
0.0
1030
0.0
  0
LINE
  5
3113
330
18
100
AcDbEntity
  8
0
100
AcDbLine
 10
0.0372436004114256
 20
-34.03761061819672
 30
0.0
 11
-0.1427560778563301
 21
-34.23761026071517
 31
0.0
1001
GradientColor1ACI
1070
     5
1001
GradientColor2ACI
1070
     2
1001
ACAD
1010
0.0
1020
0.0
1030
0.0
  0
LINE
  5
3114
330
18
100
AcDbEntity
  8
0
100
AcDbLine
 10
-1.962756400163159
 20
-34.03761061767821
 30
0.0
 11
-2.142756078430914
 21
-34.23761026019665
 31
0.0
1001
GradientColor1ACI
1070
     5
1001
GradientColor2ACI
1070
     2
1001
ACAD
1010
0.0
1020
0.0
1030
0.0
  0
LINE
  5
3115
330
18
100
AcDbEntity
  8
0
100
AcDbLine
 10
-3.962756400737451
 20
-34.03761061715937
 30
0.0
 11
-4.142756079005207
 21
-34.23761025967781
 31
0.0
1001
GradientColor1ACI
1070
     5
1001
GradientColor2ACI
1070
     2
1001
ACAD
1010
0.0
1020
0.0
1030
0.0
  0
LINE
  5
3116
330
18
100
AcDbEntity
  8
0
100
AcDbLine
 10
5.399999999999947
 20
-34.27737092587203
 30
0.0
 11
5.39724344922024
 21
-34.27761062593982
 31
0.0
1001
GradientColor1ACI
1070
     5
1001
GradientColor2ACI
1070
     2
1001
ACAD
1010
0.0
1020
0.0
1030
0.0
  0
LINE
  5
3117
330
18
100
AcDbEntity
  8
0
100
AcDbLine
 10
3.857243593458526
 20
-34.23761061348764
 30
0.0
 11
3.397243449227328
 21
-34.27761062602859
 31
0.0
1001
GradientColor1ACI
1070
     5
1001
GradientColor2ACI
1070
     2
1001
ACAD
1010
0.0
1020
0.0
1030
0.0
  0
LINE
  5
3118
330
18
100
AcDbEntity
  8
0
100
AcDbLine
 10
1.857243593465458
 20
-34.23761061357641
 30
0.0
 11
1.39724344923426
 21
-34.27761062611736
 31
0.0
1001
GradientColor1ACI
1070
     5
1001
GradientColor2ACI
1070
     2
1001
ACAD
1010
0.0
1020
0.0
1030
0.0
  0
LINE
  5
3119
330
18
100
AcDbEntity
  8
0
100
AcDbLine
 10
-0.1427564065274947
 20
-34.23761061366518
 30
0.0
 11
-0.602756550758692
 21
-34.27761062620613
 31
0.0
1001
GradientColor1ACI
1070
     5
1001
GradientColor2ACI
1070
     2
1001
ACAD
1010
0.0
1020
0.0
1030
0.0
  0
LINE
  5
311A
330
18
100
AcDbEntity
  8
0
100
AcDbLine
 10
-2.142756406520327
 20
-34.23761061375395
 30
0.0
 11
-2.602756550751524
 21
-34.2776106262949
 31
0.0
1001
GradientColor1ACI
1070
     5
1001
GradientColor2ACI
1070
     2
1001
ACAD
1010
0.0
1020
0.0
1030
0.0
  0
LINE
  5
311B
330
18
100
AcDbEntity
  8
0
100
AcDbLine
 10
-4.142756406513508
 20
-34.23761061384275
 30
0.0
 11
-4.602756550744705
 21
-34.2776106263837
 31
0.0
1001
GradientColor1ACI
1070
     5
1001
GradientColor2ACI
1070
     2
1001
ACAD
1010
0.0
1020
0.0
1030
0.0
  0
LINE
  5
311C
330
18
100
AcDbEntity
  8
0
100
AcDbLine
 10
-4.602756406783718
 20
-34.27761061190674
 30
0.0
 11
-4.822756128437876
 21
-34.03761091555673
 31
0.0
1001
GradientColor1ACI
1070
     5
1001
GradientColor2ACI
1070
     2
1001
ACAD
1010
0.0
1020
0.0
1030
0.0
  0
LINE
  5
311D
330
18
100
AcDbEntity
  8
0
100
AcDbLine
 10
-2.60275640679066
 20
-34.27761061191345
 30
0.0
 11
-2.822756128444818
 21
-34.03761091556344
 31
0.0
1001
GradientColor1ACI
1070
     5
1001
GradientColor2ACI
1070
     2
1001
ACAD
1010
0.0
1020
0.0
1030
0.0
  0
LINE
  5
311E
330
18
100
AcDbEntity
  8
0
100
AcDbLine
 10
-0.6027564067982101
 20
-34.27761061191947
 30
0.0
 11
-0.8227561284523684
 21
-34.03761091556948
 31
0.0
1001
GradientColor1ACI
1070
     5
1001
GradientColor2ACI
1070
     2
1001
ACAD
1010
0.0
1020
0.0
1030
0.0
  0
LINE
  5
311F
330
18
100
AcDbEntity
  8
0
100
AcDbLine
 10
1.39724359319608
 20
-34.27761061192752
 30
0.0
 11
1.177243871541922
 21
-34.03761091557753
 31
0.0
1001
GradientColor1ACI
1070
     5
1001
GradientColor2ACI
1070
     2
1001
ACAD
1010
0.0
1020
0.0
1030
0.0
  0
LINE
  5
3120
330
18
100
AcDbEntity
  8
0
100
AcDbLine
 10
3.397243593188526
 20
-34.27761061193355
 30
0.0
 11
3.177243871534368
 21
-34.03761091558355
 31
0.0
1001
GradientColor1ACI
1070
     5
1001
GradientColor2ACI
1070
     2
1001
ACAD
1010
0.0
1020
0.0
1030
0.0
  0
LINE
  5
3121
330
18
100
AcDbEntity
  8
0
100
AcDbLine
 10
5.39724359318226
 20
-34.27761061194097
 30
0.0
 11
5.177243871528101
 21
-34.03761091559097
 31
0.0
1001
GradientColor1ACI
1070
     5
1001
GradientColor2ACI
1070
     2
1001
ACAD
1010
0.0
1020
0.0
1030
0.0
  0
LINE
  5
3122
330
18
100
AcDbEntity
  8
0
100
AcDbLine
 10
4.617243568861093
 20
-32.77761061087336
 30
0.0
 11
4.597243565094797
 21
-33.19761068995114
 31
0.0
1001
GradientColor1ACI
1070
     5
1001
GradientColor2ACI
1070
     2
1001
ACAD
1010
0.0
1020
0.0
1030
0.0
  0
LINE
  5
3123
330
18
100
AcDbEntity
  8
0
100
AcDbLine
 10
2.61724357023546
 20
-32.77761061092606
 30
0.0
 11
2.597243566469165
 21
-33.19761069000384
 31
0.0
1001
GradientColor1ACI
1070
     5
1001
GradientColor2ACI
1070
     2
1001
ACAD
1010
0.0
1020
0.0
1030
0.0
  0
LINE
  5
3124
330
18
100
AcDbEntity
  8
0
100
AcDbLine
 10
0.6172435716098326
 20
-32.77761061097875
 30
0.0
 11
0.5972435678435366
 21
-33.19761069005654
 31
0.0
1001
GradientColor1ACI
1070
     5
1001
GradientColor2ACI
1070
     2
1001
ACAD
1010
0.0
1020
0.0
1030
0.0
  0
LINE
  5
3125
330
18
100
AcDbEntity
  8
0
100
AcDbLine
 10
-1.382756427015708
 20
-32.77761061102961
 30
0.0
 11
-1.402756430782004
 21
-33.1976106901074
 31
0.0
1001
GradientColor1ACI
1070
     5
1001
GradientColor2ACI
1070
     2
1001
ACAD
1010
0.0
1020
0.0
1030
0.0
  0
LINE
  5
3126
330
18
100
AcDbEntity
  8
0
100
AcDbLine
 10
-3.382756425641251
 20
-32.77761061108049
 30
0.0
 11
-3.402756429407548
 21
-33.19761069015828
 31
0.0
1001
GradientColor1ACI
1070
     5
1001
GradientColor2ACI
1070
     2
1001
ACAD
1010
0.0
1020
0.0
1030
0.0
  0
LINE
  5
3127
330
18
100
AcDbEntity
  8
0
100
AcDbLine
 10
-5.382756424266967
 20
-32.777610611135
 30
0.0
 11
-5.399999999999959
 21
-33.1397257015154
 31
0.0
1001
GradientColor1ACI
1070
     5
1001
GradientColor2ACI
1070
     2
1001
ACAD
1010
0.0
1020
0.0
1030
0.0
  0
LINE
  5
3128
330
18
100
AcDbEntity
  8
0
100
AcDbLine
 10
4.597243606238971
 20
-33.19761060633676
 30
0.0
 11
4.757243387933486
 21
-33.5776100878597
 31
0.0
1001
GradientColor1ACI
1070
     5
1001
GradientColor2ACI
1070
     2
1001
ACAD
1010
0.0
1020
0.0
1030
0.0
  0
LINE
  5
3129
330
18
100
AcDbEntity
  8
0
100
AcDbLine
 10
2.597243605583239
 20
-33.19761060661671
 30
0.0
 11
2.757243387277755
 21
-33.57761008813966
 31
0.0
1001
GradientColor1ACI
1070
     5
1001
GradientColor2ACI
1070
     2
1001
ACAD
1010
0.0
1020
0.0
1030
0.0
  0
LINE
  5
312A
330
18
100
AcDbEntity
  8
0
100
AcDbLine
 10
0.5972436049260949
 20
-33.19761060689334
 30
0.0
 11
0.7572433866206107
 21
-33.57761008841628
 31
0.0
1001
GradientColor1ACI
1070
     5
1001
GradientColor2ACI
1070
     2
1001
ACAD
1010
0.0
1020
0.0
1030
0.0
  0
LINE
  5
312B
330
18
100
AcDbEntity
  8
0
100
AcDbLine
 10
-1.402756395730345
 20
-33.19761060717162
 30
0.0
 11
-1.242756614035831
 21
-33.57761008869456
 31
0.0
1001
GradientColor1ACI
1070
     5
1001
GradientColor2ACI
1070
     2
1001
ACAD
1010
0.0
1020
0.0
1030
0.0
  0
LINE
  5
312C
330
18
100
AcDbEntity
  8
0
100
AcDbLine
 10
-3.402756396387491
 20
-33.19761060744824
 30
0.0
 11
-3.242756614692976
 21
-33.57761008897119
 31
0.0
1001
GradientColor1ACI
1070
     5
1001
GradientColor2ACI
1070
     2
1001
ACAD
1010
0.0
1020
0.0
1030
0.0
  0
LINE
  5
312D
330
18
100
AcDbEntity
  8
0
100
AcDbLine
 10
-5.399999999999938
 20
-33.20415705070598
 30
0.0
 11
-5.242756615348853
 21
-33.57761008925081
 31
0.0
1001
GradientColor1ACI
1070
     5
1001
GradientColor2ACI
1070
     2
1001
ACAD
1010
0.0
1020
0.0
1030
0.0
  0
LINE
  5
312E
330
18
100
AcDbEntity
  8
0
100
AcDbLine
 10
4.75724359306882
 20
-33.57761061853564
 30
0.0
 11
5.177243672146608
 21
-33.59761062230194
 31
0.0
1001
GradientColor1ACI
1070
     5
1001
GradientColor2ACI
1070
     2
1001
ACAD
1010
0.0
1020
0.0
1030
0.0
  0
LINE
  5
312F
330
18
100
AcDbEntity
  8
0
100
AcDbLine
 10
2.757243593072043
 20
-33.57761061846696
 30
0.0
 11
3.177243672149832
 21
-33.59761062223326
 31
0.0
1001
GradientColor1ACI
1070
     5
1001
GradientColor2ACI
1070
     2
1001
ACAD
1010
0.0
1020
0.0
1030
0.0
  0
LINE
  5
3130
330
18
100
AcDbEntity
  8
0
100
AcDbLine
 10
0.757243593074363
 20
-33.57761061839822
 30
0.0
 11
1.177243672152149
 21
-33.59761062216453
 31
0.0
1001
GradientColor1ACI
1070
     5
1001
GradientColor2ACI
1070
     2
1001
ACAD
1010
0.0
1020
0.0
1030
0.0
  0
LINE
  5
3131
330
18
100
AcDbEntity
  8
0
100
AcDbLine
 10
-1.242756406922862
 20
-33.5776106183295
 30
0.0
 11
-0.8227563278450748
 21
-33.5976106220958
 31
0.0
1001
GradientColor1ACI
1070
     5
1001
GradientColor2ACI
1070
     2
1001
ACAD
1010
0.0
1020
0.0
1030
0.0
  0
LINE
  5
3132
330
18
100
AcDbEntity
  8
0
100
AcDbLine
 10
-3.242756406920547
 20
-33.57761061826078
 30
0.0
 11
-2.822756327842759
 21
-33.59761062202708
 31
0.0
1001
GradientColor1ACI
1070
     5
1001
GradientColor2ACI
1070
     2
1001
ACAD
1010
0.0
1020
0.0
1030
0.0
  0
LINE
  5
3133
330
18
100
AcDbEntity
  8
0
100
AcDbLine
 10
-5.242756406917776
 20
-33.57761061819206
 30
0.0
 11
-4.822756327839988
 21
-33.59761062195835
 31
0.0
1001
GradientColor1ACI
1070
     5
1001
GradientColor2ACI
1070
     2
1001
ACAD
1010
0.0
1020
0.0
1030
0.0
  0
LINE
  5
3134
330
18
100
AcDbEntity
  8
0
100
AcDbLine
 10
-4.8227564062123
 20
-33.59761061248624
 30
0.0
 11
-4.382756050908239
 21
-33.25761033793297
 31
0.0
1001
GradientColor1ACI
1070
     5
1001
GradientColor2ACI
1070
     2
1001
ACAD
1010
0.0
1020
0.0
1030
0.0
  0
LINE
  5
3135
330
18
100
AcDbEntity
  8
0
100
AcDbLine
 10
-2.822756406153771
 20
-33.59761061257465
 30
0.0
 11
-2.382756050849711
 21
-33.25761033802138
 31
0.0
1001
GradientColor1ACI
1070
     5
1001
GradientColor2ACI
1070
     2
1001
ACAD
1010
0.0
1020
0.0
1030
0.0
  0
LINE
  5
3136
330
18
100
AcDbEntity
  8
0
100
AcDbLine
 10
-0.8227564060945374
 20
-33.59761061266252
 30
0.0
 11
-0.3827560507904764
 21
-33.25761033810926
 31
0.0
1001
GradientColor1ACI
1070
     5
1001
GradientColor2ACI
1070
     2
1001
ACAD
1010
0.0
1020
0.0
1030
0.0
  0
LINE
  5
3137
330
18
100
AcDbEntity
  8
0
100
AcDbLine
 10
1.177243593964699
 20
-33.59761061275038
 30
0.0
 11
1.617243949268761
 21
-33.2576103381971
 31
0.0
1001
GradientColor1ACI
1070
     5
1001
GradientColor2ACI
1070
     2
1001
ACAD
1010
0.0
1020
0.0
1030
0.0
  0
LINE
  5
3138
330
18
100
AcDbEntity
  8
0
100
AcDbLine
 10
3.177243594023214
 20
-33.59761061283879
 30
0.0
 11
3.617243949327276
 21
-33.25761033828552
 31
0.0
1001
GradientColor1ACI
1070
     5
1001
GradientColor2ACI
1070
     2
1001
ACAD
1010
0.0
1020
0.0
1030
0.0
  0
LINE
  5
3139
330
18
100
AcDbEntity
  8
0
100
AcDbLine
 10
5.177243594082447
 20
-33.59761061292666
 30
0.0
 11
5.399999999999416
 21
-33.42548066289984
 31
0.0
1001
GradientColor1ACI
1070
     5
1001
GradientColor2ACI
1070
     2
1001
ACAD
1010
0.0
1020
0.0
1030
0.0
  0
LINE
  5
313A
330
18
100
AcDbEntity
  8
0
100
AcDbLine
 10
-4.382756396993181
 20
-33.25761061490192
 30
0.0
 11
-4.222756454880771
 21
-32.75761079580193
 31
0.0
1001
GradientColor1ACI
1070
     5
1001
GradientColor2ACI
1070
     2
1001
ACAD
1010
0.0
1020
0.0
1030
0.0
  0
LINE
  5
313B
330
18
100
AcDbEntity
  8
0
100
AcDbLine
 10
-4.227393962610604
 20
-34.77210300836261
 30
0.0
 11
-4.222756454617343
 21
-34.7576107958837
 31
0.0
1001
GradientColor1ACI
1070
     5
1001
GradientColor2ACI
1070
     2
1001
ACAD
1010
0.0
1020
0.0
1030
0.0
  0
LINE
  5
313C
330
18
100
AcDbEntity
  8
0
100
AcDbLine
 10
-2.382756396167287
 20
-33.25761061516526
 30
0.0
 11
-2.222756454054875
 21
-32.75761079606527
 31
0.0
1001
GradientColor1ACI
1070
     5
1001
GradientColor2ACI
1070
     2
1001
ACAD
1010
0.0
1020
0.0
1030
0.0
  0
LINE
  5
313D
330
18
100
AcDbEntity
  8
0
100
AcDbLine
 10
-2.227393961700443
 20
-34.77210300836262
 30
0.0
 11
-2.222756453792001
 21
-34.75761079614877
 31
0.0
1001
GradientColor1ACI
1070
     5
1001
GradientColor2ACI
1070
     2
1001
ACAD
1010
0.0
1020
0.0
1030
0.0
  0
LINE
  5
313E
330
18
100
AcDbEntity
  8
0
100
AcDbLine
 10
-0.3827563953419462
 20
-33.25761061543032
 30
0.0
 11
-0.2227564532295352
 21
-32.75761079633034
 31
0.0
1001
GradientColor1ACI
1070
     5
1001
GradientColor2ACI
1070
     2
1001
ACAD
1010
0.0
1020
0.0
1030
0.0
  0
LINE
  5
313F
330
18
100
AcDbEntity
  8
0
100
AcDbLine
 10
-0.2273939607902831
 20
-34.77210300836262
 30
0.0
 11
-0.2227564529666623
 21
-34.75761079641384
 31
0.0
1001
GradientColor1ACI
1070
     5
1001
GradientColor2ACI
1070
     2
1001
ACAD
1010
0.0
1020
0.0
1030
0.0
  0
LINE
  5
3140
330
18
100
AcDbEntity
  8
0
100
AcDbLine
 10
1.617243605483944
 20
-33.25761061569366
 30
0.0
 11
1.777243547596355
 21
-32.75761079659368
 31
0.0
1001
GradientColor1ACI
1070
     5
1001
GradientColor2ACI
1070
     2
1001
ACAD
1010
0.0
1020
0.0
1030
0.0
  0
LINE
  5
3141
330
18
100
AcDbEntity
  8
0
100
AcDbLine
 10
1.772606040119876
 20
-34.77210300836262
 30
0.0
 11
1.777243547858123
 21
-34.75761079668063
 31
0.0
1001
GradientColor1ACI
1070
     5
1001
GradientColor2ACI
1070
     2
1001
ACAD
1010
0.0
1020
0.0
1030
0.0
  0
LINE
  5
3142
330
18
100
AcDbEntity
  8
0
100
AcDbLine
 10
3.617243606309837
 20
-33.257610615957
 30
0.0
 11
3.777243548422247
 21
-32.75761079685702
 31
0.0
1001
GradientColor1ACI
1070
     5
1001
GradientColor2ACI
1070
     2
1001
ACAD
1010
0.0
1020
0.0
1030
0.0
  0
LINE
  5
3143
330
18
100
AcDbEntity
  8
0
100
AcDbLine
 10
3.772606041030038
 20
-34.77210300836262
 30
0.0
 11
3.777243548685126
 21
-34.75761079694051
 31
0.0
1001
GradientColor1ACI
1070
     5
1001
GradientColor2ACI
1070
     2
1001
ACAD
1010
0.0
1020
0.0
1030
0.0
  0
LINE
  5
3144
330
18
100
AcDbEntity
  8
0
100
AcDbLine
 10
-4.22275642624891
 20
-34.75761062375728
 30
0.0
 11
-4.442756185238557
 21
-34.39761101814013
 31
0.0
1001
GradientColor1ACI
1070
     5
1001
GradientColor2ACI
1070
     2
1001
ACAD
1010
0.0
1020
0.0
1030
0.0
  0
LINE
  5
3145
330
18
100
AcDbEntity
  8
0
100
AcDbLine
 10
-4.222756427060494
 20
-32.75761062425251
 30
0.0
 11
-4.378411106014467
 21
-32.50290296778399
 31
0.0
1001
GradientColor1ACI
1070
     5
1001
GradientColor2ACI
1070
     2
1001
ACAD
1010
0.0
1020
0.0
1030
0.0
  0
LINE
  5
3146
330
18
100
AcDbEntity
  8
0
100
AcDbLine
 10
-2.22275642756678
 20
-34.7576106245636
 30
0.0
 11
-2.442756186556429
 21
-34.39761101894646
 31
0.0
1001
GradientColor1ACI
1070
     5
1001
GradientColor2ACI
1070
     2
1001
ACAD
1010
0.0
1020
0.0
1030
0.0
  0
LINE
  5
3147
330
18
100
AcDbEntity
  8
0
100
AcDbLine
 10
-2.22275642837884
 20
-32.75761062505806
 30
0.0
 11
-2.37841110782509
 21
-32.50290296778399
 31
0.0
1001
GradientColor1ACI
1070
     5
1001
GradientColor2ACI
1070
     2
1001
ACAD
1010
0.0
1020
0.0
1030
0.0
  0
LINE
  5
3148
330
18
100
AcDbEntity
  8
0
100
AcDbLine
 10
-0.2227564288851278
 20
-34.75761062536913
 30
0.0
 11
-0.4427561878747753
 21
-34.39761101975199
 31
0.0
1001
GradientColor1ACI
1070
     5
1001
GradientColor2ACI
1070
     2
1001
ACAD
1010
0.0
1020
0.0
1030
0.0
  0
LINE
  5
3149
330
18
100
AcDbEntity
  8
0
100
AcDbLine
 10
-0.2227564296971854
 20
-32.75761062586361
 30
0.0
 11
-0.378411109635713
 21
-32.50290296778401
 31
0.0
1001
GradientColor1ACI
1070
     5
1001
GradientColor2ACI
1070
     2
1001
ACAD
1010
0.0
1020
0.0
1030
0.0
  0
LINE
  5
314A
330
18
100
AcDbEntity
  8
0
100
AcDbLine
 10
1.777243569796532
 20
-34.75761062617467
 30
0.0
 11
1.557243810806884
 21
-34.39761102055753
 31
0.0
1001
GradientColor1ACI
1070
     5
1001
GradientColor2ACI
1070
     2
1001
ACAD
1010
0.0
1020
0.0
1030
0.0
  0
LINE
  5
314B
330
18
100
AcDbEntity
  8
0
100
AcDbLine
 10
1.777243568984474
 20
-32.75761062666916
 30
0.0
 11
1.621588888553668
 21
-32.50290296778401
 31
0.0
1001
GradientColor1ACI
1070
     5
1001
GradientColor2ACI
1070
     2
1001
ACAD
1010
0.0
1020
0.0
1030
0.0
  0
LINE
  5
314C
330
18
100
AcDbEntity
  8
0
100
AcDbLine
 10
3.777243568477238
 20
-34.75761062697868
 30
0.0
 11
3.557243809487591
 21
-34.39761102136154
 31
0.0
1001
GradientColor1ACI
1070
     5
1001
GradientColor2ACI
1070
     2
1001
ACAD
1010
0.0
1020
0.0
1030
0.0
  0
LINE
  5
314D
330
18
100
AcDbEntity
  8
0
100
AcDbLine
 10
3.77724356766708
 20
-32.75761062747625
 30
0.0
 11
3.621588886743049
 21
-32.50290296778401
 31
0.0
1001
GradientColor1ACI
1070
     5
1001
GradientColor2ACI
1070
     2
1001
ACAD
1010
0.0
1020
0.0
1030
0.0
  0
LINE
  5
314E
330
18
100
AcDbEntity
  8
0
100
AcDbLine
 10
-4.442756407112493
 20
-34.39761061707294
 30
0.0
 11
-4.922756623211562
 21
-34.35761059906237
 31
0.0
1001
GradientColor1ACI
1070
     5
1001
GradientColor2ACI
1070
     2
1001
ACAD
1010
0.0
1020
0.0
1030
0.0
  0
LINE
  5
314F
330
18
100
AcDbEntity
  8
0
100
AcDbLine
 10
-2.442756407121716
 20
-34.39761061718757
 30
0.0
 11
-2.922756623220787
 21
-34.35761059917702
 31
0.0
1001
GradientColor1ACI
1070
     5
1001
GradientColor2ACI
1070
     2
1001
ACAD
1010
0.0
1020
0.0
1030
0.0
  0
LINE
  5
3150
330
18
100
AcDbEntity
  8
0
100
AcDbLine
 10
-0.4427564071313963
 20
-34.39761061730217
 30
0.0
 11
-0.9227566232304667
 21
-34.35761059929161
 31
0.0
1001
GradientColor1ACI
1070
     5
1001
GradientColor2ACI
1070
     2
1001
ACAD
1010
0.0
1020
0.0
1030
0.0
  0
LINE
  5
3151
330
18
100
AcDbEntity
  8
0
100
AcDbLine
 10
1.557243592858948
 20
-34.39761061741677
 30
0.0
 11
1.077243376759877
 21
-34.3576105994062
 31
0.0
1001
GradientColor1ACI
1070
     5
1001
GradientColor2ACI
1070
     2
1001
ACAD
1010
0.0
1020
0.0
1030
0.0
  0
LINE
  5
3152
330
18
100
AcDbEntity
  8
0
100
AcDbLine
 10
3.557243592849606
 20
-34.39761061753138
 30
0.0
 11
3.077243376750535
 21
-34.35761059952082
 31
0.0
1001
GradientColor1ACI
1070
     5
1001
GradientColor2ACI
1070
     2
1001
ACAD
1010
0.0
1020
0.0
1030
0.0
  0
LINE
  5
3153
330
18
100
AcDbEntity
  8
0
100
AcDbLine
 10
5.399999999999942
 20
-34.38450698490856
 30
0.0
 11
5.077243376741098
 21
-34.35761059963545
 31
0.0
1001
GradientColor1ACI
1070
     5
1001
GradientColor2ACI
1070
     2
1001
ACAD
1010
0.0
1020
0.0
1030
0.0
  0
LINE
  5
3154
330
18
100
AcDbEntity
  8
0
100
AcDbLine
 10
5.077243534004264
 20
-34.35761054677815
 30
0.0
 11
4.623275599896946
 21
-34.77210300836166
 31
0.0
1001
GradientColor1ACI
1070
     5
1001
GradientColor2ACI
1070
     2
1001
ACAD
1010
0.0
1020
0.0
1030
0.0
  0
LINE
  5
3155
330
18
100
AcDbEntity
  8
0
100
AcDbLine
 10
3.077243538033408
 20
-34.35761055119222
 30
0.0
 11
2.623275608760618
 21
-34.77210300836161
 31
0.0
1001
GradientColor1ACI
1070
     5
1001
GradientColor2ACI
1070
     2
1001
ACAD
1010
0.0
1020
0.0
1030
0.0
  0
LINE
  5
3156
330
18
100
AcDbEntity
  8
0
100
AcDbLine
 10
4.918113749241273
 20
-32.50290296778417
 30
0.0
 11
4.617243878175513
 21
-32.77761024137077
 31
0.0
1001
GradientColor1ACI
1070
     5
1001
GradientColor2ACI
1070
     2
1001
ACAD
1010
0.0
1020
0.0
1030
0.0
  0
LINE
  5
3157
330
18
100
AcDbEntity
  8
0
100
AcDbLine
 10
1.077243542059804
 20
-34.35761055560881
 30
0.0
 11
0.6232756176228841
 21
-34.77210300836283
 31
0.0
1001
GradientColor1ACI
1070
     5
1001
GradientColor2ACI
1070
     2
1001
ACAD
1010
0.0
1020
0.0
1030
0.0
  0
LINE
  5
3158
330
18
100
AcDbEntity
  8
0
100
AcDbLine
 10
2.918113758104878
 20
-32.50290296778417
 30
0.0
 11
2.617243882204591
 21
-32.7776102457849
 31
0.0
1001
GradientColor1ACI
1070
     5
1001
GradientColor2ACI
1070
     2
1001
ACAD
1010
0.0
1020
0.0
1030
0.0
  0
LINE
  5
3159
330
18
100
AcDbEntity
  8
0
100
AcDbLine
 10
-0.9227564539111208
 20
-34.35761056002295
 30
0.0
 11
-1.376724373512842
 21
-34.77210300836222
 31
0.0
1001
GradientColor1ACI
1070
     5
1001
GradientColor2ACI
1070
     2
1001
ACAD
1010
0.0
1020
0.0
1030
0.0
  0
LINE
  5
315A
330
18
100
AcDbEntity
  8
0
100
AcDbLine
 10
0.9181137669684805
 20
-32.50290296778417
 30
0.0
 11
0.6172438862323235
 21
-32.77761025020025
 31
0.0
1001
GradientColor1ACI
1070
     5
1001
GradientColor2ACI
1070
     2
1001
ACAD
1010
0.0
1020
0.0
1030
0.0
  0
LINE
  5
315B
330
18
100
AcDbEntity
  8
0
100
AcDbLine
 10
-2.922756449883386
 20
-34.3576105644383
 30
0.0
 11
-3.376724364649238
 21
-34.77210300836222
 31
0.0
1001
GradientColor1ACI
1070
     5
1001
GradientColor2ACI
1070
     2
1001
ACAD
1010
0.0
1020
0.0
1030
0.0
  0
LINE
  5
315C
330
18
100
AcDbEntity
  8
0
100
AcDbLine
 10
-1.081886224167914
 20
-32.50290296778418
 30
0.0
 11
-1.382756109740613
 21
-32.77761025461624
 31
0.0
1001
GradientColor1ACI
1070
     5
1001
GradientColor2ACI
1070
     2
1001
ACAD
1010
0.0
1020
0.0
1030
0.0
  0
LINE
  5
315D
330
18
100
AcDbEntity
  8
0
100
AcDbLine
 10
-4.922756445855662
 20
-34.35761056885367
 30
0.0
 11
-5.376724355786316
 21
-34.77210300836283
 31
0.0
1001
GradientColor1ACI
1070
     5
1001
GradientColor2ACI
1070
     2
1001
ACAD
1010
0.0
1020
0.0
1030
0.0
  0
LINE
  5
315E
330
18
100
AcDbEntity
  8
0
100
AcDbLine
 10
-3.081886215304316
 20
-32.50290296778418
 30
0.0
 11
-3.382756105711541
 21
-32.77761025903038
 31
0.0
1001
GradientColor1ACI
1070
     5
1001
GradientColor2ACI
1070
     2
1001
ACAD
1010
0.0
1020
0.0
1030
0.0
  0
LINE
  5
315F
330
18
100
AcDbEntity
  8
0
100
AcDbLine
 10
-5.081886206440717
 20
-32.50290296778418
 30
0.0
 11
-5.382756101683813
 21
-32.77761026344573
 31
0.0
1001
GradientColor1ACI
1070
     5
1001
GradientColor2ACI
1070
     2
1001
ACAD
1010
0.0
1020
0.0
1030
0.0
  0
LINE
  5
3160
330
18
100
AcDbEntity
  8
0
100
AcDbLine
 10
-3.431907937255934
 20
-34.77210300836261
 30
0.0
 11
-3.562755710096884
 21
-34.6576112071256
 31
0.0
1001
GradientColor1ACI
1070
     5
1001
GradientColor2ACI
1070
     2
1001
ACAD
1010
0.0
1020
0.0
1030
0.0
  0
LINE
  5
3161
330
18
100
AcDbEntity
  8
0
100
AcDbLine
 10
-1.431907936273795
 20
-34.77210300836261
 30
0.0
 11
-1.562755709671215
 21
-34.65761120663869
 31
0.0
1001
GradientColor1ACI
1070
     5
1001
GradientColor2ACI
1070
     2
1001
ACAD
1010
0.0
1020
0.0
1030
0.0
  0
LINE
  5
3162
330
18
100
AcDbEntity
  8
0
100
AcDbLine
 10
-3.402756399153096
 20
-32.79761060320026
 30
0.0
 11
-3.562755709600458
 21
-32.65761120655739
 31
0.0
1001
GradientColor1ACI
1070
     5
1001
GradientColor2ACI
1070
     2
1001
ACAD
1010
0.0
1020
0.0
1030
0.0
  0
LINE
  5
3163
330
18
100
AcDbEntity
  8
0
100
AcDbLine
 10
0.5680920647083481
 20
-34.77210300836261
 30
0.0
 11
0.4372442907541158
 21
-34.65761120615148
 31
0.0
1001
GradientColor1ACI
1070
     5
1001
GradientColor2ACI
1070
     2
1001
ACAD
1010
0.0
1020
0.0
1030
0.0
  0
LINE
  5
3164
330
18
100
AcDbEntity
  8
0
100
AcDbLine
 10
-1.402756398727073
 20
-32.79761060271365
 30
0.0
 11
-1.562755709174435
 21
-32.65761120607078
 31
0.0
1001
GradientColor1ACI
1070
     5
1001
GradientColor2ACI
1070
     2
1001
ACAD
1010
0.0
1020
0.0
1030
0.0
  0
LINE
  5
3165
330
18
100
AcDbEntity
  8
0
100
AcDbLine
 10
2.568092065690491
 20
-34.77210300836261
 30
0.0
 11
2.437244291180131
 21
-34.65761120566487
 31
0.0
1001
GradientColor1ACI
1070
     5
1001
GradientColor2ACI
1070
     2
1001
ACAD
1010
0.0
1020
0.0
1030
0.0
  0
LINE
  5
3166
330
18
100
AcDbEntity
  8
0
100
AcDbLine
 10
0.5972436016989408
 20
-32.79761060222705
 30
0.0
 11
0.4372442912515786
 21
-32.65761120558418
 31
0.0
1001
GradientColor1ACI
1070
     5
1001
GradientColor2ACI
1070
     2
1001
ACAD
1010
0.0
1020
0.0
1030
0.0
  0
LINE
  5
3167
330
18
100
AcDbEntity
  8
0
100
AcDbLine
 10
4.568092066672631
 20
-34.77210300836261
 30
0.0
 11
4.437244291605804
 21
-34.65761120517796
 31
0.0
1001
GradientColor1ACI
1070
     5
1001
GradientColor2ACI
1070
     2
1001
ACAD
1010
0.0
1020
0.0
1030
0.0
  0
LINE
  5
3168
330
18
100
AcDbEntity
  8
0
100
AcDbLine
 10
2.597243602124271
 20
-32.79761060173984
 30
0.0
 11
2.437244291676911
 21
-32.65761120509696
 31
0.0
1001
GradientColor1ACI
1070
     5
1001
GradientColor2ACI
1070
     2
1001
ACAD
1010
0.0
1020
0.0
1030
0.0
  0
LINE
  5
3169
330
18
100
AcDbEntity
  8
0
100
AcDbLine
 10
4.597243602549919
 20
-32.79761060125291
 30
0.0
 11
4.437244292102558
 21
-32.65761120461004
 31
0.0
1001
GradientColor1ACI
1070
     5
1001
GradientColor2ACI
1070
     2
1001
ACAD
1010
0.0
1020
0.0
1030
0.0
  0
LINE
  5
316A
330
18
100
AcDbEntity
  8
0
100
AcDbLine
 10
-3.562756406986022
 20
-34.65761061416266
 30
0.0
 11
-3.962755449376018
 21
-34.5976107578038
 31
0.0
1001
GradientColor1ACI
1070
     5
1001
GradientColor2ACI
1070
     2
1001
ACAD
1010
0.0
1020
0.0
1030
0.0
  0
LINE
  5
316B
330
18
100
AcDbEntity
  8
0
100
AcDbLine
 10
-1.562756406996125
 20
-34.65761061423525
 30
0.0
 11
-1.962755449386121
 21
-34.59761075787638
 31
0.0
1001
GradientColor1ACI
1070
     5
1001
GradientColor2ACI
1070
     2
1001
ACAD
1010
0.0
1020
0.0
1030
0.0
  0
LINE
  5
316C
330
18
100
AcDbEntity
  8
0
100
AcDbLine
 10
0.4372435929946669
 20
-34.65761061430796
 30
0.0
 11
0.0372445506046704
 21
-34.59761075794909
 31
0.0
1001
GradientColor1ACI
1070
     5
1001
GradientColor2ACI
1070
     2
1001
ACAD
1010
0.0
1020
0.0
1030
0.0
  0
LINE
  5
316D
330
18
100
AcDbEntity
  8
0
100
AcDbLine
 10
2.437243592985013
 20
-34.65761061438061
 30
0.0
 11
2.037244550595016
 21
-34.59761075802174
 31
0.0
1001
GradientColor1ACI
1070
     5
1001
GradientColor2ACI
1070
     2
1001
ACAD
1010
0.0
1020
0.0
1030
0.0
  0
LINE
  5
316E
330
18
100
AcDbEntity
  8
0
100
AcDbLine
 10
4.437243592974907
 20
-34.65761061445319
 30
0.0
 11
4.037244550584909
 21
-34.59761075809432
 31
0.0
1001
GradientColor1ACI
1070
     5
1001
GradientColor2ACI
1070
     2
1001
ACAD
1010
0.0
1020
0.0
1030
0.0
  0
LINE
  5
316F
330
18
100
AcDbEntity
  8
0
100
AcDbLine
 10
-3.562756407049175
 20
-32.65761061463484
 30
0.0
 11
-3.962755449439173
 21
-32.59761075827597
 31
0.0
1001
GradientColor1ACI
1070
     5
1001
GradientColor2ACI
1070
     2
1001
ACAD
1010
0.0
1020
0.0
1030
0.0
  0
LINE
  5
3170
330
18
100
AcDbEntity
  8
0
100
AcDbLine
 10
-1.562756407058513
 20
-32.65761061470755
 30
0.0
 11
-1.962755449448508
 21
-32.59761075834867
 31
0.0
1001
GradientColor1ACI
1070
     5
1001
GradientColor2ACI
1070
     2
1001
ACAD
1010
0.0
1020
0.0
1030
0.0
  0
LINE
  5
3171
330
18
100
AcDbEntity
  8
0
100
AcDbLine
 10
0.4372435929321652
 20
-32.65761061478024
 30
0.0
 11
0.0372445505421686
 21
-32.59761075842138
 31
0.0
1001
GradientColor1ACI
1070
     5
1001
GradientColor2ACI
1070
     2
1001
ACAD
1010
0.0
1020
0.0
1030
0.0
  0
LINE
  5
3172
330
18
100
AcDbEntity
  8
0
100
AcDbLine
 10
2.437243592922378
 20
-32.65761061485286
 30
0.0
 11
2.037244550532383
 21
-32.59761075849399
 31
0.0
1001
GradientColor1ACI
1070
     5
1001
GradientColor2ACI
1070
     2
1001
ACAD
1010
0.0
1020
0.0
1030
0.0
  0
LINE
  5
3173
330
18
100
AcDbEntity
  8
0
100
AcDbLine
 10
4.437243592913042
 20
-32.65761061492558
 30
0.0
 11
4.037244550523046
 21
-32.59761075856669
 31
0.0
1001
GradientColor1ACI
1070
     5
1001
GradientColor2ACI
1070
     2
1001
ACAD
1010
0.0
1020
0.0
1030
0.0
  0
LINE
  5
3174
330
18
100
AcDbEntity
  8
0
100
AcDbLine
 10
4.03724359332546
 20
-34.59761061179916
 30
0.0
 11
3.862751196762006
 21
-34.77210300836262
 31
0.0
1001
GradientColor1ACI
1070
     5
1001
GradientColor2ACI
1070
     2
1001
ACAD
1010
0.0
1020
0.0
1030
0.0
  0
LINE
  5
3175
330
18
100
AcDbEntity
  8
0
100
AcDbLine
 10
4.03724359332546
 20
-32.59761061179929
 30
0.0
 11
3.837244097121097
 21
-32.79761010800366
 31
0.0
1001
GradientColor1ACI
1070
     5
1001
GradientColor2ACI
1070
     2
1001
ACAD
1010
0.0
1020
0.0
1030
0.0
  0
LINE
  5
3176
330
18
100
AcDbEntity
  8
0
100
AcDbLine
 10
2.037243593325453
 20
-34.59761061179931
 30
0.0
 11
1.862751196762129
 21
-34.77210300836262
 31
0.0
1001
GradientColor1ACI
1070
     5
1001
GradientColor2ACI
1070
     2
1001
ACAD
1010
0.0
1020
0.0
1030
0.0
  0
LINE
  5
3177
330
18
100
AcDbEntity
  8
0
100
AcDbLine
 10
2.037243593325464
 20
-32.59761061179942
 30
0.0
 11
1.837244097121099
 21
-32.79761010800378
 31
0.0
1001
GradientColor1ACI
1070
     5
1001
GradientColor2ACI
1070
     2
1001
ACAD
1010
0.0
1020
0.0
1030
0.0
  0
LINE
  5
3178
330
18
100
AcDbEntity
  8
0
100
AcDbLine
 10
0.0372435933254574
 20
-34.59761061179943
 30
0.0
 11
-0.1372488032377264
 21
-34.77210300836261
 31
0.0
1001
GradientColor1ACI
1070
     5
1001
GradientColor2ACI
1070
     2
1001
ACAD
1010
0.0
1020
0.0
1030
0.0
  0
LINE
  5
3179
330
18
100
AcDbEntity
  8
0
100
AcDbLine
 10
0.0372435933254554
 20
-32.59761061179957
 30
0.0
 11
-0.1627559028789094
 21
-32.79761010800393
 31
0.0
1001
GradientColor1ACI
1070
     5
1001
GradientColor2ACI
1070
     2
1001
ACAD
1010
0.0
1020
0.0
1030
0.0
  0
LINE
  5
317A
330
18
100
AcDbEntity
  8
0
100
AcDbLine
 10
-1.962756406674551
 20
-34.59761061179957
 30
0.0
 11
-2.137248803237595
 21
-34.77210300836262
 31
0.0
1001
GradientColor1ACI
1070
     5
1001
GradientColor2ACI
1070
     2
1001
ACAD
1010
0.0
1020
0.0
1030
0.0
  0
LINE
  5
317B
330
18
100
AcDbEntity
  8
0
100
AcDbLine
 10
-1.96275640667455
 20
-32.5976106117997
 30
0.0
 11
-2.162755902878914
 21
-32.79761010800406
 31
0.0
1001
GradientColor1ACI
1070
     5
1001
GradientColor2ACI
1070
     2
1001
ACAD
1010
0.0
1020
0.0
1030
0.0
  0
LINE
  5
317C
330
18
100
AcDbEntity
  8
0
100
AcDbLine
 10
-3.962756406674556
 20
-34.5976106117997
 30
0.0
 11
-4.137248803237463
 21
-34.77210300836262
 31
0.0
1001
GradientColor1ACI
1070
     5
1001
GradientColor2ACI
1070
     2
1001
ACAD
1010
0.0
1020
0.0
1030
0.0
  0
LINE
  5
317D
330
18
100
AcDbEntity
  8
0
100
AcDbLine
 10
-3.962756406674568
 20
-32.59761061179985
 30
0.0
 11
-4.162755902878933
 21
-32.79761010800422
 31
0.0
1001
GradientColor1ACI
1070
     5
1001
GradientColor2ACI
1070
     2
1001
ACAD
1010
0.0
1020
0.0
1030
0.0
  0
LINE
  5
317E
330
18
100
AcDbEntity
  8
0
100
AcDbLine
 10
3.897243594025028
 20
-34.35761061343593
 30
0.0
 11
3.757243099633166
 21
-34.41761082531916
 31
0.0
1001
GradientColor1ACI
1070
     5
1001
GradientColor2ACI
1070
     2
1001
ACAD
1010
0.0
1020
0.0
1030
0.0
  0
LINE
  5
317F
330
18
100
AcDbEntity
  8
0
100
AcDbLine
 10
1.897243593951354
 20
-34.35761061326385
 30
0.0
 11
1.757243099559491
 21
-34.41761082514709
 31
0.0
1001
GradientColor1ACI
1070
     5
1001
GradientColor2ACI
1070
     2
1001
ACAD
1010
0.0
1020
0.0
1030
0.0
  0
LINE
  5
3180
330
18
100
AcDbEntity
  8
0
100
AcDbLine
 10
-0.1027564061223032
 20
-34.35761061309179
 30
0.0
 11
-0.2427569005141645
 21
-34.41761082497502
 31
0.0
1001
GradientColor1ACI
1070
     5
1001
GradientColor2ACI
1070
     2
1001
ACAD
1010
0.0
1020
0.0
1030
0.0
  0
LINE
  5
3181
330
18
100
AcDbEntity
  8
0
100
AcDbLine
 10
-2.10275640619594
 20
-34.3576106129197
 30
0.0
 11
-2.2427569005878
 21
-34.41761082480294
 31
0.0
1001
GradientColor1ACI
1070
     5
1001
GradientColor2ACI
1070
     2
1001
ACAD
1010
0.0
1020
0.0
1030
0.0
  0
LINE
  5
3182
330
18
100
AcDbEntity
  8
0
100
AcDbLine
 10
-4.102756406269583
 20
-34.35761061274762
 30
0.0
 11
-4.242756900661444
 21
-34.41761082463087
 31
0.0
1001
GradientColor1ACI
1070
     5
1001
GradientColor2ACI
1070
     2
1001
ACAD
1010
0.0
1020
0.0
1030
0.0
  0
LINE
  5
3183
330
18
100
AcDbEntity
  8
0
100
AcDbLine
 10
3.791360531866961
 20
-32.50290296778417
 30
0.0
 11
3.837243370036381
 21
-32.61761006320976
 31
0.0
1001
GradientColor1ACI
1070
     5
1001
GradientColor2ACI
1070
     2
1001
ACAD
1010
0.0
1020
0.0
1030
0.0
  0
LINE
  5
3184
330
18
100
AcDbEntity
  8
0
100
AcDbLine
 10
3.757243590067038
 20
-34.41761061310837
 30
0.0
 11
3.837243370096545
 21
-34.6176100631857
 31
0.0
1001
GradientColor1ACI
1070
     5
1001
GradientColor2ACI
1070
     2
1001
ACAD
1010
0.0
1020
0.0
1030
0.0
  0
LINE
  5
3185
330
18
100
AcDbEntity
  8
0
100
AcDbLine
 10
1.791360532077067
 20
-32.50290296778418
 30
0.0
 11
1.837243370217438
 21
-32.61761006313714
 31
0.0
1001
GradientColor1ACI
1070
     5
1001
GradientColor2ACI
1070
     2
1001
ACAD
1010
0.0
1020
0.0
1030
0.0
  0
LINE
  5
3186
330
18
100
AcDbEntity
  8
0
100
AcDbLine
 10
1.757243590248096
 20
-34.41761061303573
 30
0.0
 11
1.837243370277603
 21
-34.61761006311306
 31
0.0
1001
GradientColor1ACI
1070
     5
1001
GradientColor2ACI
1070
     2
1001
ACAD
1010
0.0
1020
0.0
1030
0.0
  0
LINE
  5
3187
330
18
100
AcDbEntity
  8
0
100
AcDbLine
 10
-0.208639467712828
 20
-32.50290296778417
 30
0.0
 11
-0.1627566296015068
 21
-32.61761006306451
 31
0.0
1001
GradientColor1ACI
1070
     5
1001
GradientColor2ACI
1070
     2
1001
ACAD
1010
0.0
1020
0.0
1030
0.0
  0
LINE
  5
3188
330
18
100
AcDbEntity
  8
0
100
AcDbLine
 10
-0.2427564095708663
 20
-34.41761061296306
 30
0.0
 11
-0.16275662954136
 21
-34.61761006304038
 31
0.0
1001
GradientColor1ACI
1070
     5
1001
GradientColor2ACI
1070
     2
1001
ACAD
1010
0.0
1020
0.0
1030
0.0
  0
LINE
  5
3189
330
18
100
AcDbEntity
  8
0
100
AcDbLine
 10
-2.208639467502721
 20
-32.50290296778417
 30
0.0
 11
-2.162756629420428
 21
-32.61761006299194
 31
0.0
1001
GradientColor1ACI
1070
     5
1001
GradientColor2ACI
1070
     2
1001
ACAD
1010
0.0
1020
0.0
1030
0.0
  0
LINE
  5
318A
330
18
100
AcDbEntity
  8
0
100
AcDbLine
 10
-2.242756409389766
 20
-34.41761061289055
 30
0.0
 11
-2.16275662936026
 21
-34.61761006296787
 31
0.0
1001
GradientColor1ACI
1070
     5
1001
GradientColor2ACI
1070
     2
1001
ACAD
1010
0.0
1020
0.0
1030
0.0
  0
LINE
  5
318B
330
18
100
AcDbEntity
  8
0
100
AcDbLine
 10
-4.208639467292615
 20
-32.50290296778417
 30
0.0
 11
-4.162756629239369
 21
-32.61761006291932
 31
0.0
1001
GradientColor1ACI
1070
     5
1001
GradientColor2ACI
1070
     2
1001
ACAD
1010
0.0
1020
0.0
1030
0.0
  0
LINE
  5
318C
330
18
100
AcDbEntity
  8
0
100
AcDbLine
 10
-4.24275640920875
 20
-34.41761061281783
 30
0.0
 11
-4.162756629179243
 21
-34.61761006289514
 31
0.0
1001
GradientColor1ACI
1070
     5
1001
GradientColor2ACI
1070
     2
1001
ACAD
1010
0.0
1020
0.0
1030
0.0
  0
LINE
  5
318D
330
18
100
AcDbEntity
  8
0
100
AcDbLine
 10
-4.16275640671551
 20
-32.6176106117357
 30
0.0
 11
-3.971577000129818
 21
-32.50290296778417
 31
0.0
1001
GradientColor1ACI
1070
     5
1001
GradientColor2ACI
1070
     2
1001
ACAD
1010
0.0
1020
0.0
1030
0.0
  0
LINE
  5
318E
330
18
100
AcDbEntity
  8
0
100
AcDbLine
 10
-2.162756406721421
 20
-32.61761061172638
 30
0.0
 11
-1.971577000151303
 21
-32.50290296778419
 31
0.0
1001
GradientColor1ACI
1070
     5
1001
GradientColor2ACI
1070
     2
1001
ACAD
1010
0.0
1020
0.0
1030
0.0
  0
LINE
  5
318F
330
18
100
AcDbEntity
  8
0
100
AcDbLine
 10
-4.162756406724404
 20
-34.61761061172166
 30
0.0
 11
-3.862755646720546
 21
-34.43761015571916
 31
0.0
1001
GradientColor1ACI
1070
     5
1001
GradientColor2ACI
1070
     2
1001
ACAD
1010
0.0
1020
0.0
1030
0.0
  0
LINE
  5
3190
330
18
100
AcDbEntity
  8
0
100
AcDbLine
 10
-0.1627564067272424
 20
-32.61761061171699
 30
0.0
 11
0.0284229998272529
 21
-32.50290296778416
 31
0.0
1001
GradientColor1ACI
1070
     5
1001
GradientColor2ACI
1070
     2
1001
ACAD
1010
0.0
1020
0.0
1030
0.0
  0
LINE
  5
3191
330
18
100
AcDbEntity
  8
0
100
AcDbLine
 10
-2.162756406730248
 20
-34.61761061171229
 30
0.0
 11
-1.862755646726389
 21
-34.43761015570979
 31
0.0
1001
GradientColor1ACI
1070
     5
1001
GradientColor2ACI
1070
     2
1001
ACAD
1010
0.0
1020
0.0
1030
0.0
  0
LINE
  5
3192
330
18
100
AcDbEntity
  8
0
100
AcDbLine
 10
1.837243593266885
 20
-32.61761061170762
 30
0.0
 11
2.028422999805783
 21
-32.50290296778416
 31
0.0
1001
GradientColor1ACI
1070
     5
1001
GradientColor2ACI
1070
     2
1001
ACAD
1010
0.0
1020
0.0
1030
0.0
  0
LINE
  5
3193
330
18
100
AcDbEntity
  8
0
100
AcDbLine
 10
-0.1627564067360914
 20
-34.61761061170292
 30
0.0
 11
0.1372443532677665
 21
-34.43761015570042
 31
0.0
1001
GradientColor1ACI
1070
     5
1001
GradientColor2ACI
1070
     2
1001
ACAD
1010
0.0
1020
0.0
1030
0.0
  0
LINE
  5
3194
330
18
100
AcDbEntity
  8
0
100
AcDbLine
 10
3.837243593261017
 20
-32.61761061169827
 30
0.0
 11
4.028422999784343
 21
-32.50290296778415
 31
0.0
1001
GradientColor1ACI
1070
     5
1001
GradientColor2ACI
1070
     2
1001
ACAD
1010
0.0
1020
0.0
1030
0.0
  0
LINE
  5
3195
330
18
100
AcDbEntity
  8
0
100
AcDbLine
 10
1.837243593257989
 20
-34.61761061169358
 30
0.0
 11
2.137244353261845
 21
-34.43761015569108
 31
0.0
1001
GradientColor1ACI
1070
     5
1001
GradientColor2ACI
1070
     2
1001
ACAD
1010
0.0
1020
0.0
1030
0.0
  0
LINE
  5
3196
330
18
100
AcDbEntity
  8
0
100
AcDbLine
 10
3.837243593252116
 20
-34.61761061168424
 30
0.0
 11
4.137244353255973
 21
-34.43761015568173
 31
0.0
1001
GradientColor1ACI
1070
     5
1001
GradientColor2ACI
1070
     2
1001
ACAD
1010
0.0
1020
0.0
1030
0.0
  0
LINE
  5
3197
330
18
100
AcDbEntity
  8
0
100
AcDbLine
 10
-3.86275640672622
 20
-34.43761061195751
 30
0.0
 11
-4.102756204833524
 21
-34.35761067925471
 31
0.0
1001
GradientColor1ACI
1070
     5
1001
GradientColor2ACI
1070
     2
1001
ACAD
1010
0.0
1020
0.0
1030
0.0
  0
LINE
  5
3198
330
18
100
AcDbEntity
  8
0
100
AcDbLine
 10
-1.862756406728925
 20
-34.43761061196573
 30
0.0
 11
-2.10275620483623
 21
-34.35761067926293
 31
0.0
1001
GradientColor1ACI
1070
     5
1001
GradientColor2ACI
1070
     2
1001
ACAD
1010
0.0
1020
0.0
1030
0.0
  0
LINE
  5
3199
330
18
100
AcDbEntity
  8
0
100
AcDbLine
 10
0.1372435932683738
 20
-34.43761061197395
 30
0.0
 11
-0.1027562048389314
 21
-34.35761067927116
 31
0.0
1001
GradientColor1ACI
1070
     5
1001
GradientColor2ACI
1070
     2
1001
ACAD
1010
0.0
1020
0.0
1030
0.0
  0
LINE
  5
319A
330
18
100
AcDbEntity
  8
0
100
AcDbLine
 10
2.137243593265643
 20
-34.43761061198217
 30
0.0
 11
1.897243795158339
 21
-34.35761067927937
 31
0.0
1001
GradientColor1ACI
1070
     5
1001
GradientColor2ACI
1070
     2
1001
ACAD
1010
0.0
1020
0.0
1030
0.0
  0
LINE
  5
319B
330
18
100
AcDbEntity
  8
0
100
AcDbLine
 10
4.137243593262964
 20
-34.43761061199041
 30
0.0
 11
3.897243795155659
 21
-34.35761067928761
 31
0.0
1001
GradientColor1ACI
1070
     5
1001
GradientColor2ACI
1070
     2
1001
ACAD
1010
0.0
1020
0.0
1030
0.0
  0
LINE
  5
319C
330
18
100
AcDbEntity
  8
0
100
AcDbLine
 10
-5.399999999999948
 20
-34.41679990415898
 30
0.0
 11
-5.062757272861271
 21
-34.31761086676547
 31
0.0
1001
GradientColor1ACI
1070
     5
1001
GradientColor2ACI
1070
     2
1001
ACAD
1010
0.0
1020
0.0
1030
0.0
  0
LINE
  5
319D
330
18
100
AcDbEntity
  8
0
100
AcDbLine
 10
-3.402756406599388
 20
-34.41761061205016
 30
0.0
 11
-3.062757272842466
 21
-34.31761086682776
 31
0.0
1001
GradientColor1ACI
1070
     5
1001
GradientColor2ACI
1070
     2
1001
ACAD
1010
0.0
1020
0.0
1030
0.0
  0
LINE
  5
319E
330
18
100
AcDbEntity
  8
0
100
AcDbLine
 10
-1.402756406580727
 20
-34.41761061211249
 30
0.0
 11
-1.062757272823805
 21
-34.3176108668901
 31
0.0
1001
GradientColor1ACI
1070
     5
1001
GradientColor2ACI
1070
     2
1001
ACAD
1010
0.0
1020
0.0
1030
0.0
  0
LINE
  5
319F
330
18
100
AcDbEntity
  8
0
100
AcDbLine
 10
0.5972435934381548
 20
-34.41761061217475
 30
0.0
 11
0.9372427271950755
 21
-34.31761086695235
 31
0.0
1001
GradientColor1ACI
1070
     5
1001
GradientColor2ACI
1070
     2
1001
ACAD
1010
0.0
1020
0.0
1030
0.0
  0
LINE
  5
31A0
330
18
100
AcDbEntity
  8
0
100
AcDbLine
 10
2.597243593457142
 20
-34.41761061223699
 30
0.0
 11
2.937242727214062
 21
-34.31761086701458
 31
0.0
1001
GradientColor1ACI
1070
     5
1001
GradientColor2ACI
1070
     2
1001
ACAD
1010
0.0
1020
0.0
1030
0.0
  0
LINE
  5
31A1
330
18
100
AcDbEntity
  8
0
100
AcDbLine
 10
4.597243593475802
 20
-34.41761061229931
 30
0.0
 11
4.937242727232724
 21
-34.31761086707691
 31
0.0
1001
GradientColor1ACI
1070
     5
1001
GradientColor2ACI
1070
     2
1001
ACAD
1010
0.0
1020
0.0
1030
0.0
  0
LINE
  5
31A2
330
18
100
AcDbEntity
  8
0
100
AcDbLine
 10
-5.062756409299866
 20
-34.31761060972127
 30
0.0
 11
-4.962756199071351
 21
-34.03761002108215
 31
0.0
1001
GradientColor1ACI
1070
     5
1001
GradientColor2ACI
1070
     2
1001
ACAD
1010
0.0
1020
0.0
1030
0.0
  0
LINE
  5
31A3
330
18
100
AcDbEntity
  8
0
100
AcDbLine
 10
-3.062756409520583
 20
-34.3176106095474
 30
0.0
 11
-2.962756199292069
 21
-34.03761002090828
 31
0.0
1001
GradientColor1ACI
1070
     5
1001
GradientColor2ACI
1070
     2
1001
ACAD
1010
0.0
1020
0.0
1030
0.0
  0
LINE
  5
31A4
330
18
100
AcDbEntity
  8
0
100
AcDbLine
 10
-1.06275640974099
 20
-34.31761060937267
 30
0.0
 11
-0.9627561995124763
 21
-34.03761002073355
 31
0.0
1001
GradientColor1ACI
1070
     5
1001
GradientColor2ACI
1070
     2
1001
ACAD
1010
0.0
1020
0.0
1030
0.0
  0
LINE
  5
31A5
330
18
100
AcDbEntity
  8
0
100
AcDbLine
 10
0.9372435900389062
 20
-34.3176106091971
 30
0.0
 11
1.03724380026742
 21
-34.03761002055798
 31
0.0
1001
GradientColor1ACI
1070
     5
1001
GradientColor2ACI
1070
     2
1001
ACAD
1010
0.0
1020
0.0
1030
0.0
  0
LINE
  5
31A6
330
18
100
AcDbEntity
  8
0
100
AcDbLine
 10
2.937243589818498
 20
-34.31761060902236
 30
0.0
 11
3.037243800047011
 21
-34.03761002038324
 31
0.0
1001
GradientColor1ACI
1070
     5
1001
GradientColor2ACI
1070
     2
1001
ACAD
1010
0.0
1020
0.0
1030
0.0
  0
LINE
  5
31A7
330
18
100
AcDbEntity
  8
0
100
AcDbLine
 10
4.937243589598085
 20
-34.31761060884765
 30
0.0
 11
5.037243799826601
 21
-34.03761002020852
 31
0.0
1001
GradientColor1ACI
1070
     5
1001
GradientColor2ACI
1070
     2
1001
ACAD
1010
0.0
1020
0.0
1030
0.0
  0
LINE
  5
31A8
330
18
100
AcDbEntity
  8
0
100
AcDbLine
 10
4.137243601154326
 20
-34.03761060844966
 30
0.0
 11
4.257243237082216
 21
-34.31760975894332
 31
0.0
1001
GradientColor1ACI
1070
     5
1001
GradientColor2ACI
1070
     2
1001
ACAD
1010
0.0
1020
0.0
1030
0.0
  0
LINE
  5
31A9
330
18
100
AcDbEntity
  8
0
100
AcDbLine
 10
2.137243600724239
 20
-34.03761060863399
 30
0.0
 11
2.257243236652132
 21
-34.31760975912764
 31
0.0
1001
GradientColor1ACI
1070
     5
1001
GradientColor2ACI
1070
     2
1001
ACAD
1010
0.0
1020
0.0
1030
0.0
  0
LINE
  5
31AA
330
18
100
AcDbEntity
  8
0
100
AcDbLine
 10
0.1372436002939752
 20
-34.0376106088179
 30
0.0
 11
0.2572432362218673
 21
-34.31760975931156
 31
0.0
1001
GradientColor1ACI
1070
     5
1001
GradientColor2ACI
1070
     2
1001
ACAD
1010
0.0
1020
0.0
1030
0.0
  0
LINE
  5
31AB
330
18
100
AcDbEntity
  8
0
100
AcDbLine
 10
-1.862756400136196
 20
-34.03761060900202
 30
0.0
 11
-1.742756764208303
 21
-34.31760975949567
 31
0.0
1001
GradientColor1ACI
1070
     5
1001
GradientColor2ACI
1070
     2
1001
ACAD
1010
0.0
1020
0.0
1030
0.0
  0
LINE
  5
31AC
330
18
100
AcDbEntity
  8
0
100
AcDbLine
 10
-3.862756400566279
 20
-34.03761060918634
 30
0.0
 11
-3.742756764638388
 21
-34.31760975968
 31
0.0
1001
GradientColor1ACI
1070
     5
1001
GradientColor2ACI
1070
     2
1001
ACAD
1010
0.0
1020
0.0
1030
0.0
  0
LINE
  5
31AD
330
18
100
AcDbEntity
  8
0
100
AcDbLine
 10
4.257243593769149
 20
-34.31761061010038
 30
0.0
 11
4.59724272752607
 21
-34.41761035532277
 31
0.0
1001
GradientColor1ACI
1070
     5
1001
GradientColor2ACI
1070
     2
1001
ACAD
1010
0.0
1020
0.0
1030
0.0
  0
LINE
  5
31AE
330
18
100
AcDbEntity
  8
0
100
AcDbLine
 10
2.257243593753201
 20
-34.3176106101635
 30
0.0
 11
2.597242727510121
 21
-34.4176103553859
 31
0.0
1001
GradientColor1ACI
1070
     5
1001
GradientColor2ACI
1070
     2
1001
ACAD
1010
0.0
1020
0.0
1030
0.0
  0
LINE
  5
31AF
330
18
100
AcDbEntity
  8
0
100
AcDbLine
 10
0.2572435937365602
 20
-34.31761061022643
 30
0.0
 11
0.5972427274934815
 21
-34.41761035544883
 31
0.0
1001
GradientColor1ACI
1070
     5
1001
GradientColor2ACI
1070
     2
1001
ACAD
1010
0.0
1020
0.0
1030
0.0
  0
LINE
  5
31B0
330
18
100
AcDbEntity
  8
0
100
AcDbLine
 10
-1.742756406280105
 20
-34.31761061028936
 30
0.0
 11
-1.402757272523184
 21
-34.41761035551176
 31
0.0
1001
GradientColor1ACI
1070
     5
1001
GradientColor2ACI
1070
     2
1001
ACAD
1010
0.0
1020
0.0
1030
0.0
  0
LINE
  5
31B1
330
18
100
AcDbEntity
  8
0
100
AcDbLine
 10
-3.742756406296334
 20
-34.3176106103524
 30
0.0
 11
-3.402757272539413
 21
-34.4176103555748
 31
0.0
1001
GradientColor1ACI
1070
     5
1001
GradientColor2ACI
1070
     2
1001
ACAD
1010
0.0
1020
0.0
1030
0.0
  0
LINE
  5
31B2
330
18
100
AcDbEntity
  8
0
100
AcDbLine
 10
4.597243590872374
 20
-33.65761061830934
 30
0.0
 11
4.9172434505975
 21
-33.77761056570891
 31
0.0
1001
GradientColor1ACI
1070
     5
1001
GradientColor2ACI
1070
     2
1001
ACAD
1010
0.0
1020
0.0
1030
0.0
  0
LINE
  5
31B3
330
18
100
AcDbEntity
  8
0
100
AcDbLine
 10
2.597243590959971
 20
-33.6576106180769
 30
0.0
 11
2.917243450685098
 21
-33.77761056547647
 31
0.0
1001
GradientColor1ACI
1070
     5
1001
GradientColor2ACI
1070
     2
1001
ACAD
1010
0.0
1020
0.0
1030
0.0
  0
LINE
  5
31B4
330
18
100
AcDbEntity
  8
0
100
AcDbLine
 10
0.5972435910475582
 20
-33.65761061784445
 30
0.0
 11
0.917243450772684
 21
-33.77761056524402
 31
0.0
1001
GradientColor1ACI
1070
     5
1001
GradientColor2ACI
1070
     2
1001
ACAD
1010
0.0
1020
0.0
1030
0.0
  0
LINE
  5
31B5
330
18
100
AcDbEntity
  8
0
100
AcDbLine
 10
-1.402756408864958
 20
-33.65761061761197
 30
0.0
 11
-1.082756549139831
 21
-33.77761056501154
 31
0.0
1001
GradientColor1ACI
1070
     5
1001
GradientColor2ACI
1070
     2
1001
ACAD
1010
0.0
1020
0.0
1030
0.0
  0
LINE
  5
31B6
330
18
100
AcDbEntity
  8
0
100
AcDbLine
 10
-3.402756408777158
 20
-33.6576106173796
 30
0.0
 11
-3.082756549052033
 21
-33.77761056477917
 31
0.0
1001
GradientColor1ACI
1070
     5
1001
GradientColor2ACI
1070
     2
1001
ACAD
1010
0.0
1020
0.0
1030
0.0
  0
LINE
  5
31B7
330
18
100
AcDbEntity
  8
0
100
AcDbLine
 10
-5.399999999999941
 20
-33.65864427040579
 30
0.0
 11
-5.082756548964485
 21
-33.77761056454672
 31
0.0
1001
GradientColor1ACI
1070
     5
1001
GradientColor2ACI
1070
     2
1001
ACAD
1010
0.0
1020
0.0
1030
0.0
  0
LINE
  5
31B8
330
18
100
AcDbEntity
  8
0
100
AcDbLine
 10
4.917243609885568
 20
-33.77761060398553
 30
0.0
 11
5.037243433351568
 21
-34.03761022149319
 31
0.0
1001
GradientColor1ACI
1070
     5
1001
GradientColor2ACI
1070
     2
1001
ACAD
1010
0.0
1020
0.0
1030
0.0
  0
LINE
  5
31B9
330
18
100
AcDbEntity
  8
0
100
AcDbLine
 10
2.917243609050125
 20
-33.77761060438026
 30
0.0
 11
3.037243432516126
 21
-34.03761022188792
 31
0.0
1001
GradientColor1ACI
1070
     5
1001
GradientColor2ACI
1070
     2
1001
ACAD
1010
0.0
1020
0.0
1030
0.0
  0
LINE
  5
31BA
330
18
100
AcDbEntity
  8
0
100
AcDbLine
 10
0.9172436082146827
 20
-33.77761060477498
 30
0.0
 11
1.037243431680682
 21
-34.03761022228264
 31
0.0
1001
GradientColor1ACI
1070
     5
1001
GradientColor2ACI
1070
     2
1001
ACAD
1010
0.0
1020
0.0
1030
0.0
  0
LINE
  5
31BB
330
18
100
AcDbEntity
  8
0
100
AcDbLine
 10
-1.082756392621522
 20
-33.77761060516805
 30
0.0
 11
-0.9627565691555227
 21
-34.03761022267571
 31
0.0
1001
GradientColor1ACI
1070
     5
1001
GradientColor2ACI
1070
     2
1001
ACAD
1010
0.0
1020
0.0
1030
0.0
  0
LINE
  5
31BC
330
18
100
AcDbEntity
  8
0
100
AcDbLine
 10
-3.082756393456966
 20
-33.77761060556277
 30
0.0
 11
-2.962756569990965
 21
-34.03761022307043
 31
0.0
1001
GradientColor1ACI
1070
     5
1001
GradientColor2ACI
1070
     2
1001
ACAD
1010
0.0
1020
0.0
1030
0.0
  0
LINE
  5
31BD
330
18
100
AcDbEntity
  8
0
100
AcDbLine
 10
-5.082756394292646
 20
-33.77761060595698
 30
0.0
 11
-4.962756570826647
 21
-34.03761022346464
 31
0.0
1001
GradientColor1ACI
1070
     5
1001
GradientColor2ACI
1070
     2
1001
ACAD
1010
0.0
1020
0.0
1030
0.0
  0
LINE
  5
31BE
330
18
100
AcDbEntity
  8
0
100
AcDbLine
 10
-3.842756407343271
 20
-34.03761061150962
 30
0.0
 11
-3.722756771417333
 21
-33.75761146101512
 31
0.0
1001
GradientColor1ACI
1070
     5
1001
GradientColor2ACI
1070
     2
1001
ACAD
1010
0.0
1020
0.0
1030
0.0
  0
LINE
  5
31BF
330
18
100
AcDbEntity
  8
0
100
AcDbLine
 10
-1.842756407401907
 20
-34.03761061148401
 30
0.0
 11
-1.722756771475969
 21
-33.75761146098952
 31
0.0
1001
GradientColor1ACI
1070
     5
1001
GradientColor2ACI
1070
     2
1001
ACAD
1010
0.0
1020
0.0
1030
0.0
  0
LINE
  5
31C0
330
18
100
AcDbEntity
  8
0
100
AcDbLine
 10
0.1572435925394553
 20
-34.03761061145842
 30
0.0
 11
0.2772432284653934
 21
-33.75761146096392
 31
0.0
1001
GradientColor1ACI
1070
     5
1001
GradientColor2ACI
1070
     2
1001
ACAD
1010
0.0
1020
0.0
1030
0.0
  0
LINE
  5
31C1
330
18
100
AcDbEntity
  8
0
100
AcDbLine
 10
2.157243592480819
 20
-34.03761061143284
 30
0.0
 11
2.277243228406756
 21
-33.75761146093832
 31
0.0
1001
GradientColor1ACI
1070
     5
1001
GradientColor2ACI
1070
     2
1001
ACAD
1010
0.0
1020
0.0
1030
0.0
  0
LINE
  5
31C2
330
18
100
AcDbEntity
  8
0
100
AcDbLine
 10
4.157243592422132
 20
-34.03761061140733
 30
0.0
 11
4.277243228348071
 21
-33.75761146091282
 31
0.0
1001
GradientColor1ACI
1070
     5
1001
GradientColor2ACI
1070
     2
1001
ACAD
1010
0.0
1020
0.0
1030
0.0
  0
LINE
  5
31C3
330
18
100
AcDbEntity
  8
0
100
AcDbLine
 10
-3.722756406674696
 20
-33.75761061180121
 30
0.0
 11
-3.402755540278783
 21
-33.65761034105226
 31
0.0
1001
GradientColor1ACI
1070
     5
1001
GradientColor2ACI
1070
     2
1001
ACAD
1010
0.0
1020
0.0
1030
0.0
  0
LINE
  5
31C4
330
18
100
AcDbEntity
  8
0
100
AcDbLine
 10
-1.722756406646336
 20
-33.7576106118875
 30
0.0
 11
-1.40275554025042
 21
-33.65761034113854
 31
0.0
1001
GradientColor1ACI
1070
     5
1001
GradientColor2ACI
1070
     2
1001
ACAD
1010
0.0
1020
0.0
1030
0.0
  0
LINE
  5
31C5
330
18
100
AcDbEntity
  8
0
100
AcDbLine
 10
0.2772435933820647
 20
-33.75761061197378
 30
0.0
 11
0.5972444597779793
 21
-33.65761034122483
 31
0.0
1001
GradientColor1ACI
1070
     5
1001
GradientColor2ACI
1070
     2
1001
ACAD
1010
0.0
1020
0.0
1030
0.0
  0
LINE
  5
31C6
330
18
100
AcDbEntity
  8
0
100
AcDbLine
 10
2.27724359341039
 20
-33.75761061206008
 30
0.0
 11
2.597244459806305
 21
-33.65761034131112
 31
0.0
1001
GradientColor1ACI
1070
     5
1001
GradientColor2ACI
1070
     2
1001
ACAD
1010
0.0
1020
0.0
1030
0.0
  0
LINE
  5
31C7
330
18
100
AcDbEntity
  8
0
100
AcDbLine
 10
4.277243593438772
 20
-33.75761061214638
 30
0.0
 11
4.597244459834684
 21
-33.65761034139741
 31
0.0
1001
GradientColor1ACI
1070
     5
1001
GradientColor2ACI
1070
     2
1001
ACAD
1010
0.0
1020
0.0
1030
0.0
  0
LINE
  5
31C8
330
18
100
AcDbEntity
  8
0
100
AcDbLine
 10
-4.822756406934938
 20
-34.03761061170679
 30
0.0
 11
-4.762756433236265
 21
-33.8776106818438
 31
0.0
1001
GradientColor1ACI
1070
     5
1001
GradientColor2ACI
1070
     2
1001
ACAD
1010
0.0
1020
0.0
1030
0.0
  0
LINE
  5
31C9
330
18
100
AcDbEntity
  8
0
100
AcDbLine
 10
-2.822756406957761
 20
-34.03761061169849
 30
0.0
 11
-2.762756433259089
 21
-33.8776106818355
 31
0.0
1001
GradientColor1ACI
1070
     5
1001
GradientColor2ACI
1070
     2
1001
ACAD
1010
0.0
1020
0.0
1030
0.0
  0
LINE
  5
31CA
330
18
100
AcDbEntity
  8
0
100
AcDbLine
 10
-0.8227564069805886
 20
-34.03761061169018
 30
0.0
 11
-0.7627564332819174
 21
-33.8776106818272
 31
0.0
1001
GradientColor1ACI
1070
     5
1001
GradientColor2ACI
1070
     2
1001
ACAD
1010
0.0
1020
0.0
1030
0.0
  0
LINE
  5
31CB
330
18
100
AcDbEntity
  8
0
100
AcDbLine
 10
1.177243592996589
 20
-34.03761061168187
 30
0.0
 11
1.237243566695259
 21
-33.8776106818189
 31
0.0
1001
GradientColor1ACI
1070
     5
1001
GradientColor2ACI
1070
     2
1001
ACAD
1010
0.0
1020
0.0
1030
0.0
  0
LINE
  5
31CC
330
18
100
AcDbEntity
  8
0
100
AcDbLine
 10
3.177243592973766
 20
-34.03761061167357
 30
0.0
 11
3.237243566672437
 21
-33.87761068181059
 31
0.0
1001
GradientColor1ACI
1070
     5
1001
GradientColor2ACI
1070
     2
1001
ACAD
1010
0.0
1020
0.0
1030
0.0
  0
LINE
  5
31CD
330
18
100
AcDbEntity
  8
0
100
AcDbLine
 10
5.177243592950939
 20
-34.03761061166527
 30
0.0
 11
5.237243566649611
 21
-33.87761068180229
 31
0.0
1001
GradientColor1ACI
1070
     5
1001
GradientColor2ACI
1070
     2
1001
ACAD
1010
0.0
1020
0.0
1030
0.0
  0
LINE
  5
31CE
330
18
100
AcDbEntity
  8
0
100
AcDbLine
 10
-3.962756406482212
 20
-34.03761061176157
 30
0.0
 11
-3.982756329943568
 21
-33.9376109944546
 31
0.0
1001
GradientColor1ACI
1070
     5
1001
GradientColor2ACI
1070
     2
1001
ACAD
1010
0.0
1020
0.0
1030
0.0
  0
LINE
  5
31CF
330
18
100
AcDbEntity
  8
0
100
AcDbLine
 10
-1.962756406468443
 20
-34.0376106117589
 30
0.0
 11
-1.982756329929799
 21
-33.93761099445193
 31
0.0
1001
GradientColor1ACI
1070
     5
1001
GradientColor2ACI
1070
     2
1001
ACAD
1010
0.0
1020
0.0
1030
0.0
  0
LINE
  5
31D0
330
18
100
AcDbEntity
  8
0
100
AcDbLine
 10
0.0372435935453073
 20
-34.03761061175611
 30
0.0
 11
0.0172436700839516
 21
-33.93761099444914
 31
0.0
1001
GradientColor1ACI
1070
     5
1001
GradientColor2ACI
1070
     2
1001
ACAD
1010
0.0
1020
0.0
1030
0.0
  0
LINE
  5
31D1
330
18
100
AcDbEntity
  8
0
100
AcDbLine
 10
2.03724359355901
 20
-34.0376106117531
 30
0.0
 11
2.017243670097654
 21
-33.93761099444613
 31
0.0
1001
GradientColor1ACI
1070
     5
1001
GradientColor2ACI
1070
     2
1001
ACAD
1010
0.0
1020
0.0
1030
0.0
  0
LINE
  5
31D2
330
18
100
AcDbEntity
  8
0
100
AcDbLine
 10
4.037243593572759
 20
-34.03761061175032
 30
0.0
 11
4.017243670111404
 21
-33.93761099444335
 31
0.0
1001
GradientColor1ACI
1070
     5
1001
GradientColor2ACI
1070
     2
1001
ACAD
1010
0.0
1020
0.0
1030
0.0
  0
LINE
  5
31D3
330
18
100
AcDbEntity
  8
0
100
AcDbLine
 10
-3.982756406734453
 20
-33.93761061205808
 30
0.0
 11
-4.382755860969247
 21
-33.83761074849882
 31
0.0
1001
GradientColor1ACI
1070
     5
1001
GradientColor2ACI
1070
     2
1001
ACAD
1010
0.0
1020
0.0
1030
0.0
  0
LINE
  5
31D4
330
18
100
AcDbEntity
  8
0
100
AcDbLine
 10
-1.982756406736835
 20
-33.93761061206836
 30
0.0
 11
-2.382755860971629
 21
-33.83761074850912
 31
0.0
1001
GradientColor1ACI
1070
     5
1001
GradientColor2ACI
1070
     2
1001
ACAD
1010
0.0
1020
0.0
1030
0.0
  0
LINE
  5
31D5
330
18
100
AcDbEntity
  8
0
100
AcDbLine
 10
0.0172435932607651
 20
-33.93761061207865
 30
0.0
 11
-0.3827558609740285
 21
-33.83761074851939
 31
0.0
1001
GradientColor1ACI
1070
     5
1001
GradientColor2ACI
1070
     2
1001
ACAD
1010
0.0
1020
0.0
1030
0.0
  0
LINE
  5
31D6
330
18
100
AcDbEntity
  8
0
100
AcDbLine
 10
2.017243593258355
 20
-33.93761061208893
 30
0.0
 11
1.617244139023561
 21
-33.83761074852968
 31
0.0
1001
GradientColor1ACI
1070
     5
1001
GradientColor2ACI
1070
     2
1001
ACAD
1010
0.0
1020
0.0
1030
0.0
  0
LINE
  5
31D7
330
18
100
AcDbEntity
  8
0
100
AcDbLine
 10
4.017243593255962
 20
-33.9376106120992
 30
0.0
 11
3.617244139021167
 21
-33.83761074853997
 31
0.0
1001
GradientColor1ACI
1070
     5
1001
GradientColor2ACI
1070
     2
1001
ACAD
1010
0.0
1020
0.0
1030
0.0
  0
LINE
  5
31D8
330
18
100
AcDbEntity
  8
0
100
AcDbLine
 10
5.399999999999942
 20
-33.86047836575948
 30
0.0
 11
5.237243060519815
 21
-33.87761067517703
 31
0.0
1001
GradientColor1ACI
1070
     5
1001
GradientColor2ACI
1070
     2
1001
ACAD
1010
0.0
1020
0.0
1030
0.0
  0
LINE
  5
31D9
330
18
100
AcDbEntity
  8
0
100
AcDbLine
 10
3.61724359411572
 20
-33.83761061934392
 30
0.0
 11
3.237243060554106
 21
-33.87761067550497
 31
0.0
1001
GradientColor1ACI
1070
     5
1001
GradientColor2ACI
1070
     2
1001
ACAD
1010
0.0
1020
0.0
1030
0.0
  0
LINE
  5
31DA
330
18
100
AcDbEntity
  8
0
100
AcDbLine
 10
1.617243594150119
 20
-33.83761061967184
 30
0.0
 11
1.237243060588504
 21
-33.87761067583291
 31
0.0
1001
GradientColor1ACI
1070
     5
1001
GradientColor2ACI
1070
     2
1001
ACAD
1010
0.0
1020
0.0
1030
0.0
  0
LINE
  5
31DB
330
18
100
AcDbEntity
  8
0
100
AcDbLine
 10
-0.3827564058155959
 20
-33.8376106199998
 30
0.0
 11
-0.7627569393772104
 21
-33.87761067616085
 31
0.0
1001
GradientColor1ACI
1070
     5
1001
GradientColor2ACI
1070
     2
1001
ACAD
1010
0.0
1020
0.0
1030
0.0
  0
LINE
  5
31DC
330
18
100
AcDbEntity
  8
0
100
AcDbLine
 10
-2.382756405781196
 20
-33.83761062032772
 30
0.0
 11
-2.762756939342811
 21
-33.8776106764888
 31
0.0
1001
GradientColor1ACI
1070
     5
1001
GradientColor2ACI
1070
     2
1001
ACAD
1010
0.0
1020
0.0
1030
0.0
  0
LINE
  5
31DD
330
18
100
AcDbEntity
  8
0
100
AcDbLine
 10
-4.382756405747024
 20
-33.83761062065568
 30
0.0
 11
-4.76275693930864
 21
-33.87761067681675
 31
0.0
1001
GradientColor1ACI
1070
     5
1001
GradientColor2ACI
1070
     2
1001
ACAD
1010
0.0
1020
0.0
1030
0.0
  0
LINE
  5
31DE
330
18
100
AcDbEntity
  8
0
100
AcDbLine
 10
3.837243593407674
 20
-32.7976106117498
 30
0.0
 11
3.997243536807751
 21
-33.03761052684973
 31
0.0
1001
GradientColor1ACI
1070
     5
1001
GradientColor2ACI
1070
     2
1001
ACAD
1010
0.0
1020
0.0
1030
0.0
  0
LINE
  5
31DF
330
18
100
AcDbEntity
  8
0
100
AcDbLine
 10
1.837243593403355
 20
-32.79761061175253
 30
0.0
 11
1.997243536803431
 21
-33.03761052685246
 31
0.0
1001
GradientColor1ACI
1070
     5
1001
GradientColor2ACI
1070
     2
1001
ACAD
1010
0.0
1020
0.0
1030
0.0
  0
LINE
  5
31E0
330
18
100
AcDbEntity
  8
0
100
AcDbLine
 10
-0.1627564066009799
 20
-32.79761061175521
 30
0.0
 11
-0.0027564632009036
 21
-33.03761052685514
 31
0.0
1001
GradientColor1ACI
1070
     5
1001
GradientColor2ACI
1070
     2
1001
ACAD
1010
0.0
1020
0.0
1030
0.0
  0
LINE
  5
31E1
330
18
100
AcDbEntity
  8
0
100
AcDbLine
 10
-2.162756406605318
 20
-32.7976106117579
 30
0.0
 11
-2.002756463205241
 21
-33.03761052685783
 31
0.0
1001
GradientColor1ACI
1070
     5
1001
GradientColor2ACI
1070
     2
1001
ACAD
1010
0.0
1020
0.0
1030
0.0
  0
LINE
  5
31E2
330
18
100
AcDbEntity
  8
0
100
AcDbLine
 10
-4.162756406609653
 20
-32.7976106117606
 30
0.0
 11
-4.002756463209576
 21
-33.03761052686053
 31
0.0
1001
GradientColor1ACI
1070
     5
1001
GradientColor2ACI
1070
     2
1001
ACAD
1010
0.0
1020
0.0
1030
0.0
  0
LINE
  5
31E3
330
18
100
AcDbEntity
  8
0
100
AcDbLine
 10
3.997243597280986
 20
-33.03761057896245
 30
0.0
 11
4.497244458620555
 21
-33.09761068232647
 31
0.0
1001
GradientColor1ACI
1070
     5
1001
GradientColor2ACI
1070
     2
1001
ACAD
1010
0.0
1020
0.0
1030
0.0
  0
LINE
  5
31E4
330
18
100
AcDbEntity
  8
0
100
AcDbLine
 10
1.997243597203387
 20
-33.03761057960635
 30
0.0
 11
2.497244458542955
 21
-33.09761068297036
 31
0.0
1001
GradientColor1ACI
1070
     5
1001
GradientColor2ACI
1070
     2
1001
ACAD
1010
0.0
1020
0.0
1030
0.0
  0
LINE
  5
31E5
330
18
100
AcDbEntity
  8
0
100
AcDbLine
 10
-0.0027564028751268
 20
-33.03761058025012
 30
0.0
 11
0.4972444584644414
 21
-33.09761068361414
 31
0.0
1001
GradientColor1ACI
1070
     5
1001
GradientColor2ACI
1070
     2
1001
ACAD
1010
0.0
1020
0.0
1030
0.0
  0
LINE
  5
31E6
330
18
100
AcDbEntity
  8
0
100
AcDbLine
 10
-2.002756402952826
 20
-33.03761058089399
 30
0.0
 11
-1.502755541613258
 21
-33.09761068425802
 31
0.0
1001
GradientColor1ACI
1070
     5
1001
GradientColor2ACI
1070
     2
1001
ACAD
1010
0.0
1020
0.0
1030
0.0
  0
LINE
  5
31E7
330
18
100
AcDbEntity
  8
0
100
AcDbLine
 10
-4.002756403028921
 20
-33.03761058153805
 30
0.0
 11
-3.502755541689351
 21
-33.09761068490208
 31
0.0
1001
GradientColor1ACI
1070
     5
1001
GradientColor2ACI
1070
     2
1001
ACAD
1010
0.0
1020
0.0
1030
0.0
  0
LINE
  5
31E8
330
18
100
AcDbEntity
  8
0
100
AcDbLine
 10
-3.502756407218186
 20
-33.09761061150676
 30
0.0
 11
-3.402756699973256
 21
-32.91761113846606
 31
0.0
1001
GradientColor1ACI
1070
     5
1001
GradientColor2ACI
1070
     2
1001
ACAD
1010
0.0
1020
0.0
1030
0.0
  0
LINE
  5
31E9
330
18
100
AcDbEntity
  8
0
100
AcDbLine
 10
-1.50275640726872
 20
-33.09761061147892
 30
0.0
 11
-1.40275670002379
 21
-32.91761113843822
 31
0.0
1001
GradientColor1ACI
1070
     5
1001
GradientColor2ACI
1070
     2
1001
ACAD
1010
0.0
1020
0.0
1030
0.0
  0
LINE
  5
31EA
330
18
100
AcDbEntity
  8
0
100
AcDbLine
 10
0.4972435926805224
 20
-33.0976106114515
 30
0.0
 11
0.5972432999254513
 21
-32.91761113841081
 31
0.0
1001
GradientColor1ACI
1070
     5
1001
GradientColor2ACI
1070
     2
1001
ACAD
1010
0.0
1020
0.0
1030
0.0
  0
LINE
  5
31EB
330
18
100
AcDbEntity
  8
0
100
AcDbLine
 10
2.497243592629771
 20
-33.09761061142406
 30
0.0
 11
2.597243299874699
 21
-32.91761113838337
 31
0.0
1001
GradientColor1ACI
1070
     5
1001
GradientColor2ACI
1070
     2
1001
ACAD
1010
0.0
1020
0.0
1030
0.0
  0
LINE
  5
31EC
330
18
100
AcDbEntity
  8
0
100
AcDbLine
 10
4.497243592579013
 20
-33.09761061139664
 30
0.0
 11
4.597243299823941
 21
-32.91761113835594
 31
0.0
1001
GradientColor1ACI
1070
     5
1001
GradientColor2ACI
1070
     2
1001
ACAD
1010
0.0
1020
0.0
1030
0.0
  0
LINE
  5
31ED
330
18
100
AcDbEntity
  8
0
100
AcDbLine
 10
-3.402756406674658
 20
-32.91761061180114
 30
0.0
 11
-3.402756406674656
 21
-32.79761061180114
 31
0.0
1001
GradientColor1ACI
1070
     5
1001
GradientColor2ACI
1070
     2
1001
ACAD
1010
0.0
1020
0.0
1030
0.0
  0
LINE
  5
31EE
330
18
100
AcDbEntity
  8
0
100
AcDbLine
 10
-1.402756406674658
 20
-32.91761061180114
 30
0.0
 11
-1.402756406674656
 21
-32.79761061180114
 31
0.0
1001
GradientColor1ACI
1070
     5
1001
GradientColor2ACI
1070
     2
1001
ACAD
1010
0.0
1020
0.0
1030
0.0
  0
LINE
  5
31EF
330
18
100
AcDbEntity
  8
0
100
AcDbLine
 10
0.5972435933253414
 20
-32.91761061180114
 30
0.0
 11
0.5972435933253431
 21
-32.79761061180114
 31
0.0
1001
GradientColor1ACI
1070
     5
1001
GradientColor2ACI
1070
     2
1001
ACAD
1010
0.0
1020
0.0
1030
0.0
  0
LINE
  5
31F0
330
18
100
AcDbEntity
  8
0
100
AcDbLine
 10
2.59724359332534
 20
-32.91761061180114
 30
0.0
 11
2.597243593325343
 21
-32.79761061180114
 31
0.0
1001
GradientColor1ACI
1070
     5
1001
GradientColor2ACI
1070
     2
1001
ACAD
1010
0.0
1020
0.0
1030
0.0
  0
LINE
  5
31F1
330
18
100
AcDbEntity
  8
0
100
AcDbLine
 10
4.59724359332534
 20
-32.91761061180114
 30
0.0
 11
4.597243593325342
 21
-32.79761061180114
 31
0.0
1001
GradientColor1ACI
1070
     5
1001
GradientColor2ACI
1070
     2
1001
ACAD
1010
0.0
1020
0.0
1030
0.0
  0
LINE
  5
31F2
330
18
100
AcDbEntity
  8
0
100
AcDbLine
 10
-4.422756385580165
 20
-33.77761059949091
 30
0.0
 11
-4.562755942281953
 21
-33.53761135943523
 31
0.0
1001
GradientColor1ACI
1070
     5
1001
GradientColor2ACI
1070
     2
1001
ACAD
1010
0.0
1020
0.0
1030
0.0
  0
LINE
  5
31F3
330
18
100
AcDbEntity
  8
0
100
AcDbLine
 10
-2.422756384200324
 20
-33.77761059868528
 30
0.0
 11
-2.562755940902109
 21
-33.5376113586296
 31
0.0
1001
GradientColor1ACI
1070
     5
1001
GradientColor2ACI
1070
     2
1001
ACAD
1010
0.0
1020
0.0
1030
0.0
  0
LINE
  5
31F4
330
18
100
AcDbEntity
  8
0
100
AcDbLine
 10
-0.4227563828204805
 20
-33.77761059787964
 30
0.0
 11
-0.5627559395222668
 21
-33.53761135782395
 31
0.0
1001
GradientColor1ACI
1070
     5
1001
GradientColor2ACI
1070
     2
1001
ACAD
1010
0.0
1020
0.0
1030
0.0
  0
LINE
  5
31F5
330
18
100
AcDbEntity
  8
0
100
AcDbLine
 10
1.577243618559364
 20
-33.777610597074
 30
0.0
 11
1.437244061857577
 21
-33.53761135701832
 31
0.0
1001
GradientColor1ACI
1070
     5
1001
GradientColor2ACI
1070
     2
1001
ACAD
1010
0.0
1020
0.0
1030
0.0
  0
LINE
  5
31F6
330
18
100
AcDbEntity
  8
0
100
AcDbLine
 10
3.577243619939666
 20
-33.77761059626916
 30
0.0
 11
3.43724406323788
 21
-33.53761135621347
 31
0.0
1001
GradientColor1ACI
1070
     5
1001
GradientColor2ACI
1070
     2
1001
ACAD
1010
0.0
1020
0.0
1030
0.0
  0
LINE
  5
31F7
330
18
100
AcDbEntity
  8
0
100
AcDbLine
 10
-4.562756407169834
 20
-33.53761061135269
 30
0.0
 11
-4.202757050635717
 21
-33.13761132631455
 31
0.0
1001
GradientColor1ACI
1070
     5
1001
GradientColor2ACI
1070
     2
1001
ACAD
1010
0.0
1020
0.0
1030
0.0
  0
LINE
  5
31F8
330
18
100
AcDbEntity
  8
0
100
AcDbLine
 10
-2.562756407222789
 20
-33.5376106113058
 30
0.0
 11
-2.20275705068867
 21
-33.13761132626765
 31
0.0
1001
GradientColor1ACI
1070
     5
1001
GradientColor2ACI
1070
     2
1001
ACAD
1010
0.0
1020
0.0
1030
0.0
  0
LINE
  5
31F9
330
18
100
AcDbEntity
  8
0
100
AcDbLine
 10
-0.5627564072753679
 20
-33.53761061125847
 30
0.0
 11
-0.2027570507412499
 21
-33.13761132622032
 31
0.0
1001
GradientColor1ACI
1070
     5
1001
GradientColor2ACI
1070
     2
1001
ACAD
1010
0.0
1020
0.0
1030
0.0
  0
LINE
  5
31FA
330
18
100
AcDbEntity
  8
0
100
AcDbLine
 10
1.437243592672053
 20
-33.53761061121114
 30
0.0
 11
1.797242949206171
 21
-33.137611326173
 31
0.0
1001
GradientColor1ACI
1070
     5
1001
GradientColor2ACI
1070
     2
1001
ACAD
1010
0.0
1020
0.0
1030
0.0
  0
LINE
  5
31FB
330
18
100
AcDbEntity
  8
0
100
AcDbLine
 10
3.437243592620086
 20
-33.53761061116315
 30
0.0
 11
3.797242949154205
 21
-33.137611326125
 31
0.0
1001
GradientColor1ACI
1070
     5
1001
GradientColor2ACI
1070
     2
1001
ACAD
1010
0.0
1020
0.0
1030
0.0
  0
LINE
  5
31FC
330
18
100
AcDbEntity
  8
0
100
AcDbLine
 10
-4.202756406674669
 20
-33.13761061180115
 30
0.0
 11
-3.682756406674667
 21
-33.13761061180115
 31
0.0
1001
GradientColor1ACI
1070
     5
1001
GradientColor2ACI
1070
     2
1001
ACAD
1010
0.0
1020
0.0
1030
0.0
  0
LINE
  5
31FD
330
18
100
AcDbEntity
  8
0
100
AcDbLine
 10
-2.202756406674669
 20
-33.13761061180115
 30
0.0
 11
-1.682756406674666
 21
-33.13761061180115
 31
0.0
1001
GradientColor1ACI
1070
     5
1001
GradientColor2ACI
1070
     2
1001
ACAD
1010
0.0
1020
0.0
1030
0.0
  0
LINE
  5
31FE
330
18
100
AcDbEntity
  8
0
100
AcDbLine
 10
-0.2027564066746708
 20
-33.13761061180115
 30
0.0
 11
0.3172435933253324
 21
-33.13761061180115
 31
0.0
1001
GradientColor1ACI
1070
     5
1001
GradientColor2ACI
1070
     2
1001
ACAD
1010
0.0
1020
0.0
1030
0.0
  0
LINE
  5
31FF
330
18
100
AcDbEntity
  8
0
100
AcDbLine
 10
1.797243593325329
 20
-33.13761061180115
 30
0.0
 11
2.317243593325331
 21
-33.13761061180115
 31
0.0
1001
GradientColor1ACI
1070
     5
1001
GradientColor2ACI
1070
     2
1001
ACAD
1010
0.0
1020
0.0
1030
0.0
  0
LINE
  5
3200
330
18
100
AcDbEntity
  8
0
100
AcDbLine
 10
3.797243593325328
 20
-33.13761061180115
 30
0.0
 11
4.317243593325331
 21
-33.13761061180115
 31
0.0
1001
GradientColor1ACI
1070
     5
1001
GradientColor2ACI
1070
     2
1001
ACAD
1010
0.0
1020
0.0
1030
0.0
  0
LINE
  5
3201
330
18
100
AcDbEntity
  8
0
100
AcDbLine
 10
4.317243604982644
 20
-33.13761059500524
 30
0.0
 11
4.577243797362512
 21
-33.31761072818973
 31
0.0
1001
GradientColor1ACI
1070
     5
1001
GradientColor2ACI
1070
     2
1001
ACAD
1010
0.0
1020
0.0
1030
0.0
  0
LINE
  5
3202
330
18
100
AcDbEntity
  8
0
100
AcDbLine
 10
2.317243604469902
 20
-33.13761059574503
 30
0.0
 11
2.577243796849768
 21
-33.31761072892952
 31
0.0
1001
GradientColor1ACI
1070
     5
1001
GradientColor2ACI
1070
     2
1001
ACAD
1010
0.0
1020
0.0
1030
0.0
  0
LINE
  5
3203
330
18
100
AcDbEntity
  8
0
100
AcDbLine
 10
0.3172436039556654
 20
-33.13761059648378
 30
0.0
 11
0.577243796335532
 21
-33.31761072966826
 31
0.0
1001
GradientColor1ACI
1070
     5
1001
GradientColor2ACI
1070
     2
1001
ACAD
1010
0.0
1020
0.0
1030
0.0
  0
LINE
  5
3204
330
18
100
AcDbEntity
  8
0
100
AcDbLine
 10
-1.682756396556325
 20
-33.13761059722408
 30
0.0
 11
-1.422756204176459
 21
-33.31761073040857
 31
0.0
1001
GradientColor1ACI
1070
     5
1001
GradientColor2ACI
1070
     2
1001
ACAD
1010
0.0
1020
0.0
1030
0.0
  0
LINE
  5
3205
330
18
100
AcDbEntity
  8
0
100
AcDbLine
 10
-3.682756397070563
 20
-33.13761059796283
 30
0.0
 11
-3.422756204690696
 21
-33.31761073114731
 31
0.0
1001
GradientColor1ACI
1070
     5
1001
GradientColor2ACI
1070
     2
1001
ACAD
1010
0.0
1020
0.0
1030
0.0
  0
LINE
  5
3206
330
18
100
AcDbEntity
  8
0
100
AcDbLine
 10
4.577243594522133
 20
-33.31761061214908
 30
0.0
 11
4.497243703193531
 21
-33.59761023179777
 31
0.0
1001
GradientColor1ACI
1070
     5
1001
GradientColor2ACI
1070
     2
1001
ACAD
1010
0.0
1020
0.0
1030
0.0
  0
LINE
  5
3207
330
18
100
AcDbEntity
  8
0
100
AcDbLine
 10
2.577243594447404
 20
-33.31761061212711
 30
0.0
 11
2.4972437031188
 21
-33.5976102317758
 31
0.0
1001
GradientColor1ACI
1070
     5
1001
GradientColor2ACI
1070
     2
1001
ACAD
1010
0.0
1020
0.0
1030
0.0
  0
LINE
  5
3208
330
18
100
AcDbEntity
  8
0
100
AcDbLine
 10
0.5772435943726128
 20
-33.31761061210536
 30
0.0
 11
0.4972437030440103
 21
-33.59761023175405
 31
0.0
1001
GradientColor1ACI
1070
     5
1001
GradientColor2ACI
1070
     2
1001
ACAD
1010
0.0
1020
0.0
1030
0.0
  0
LINE
  5
3209
330
18
100
AcDbEntity
  8
0
100
AcDbLine
 10
-1.422756405702245
 20
-33.31761061208382
 30
0.0
 11
-1.502756297030848
 21
-33.59761023173251
 31
0.0
1001
GradientColor1ACI
1070
     5
1001
GradientColor2ACI
1070
     2
1001
ACAD
1010
0.0
1020
0.0
1030
0.0
  0
LINE
  5
320A
330
18
100
AcDbEntity
  8
0
100
AcDbLine
 10
-3.422756405777006
 20
-33.31761061206195
 30
0.0
 11
-3.502756297105609
 21
-33.59761023171064
 31
0.0
1001
GradientColor1ACI
1070
     5
1001
GradientColor2ACI
1070
     2
1001
ACAD
1010
0.0
1020
0.0
1030
0.0
  0
LINE
  5
320B
330
18
100
AcDbEntity
  8
0
100
AcDbLine
 10
4.497243583903253
 20
-33.59761059380307
 30
0.0
 11
4.077244278081881
 21
-33.81761023018814
 31
0.0
1001
GradientColor1ACI
1070
     5
1001
GradientColor2ACI
1070
     2
1001
ACAD
1010
0.0
1020
0.0
1030
0.0
  0
LINE
  5
320C
330
18
100
AcDbEntity
  8
0
100
AcDbLine
 10
2.497243584906031
 20
-33.59761059571753
 30
0.0
 11
2.077244279084659
 21
-33.8176102321026
 31
0.0
1001
GradientColor1ACI
1070
     5
1001
GradientColor2ACI
1070
     2
1001
ACAD
1010
0.0
1020
0.0
1030
0.0
  0
LINE
  5
320D
330
18
100
AcDbEntity
  8
0
100
AcDbLine
 10
0.4972435859080046
 20
-33.59761059763241
 30
0.0
 11
0.0772442800866315
 21
-33.81761023401748
 31
0.0
1001
GradientColor1ACI
1070
     5
1001
GradientColor2ACI
1070
     2
1001
ACAD
1010
0.0
1020
0.0
1030
0.0
  0
LINE
  5
320E
330
18
100
AcDbEntity
  8
0
100
AcDbLine
 10
-1.502756413089612
 20
-33.59761059954708
 30
0.0
 11
-1.922755718910985
 21
-33.81761023593214
 31
0.0
1001
GradientColor1ACI
1070
     5
1001
GradientColor2ACI
1070
     2
1001
ACAD
1010
0.0
1020
0.0
1030
0.0
  0
LINE
  5
320F
330
18
100
AcDbEntity
  8
0
100
AcDbLine
 10
-3.502756412087636
 20
-33.59761060146194
 30
0.0
 11
-3.92275571790901
 21
-33.81761023784701
 31
0.0
1001
GradientColor1ACI
1070
     5
1001
GradientColor2ACI
1070
     2
1001
ACAD
1010
0.0
1020
0.0
1030
0.0
  0
LINE
  5
3210
330
18
100
AcDbEntity
  8
0
100
AcDbLine
 10
-3.922756406235748
 20
-33.81761060617809
 30
0.0
 11
-4.422756956318838
 21
-33.77761056217057
 31
0.0
1001
GradientColor1ACI
1070
     5
1001
GradientColor2ACI
1070
     2
1001
ACAD
1010
0.0
1020
0.0
1030
0.0
  0
LINE
  5
3211
330
18
100
AcDbEntity
  8
0
100
AcDbLine
 10
-1.922756406228346
 20
-33.81761060609163
 30
0.0
 11
-2.422756956311438
 21
-33.77761056208411
 31
0.0
1001
GradientColor1ACI
1070
     5
1001
GradientColor2ACI
1070
     2
1001
ACAD
1010
0.0
1020
0.0
1030
0.0
  0
LINE
  5
3212
330
18
100
AcDbEntity
  8
0
100
AcDbLine
 10
0.0772435937781548
 20
-33.8176106060051
 30
0.0
 11
-0.4227569563049359
 21
-33.77761056199759
 31
0.0
1001
GradientColor1ACI
1070
     5
1001
GradientColor2ACI
1070
     2
1001
ACAD
1010
0.0
1020
0.0
1030
0.0
  0
LINE
  5
3213
330
18
100
AcDbEntity
  8
0
100
AcDbLine
 10
2.077243593785114
 20
-33.81761060591863
 30
0.0
 11
1.577243043702023
 21
-33.7776105619111
 31
0.0
1001
GradientColor1ACI
1070
     5
1001
GradientColor2ACI
1070
     2
1001
ACAD
1010
0.0
1020
0.0
1030
0.0
  0
LINE
  5
3214
330
18
100
AcDbEntity
  8
0
100
AcDbLine
 10
4.077243593791616
 20
-33.81761060583207
 30
0.0
 11
3.577243043708526
 21
-33.77761056182456
 31
0.0
1001
GradientColor1ACI
1070
     5
1001
GradientColor2ACI
1070
     2
1001
ACAD
1010
0.0
1020
0.0
1030
0.0
  0
LINE
  5
3215
330
18
100
AcDbEntity
  8
0
100
AcDbLine
 10
-0.0000000000000853
 20
-13.27942414376674
 30
0.0
 11
0.0446238227286529
 21
-13.25366056770217
 31
0.0
  0
LINE
  5
3216
330
18
100
AcDbEntity
  8
0
100
AcDbLine
 10
0.0446238227286529
 20
-13.25366056770217
 30
0.0
 11
0.0446238227286529
 21
-13.20213341557282
 31
0.0
  0
LINE
  5
3217
330
18
100
AcDbEntity
  8
0
100
AcDbLine
 10
0.0446238227286529
 20
-13.20213341557282
 30
0.0
 11
-0.0000000000000853
 21
-13.17636983950804
 31
0.0
  0
LINE
  5
3218
330
18
100
AcDbEntity
  8
0
100
AcDbLine
 10
-0.0000000000000853
 20
-13.27942414376674
 30
0.0
 11
-0.0446238227286529
 21
-13.25366056770217
 31
0.0
  0
LINE
  5
3219
330
18
100
AcDbEntity
  8
0
100
AcDbLine
 10
-0.0446238227286529
 20
-13.25366056770217
 30
0.0
 11
-0.0446238227286529
 21
-13.20213341557282
 31
0.0
  0
LINE
  5
321A
330
18
100
AcDbEntity
  8
0
100
AcDbLine
 10
-0.0446238227286529
 20
-13.20213341557282
 30
0.0
 11
-0.0000000000000853
 21
-13.17636983950804
 31
0.0
  0
LINE
  5
321B
330
18
100
AcDbEntity
  8
0
100
AcDbLine
 10
-0.0000000000000853
 20
-6.726369839508065
 30
0.0
 11
0.0446238227286529
 21
-6.752133415572842
 31
0.0
  0
LINE
  5
321C
330
18
100
AcDbEntity
  8
0
100
AcDbLine
 10
0.0446238227286529
 20
-6.752133415572842
 30
0.0
 11
0.0446238227286529
 21
-6.803660567702181
 31
0.0
  0
LINE
  5
321D
330
18
100
AcDbEntity
  8
0
100
AcDbLine
 10
0.0446238227286529
 20
-6.803660567702181
 30
0.0
 11
-0.0000000000000853
 21
-6.829424143766742
 31
0.0
  0
LINE
  5
321E
330
18
100
AcDbEntity
  8
0
100
AcDbLine
 10
-0.0000000000000853
 20
-6.726369839508065
 30
0.0
 11
-0.0446238227286529
 21
-6.752133415572842
 31
0.0
  0
LINE
  5
321F
330
18
100
AcDbEntity
  8
0
100
AcDbLine
 10
-0.0446238227286529
 20
-6.752133415572842
 30
0.0
 11
-0.0446238227286529
 21
-6.803660567702181
 31
0.0
  0
LINE
  5
3220
330
18
100
AcDbEntity
  8
0
100
AcDbLine
 10
-0.0446238227286529
 20
-6.803660567702181
 30
0.0
 11
-0.0000000000000853
 21
-6.829424143766742
 31
0.0
  0
ENDSEC
  0
SECTION
  2
OBJECTS
  0
DICTIONARY
  5
C
330
0
100
AcDbDictionary
281
     1
  3
ACAD_CIP_PREVIOUS_PRODUCT_INFO
350
2C12
  3
ACAD_COLOR
350
2BF3
  3
ACAD_DETAILVIEWSTYLE
350
2C0C
  3
ACAD_GROUP
350
D
  3
ACAD_LAYOUT
350
2BB1
  3
ACAD_MATERIAL
350
2BC1
  3
ACAD_MLEADERSTYLE
350
2C08
  3
ACAD_MLINESTYLE
350
1B
  3
ACAD_PLOTSETTINGS
350
2BB2
  3
ACAD_PLOTSTYLENAME
350
2BAF
  3
ACAD_SCALELIST
350
2BF6
  3
ACAD_SECTIONVIEWSTYLE
350
2C0A
  3
ACAD_TABLESTYLE
350
2BF4
  3
ACAD_VISUALSTYLE
350
2BDA
  3
ACDB_RECOMPOSE_DATA
350
3329
  3
AcDbVariableDictionary
350
2E72
  3
CONTENTDICTIONARY
350
23
  3
DWGPROPS
350
332A
  0
DICTIONARY
  5
2E35
330
8
100
AcDbDictionary
280
     1
281
     1
  0
DICTIONARY
  5
2C16
330
2
100
AcDbDictionary
280
     1
281
     1
  3
ACAD_LAYERSTATES
360
2C17
  0
DICTIONARY
  5
2E2F
330
E
100
AcDbDictionary
280
     1
281
     1
  3
ADSK_XREC_LAYER_RECONCILED
360
2E30
  0
DICTIONARY
  5
30D9
330
18
100
AcDbDictionary
280
     1
281
     1
  3
ACAD_SORTENTS
360
30DA
  0
XRECORD
  5
2C12
102
{ACAD_REACTORS
330
C
102
}
330
C
100
AcDbXrecord
280
     1
300
ACDLT
300
2013
300
ACDLT_F_S
  0
DICTIONARY
  5
2BF3
102
{ACAD_REACTORS
330
C
102
}
330
C
100
AcDbDictionary
281
     1
  0
DICTIONARY
  5
2C0C
102
{ACAD_REACTORS
330
C
102
}
330
C
100
AcDbDictionary
281
     1
  3
Metric50
350
2C0D
  0
DICTIONARY
  5
D
102
{ACAD_REACTORS
330
C
102
}
330
C
100
AcDbDictionary
281
     1
  0
DICTIONARY
  5
2BB1
102
{ACAD_REACTORS
330
C
102
}
330
C
100
AcDbDictionary
281
     1
  3
Model
350
2BB3
  3
ﾚｲｱｳﾄ1
350
2BB4
  0
DICTIONARY
  5
2BC1
102
{ACAD_REACTORS
330
C
102
}
330
C
100
AcDbDictionary
281
     1
  3
ByBlock
350
2BCA
  3
ByLayer
350
2BC2
  3
Global
350
2BD2
  0
DICTIONARY
  5
2C08
102
{ACAD_REACTORS
330
C
102
}
330
C
100
AcDbDictionary
281
     1
  3
Standard
350
2C09
  0
DICTIONARY
  5
1B
102
{ACAD_REACTORS
330
C
102
}
330
C
100
AcDbDictionary
281
     1
  3
STANDARD
350
1C
  0
DICTIONARY
  5
2BB2
102
{ACAD_REACTORS
330
C
102
}
330
C
100
AcDbDictionary
281
     1
  0
ACDBDICTIONARYWDFLT
  5
2BAF
102
{ACAD_REACTORS
330
C
102
}
330
C
100
AcDbDictionary
281
     1
  3
Normal
350
2BB0
100
AcDbDictionaryWithDefault
340
2BB0
  0
DICTIONARY
  5
2BF6
102
{ACAD_REACTORS
330
C
102
}
330
C
100
AcDbDictionary
281
     1
  3
A0
350
2BF7
  3
A1
350
2BF8
  3
A2
350
2BF9
  3
A3
350
2BFA
  3
A4
350
2BFB
  3
A5
350
2BFC
  3
A6
350
2BFD
  3
A7
350
2BFE
  3
A8
350
2BFF
  3
A9
350
2C00
  3
B0
350
2C01
  3
B1
350
2C02
  3
B2
350
2C03
  3
B3
350
2C04
  3
B4
350
2C05
  3
B5
350
2C06
  3
B6
350
2C07
  0
DICTIONARY
  5
2C0A
102
{ACAD_REACTORS
330
C
102
}
330
C
100
AcDbDictionary
281
     1
  3
Metric50
350
2C0B
  0
DICTIONARY
  5
2BF4
102
{ACAD_REACTORS
330
C
102
}
330
C
100
AcDbDictionary
281
     1
  3
Standard
350
2BF5
  0
DICTIONARY
  5
2BDA
102
{ACAD_REACTORS
330
C
102
}
330
C
100
AcDbDictionary
281
     1
  3
2dWireframe
350
2BE0
  3
Basic
350
2BDF
  3
Brighten
350
2BE6
  3
ColorChange
350
2BEA
  3
Conceptual
350
2BE3
  3
Dim
350
2BE5
  3
EdgeColorOff
350
2BF2
  3
Facepattern
350
2BE9
  3
Flat
350
2BDB
  3
FlatWithEdges
350
2BDC
  3
Gouraud
350
2BDD
  3
GouraudWithEdges
350
2BDE
  3
Hidden
350
2BE2
  3
JitterOff
350
2BF0
  3
Linepattern
350
2BE8
  3
OverhangOff
350
2BF1
  3
Realistic
350
2BE4
  3
Shaded
350
2BEF
  3
Shaded with edges
350
2BEE
  3
Shades of Gray
350
2BEB
  3
Sketchy
350
2BEC
  3
Thicken
350
2BE7
  3
Wireframe
350
2BE1
  3
X-Ray
350
2BED
  0
XRECORD
  5
3329
102
{ACAD_REACTORS
330
C
102
}
330
C
100
AcDbXrecord
280
     1
 90
        1
330
2BF5
  0
DICTIONARY
  5
2E72
102
{ACAD_REACTORS
330
C
102
}
330
C
100
AcDbDictionary
281
     1
  3
CANNOSCALE
350
2E77
  3
CMLEADERSTYLE
350
2E74
  3
CTABLESTYLE
350
2E73
  3
CVIEWDETAILSTYLE
350
2E75
  3
CVIEWSECTIONSTYLE
350
2E76
  3
DIMASSOC
350
2E7A
  3
INDEXCTL
350
2E79
  3
SORTENTS
350
2E78
  3
XCLIPFRAME
350
3327
  0
DICTIONARY
  5
23
102
{ACAD_REACTORS
330
C
102
}
330
C
100
AcDbDictionary
281
     1
  0
XRECORD
  5
332A
102
{ACAD_REACTORS
330
C
102
}
330
C
100
AcDbXrecord
280
     1
  1
DWGPROPS COOKIE
  2

  3

  4

  6

  7

  8
2156-nakamura
  9

300
=
301
=
302
=
303
=
304
=
305
=
306
=
307
=
308
=
309
=
 40
0.0202272916666667
 41
2457639.451154884
 42
2458543.393577269
  1

 90
        0
  0
DICTIONARY
  5
2C17
102
{ACAD_REACTORS
330
2C16
102
}
330
2C16
100
AcDbDictionary
281
     1
  0
XRECORD
  5
2E30
102
{ACAD_REACTORS
330
2E2F
102
}
330
2E2F
100
AcDbXrecord
280
     1
290
     1
  0
SORTENTSTABLE
  5
30DA
102
{ACAD_REACTORS
330
30D9
102
}
330
30D9
100
AcDbSortentsTable
330
18
331
30D4
  5
3019
331
300E
  5
302E
331
30D0
  5
3015
331
3117
  5
30BE
331
3156
  5
3103
331
300A
  5
302A
331
3006
  5
3026
331
30CC
  5
3011
331
3152
  5
30FF
331
3113
  5
30BA
331
3002
  5
3022
331
314E
  5
30FB
331
31CC
  5
3179
331
318D
  5
313A
331
30C8
  5
300D
331
314A
  5
30F7
331
3189
  5
3136
331
31C8
  5
3175
331
3207
  5
31B4
331
3203
  5
31B0
331
31C4
  5
3171
331
31C0
  5
316D
331
310F
  5
31CB
331
30C4
  5
3009
331
310B
  5
31D1
331
2FFE
  5
301E
331
303D
  5
31E7
331
3039
  5
31E3
331
30C0
  5
3005
331
3107
  5
31CD
331
3146
  5
30F3
331
3185
  5
3132
331
3181
  5
312E
331
3035
  5
31DF
331
30BC
  5
3001
331
31FF
  5
31AC
331
3142
  5
30EF
331
3103
  5
31F3
331
2DAA
  5
2DAA
331
313E
  5
30EB
331
317D
  5
312A
331
3031
  5
31DB
331
31BC
  5
3169
331
31FB
  5
31A8
331
313A
  5
30E7
331
3179
  5
3126
331
31B8
  5
3165
331
31F7
  5
31A4
331
31F3
  5
31A0
331
31B4
  5
3161
331
31B0
  5
315D
331
30FF
  5
3207
331
30FB
  5
3203
331
2DA6
  5
2DA6
331
302D
  5
31D7
331
3029
  5
31D3
331
30B0
  5
321F
331
30F7
  5
31FF
331
3136
  5
30E3
331
3175
  5
3122
331
3025
  5
31C7
331
30F3
  5
31FB
331
3171
  5
311E
331
31EF
  5
319C
331
3132
  5
30DF
331
30DE
  5
320C
331
312E
  5
30DB
331
316D
  5
311A
331
3021
  5
31C3
331
31AC
  5
3159
331
31EB
  5
3198
331
3068
  5
321D
331
312A
  5
30D5
331
3169
  5
3116
331
31A8
  5
3155
331
31E7
  5
3194
331
31E3
  5
3190
331
321E
  5
3030
331
31A4
  5
3151
331
321A
  5
3043
331
31A0
  5
314D
331
30EF
  5
31F7
331
30EB
  5
3219
331
301D
  5
3069
331
30E7
  5
3215
331
3126
  5
30CE
331
3165
  5
3112
331
3019
  5
3044
331
3161
  5
310E
331
3015
  5
303D
331
31DF
  5
318C
331
3122
  5
30C9
331
30E3
  5
3211
331
315D
  5
310A
331
3011
  5
3035
331
319C
  5
3149
331
31DB
  5
3188
331
3216
  5
3067
331
311E
  5
30C5
331
311A
  5
30C1
331
3159
  5
3106
331
3198
  5
3145
331
31D7
  5
3184
331
3212
  5
31BF
331
320E
  5
31BB
331
3194
  5
3141
331
31D3
  5
3180
331
320A
  5
31B7
331
3190
  5
313D
331
30D7
  5
301C
331
30D3
  5
3018
331
300D
  5
302D
331
30CF
  5
3014
331
3116
  5
30BD
331
3155
  5
3102
331
3009
  5
3029
331
3112
  5
30B9
331
3005
  5
3025
331
3044
  5
31F0
331
30CB
  5
3010
331
31CF
  5
317C
331
3151
  5
30FE
331
3001
  5
3021
331
314D
  5
30FA
331
31CB
  5
3178
331
318C
  5
3139
331
3040
  5
31EA
331
3149
  5
30F6
331
3188
  5
3135
331
31C7
  5
3174
331
3206
  5
31B3
331
3202
  5
31AF
331
31C3
  5
3170
331
310E
  5
31CA
331
30C7
  5
300C
331
30C3
  5
3008
331
310A
  5
31D0
331
303C
  5
31E6
331
3038
  5
31E2
331
30BF
  5
3004
331
3106
  5
31ED
331
3145
  5
30F2
331
3184
  5
3131
331
3180
  5
312D
331
3034
  5
31DE
331
30BB
  5
3000
331
31BF
  5
316C
331
31FE
  5
31AB
331
3141
  5
30EE
331
3102
  5
31F2
331
2DA9
  5
2DA9
331
313D
  5
30EA
331
317C
  5
3129
331
3030
  5
31DA
331
31BB
  5
3168
331
31FA
  5
31A7
331
3139
  5
30E6
331
3178
  5
3125
331
31B7
  5
3164
331
31F6
  5
31A3
331
31F2
  5
319F
331
31B3
  5
3160
331
30FE
  5
3206
331
30FA
  5
3202
331
302C
  5
31D6
331
3028
  5
31D2
331
30F6
  5
31FE
331
3135
  5
30E2
331
3174
  5
3121
331
30DD
  5
320B
331
3170
  5
311D
331
3024
  5
31C6
331
31AF
  5
315C
331
31EE
  5
319B
331
3131
  5
30DE
331
30F2
  5
31FA
331
312D
  5
30D8
331
316C
  5
3119
331
3020
  5
31C2
331
31AB
  5
3158
331
31EA
  5
3197
331
3129
  5
30D4
331
3168
  5
3115
331
31A7
  5
3154
331
31E6
  5
3193
331
31E2
  5
318F
331
321D
  5
303A
331
31A3
  5
3150
331
3219
  5
3042
331
30EE
  5
31F6
331
3067
  5
321C
331
30EA
  5
3218
331
30E6
  5
3214
331
3125
  5
30CD
331
3164
  5
3111
331
3160
  5
310D
331
3014
  5
303B
331
319F
  5
314C
331
31DE
  5
318B
331
3121
  5
30C8
331
30E2
  5
3210
331
311D
  5
30C4
331
315C
  5
3109
331
3010
  5
3034
331
319B
  5
3148
331
31DA
  5
3187
331
3215
  5
3049
331
3119
  5
30C0
331
3158
  5
3105
331
3197
  5
3144
331
31D6
  5
3183
331
3211
  5
31BE
331
31D2
  5
317F
331
320D
  5
31BA
331
3193
  5
3140
331
3209
  5
31B6
331
30D6
  5
301B
331
30D2
  5
3017
331
300C
  5
302C
331
3047
  5
31F5
331
30CE
  5
3013
331
3115
  5
30BC
331
3154
  5
3101
331
3008
  5
3028
331
3111
  5
30B1
331
3004
  5
3024
331
3150
  5
30FD
331
31CE
  5
317B
331
318F
  5
313C
331
3043
  5
31EF
331
30CA
  5
300F
331
3000
  5
3020
331
314C
  5
30F9
331
31CA
  5
3177
331
318B
  5
3138
331
3205
  5
31B2
331
3148
  5
30F5
331
31C6
  5
3173
331
3201
  5
31AE
331
31C2
  5
316F
331
30C6
  5
300B
331
310D
  5
31C9
331
303F
  5
31E9
331
30C2
  5
3007
331
3109
  5
31CF
331
3187
  5
3134
331
303B
  5
31E5
331
3183
  5
3130
331
3037
  5
31E1
331
30BE
  5
3003
331
3144
  5
30F1
331
3105
  5
31EC
331
3101
  5
31F1
331
317F
  5
312C
331
3033
  5
31DD
331
30BA
  5
2FFF
331
31BE
  5
316B
331
31FD
  5
31AA
331
3140
  5
30ED
331
2DA8
  5
2DA8
331
313C
  5
30E9
331
317B
  5
3128
331
31BA
  5
3167
331
31F9
  5
31A6
331
3138
  5
30E5
331
31B6
  5
3163
331
31F5
  5
31A2
331
31F1
  5
319E
331
31B2
  5
315F
331
30FD
  5
3205
331
302F
  5
31D9
331
30F9
  5
3201
331
3177
  5
3124
331
302B
  5
31D5
331
30F5
  5
31FD
331
3134
  5
30E1
331
3173
  5
3120
331
30DC
  5
320A
331
316F
  5
311C
331
3023
  5
31C5
331
31AE
  5
315B
331
31ED
  5
319A
331
3130
  5
30DD
331
30F1
  5
31F9
331
30D8
  5
301D
331
312C
  5
30D7
331
316B
  5
3118
331
31AA
  5
3157
331
31E9
  5
3196
331
3128
  5
30D1
331
3220
  5
3032
331
31A6
  5
3153
331
31E5
  5
3192
331
31E1
  5
318E
331
321C
  5
3039
331
31A2
  5
314F
331
3218
  5
3041
331
30ED
  5
321B
331
30E9
  5
3217
331
3167
  5
3114
331
301B
  5
3048
331
3017
  5
3040
331
30E5
  5
3213
331
3124
  5
30CC
331
3163
  5
3110
331
315F
  5
310C
331
319E
  5
314B
331
31DD
  5
318A
331
3120
  5
30C7
331
30E1
  5
320F
331
311C
  5
30C3
331
315B
  5
3108
331
319A
  5
3147
331
31D9
  5
3186
331
3214
  5
31C1
331
3118
  5
30BF
331
3196
  5
3143
331
31D5
  5
3182
331
3210
  5
31BD
331
31D1
  5
317E
331
320C
  5
31B9
331
3192
  5
313F
331
3208
  5
31B5
331
30D5
  5
301A
331
30D1
  5
3016
331
3157
  5
3104
331
300B
  5
302B
331
3007
  5
3027
331
3046
  5
31F4
331
30CD
  5
3012
331
3153
  5
3100
331
3114
  5
30BB
331
3110
  5
31CC
331
3003
  5
3023
331
314F
  5
30FC
331
31CD
  5
317A
331
318E
  5
313B
331
3042
  5
31EE
331
30C9
  5
300E
331
314B
  5
30F8
331
31C9
  5
3176
331
318A
  5
3137
331
3204
  5
31B1
331
31C5
  5
3172
331
31C1
  5
316E
331
3200
  5
31AD
331
30C5
  5
300A
331
310C
  5
31C8
331
2FFF
  5
301F
331
303E
  5
31E8
331
303A
  5
31E4
331
30C1
  5
3006
331
3108
  5
31CE
331
3147
  5
30F4
331
3186
  5
3133
331
3182
  5
312F
331
3036
  5
31E0
331
30BD
  5
3002
331
3143
  5
30F0
331
3104
  5
31EB
331
3100
  5
3208
331
313F
  5
30EC
331
317E
  5
312B
331
3032
  5
31DC
331
31BD
  5
316A
331
31FC
  5
31A9
331
30B9
  5
2FFE
331
313B
  5
30E8
331
317A
  5
3127
331
31B9
  5
3166
331
31F8
  5
31A5
331
31F4
  5
31A1
331
31B5
  5
3162
331
31F0
  5
319D
331
31B1
  5
315E
331
30FC
  5
3204
331
2DA7
  5
2DA7
331
302E
  5
31D8
331
30B1
  5
3220
331
30F8
  5
3200
331
3137
  5
30E4
331
3176
  5
3123
331
302A
  5
31D4
331
30F4
  5
31FC
331
3172
  5
311F
331
3133
  5
30E0
331
30DF
  5
320D
331
30F0
  5
31F8
331
30DB
  5
3209
331
316E
  5
311B
331
3022
  5
31C4
331
31AD
  5
315A
331
31EC
  5
3199
331
312F
  5
30DC
331
312B
  5
30D6
331
316A
  5
3117
331
31A9
  5
3156
331
31E8
  5
3195
331
321F
  5
3031
331
31A5
  5
3152
331
31E4
  5
3191
331
31E0
  5
318D
331
321B
  5
3037
331
31A1
  5
314E
331
30EC
  5
321A
331
301E
  5
30B0
331
30E8
  5
3216
331
3127
  5
30D0
331
3166
  5
3113
331
301A
  5
3045
331
3016
  5
303E
331
30E4
  5
3212
331
3123
  5
30CA
331
3162
  5
310F
331
315E
  5
310B
331
3012
  5
3036
331
319D
  5
314A
331
31DC
  5
3189
331
3217
  5
3068
331
311F
  5
30C6
331
30E0
  5
320E
331
311B
  5
30C2
331
315A
  5
3107
331
3199
  5
3146
331
31D8
  5
3185
331
3213
  5
31C0
331
320F
  5
31BC
331
3195
  5
3142
331
31D4
  5
3181
331
31D0
  5
317D
331
320B
  5
31B8
331
3191
  5
313E
  0
ACDBDETAILVIEWSTYLE
  5
2C0D
102
{ACAD_REACTORS
330
2C0C
102
}
330
2C0C
100
AcDbModelDocViewStyle
 70
     0
  3
Metric50
290
     0
100
AcDbDetailViewStyle
 70
     0
 71
     0
 90
        3
 71
     1
340
F
 40
5.0
340
0
 40
5.0
300

 40
0.0
280
     1
 71
     2
340
14
 90
       25
 71
     3
340
F
 40
5.0
 90
        0
 40
15.0
 90
        1
300
%<\AcVar ViewDetailId>% (%<\AcVar ViewScale \f "%sn">%)
 71
     4
340
14
 90
       25
340
14
 90
       25
280
     0
  0
LAYOUT
  5
2BB3
102
{ACAD_XDICTIONARY
360
332B
102
}
102
{ACAD_REACTORS
330
2BB1
102
}
330
2BB1
100
AcDbPlotSettings
  1

  2
EPSON LP-8000
  4

  6

 40
0.0
 41
0.0
 42
0.0
 43
0.0
 44
0.0
 45
0.0
 46
0.0
 47
0.0
 48
0.0
 49
0.0
140
0.0
141
0.0
142
1.0
143
1.0
 70
  1712
 72
     0
 73
     0
 74
     0
  7

 75
     0
147
1.0
148
0.0
149
0.0
100
AcDbLayout
  1
Model
 70
     1
 71
     0
 10
0.0
 20
0.0
 11
12.0
 21
9.0
 12
0.0
 22
0.0
 32
0.0
 14
0.0
 24
0.0
 34
0.0
 15
0.0
 25
0.0
 35
0.0
146
0.0
 13
0.0
 23
0.0
 33
0.0
 16
1.0
 26
0.0
 36
0.0
 17
0.0
 27
1.0
 37
0.0
 76
     0
330
18
331
2BBF
  0
LAYOUT
  5
2BB4
102
{ACAD_XDICTIONARY
360
332D
102
}
102
{ACAD_REACTORS
330
2BB1
102
}
330
2BB1
100
AcDbPlotSettings
  1

  2
EPSON LP-8000
  4

  6

 40
0.0
 41
0.0
 42
0.0
 43
0.0
 44
0.0
 45
0.0
 46
0.0
 47
0.0
 48
0.0
 49
0.0
140
0.0
141
0.0
142
1.0
143
1.0
 70
   688
 72
     0
 73
     0
 74
     5
  7

 75
    16
147
1.0
148
0.0
149
0.0
100
AcDbLayout
  1
ﾚｲｱｳﾄ1
 70
     1
 71
     1
 10
0.0
 20
0.0
 11
12.0
 21
9.0
 12
0.0
 22
0.0
 32
0.0
 14
1.000000000000000E+20
 24
1.000000000000000E+20
 34
1.000000000000000E+20
 15
-1.000000000000000E+20
 25
-1.000000000000000E+20
 35
-1.000000000000000E+20
146
0.0
 13
0.0
 23
0.0
 33
0.0
 16
1.0
 26
0.0
 36
0.0
 17
0.0
 27
1.0
 37
0.0
 76
     0
330
15
  0
MATERIAL
  5
2BCA
102
{ACAD_XDICTIONARY
360
2BCB
102
}
102
{ACAD_REACTORS
330
2BC1
102
}
330
2BC1
100
AcDbMaterial
  1
ByBlock
 72
     0
 43
0.0208333333333333
 43
0.0
 43
0.0
 43
0.0
 43
0.0
 43
0.0208333333333333
 43
0.0
 43
0.0
 43
0.0
 43
0.0
 43
1.0
 43
0.0
 43
0.0
 43
0.0
 43
0.0
 43
1.0
 77
     0
 47
0.0208333333333333
 47
0.0
 47
0.0
 47
0.0
 47
0.0
 47
0.0208333333333333
 47
0.0
 47
0.0
 47
0.0
 47
0.0
 47
1.0
 47
0.0
 47
0.0
 47
0.0
 47
0.0
 47
1.0
171
     0
 49
0.0208333333333333
 49
0.0
 49
0.0
 49
0.0
 49
0.0
 49
0.0208333333333333
 49
0.0
 49
0.0
 49
0.0
 49
0.0
 49
1.0
 49
0.0
 49
0.0
 49
0.0
 49
0.0
 49
1.0
175
     0
142
0.0208333333333333
142
0.0
142
0.0
142
0.0
142
0.0
142
0.0208333333333333
142
0.0
142
0.0
142
0.0
142
0.0
142
1.0
142
0.0
142
0.0
142
0.0
142
0.0
142
1.0
179
     0
144
0.0208333333333333
144
0.0
144
0.0
144
0.0
144
0.0
144
0.0208333333333333
144
0.0
144
0.0
144
0.0
144
0.0
144
1.0
144
0.0
144
0.0
144
0.0
144
0.0
144
1.0
147
0.0208333333333333
147
0.0
147
0.0
147
0.0
147
0.0
147
0.0208333333333333
147
0.0
147
0.0
147
0.0
147
0.0
147
1.0
147
0.0
147
0.0
147
0.0
147
0.0
147
1.0
  0
MATERIAL
  5
2BC2
102
{ACAD_XDICTIONARY
360
2BC3
102
}
102
{ACAD_REACTORS
330
2BC1
102
}
330
2BC1
100
AcDbMaterial
  1
ByLayer
 72
     0
 43
0.0208333333333333
 43
0.0
 43
0.0
 43
0.0
 43
0.0
 43
0.0208333333333333
 43
0.0
 43
0.0
 43
0.0
 43
0.0
 43
1.0
 43
0.0
 43
0.0
 43
0.0
 43
0.0
 43
1.0
 77
     0
 47
0.0208333333333333
 47
0.0
 47
0.0
 47
0.0
 47
0.0
 47
0.0208333333333333
 47
0.0
 47
0.0
 47
0.0
 47
0.0
 47
1.0
 47
0.0
 47
0.0
 47
0.0
 47
0.0
 47
1.0
171
     0
 49
0.0208333333333333
 49
0.0
 49
0.0
 49
0.0
 49
0.0
 49
0.0208333333333333
 49
0.0
 49
0.0
 49
0.0
 49
0.0
 49
1.0
 49
0.0
 49
0.0
 49
0.0
 49
0.0
 49
1.0
175
     0
142
0.0208333333333333
142
0.0
142
0.0
142
0.0
142
0.0
142
0.0208333333333333
142
0.0
142
0.0
142
0.0
142
0.0
142
1.0
142
0.0
142
0.0
142
0.0
142
0.0
142
1.0
179
     0
144
0.0208333333333333
144
0.0
144
0.0
144
0.0
144
0.0
144
0.0208333333333333
144
0.0
144
0.0
144
0.0
144
0.0
144
1.0
144
0.0
144
0.0
144
0.0
144
0.0
144
1.0
147
0.0208333333333333
147
0.0
147
0.0
147
0.0
147
0.0
147
0.0208333333333333
147
0.0
147
0.0
147
0.0
147
0.0
147
1.0
147
0.0
147
0.0
147
0.0
147
0.0
147
1.0
  0
MATERIAL
  5
2BD2
102
{ACAD_XDICTIONARY
360
2BD3
102
}
102
{ACAD_REACTORS
330
2BC1
102
}
330
2BC1
100
AcDbMaterial
  1
Global
 72
     0
 43
0.0208333333333333
 43
0.0
 43
0.0
 43
0.0
 43
0.0
 43
0.0208333333333333
 43
0.0
 43
0.0
 43
0.0
 43
0.0
 43
1.0
 43
0.0
 43
0.0
 43
0.0
 43
0.0
 43
1.0
 77
     0
 47
0.0208333333333333
 47
0.0
 47
0.0
 47
0.0
 47
0.0
 47
0.0208333333333333
 47
0.0
 47
0.0
 47
0.0
 47
0.0
 47
1.0
 47
0.0
 47
0.0
 47
0.0
 47
0.0
 47
1.0
171
     0
 49
0.0208333333333333
 49
0.0
 49
0.0
 49
0.0
 49
0.0
 49
0.0208333333333333
 49
0.0
 49
0.0
 49
0.0
 49
0.0
 49
1.0
 49
0.0
 49
0.0
 49
0.0
 49
0.0
 49
1.0
175
     0
142
0.0208333333333333
142
0.0
142
0.0
142
0.0
142
0.0
142
0.0208333333333333
142
0.0
142
0.0
142
0.0
142
0.0
142
1.0
142
0.0
142
0.0
142
0.0
142
0.0
142
1.0
179
     0
144
0.0208333333333333
144
0.0
144
0.0
144
0.0
144
0.0
144
0.0208333333333333
144
0.0
144
0.0
144
0.0
144
0.0
144
1.0
144
0.0
144
0.0
144
0.0
144
0.0
144
1.0
147
0.0208333333333333
147
0.0
147
0.0
147
0.0
147
0.0
147
0.0208333333333333
147
0.0
147
0.0
147
0.0
147
0.0
147
1.0
147
0.0
147
0.0
147
0.0
147
0.0
147
1.0
  0
MLEADERSTYLE
  5
2C09
102
{ACAD_XDICTIONARY
360
3360
102
}
102
{ACAD_REACTORS
330
2C08
102
}
330
2C08
100
AcDbMLeaderStyle
170
     2
171
     1
172
     0
 90
        2
 40
0.0
 41
0.0
173
     1
 91
-1056964608
340
12
 92
       -2
290
     1
 42
2.0
291
     1
 43
0.36
  3
Standard
 44
4.0
300

342
F
174
     1
178
     6
175
     1
176
     0
 93
-1056964608
 45
4.0
292
     0
297
     0
 46
4.0
 94
-1056964608
 47
1.0
 49
1.0
140
1.0
293
     1
141
0.0
294
     1
177
     0
142
1.0
295
     0
296
     0
143
0.125
1001
ACAD_MLEADERVER
1070
     2
  0
MLINESTYLE
  5
1C
102
{ACAD_REACTORS
330
1B
102
}
330
1B
100
AcDbMlineStyle
  2
STANDARD
 70
     0
  3

 62
   256
 51
90.0
 52
90.0
 71
     2
 49
0.5
 62
   256
  6
BYLAYER
 49
-0.5
 62
   256
  6
BYLAYER
  0
ACDBPLACEHOLDER
  5
2BB0
102
{ACAD_REACTORS
330
2BAF
102
}
330
2BAF
  0
SCALE
  5
2BF7
102
{ACAD_REACTORS
330
2BF6
102
}
330
2BF6
100
AcDbScale
 70
     0
300
1:1
140
1.0
141
1.0
290
     1
  0
SCALE
  5
2BF8
102
{ACAD_REACTORS
330
2BF6
102
}
330
2BF6
100
AcDbScale
 70
     0
300
1:2
140
1.0
141
2.0
290
     0
  0
SCALE
  5
2BF9
102
{ACAD_REACTORS
330
2BF6
102
}
330
2BF6
100
AcDbScale
 70
     0
300
1:4
140
1.0
141
4.0
290
     0
  0
SCALE
  5
2BFA
102
{ACAD_REACTORS
330
2BF6
102
}
330
2BF6
100
AcDbScale
 70
     0
300
1:5
140
1.0
141
5.0
290
     0
  0
SCALE
  5
2BFB
102
{ACAD_REACTORS
330
2BF6
102
}
330
2BF6
100
AcDbScale
 70
     0
300
1:8
140
1.0
141
8.0
290
     0
  0
SCALE
  5
2BFC
102
{ACAD_REACTORS
330
2BF6
102
}
330
2BF6
100
AcDbScale
 70
     0
300
1:10
140
1.0
141
10.0
290
     0
  0
SCALE
  5
2BFD
102
{ACAD_REACTORS
330
2BF6
102
}
330
2BF6
100
AcDbScale
 70
     0
300
1:16
140
1.0
141
16.0
290
     0
  0
SCALE
  5
2BFE
102
{ACAD_REACTORS
330
2BF6
102
}
330
2BF6
100
AcDbScale
 70
     0
300
1:20
140
1.0
141
20.0
290
     0
  0
SCALE
  5
2BFF
102
{ACAD_REACTORS
330
2BF6
102
}
330
2BF6
100
AcDbScale
 70
     0
300
1:30
140
1.0
141
30.0
290
     0
  0
SCALE
  5
2C00
102
{ACAD_REACTORS
330
2BF6
102
}
330
2BF6
100
AcDbScale
 70
     0
300
1:40
140
1.0
141
40.0
290
     0
  0
SCALE
  5
2C01
102
{ACAD_REACTORS
330
2BF6
102
}
330
2BF6
100
AcDbScale
 70
     0
300
1:50
140
1.0
141
50.0
290
     0
  0
SCALE
  5
2C02
102
{ACAD_REACTORS
330
2BF6
102
}
330
2BF6
100
AcDbScale
 70
     0
300
1:100
140
1.0
141
100.0
290
     0
  0
SCALE
  5
2C03
102
{ACAD_REACTORS
330
2BF6
102
}
330
2BF6
100
AcDbScale
 70
     0
300
2:1
140
2.0
141
1.0
290
     0
  0
SCALE
  5
2C04
102
{ACAD_REACTORS
330
2BF6
102
}
330
2BF6
100
AcDbScale
 70
     0
300
4:1
140
4.0
141
1.0
290
     0
  0
SCALE
  5
2C05
102
{ACAD_REACTORS
330
2BF6
102
}
330
2BF6
100
AcDbScale
 70
     0
300
8:1
140
8.0
141
1.0
290
     0
  0
SCALE
  5
2C06
102
{ACAD_REACTORS
330
2BF6
102
}
330
2BF6
100
AcDbScale
 70
     0
300
10:1
140
10.0
141
1.0
290
     0
  0
SCALE
  5
2C07
102
{ACAD_REACTORS
330
2BF6
102
}
330
2BF6
100
AcDbScale
 70
     0
300
100:1
140
100.0
141
1.0
290
     0
  0
ACDBSECTIONVIEWSTYLE
  5
2C0B
102
{ACAD_REACTORS
330
2C0A
102
}
330
2C0A
100
AcDbModelDocViewStyle
 70
     0
  3
Metric50
290
     0
100
AcDbSectionViewStyle
 70
     0
 71
     0
 90
      102
 71
     1
340
F
 40
5.0
340
0
340
0
 40
5.0
300
I, O, Q, S, X, Z
 40
10.0
 90
        0
 40
2.5
 90
        0
 71
     2
340
14
 90
       25
340
14
 90
       50
 40
5.0
 40
2.5
 40
5.0
 71
     3
340
F
 40
5.0
 90
        0
 40
15.0
 90
        1
300
%<\AcVar ViewSectionStartId>%-%<\AcVar ViewSectionEndId>% (%<\AcVar ViewScale \f "%sn">%)
 71
     4
300
ANSI31
 40
1.0
 90
        0
290
     0
290
     0
 90
        6
 40
0.0
 40
1.570796326794896
 40
0.2617993877991494
 40
1.308996938995747
 40
-0.2617993877991494
 40
1.832595714594045
  0
TABLESTYLE
  5
2BF5
102
{ACAD_XDICTIONARY
360
2E31
102
}
102
{ACAD_REACTORS
330
2BF4
102
}
330
2BF4
100
AcDbTableStyle
  3
Standard
 70
     0
 71
     0
 40
1.5
 41
1.5
280
     0
281
     0
  7
STANDARD
140
4.5
170
     2
 62
     0
 63
     7
283
     0
274
    -2
284
     1
 64
     0
275
    -2
285
     1
 65
     0
276
    -2
286
     1
 66
     0
277
    -2
287
     1
 67
     0
278
    -2
288
     1
 68
     0
279
    -2
289
     1
 69
     0
  7
STANDARD
140
6.0
170
     5
 62
     0
 63
     7
283
     0
274
    -2
284
     1
 64
     0
275
    -2
285
     1
 65
     0
276
    -2
286
     1
 66
     0
277
    -2
287
     1
 67
     0
278
    -2
288
     1
 68
     0
279
    -2
289
     1
 69
     0
  7
STANDARD
140
4.5
170
     5
 62
     0
 63
     7
283
     0
274
    -2
284
     1
 64
     0
275
    -2
285
     1
 65
     0
276
    -2
286
     1
 66
     0
277
    -2
287
     1
 67
     0
278
    -2
288
     1
 68
     0
279
    -2
289
     1
 69
     0
  0
VISUALSTYLE
  5
2BE0
102
{ACAD_XDICTIONARY
360
3339
102
}
102
{ACAD_REACTORS
330
2BDA
102
}
330
2BDA
100
AcDbVisualStyle
  2

 70
     4
 71
     0
 72
     2
 73
     0
 90
        0
 40
-0.6
 41
-30.0
 62
     5
 63
     7
 74
     1
 91
        4
 64
     7
 65
   257
 75
     1
175
     1
 42
1.0
 92
        0
 66
   257
 43
1.0
 76
     1
 77
     6
 78
     2
 67
     7
 79
     5
170
     0
171
     0
290
     0
174
     0
 93
        1
 44
0.0
173
     0
291
     0
 45
0.0
1001
ACAD
1000
AcDbSavedByObjectVersion
1070
     0
  0
VISUALSTYLE
  5
2BDF
102
{ACAD_XDICTIONARY
360
3337
102
}
102
{ACAD_REACTORS
330
2BDA
102
}
330
2BDA
100
AcDbVisualStyle
  2

 70
     7
 71
     1
 72
     0
 73
     1
 90
        0
 40
-0.6
 41
-30.0
 62
     5
 63
     7
 74
     0
 91
        4
 64
     7
 65
   257
 75
     1
175
     1
 42
1.0
 92
        8
 66
     7
 43
1.0
 76
     1
 77
     6
 78
     2
 67
     7
 79
     5
170
     0
171
     0
290
     0
174
     0
 93
        1
 44
0.0
173
     0
291
     1
 45
0.0
1001
ACAD
1000
AcDbSavedByObjectVersion
1070
     0
  0
VISUALSTYLE
  5
2BE6
102
{ACAD_XDICTIONARY
360
3345
102
}
102
{ACAD_REACTORS
330
2BDA
102
}
330
2BDA
100
AcDbVisualStyle
  2

 70
    12
 71
     2
 72
     2
 73
     0
 90
        0
 40
-0.6
 41
-30.0
 62
     5
 63
     7
 74
     1
 91
        4
 64
     7
 65
   257
 75
     1
175
     1
 42
1.0
 92
        8
 66
     7
 43
1.0
 76
     1
 77
     6
 78
     2
 67
     7
 79
     5
170
     0
171
     0
290
     0
174
     0
 93
        1
 44
50.0
173
     0
291
     1
 45
0.0
1001
ACAD
1000
AcDbSavedByObjectVersion
1070
     0
  0
VISUALSTYLE
  5
2BEA
102
{ACAD_XDICTIONARY
360
334D
102
}
102
{ACAD_REACTORS
330
2BDA
102
}
330
2BDA
100
AcDbVisualStyle
  2

 70
    16
 71
     2
 72
     2
 73
     3
 90
        0
 40
-0.6
 41
-30.0
 62
     5
 63
     8
 74
     1
 91
        4
 64
     7
 65
   257
 75
     1
175
     1
 42
1.0
 92
        8
 66
     8
 43
1.0
 76
     1
 77
     6
 78
     2
 67
     7
 79
     5
170
     0
171
     0
290
     0
174
     0
 93
        1
 44
0.0
173
     0
291
     1
 45
0.0
1001
ACAD
1000
AcDbSavedByObjectVersion
1070
     0
  0
VISUALSTYLE
  5
2BE3
102
{ACAD_XDICTIONARY
360
333F
102
}
102
{ACAD_REACTORS
330
2BDA
102
}
330
2BDA
100
AcDbVisualStyle
  2

 70
     9
 71
     3
 72
     2
 73
     0
 90
        0
 40
-0.6
 41
-30.0
 62
     5
 63
     7
 74
     2
 91
        2
 64
     7
 65
   257
 75
     1
175
     1
 42
179.0
 92
        8
 66
     7
 43
1.0
 76
     1
 77
     6
 78
     2
 67
     7
 79
     3
170
     0
171
     0
290
     0
174
     0
 93
        1
 44
0.0
173
     0
291
     0
 45
0.0
1001
ACAD
1000
AcDbSavedByObjectVersion
1070
     0
  0
VISUALSTYLE
  5
2BE5
102
{ACAD_XDICTIONARY
360
3343
102
}
102
{ACAD_REACTORS
330
2BDA
102
}
330
2BDA
100
AcDbVisualStyle
  2

 70
    11
 71
     2
 72
     2
 73
     0
 90
        0
 40
-0.6
 41
-30.0
 62
     5
 63
     7
 74
     1
 91
        4
 64
     7
 65
   257
 75
     1
175
     1
 42
1.0
 92
        8
 66
     7
 43
1.0
 76
     1
 77
     6
 78
     2
 67
     7
 79
     5
170
     0
171
     0
290
     0
174
     0
 93
        1
 44
-50.0
173
     0
291
     1
 45
0.0
1001
ACAD
1000
AcDbSavedByObjectVersion
1070
     0
  0
VISUALSTYLE
  5
2BF2
102
{ACAD_XDICTIONARY
360
335D
102
}
102
{ACAD_REACTORS
330
2BDA
102
}
330
2BDA
100
AcDbVisualStyle
  2

 70
    22
 71
     2
 72
     2
 73
     0
 90
        0
 40
-0.6
 41
-30.0
 62
     5
 63
     7
 74
     1
 91
        4
 64
     7
 65
   257
 75
     1
175
     1
 42
1.0
 92
        8
 66
     7
 43
1.0
 76
     1
 77
     6
 78
     2
 67
     7
 79
     5
170
     0
171
     0
290
     0
174
     0
 93
        1
 44
0.0
173
     0
291
     1
 45
0.0
1001
ACAD
1000
AcDbSavedByObjectVersion
1070
     0
  0
VISUALSTYLE
  5
2BE9
102
{ACAD_XDICTIONARY
360
334B
102
}
102
{ACAD_REACTORS
330
2BDA
102
}
330
2BDA
100
AcDbVisualStyle
  2

 70
    15
 71
     2
 72
     2
 73
     0
 90
        0
 40
-0.6
 41
-30.0
 62
     5
 63
     7
 74
     1
 91
        4
 64
     7
 65
   257
 75
     1
175
     1
 42
1.0
 92
        8
 66
     7
 43
1.0
 76
     1
 77
     6
 78
     2
 67
     7
 79
     5
170
     0
171
     0
290
     0
174
     0
 93
        1
 44
0.0
173
     0
291
     1
 45
0.0
1001
ACAD
1000
AcDbSavedByObjectVersion
1070
     0
  0
VISUALSTYLE
  5
2BDB
102
{ACAD_XDICTIONARY
360
332F
102
}
102
{ACAD_REACTORS
330
2BDA
102
}
330
2BDA
100
AcDbVisualStyle
  2

 70
     0
 71
     2
 72
     1
 73
     1
 90
        2
 40
-0.6
 41
30.0
 62
     5
 63
     7
 74
     0
 91
        0
 64
     7
 65
   257
 75
     1
175
     1
 42
1.0
 92
        8
 66
     7
 43
1.0
 76
     1
 77
     6
 78
     2
 67
     7
 79
     5
170
     0
171
     0
290
     0
174
     0
 93
       13
 44
0.0
173
     0
291
     1
 45
0.0
1001
ACAD
1000
AcDbSavedByObjectVersion
1070
     0
  0
VISUALSTYLE
  5
2BDC
102
{ACAD_XDICTIONARY
360
3331
102
}
102
{ACAD_REACTORS
330
2BDA
102
}
330
2BDA
100
AcDbVisualStyle
  2

 70
     1
 71
     2
 72
     1
 73
     1
 90
        2
 40
-0.6
 41
30.0
 62
     5
 63
     7
 74
     1
 91
        0
 64
     7
 65
   257
 75
     1
175
     1
 42
1.0
 92
        0
 66
   257
 43
1.0
 76
     1
 77
     6
 78
     2
 67
     7
 79
     5
170
     0
171
     0
290
     0
174
     0
 93
       13
 44
0.0
173
     0
291
     1
 45
0.0
1001
ACAD
1000
AcDbSavedByObjectVersion
1070
     0
  0
VISUALSTYLE
  5
2BDD
102
{ACAD_XDICTIONARY
360
3333
102
}
102
{ACAD_REACTORS
330
2BDA
102
}
330
2BDA
100
AcDbVisualStyle
  2

 70
     2
 71
     2
 72
     2
 73
     1
 90
        2
 40
-0.6
 41
30.0
 62
     5
 63
     7
 74
     0
 91
        0
 64
     7
 65
   257
 75
     1
175
     1
 42
1.0
 92
        0
 66
     7
 43
1.0
 76
     1
 77
     6
 78
     2
 67
     7
 79
     5
170
     0
171
     0
290
     0
174
     0
 93
       13
 44
0.0
173
     0
291
     1
 45
0.0
1001
ACAD
1000
AcDbSavedByObjectVersion
1070
     0
  0
VISUALSTYLE
  5
2BDE
102
{ACAD_XDICTIONARY
360
3335
102
}
102
{ACAD_REACTORS
330
2BDA
102
}
330
2BDA
100
AcDbVisualStyle
  2

 70
     3
 71
     2
 72
     2
 73
     1
 90
        2
 40
-0.6
 41
30.0
 62
     5
 63
     7
 74
     1
 91
        0
 64
     7
 65
   257
 75
     1
175
     1
 42
1.0
 92
        0
 66
   257
 43
1.0
 76
     1
 77
     6
 78
     2
 67
     7
 79
     5
170
     0
171
     0
290
     0
174
     0
 93
       13
 44
0.0
173
     0
291
     1
 45
0.0
1001
ACAD
1000
AcDbSavedByObjectVersion
1070
     0
  0
VISUALSTYLE
  5
2BE2
102
{ACAD_XDICTIONARY
360
333D
102
}
102
{ACAD_REACTORS
330
2BDA
102
}
330
2BDA
100
AcDbVisualStyle
  2

 70
     6
 71
     1
 72
     2
 73
     2
 90
        0
 40
-0.6
 41
-30.0
 62
     5
 63
     7
 74
     2
 91
        2
 64
     7
 65
   257
 75
     2
175
     1
 42
40.0
 92
        0
 66
   257
 43
1.0
 76
     1
 77
     6
 78
     2
 67
     7
 79
     3
170
     0
171
     0
290
     0
174
     0
 93
        1
 44
0.0
173
     0
291
     0
 45
0.0
1001
ACAD
1000
AcDbSavedByObjectVersion
1070
     0
  0
VISUALSTYLE
  5
2BF0
102
{ACAD_XDICTIONARY
360
3359
102
}
102
{ACAD_REACTORS
330
2BDA
102
}
330
2BDA
100
AcDbVisualStyle
  2

 70
    20
 71
     2
 72
     2
 73
     0
 90
        0
 40
-0.6
 41
-30.0
 62
     5
 63
     7
 74
     1
 91
        4
 64
     7
 65
   257
 75
     1
175
     1
 42
1.0
 92
       10
 66
     7
 43
1.0
 76
     1
 77
     6
 78
     2
 67
     7
 79
     5
170
     0
171
     0
290
     0
174
     0
 93
        1
 44
0.0
173
     0
291
     1
 45
0.0
1001
ACAD
1000
AcDbSavedByObjectVersion
1070
     0
  0
VISUALSTYLE
  5
2BE8
102
{ACAD_XDICTIONARY
360
3349
102
}
102
{ACAD_REACTORS
330
2BDA
102
}
330
2BDA
100
AcDbVisualStyle
  2

 70
    14
 71
     2
 72
     2
 73
     0
 90
        0
 40
-0.6
 41
-30.0
 62
     5
 63
     7
 74
     1
 91
        4
 64
     7
 65
   257
 75
     7
175
     7
 42
1.0
 92
        8
 66
     7
 43
1.0
 76
     1
 77
     6
 78
     2
 67
     7
 79
     5
170
     0
171
     0
290
     0
174
     0
 93
        1
 44
0.0
173
     0
291
     1
 45
0.0
1001
ACAD
1000
AcDbSavedByObjectVersion
1070
     0
  0
VISUALSTYLE
  5
2BF1
102
{ACAD_XDICTIONARY
360
335B
102
}
102
{ACAD_REACTORS
330
2BDA
102
}
330
2BDA
100
AcDbVisualStyle
  2

 70
    21
 71
     2
 72
     2
 73
     0
 90
        0
 40
-0.6
 41
-30.0
 62
     5
 63
     7
 74
     1
 91
        4
 64
     7
 65
   257
 75
     1
175
     1
 42
1.0
 92
        9
 66
     7
 43
1.0
 76
     1
 77
     6
 78
     2
 67
     7
 79
     5
170
     0
171
     0
290
     0
174
     0
 93
        1
 44
0.0
173
     0
291
     1
 45
0.0
1001
ACAD
1000
AcDbSavedByObjectVersion
1070
     0
  0
VISUALSTYLE
  5
2BE4
102
{ACAD_XDICTIONARY
360
3341
102
}
102
{ACAD_REACTORS
330
2BDA
102
}
330
2BDA
100
AcDbVisualStyle
  2

 70
     8
 71
     2
 72
     2
 73
     0
 90
        2
 40
-0.6
 41
30.0
 62
     5
 63
     7
 74
     0
 91
        0
 64
     7
 65
   257
 75
     1
175
     1
 42
1.0
 92
        8
 66
   257
 43
1.0
 76
     1
 77
     6
 78
     2
 67
     7
 79
     3
170
     0
171
     0
290
     0
174
     0
 93
       13
 44
0.0
173
     0
291
     0
 45
0.0
1001
ACAD
1000
AcDbSavedByObjectVersion
1070
     0
  0
VISUALSTYLE
  5
2BEF
102
{ACAD_XDICTIONARY
360
3357
102
}
102
{ACAD_REACTORS
330
2BDA
102
}
330
2BDA
100
AcDbVisualStyle
  2

 70
    27
 71
     2
 72
     2
 73
     1
 90
        2
 40
-0.6
 41
30.0
 62
     5
 63
     7
 74
     0
 91
        4
 64
     7
 65
   257
 75
     1
175
     1
 42
1.0
 92
        8
 66
   257
 43
1.0
 76
     1
 77
     6
 78
     2
 67
     8
 79
     3
170
     0
171
     0
290
     0
174
     0
 93
        5
 44
0.0
173
     0
291
     0
 45
0.0
1001
ACAD
1000
AcDbSavedByObjectVersion
1070
     0
  0
VISUALSTYLE
  5
2BEE
102
{ACAD_XDICTIONARY
360
3355
102
}
102
{ACAD_REACTORS
330
2BDA
102
}
330
2BDA
100
AcDbVisualStyle
  2

 70
    26
 71
     2
 72
     2
 73
     1
 90
        2
 40
-0.6
 41
30.0
 62
     5
 63
     7
 74
     1
 91
       10
 64
     7
 65
   257
 75
     2
175
     1
 42
1.0
 92
        8
 66
   257
 43
1.0
 76
     1
 77
     6
 78
     2
 67
     7
 79
     3
170
     0
171
     0
290
     0
174
     0
 93
        5
 44
0.0
173
     0
291
     0
 45
0.0
1001
ACAD
1000
AcDbSavedByObjectVersion
1070
     0
  0
VISUALSTYLE
  5
2BEB
102
{ACAD_XDICTIONARY
360
334F
102
}
102
{ACAD_REACTORS
330
2BDA
102
}
330
2BDA
100
AcDbVisualStyle
  2

 70
    23
 71
     2
 72
     2
 73
     3
 90
        0
 40
-0.6
 41
-30.0
 62
     5
 63
     7
 74
     2
 91
        2
 64
     7
 65
     7
 75
     1
175
     1
 42
40.0
 92
        8
 66
     7
 43
1.0
 76
     1
 77
     6
 78
     2
 67
     7
 79
     3
170
     0
171
     0
290
     0
174
     0
 93
        1
 44
0.0
173
     0
291
     0
 45
0.0
1001
ACAD
1000
AcDbSavedByObjectVersion
1070
     0
  0
VISUALSTYLE
  5
2BEC
102
{ACAD_XDICTIONARY
360
3351
102
}
102
{ACAD_REACTORS
330
2BDA
102
}
330
2BDA
100
AcDbVisualStyle
  2

 70
    24
 71
     1
 72
     2
 73
     2
 90
        0
 40
-0.6
 41
-30.0
 62
     5
 63
     7
 74
     2
 91
        2
 64
     7
 65
     7
 75
     1
175
     1
 42
40.0
 92
       11
 66
     7
 43
1.0
 76
     1
 77
     6
 78
     2
 67
     7
 79
     6
170
     0
171
     0
290
     0
174
     0
 93
        1
 44
0.0
173
     0
291
     0
 45
0.0
1001
ACAD
1000
AcDbSavedByObjectVersion
1070
     0
  0
VISUALSTYLE
  5
2BE7
102
{ACAD_XDICTIONARY
360
3347
102
}
102
{ACAD_REACTORS
330
2BDA
102
}
330
2BDA
100
AcDbVisualStyle
  2

 70
    13
 71
     2
 72
     2
 73
     0
 90
        0
 40
-0.6
 41
-30.0
 62
     5
 63
     7
 74
     1
 91
        4
 64
     7
 65
   257
 75
     1
175
     1
 42
1.0
 92
       12
 66
     7
 43
1.0
 76
     1
 77
     6
 78
     2
 67
     7
 79
     5
170
     0
171
     0
290
     0
174
     0
 93
        1
 44
0.0
173
     0
291
     1
 45
0.0
1001
ACAD
1000
AcDbSavedByObjectVersion
1070
     0
  0
VISUALSTYLE
  5
2BE1
102
{ACAD_XDICTIONARY
360
333B
102
}
102
{ACAD_REACTORS
330
2BDA
102
}
330
2BDA
100
AcDbVisualStyle
  2

 70
     5
 71
     0
 72
     2
 73
     0
 90
        0
 40
-0.6
 41
-30.0
 62
     5
 63
     7
 74
     1
 91
        4
 64
     7
 65
   257
 75
     1
175
     1
 42
1.0
 92
        0
 66
   257
 43
1.0
 76
     1
 77
     6
 78
     2
 67
     7
 79
     3
170
     0
171
     0
290
     0
174
     0
 93
        1
 44
0.0
173
     0
291
     0
 45
0.0
1001
ACAD
1000
AcDbSavedByObjectVersion
1070
     0
  0
VISUALSTYLE
  5
2BED
102
{ACAD_XDICTIONARY
360
3353
102
}
102
{ACAD_REACTORS
330
2BDA
102
}
330
2BDA
100
AcDbVisualStyle
  2

 70
    25
 71
     2
 72
     2
 73
     1
 90
        1
 40
0.5
 41
-30.0
 62
     5
 63
     7
 74
     1
 91
        0
 64
     7
 65
   257
 75
     1
175
     1
 42
1.0
 92
        8
 66
     7
 43
1.0
 76
     1
 77
     6
 78
     2
 67
     7
 79
     3
170
     0
171
     0
290
     0
174
     0
 93
       13
 44
0.0
173
     0
291
     0
 45
0.0
1001
ACAD
1000
AcDbSavedByObjectVersion
1070
     0
  0
DICTIONARYVAR
  5
2E77
102
{ACAD_REACTORS
330
2E72
102
}
330
2E72
100
DictionaryVariables
280
     0
  1
1:1
  0
DICTIONARYVAR
  5
2E74
102
{ACAD_REACTORS
330
2E72
102
}
330
2E72
100
DictionaryVariables
280
     0
  1
STANDARD
  0
DICTIONARYVAR
  5
2E73
102
{ACAD_REACTORS
330
2E72
102
}
330
2E72
100
DictionaryVariables
280
     0
  1
STANDARD
  0
DICTIONARYVAR
  5
2E75
102
{ACAD_REACTORS
330
2E72
102
}
330
2E72
100
DictionaryVariables
280
     0
  1
Metric50
  0
DICTIONARYVAR
  5
2E76
102
{ACAD_REACTORS
330
2E72
102
}
330
2E72
100
DictionaryVariables
280
     0
  1
Metric50
  0
DICTIONARYVAR
  5
2E7A
102
{ACAD_REACTORS
330
2E72
102
}
330
2E72
100
DictionaryVariables
280
     0
  1
1
  0
DICTIONARYVAR
  5
2E79
102
{ACAD_REACTORS
330
2E72
102
}
330
2E72
100
DictionaryVariables
280
     0
  1
0
  0
DICTIONARYVAR
  5
2E78
102
{ACAD_REACTORS
330
2E72
102
}
330
2E72
100
DictionaryVariables
280
     0
  1
127
  0
DICTIONARYVAR
  5
3327
102
{ACAD_REACTORS
330
2E72
102
}
330
2E72
100
DictionaryVariables
280
     0
  1
2
  0
DICTIONARY
  5
332B
330
2BB3
100
AcDbDictionary
280
     1
281
     1
  3
ACAD_XREC_ROUNDTRIP
360
332C
  0
DICTIONARY
  5
332D
330
2BB4
100
AcDbDictionary
280
     1
281
     1
  3
ACAD_XREC_ROUNDTRIP
360
332E
  0
DICTIONARY
  5
2BCB
330
2BCA
100
AcDbDictionary
280
     1
281
     1
  3
ACAD_XREC_ROUNDTRIP
360
32EC
  3
BUMPTILE
360
2BCD
  3
DIFFUSETILE
360
2BCC
  3
OPACITYTILE
360
2BD0
  3
REFLECTIONTILE
360
2BCF
  3
REFRACTIONTILE
360
2BD1
  3
SPECULARTILE
360
2BCE
  0
DICTIONARY
  5
2BC3
330
2BC2
100
AcDbDictionary
280
     1
281
     1
  3
ACAD_XREC_ROUNDTRIP
360
32EB
  3
BUMPTILE
360
2BC5
  3
DIFFUSETILE
360
2BC4
  3
OPACITYTILE
360
2BC8
  3
REFLECTIONTILE
360
2BC7
  3
REFRACTIONTILE
360
2BC9
  3
SPECULARTILE
360
2BC6
  0
DICTIONARY
  5
2BD3
330
2BD2
100
AcDbDictionary
280
     1
281
     1
  3
ACAD_XREC_ROUNDTRIP
360
32ED
  3
BUMPTILE
360
2BD5
  3
DIFFUSETILE
360
2BD4
  3
OPACITYTILE
360
2BD8
  3
REFLECTIONTILE
360
2BD7
  3
REFRACTIONTILE
360
2BD9
  3
SPECULARTILE
360
2BD6
  0
DICTIONARY
  5
3360
330
2C09
100
AcDbDictionary
280
     1
281
     1
  3
ACAD_XREC_ROUNDTRIP
360
3361
  0
DICTIONARY
  5
2E31
330
2BF5
100
AcDbDictionary
280
     1
281
     1
  3
ACAD_ROUNDTRIP_2008_TABLESTYLE_CELLSTYLEMAP
360
3328
  3
ACAD_XREC_ROUNDTRIP
360
335F
  0
DICTIONARY
  5
3339
330
2BE0
100
AcDbDictionary
280
     1
281
     1
  3
ACAD_XREC_ROUNDTRIP
360
333A
  0
DICTIONARY
  5
3337
330
2BDF
100
AcDbDictionary
280
     1
281
     1
  3
ACAD_XREC_ROUNDTRIP
360
3338
  0
DICTIONARY
  5
3345
330
2BE6
100
AcDbDictionary
280
     1
281
     1
  3
ACAD_XREC_ROUNDTRIP
360
3346
  0
DICTIONARY
  5
334D
330
2BEA
100
AcDbDictionary
280
     1
281
     1
  3
ACAD_XREC_ROUNDTRIP
360
334E
  0
DICTIONARY
  5
333F
330
2BE3
100
AcDbDictionary
280
     1
281
     1
  3
ACAD_XREC_ROUNDTRIP
360
3340
  0
DICTIONARY
  5
3343
330
2BE5
100
AcDbDictionary
280
     1
281
     1
  3
ACAD_XREC_ROUNDTRIP
360
3344
  0
DICTIONARY
  5
335D
330
2BF2
100
AcDbDictionary
280
     1
281
     1
  3
ACAD_XREC_ROUNDTRIP
360
335E
  0
DICTIONARY
  5
334B
330
2BE9
100
AcDbDictionary
280
     1
281
     1
  3
ACAD_XREC_ROUNDTRIP
360
334C
  0
DICTIONARY
  5
332F
330
2BDB
100
AcDbDictionary
280
     1
281
     1
  3
ACAD_XREC_ROUNDTRIP
360
3330
  0
DICTIONARY
  5
3331
330
2BDC
100
AcDbDictionary
280
     1
281
     1
  3
ACAD_XREC_ROUNDTRIP
360
3332
  0
DICTIONARY
  5
3333
330
2BDD
100
AcDbDictionary
280
     1
281
     1
  3
ACAD_XREC_ROUNDTRIP
360
3334
  0
DICTIONARY
  5
3335
330
2BDE
100
AcDbDictionary
280
     1
281
     1
  3
ACAD_XREC_ROUNDTRIP
360
3336
  0
DICTIONARY
  5
333D
330
2BE2
100
AcDbDictionary
280
     1
281
     1
  3
ACAD_XREC_ROUNDTRIP
360
333E
  0
DICTIONARY
  5
3359
330
2BF0
100
AcDbDictionary
280
     1
281
     1
  3
ACAD_XREC_ROUNDTRIP
360
335A
  0
DICTIONARY
  5
3349
330
2BE8
100
AcDbDictionary
280
     1
281
     1
  3
ACAD_XREC_ROUNDTRIP
360
334A
  0
DICTIONARY
  5
335B
330
2BF1
100
AcDbDictionary
280
     1
281
     1
  3
ACAD_XREC_ROUNDTRIP
360
335C
  0
DICTIONARY
  5
3341
330
2BE4
100
AcDbDictionary
280
     1
281
     1
  3
ACAD_XREC_ROUNDTRIP
360
3342
  0
DICTIONARY
  5
3357
330
2BEF
100
AcDbDictionary
280
     1
281
     1
  3
ACAD_XREC_ROUNDTRIP
360
3358
  0
DICTIONARY
  5
3355
330
2BEE
100
AcDbDictionary
280
     1
281
     1
  3
ACAD_XREC_ROUNDTRIP
360
3356
  0
DICTIONARY
  5
334F
330
2BEB
100
AcDbDictionary
280
     1
281
     1
  3
ACAD_XREC_ROUNDTRIP
360
3350
  0
DICTIONARY
  5
3351
330
2BEC
100
AcDbDictionary
280
     1
281
     1
  3
ACAD_XREC_ROUNDTRIP
360
3352
  0
DICTIONARY
  5
3347
330
2BE7
100
AcDbDictionary
280
     1
281
     1
  3
ACAD_XREC_ROUNDTRIP
360
3348
  0
DICTIONARY
  5
333B
330
2BE1
100
AcDbDictionary
280
     1
281
     1
  3
ACAD_XREC_ROUNDTRIP
360
333C
  0
DICTIONARY
  5
3353
330
2BED
100
AcDbDictionary
280
     1
281
     1
  3
ACAD_XREC_ROUNDTRIP
360
3354
  0
XRECORD
  5
332C
102
{ACAD_REACTORS
330
332B
102
}
330
332B
100
AcDbXrecord
280
     1
102
SHADEPLOT
 70
     0
102
SHADEPLOTRESLEVEL
 70
     2
102
SHADEPLOTCUSTOMDPI
 70
   300
  0
XRECORD
  5
332E
102
{ACAD_REACTORS
330
332D
102
}
330
332D
100
AcDbXrecord
280
     1
102
SHADEPLOT
 70
     0
102
SHADEPLOTRESLEVEL
 70
     2
102
SHADEPLOTCUSTOMDPI
 70
   300
  0
XRECORD
  5
32EC
102
{ACAD_REACTORS
330
2BCB
102
}
330
2BCB
100
AcDbXrecord
280
     1
102
MATERIAL
148
0.0
149
0.0
149
0.0
 93
        0
 94
      127
282
     0
 72
     0
 77
     0
171
     0
175
     0
179
     0
273
     0
  0
XRECORD
  5
2BCD
102
{ACAD_REACTORS
330
2BCB
102
}
330
2BCB
100
AcDbXrecord
280
     1
270
     1
271
     1
  0
XRECORD
  5
2BCC
102
{ACAD_REACTORS
330
2BCB
102
}
330
2BCB
100
AcDbXrecord
280
     1
270
     1
271
     1
  0
XRECORD
  5
2BD0
102
{ACAD_REACTORS
330
2BCB
102
}
330
2BCB
100
AcDbXrecord
280
     1
270
     1
271
     1
  0
XRECORD
  5
2BCF
102
{ACAD_REACTORS
330
2BCB
102
}
330
2BCB
100
AcDbXrecord
280
     1
270
     1
271
     1
  0
XRECORD
  5
2BD1
102
{ACAD_REACTORS
330
2BCB
102
}
330
2BCB
100
AcDbXrecord
280
     1
270
     1
271
     1
  0
XRECORD
  5
2BCE
102
{ACAD_REACTORS
330
2BCB
102
}
330
2BCB
100
AcDbXrecord
280
     1
270
     1
271
     1
  0
XRECORD
  5
32EB
102
{ACAD_REACTORS
330
2BC3
102
}
330
2BC3
100
AcDbXrecord
280
     1
102
MATERIAL
148
0.0
149
0.0
149
0.0
 93
        0
 94
      127
282
     0
 72
     0
 77
     0
171
     0
175
     0
179
     0
273
     0
  0
XRECORD
  5
2BC5
102
{ACAD_REACTORS
330
2BC3
102
}
330
2BC3
100
AcDbXrecord
280
     1
270
     1
271
     1
  0
XRECORD
  5
2BC4
102
{ACAD_REACTORS
330
2BC3
102
}
330
2BC3
100
AcDbXrecord
280
     1
270
     1
271
     1
  0
XRECORD
  5
2BC8
102
{ACAD_REACTORS
330
2BC3
102
}
330
2BC3
100
AcDbXrecord
280
     1
270
     1
271
     1
  0
XRECORD
  5
2BC7
102
{ACAD_REACTORS
330
2BC3
102
}
330
2BC3
100
AcDbXrecord
280
     1
270
     1
271
     1
  0
XRECORD
  5
2BC9
102
{ACAD_REACTORS
330
2BC3
102
}
330
2BC3
100
AcDbXrecord
280
     1
270
     1
271
     1
  0
XRECORD
  5
2BC6
102
{ACAD_REACTORS
330
2BC3
102
}
330
2BC3
100
AcDbXrecord
280
     1
270
     1
271
     1
  0
XRECORD
  5
32ED
102
{ACAD_REACTORS
330
2BD3
102
}
330
2BD3
100
AcDbXrecord
280
     1
102
MATERIAL
148
0.0
149
0.0
149
0.0
 93
        0
 94
      127
282
     0
 72
     0
 77
     0
171
     0
175
     0
179
     0
273
     0
  0
XRECORD
  5
2BD5
102
{ACAD_REACTORS
330
2BD3
102
}
330
2BD3
100
AcDbXrecord
280
     1
270
     1
271
     1
  0
XRECORD
  5
2BD4
102
{ACAD_REACTORS
330
2BD3
102
}
330
2BD3
100
AcDbXrecord
280
     1
270
     1
271
     1
  0
XRECORD
  5
2BD8
102
{ACAD_REACTORS
330
2BD3
102
}
330
2BD3
100
AcDbXrecord
280
     1
270
     1
271
     1
  0
XRECORD
  5
2BD7
102
{ACAD_REACTORS
330
2BD3
102
}
330
2BD3
100
AcDbXrecord
280
     1
270
     1
271
     1
  0
XRECORD
  5
2BD9
102
{ACAD_REACTORS
330
2BD3
102
}
330
2BD3
100
AcDbXrecord
280
     1
270
     1
271
     1
  0
XRECORD
  5
2BD6
102
{ACAD_REACTORS
330
2BD3
102
}
330
2BD3
100
AcDbXrecord
280
     1
270
     1
271
     1
  0
XRECORD
  5
3361
102
{ACAD_REACTORS
330
3360
102
}
330
3360
100
AcDbXrecord
280
     1
102
ACAD_ROUNDTRIP_2012_MLEADER_STYLE
298
     1
  0
CELLSTYLEMAP
  5
3328
102
{ACAD_REACTORS
330
2E31
102
}
330
2E31
100
AcDbCellStyleMap
 90
        3
300
CELLSTYLE
  1
TABLEFORMAT_BEGIN
 90
        5
170
     1
 91
        0
 92
    32768
 62
   257
 93
        1
300
CONTENTFORMAT
  1
CONTENTFORMAT_BEGIN
 90
        0
 91
        0
 92
      512
 93
        0
300

 40
0.0
140
1.0
 94
        5
 62
     0
340
F
144
6.0
309
CONTENTFORMAT_END
171
     1
301
MARGIN
  1
CELLMARGIN_BEGIN
 40
1.5
 40
1.5
 40
1.5
 40
1.5
 40
0.18
 40
0.18
309
CELLMARGIN_END
 94
        6
 95
        1
302
GRIDFORMAT
  1
GRIDFORMAT_BEGIN
 90
        0
 91
        1
 62
     0
 92
       -2
340
0
 93
        0
 40
1.125
309
GRIDFORMAT_END
 95
        2
302
GRIDFORMAT
  1
GRIDFORMAT_BEGIN
 90
        0
 91
        1
 62
     0
 92
       -2
340
0
 93
        0
 40
1.125
309
GRIDFORMAT_END
 95
        4
302
GRIDFORMAT
  1
GRIDFORMAT_BEGIN
 90
        0
 91
        1
 62
     0
 92
       -2
340
0
 93
        0
 40
1.125
309
GRIDFORMAT_END
 95
        8
302
GRIDFORMAT
  1
GRIDFORMAT_BEGIN
 90
        0
 91
        1
 62
     0
 92
       -2
340
0
 93
        0
 40
1.125
309
GRIDFORMAT_END
 95
       16
302
GRIDFORMAT
  1
GRIDFORMAT_BEGIN
 90
        0
 91
        1
 62
     0
 92
       -2
340
0
 93
        0
 40
1.125
309
GRIDFORMAT_END
 95
       32
302
GRIDFORMAT
  1
GRIDFORMAT_BEGIN
 90
        0
 91
        1
 62
     0
 92
       -2
340
0
 93
        0
 40
1.125
309
GRIDFORMAT_END
309
TABLEFORMAT_END
  1
CELLSTYLE_BEGIN
 90
        1
 91
        1
300
_TITLE
309
CELLSTYLE_END
300
CELLSTYLE
  1
TABLEFORMAT_BEGIN
 90
        5
170
     1
 91
        0
 92
        0
 62
   257
 93
        1
300
CONTENTFORMAT
  1
CONTENTFORMAT_BEGIN
 90
        0
 91
        0
 92
      512
 93
        0
300

 40
0.0
140
1.0
 94
        5
 62
     0
340
F
144
4.5
309
CONTENTFORMAT_END
171
     1
301
MARGIN
  1
CELLMARGIN_BEGIN
 40
1.5
 40
1.5
 40
1.5
 40
1.5
 40
0.18
 40
0.18
309
CELLMARGIN_END
 94
        6
 95
        1
302
GRIDFORMAT
  1
GRIDFORMAT_BEGIN
 90
        0
 91
        1
 62
     0
 92
       -2
340
0
 93
        0
 40
1.125
309
GRIDFORMAT_END
 95
        2
302
GRIDFORMAT
  1
GRIDFORMAT_BEGIN
 90
        0
 91
        1
 62
     0
 92
       -2
340
0
 93
        0
 40
1.125
309
GRIDFORMAT_END
 95
        4
302
GRIDFORMAT
  1
GRIDFORMAT_BEGIN
 90
        0
 91
        1
 62
     0
 92
       -2
340
0
 93
        0
 40
1.125
309
GRIDFORMAT_END
 95
        8
302
GRIDFORMAT
  1
GRIDFORMAT_BEGIN
 90
        0
 91
        1
 62
     0
 92
       -2
340
0
 93
        0
 40
1.125
309
GRIDFORMAT_END
 95
       16
302
GRIDFORMAT
  1
GRIDFORMAT_BEGIN
 90
        0
 91
        1
 62
     0
 92
       -2
340
0
 93
        0
 40
1.125
309
GRIDFORMAT_END
 95
       32
302
GRIDFORMAT
  1
GRIDFORMAT_BEGIN
 90
        0
 91
        1
 62
     0
 92
       -2
340
0
 93
        0
 40
1.125
309
GRIDFORMAT_END
309
TABLEFORMAT_END
  1
CELLSTYLE_BEGIN
 90
        2
 91
        1
300
_HEADER
309
CELLSTYLE_END
300
CELLSTYLE
  1
TABLEFORMAT_BEGIN
 90
        5
170
     1
 91
        0
 92
        0
 62
   257
 93
        1
300
CONTENTFORMAT
  1
CONTENTFORMAT_BEGIN
 90
        0
 91
        0
 92
      512
 93
        0
300

 40
0.0
140
1.0
 94
        2
 62
     0
340
F
144
4.5
309
CONTENTFORMAT_END
171
     1
301
MARGIN
  1
CELLMARGIN_BEGIN
 40
1.5
 40
1.5
 40
1.5
 40
1.5
 40
0.18
 40
0.18
309
CELLMARGIN_END
 94
        6
 95
        1
302
GRIDFORMAT
  1
GRIDFORMAT_BEGIN
 90
        0
 91
        1
 62
     0
 92
       -2
340
0
 93
        0
 40
1.125
309
GRIDFORMAT_END
 95
        2
302
GRIDFORMAT
  1
GRIDFORMAT_BEGIN
 90
        0
 91
        1
 62
     0
 92
       -2
340
0
 93
        0
 40
1.125
309
GRIDFORMAT_END
 95
        4
302
GRIDFORMAT
  1
GRIDFORMAT_BEGIN
 90
        0
 91
        1
 62
     0
 92
       -2
340
0
 93
        0
 40
1.125
309
GRIDFORMAT_END
 95
        8
302
GRIDFORMAT
  1
GRIDFORMAT_BEGIN
 90
        0
 91
        1
 62
     0
 92
       -2
340
0
 93
        0
 40
1.125
309
GRIDFORMAT_END
 95
       16
302
GRIDFORMAT
  1
GRIDFORMAT_BEGIN
 90
        0
 91
        1
 62
     0
 92
       -2
340
0
 93
        0
 40
1.125
309
GRIDFORMAT_END
 95
       32
302
GRIDFORMAT
  1
GRIDFORMAT_BEGIN
 90
        0
 91
        1
 62
     0
 92
       -2
340
0
 93
        0
 40
1.125
309
GRIDFORMAT_END
309
TABLEFORMAT_END
  1
CELLSTYLE_BEGIN
 90
        3
 91
        2
300
_DATA
309
CELLSTYLE_END
  0
XRECORD
  5
335F
102
{ACAD_REACTORS
330
2E31
102
}
330
2E31
100
AcDbXrecord
280
     1
102
ACAD_ROUNDTRIP_PRE2007_TABLESTYLE
 90
      512
 91
        0
  1

 92
      512
 93
        0
  2

 94
      512
 95
        0
  3

  0
XRECORD
  5
333A
102
{ACAD_REACTORS
330
3339
102
}
330
3339
100
AcDbXrecord
280
     1
102
RTVSPost2010Prop28
280
     1
102
RTVSPost2010PropOp28
 70
     1
102
RTVSPost2010Prop29
280
     1
102
RTVSPost2010PropOp29
 70
     1
102
RTVSPost2010Prop30
280
     0
102
RTVSPost2010PropOp30
 70
     1
102
RTVSPost2010Prop31
280
     0
102
RTVSPost2010PropOp31
 70
     1
102
RTVSPost2010Prop32
280
     0
102
RTVSPost2010PropOp32
 70
     1
102
RTVSPost2010Prop33
280
     0
102
RTVSPost2010PropOp33
 70
     1
102
RTVSPost2010Prop34
280
     0
102
RTVSPost2010PropOp34
 70
     1
102
RTVSPost2010Prop35
280
     0
102
RTVSPost2010PropOp35
 70
     1
102
RTVSPost2010Prop36
280
     0
102
RTVSPost2010PropOp36
 70
     1
102
RTVSPost2010Prop37
 90
       50
102
RTVSPost2010PropOp37
 70
     1
102
RTVSPost2010Prop38
140
0.0
102
RTVSPost2010PropOp38
 70
     1
102
RTVSPost2010Prop39
140
1.0
102
RTVSPost2010PropOp39
 70
     1
102
RTVSPost2010Prop40
 90
        0
102
RTVSPost2010PropOp40
 70
     1
102
RTVSPost2010Prop41ColorIndex
 90
       18
102
RTVSPost2010Prop41ColorRGB
 90
        0
102
RTVSPost2010PropOp41
 70
     1
102
RTVSPost2010Prop42
 90
       50
102
RTVSPost2010PropOp42
 70
     1
102
RTVSPost2010Prop43
 90
        3
102
RTVSPost2010PropOp43
 70
     1
102
RTVSPost2010Prop44ColorIndex
 90
        5
102
RTVSPost2010Prop44ColorRGB
 90
      255
102
RTVSPost2010PropOp44
 70
     1
102
RTVSPost2010Prop45
280
     0
102
RTVSPost2010PropOp45
 70
     1
102
RTVSPost2010Prop46
 90
       50
102
RTVSPost2010PropOp46
 70
     1
102
RTVSPost2010Prop47
 90
       50
102
RTVSPost2010PropOp47
 70
     1
102
RTVSPost2010Prop48
 90
       50
102
RTVSPost2010PropOp48
 70
     1
102
RTVSPost2010Prop49
280
     0
102
RTVSPost2010PropOp49
 70
     1
102
RTVSPost2010Prop50
 90
       50
102
RTVSPost2010PropOp50
 70
     1
102
RTVSPost2010Prop51ColorIndex
 90
      256
102
RTVSPost2010Prop51ColorRGB
 90
-16777216
102
RTVSPost2010PropOp51
 70
     0
102
RTVSPost2010Prop52
140
1.0
102
RTVSPost2010PropOp52
 70
     0
102
RTVSPost2010Prop53
 90
        2
102
RTVSPost2010PropOp53
 70
     1
102
RTVSPost2010Prop54
  1
strokes_ogs.tif
102
RTVSPost2010PropOp54
 70
     1
102
RTVSPost2010Prop55
280
     0
102
RTVSPost2010PropOp55
 70
     1
102
RTVSPost2010Prop56
140
1.0
102
RTVSPost2010PropOp56
 70
     1
102
RTVSPost2010Prop57
140
1.0
102
RTVSPost2010PropOp57
 70
     1
102
RTVSPropertyOp0
 70
     1
102
RTVSPropertyOp1
 70
     1
102
RTVSPropertyOp2
 70
     1
102
RTVSPropertyOp3
 70
     1
102
RTVSPropertyOp4
 70
     1
102
RTVSPropertyOp5
 70
     1
102
RTVSPropertyOp6
 70
     1
102
RTVSPropertyOp7
 70
     1
102
RTVSPropertyOp8
 70
     1
102
RTVSPropertyOp9
 70
     1
102
RTVSPropertyOp10
 70
     1
102
RTVSPropertyOp11
 70
     1
102
RTVSPropertyOp12
 70
     1
102
RTVSPropertyOp13
 70
     1
102
RTVSPropertyOp14
 70
     1
102
RTVSPropertyOp15
 70
     1
102
RTVSPropertyOp16
 70
     1
102
RTVSPropertyOp17
 70
     1
102
RTVSPropertyOp18
 70
     1
102
RTVSPropertyOp19
 70
     1
102
RTVSPropertyOp20
 70
     1
102
RTVSPropertyOp21
 70
     1
102
RTVSPropertyOp22
 70
     1
102
RTVSPropertyOp23
 70
     1
102
RTVSPropertyOp24
 70
     1
102
RTVSPropertyOp25
 70
     1
102
RTVSPropertyOp26
 70
     1
102
RTVSPropertyOp27
 70
     1
102
RTVSPropertyOp28
 70
     1
102
RTVSPropertyOp29
 70
     1
102
RTVSPropertyOp30
 70
     1
102
RTVSPropertyOp31
 70
     1
102
RTVSPropertyOp32
 70
     1
102
RTVSPropertyOp33
 70
     1
102
RTVSPropertyOp34
 70
     1
102
RTVSPropertyOp35
 70
     1
102
RTVSPropertyOp36
 70
     1
102
RTVSPropertyOp37
 70
     1
102
RTVSPropertyOp38
 70
     1
102
RTVSPropertyOp39
 70
     1
102
RTVSPropertyOp40
 70
     1
102
RTVSPropertyOp41
 70
     1
102
RTVSPropertyOp42
 70
     1
102
RTVSPropertyOp43
 70
     1
102
RTVSPropertyOp44
 70
     1
102
RTVSPropertyOp45
 70
     1
102
RTVSPropertyOp46
 70
     1
102
RTVSPropertyOp47
 70
     1
102
RTVSPropertyOp48
 70
     1
102
RTVSPropertyOp49
 70
     1
102
RTVSPropertyOp50
 70
     1
102
RTVSPropertyOp51
 70
     0
102
RTVSPropertyOp52
 70
     0
102
RTVSPropertyOp53
 70
     1
102
RTVSPropertyOp54
 70
     1
102
RTVSPropertyOp55
 70
     1
102
RTVSPropertyOp56
 70
     1
102
RTVSPropertyOp57
 70
     1
102
RTVSPropertyOp58
 70
     1
102
RTVSPropertyOp59
 70
     1
102
RTVSPropertyOp60
 70
     1
102
RTVSPropertyOp61
 70
     1
102
RTVSPropertyOp62
 70
     1
  0
XRECORD
  5
3338
102
{ACAD_REACTORS
330
3337
102
}
330
3337
100
AcDbXrecord
280
     1
102
RTVSPost2010Prop28
280
     0
102
RTVSPost2010PropOp28
 70
     1
102
RTVSPost2010Prop29
280
     1
102
RTVSPost2010PropOp29
 70
     1
102
RTVSPost2010Prop30
280
     1
102
RTVSPost2010PropOp30
 70
     1
102
RTVSPost2010Prop31
280
     0
102
RTVSPost2010PropOp31
 70
     1
102
RTVSPost2010Prop32
280
     0
102
RTVSPost2010PropOp32
 70
     1
102
RTVSPost2010Prop33
280
     0
102
RTVSPost2010PropOp33
 70
     1
102
RTVSPost2010Prop34
280
     0
102
RTVSPost2010PropOp34
 70
     1
102
RTVSPost2010Prop35
280
     0
102
RTVSPost2010PropOp35
 70
     1
102
RTVSPost2010Prop36
280
     0
102
RTVSPost2010PropOp36
 70
     1
102
RTVSPost2010Prop37
 90
       50
102
RTVSPost2010PropOp37
 70
     1
102
RTVSPost2010Prop38
140
0.0
102
RTVSPost2010PropOp38
 70
     1
102
RTVSPost2010Prop39
140
1.0
102
RTVSPost2010PropOp39
 70
     1
102
RTVSPost2010Prop40
 90
        0
102
RTVSPost2010PropOp40
 70
     1
102
RTVSPost2010Prop41ColorIndex
 90
       18
102
RTVSPost2010Prop41ColorRGB
 90
        0
102
RTVSPost2010PropOp41
 70
     1
102
RTVSPost2010Prop42
 90
       50
102
RTVSPost2010PropOp42
 70
     1
102
RTVSPost2010Prop43
 90
        3
102
RTVSPost2010PropOp43
 70
     1
102
RTVSPost2010Prop44ColorIndex
 90
        5
102
RTVSPost2010Prop44ColorRGB
 90
      255
102
RTVSPost2010PropOp44
 70
     1
102
RTVSPost2010Prop45
280
     0
102
RTVSPost2010PropOp45
 70
     1
102
RTVSPost2010Prop46
 90
       50
102
RTVSPost2010PropOp46
 70
     1
102
RTVSPost2010Prop47
 90
       50
102
RTVSPost2010PropOp47
 70
     1
102
RTVSPost2010Prop48
 90
       50
102
RTVSPost2010PropOp48
 70
     1
102
RTVSPost2010Prop49
280
     0
102
RTVSPost2010PropOp49
 70
     1
102
RTVSPost2010Prop50
 90
       50
102
RTVSPost2010PropOp50
 70
     1
102
RTVSPost2010Prop51ColorIndex
 90
      256
102
RTVSPost2010Prop51ColorRGB
 90
-16777216
102
RTVSPost2010PropOp51
 70
     0
102
RTVSPost2010Prop52
140
1.0
102
RTVSPost2010PropOp52
 70
     0
102
RTVSPost2010Prop53
 90
        2
102
RTVSPost2010PropOp53
 70
     1
102
RTVSPost2010Prop54
  1
strokes_ogs.tif
102
RTVSPost2010PropOp54
 70
     1
102
RTVSPost2010Prop55
280
     0
102
RTVSPost2010PropOp55
 70
     1
102
RTVSPost2010Prop56
140
1.0
102
RTVSPost2010PropOp56
 70
     1
102
RTVSPost2010Prop57
140
1.0
102
RTVSPost2010PropOp57
 70
     1
102
RTVSPropertyOp0
 70
     1
102
RTVSPropertyOp1
 70
     1
102
RTVSPropertyOp2
 70
     1
102
RTVSPropertyOp3
 70
     1
102
RTVSPropertyOp4
 70
     1
102
RTVSPropertyOp5
 70
     1
102
RTVSPropertyOp6
 70
     1
102
RTVSPropertyOp7
 70
     1
102
RTVSPropertyOp8
 70
     1
102
RTVSPropertyOp9
 70
     1
102
RTVSPropertyOp10
 70
     1
102
RTVSPropertyOp11
 70
     1
102
RTVSPropertyOp12
 70
     1
102
RTVSPropertyOp13
 70
     1
102
RTVSPropertyOp14
 70
     1
102
RTVSPropertyOp15
 70
     1
102
RTVSPropertyOp16
 70
     1
102
RTVSPropertyOp17
 70
     1
102
RTVSPropertyOp18
 70
     1
102
RTVSPropertyOp19
 70
     1
102
RTVSPropertyOp20
 70
     1
102
RTVSPropertyOp21
 70
     1
102
RTVSPropertyOp22
 70
     1
102
RTVSPropertyOp23
 70
     1
102
RTVSPropertyOp24
 70
     1
102
RTVSPropertyOp25
 70
     1
102
RTVSPropertyOp26
 70
     1
102
RTVSPropertyOp27
 70
     1
102
RTVSPropertyOp28
 70
     1
102
RTVSPropertyOp29
 70
     1
102
RTVSPropertyOp30
 70
     1
102
RTVSPropertyOp31
 70
     1
102
RTVSPropertyOp32
 70
     1
102
RTVSPropertyOp33
 70
     1
102
RTVSPropertyOp34
 70
     1
102
RTVSPropertyOp35
 70
     1
102
RTVSPropertyOp36
 70
     1
102
RTVSPropertyOp37
 70
     1
102
RTVSPropertyOp38
 70
     1
102
RTVSPropertyOp39
 70
     1
102
RTVSPropertyOp40
 70
     1
102
RTVSPropertyOp41
 70
     1
102
RTVSPropertyOp42
 70
     1
102
RTVSPropertyOp43
 70
     1
102
RTVSPropertyOp44
 70
     1
102
RTVSPropertyOp45
 70
     1
102
RTVSPropertyOp46
 70
     1
102
RTVSPropertyOp47
 70
     1
102
RTVSPropertyOp48
 70
     1
102
RTVSPropertyOp49
 70
     1
102
RTVSPropertyOp50
 70
     1
102
RTVSPropertyOp51
 70
     0
102
RTVSPropertyOp52
 70
     0
102
RTVSPropertyOp53
 70
     1
102
RTVSPropertyOp54
 70
     1
102
RTVSPropertyOp55
 70
     1
102
RTVSPropertyOp56
 70
     1
102
RTVSPropertyOp57
 70
     1
102
RTVSPropertyOp58
 70
     1
102
RTVSPropertyOp59
 70
     1
102
RTVSPropertyOp60
 70
     1
102
RTVSPropertyOp61
 70
     1
102
RTVSPropertyOp62
 70
     1
  0
XRECORD
  5
3346
102
{ACAD_REACTORS
330
3345
102
}
330
3345
100
AcDbXrecord
280
     1
102
RTVSPost2010Prop28
280
     0
102
RTVSPost2010PropOp28
 70
     1
102
RTVSPost2010Prop29
280
     1
102
RTVSPost2010PropOp29
 70
     1
102
RTVSPost2010Prop30
280
     1
102
RTVSPost2010PropOp30
 70
     1
102
RTVSPost2010Prop31
280
     0
102
RTVSPost2010PropOp31
 70
     1
102
RTVSPost2010Prop32
280
     0
102
RTVSPost2010PropOp32
 70
     1
102
RTVSPost2010Prop33
280
     0
102
RTVSPost2010PropOp33
 70
     1
102
RTVSPost2010Prop34
280
     0
102
RTVSPost2010PropOp34
 70
     1
102
RTVSPost2010Prop35
280
     0
102
RTVSPost2010PropOp35
 70
     1
102
RTVSPost2010Prop36
280
     0
102
RTVSPost2010PropOp36
 70
     1
102
RTVSPost2010Prop37
 90
       50
102
RTVSPost2010PropOp37
 70
     1
102
RTVSPost2010Prop38
140
0.0
102
RTVSPost2010PropOp38
 70
     1
102
RTVSPost2010Prop39
140
1.0
102
RTVSPost2010PropOp39
 70
     1
102
RTVSPost2010Prop40
 90
        0
102
RTVSPost2010PropOp40
 70
     1
102
RTVSPost2010Prop41ColorIndex
 90
       18
102
RTVSPost2010Prop41ColorRGB
 90
        0
102
RTVSPost2010PropOp41
 70
     1
102
RTVSPost2010Prop42
 90
       50
102
RTVSPost2010PropOp42
 70
     1
102
RTVSPost2010Prop43
 90
        3
102
RTVSPost2010PropOp43
 70
     1
102
RTVSPost2010Prop44ColorIndex
 90
        5
102
RTVSPost2010Prop44ColorRGB
 90
      255
102
RTVSPost2010PropOp44
 70
     1
102
RTVSPost2010Prop45
280
     0
102
RTVSPost2010PropOp45
 70
     1
102
RTVSPost2010Prop46
 90
       50
102
RTVSPost2010PropOp46
 70
     1
102
RTVSPost2010Prop47
 90
       50
102
RTVSPost2010PropOp47
 70
     1
102
RTVSPost2010Prop48
 90
       50
102
RTVSPost2010PropOp48
 70
     1
102
RTVSPost2010Prop49
280
     0
102
RTVSPost2010PropOp49
 70
     1
102
RTVSPost2010Prop50
 90
       50
102
RTVSPost2010PropOp50
 70
     1
102
RTVSPost2010Prop51ColorIndex
 90
      256
102
RTVSPost2010Prop51ColorRGB
 90
-16777216
102
RTVSPost2010PropOp51
 70
     0
102
RTVSPost2010Prop52
140
1.0
102
RTVSPost2010PropOp52
 70
     0
102
RTVSPost2010Prop53
 90
        2
102
RTVSPost2010PropOp53
 70
     1
102
RTVSPost2010Prop54
  1
strokes_ogs.tif
102
RTVSPost2010PropOp54
 70
     1
102
RTVSPost2010Prop55
280
     0
102
RTVSPost2010PropOp55
 70
     1
102
RTVSPost2010Prop56
140
1.0
102
RTVSPost2010PropOp56
 70
     1
102
RTVSPost2010Prop57
140
1.0
102
RTVSPost2010PropOp57
 70
     1
102
RTVSPropertyOp0
 70
     1
102
RTVSPropertyOp1
 70
     1
102
RTVSPropertyOp2
 70
     1
102
RTVSPropertyOp3
 70
     1
102
RTVSPropertyOp4
 70
     1
102
RTVSPropertyOp5
 70
     1
102
RTVSPropertyOp6
 70
     1
102
RTVSPropertyOp7
 70
     1
102
RTVSPropertyOp8
 70
     1
102
RTVSPropertyOp9
 70
     1
102
RTVSPropertyOp10
 70
     1
102
RTVSPropertyOp11
 70
     1
102
RTVSPropertyOp12
 70
     1
102
RTVSPropertyOp13
 70
     1
102
RTVSPropertyOp14
 70
     1
102
RTVSPropertyOp15
 70
     1
102
RTVSPropertyOp16
 70
     1
102
RTVSPropertyOp17
 70
     1
102
RTVSPropertyOp18
 70
     1
102
RTVSPropertyOp19
 70
     1
102
RTVSPropertyOp20
 70
     1
102
RTVSPropertyOp21
 70
     1
102
RTVSPropertyOp22
 70
     1
102
RTVSPropertyOp23
 70
     1
102
RTVSPropertyOp24
 70
     1
102
RTVSPropertyOp25
 70
     1
102
RTVSPropertyOp26
 70
     1
102
RTVSPropertyOp27
 70
     1
102
RTVSPropertyOp28
 70
     1
102
RTVSPropertyOp29
 70
     1
102
RTVSPropertyOp30
 70
     1
102
RTVSPropertyOp31
 70
     1
102
RTVSPropertyOp32
 70
     1
102
RTVSPropertyOp33
 70
     1
102
RTVSPropertyOp34
 70
     1
102
RTVSPropertyOp35
 70
     1
102
RTVSPropertyOp36
 70
     1
102
RTVSPropertyOp37
 70
     1
102
RTVSPropertyOp38
 70
     1
102
RTVSPropertyOp39
 70
     1
102
RTVSPropertyOp40
 70
     1
102
RTVSPropertyOp41
 70
     1
102
RTVSPropertyOp42
 70
     1
102
RTVSPropertyOp43
 70
     1
102
RTVSPropertyOp44
 70
     1
102
RTVSPropertyOp45
 70
     1
102
RTVSPropertyOp46
 70
     1
102
RTVSPropertyOp47
 70
     1
102
RTVSPropertyOp48
 70
     1
102
RTVSPropertyOp49
 70
     1
102
RTVSPropertyOp50
 70
     1
102
RTVSPropertyOp51
 70
     0
102
RTVSPropertyOp52
 70
     0
102
RTVSPropertyOp53
 70
     1
102
RTVSPropertyOp54
 70
     1
102
RTVSPropertyOp55
 70
     1
102
RTVSPropertyOp56
 70
     1
102
RTVSPropertyOp57
 70
     1
102
RTVSPropertyOp58
 70
     1
102
RTVSPropertyOp59
 70
     1
102
RTVSPropertyOp60
 70
     1
102
RTVSPropertyOp61
 70
     1
102
RTVSPropertyOp62
 70
     1
  0
XRECORD
  5
334E
102
{ACAD_REACTORS
330
334D
102
}
330
334D
100
AcDbXrecord
280
     1
102
RTVSPost2010Prop28
280
     0
102
RTVSPost2010PropOp28
 70
     1
102
RTVSPost2010Prop29
280
     1
102
RTVSPost2010PropOp29
 70
     1
102
RTVSPost2010Prop30
280
     1
102
RTVSPost2010PropOp30
 70
     1
102
RTVSPost2010Prop31
280
     0
102
RTVSPost2010PropOp31
 70
     1
102
RTVSPost2010Prop32
280
     0
102
RTVSPost2010PropOp32
 70
     1
102
RTVSPost2010Prop33
280
     0
102
RTVSPost2010PropOp33
 70
     1
102
RTVSPost2010Prop34
280
     0
102
RTVSPost2010PropOp34
 70
     1
102
RTVSPost2010Prop35
280
     0
102
RTVSPost2010PropOp35
 70
     1
102
RTVSPost2010Prop36
280
     0
102
RTVSPost2010PropOp36
 70
     1
102
RTVSPost2010Prop37
 90
       50
102
RTVSPost2010PropOp37
 70
     1
102
RTVSPost2010Prop38
140
0.0
102
RTVSPost2010PropOp38
 70
     1
102
RTVSPost2010Prop39
140
1.0
102
RTVSPost2010PropOp39
 70
     1
102
RTVSPost2010Prop40
 90
        0
102
RTVSPost2010PropOp40
 70
     1
102
RTVSPost2010Prop41ColorIndex
 90
       18
102
RTVSPost2010Prop41ColorRGB
 90
        0
102
RTVSPost2010PropOp41
 70
     1
102
RTVSPost2010Prop42
 90
       50
102
RTVSPost2010PropOp42
 70
     1
102
RTVSPost2010Prop43
 90
        3
102
RTVSPost2010PropOp43
 70
     1
102
RTVSPost2010Prop44ColorIndex
 90
        5
102
RTVSPost2010Prop44ColorRGB
 90
      255
102
RTVSPost2010PropOp44
 70
     1
102
RTVSPost2010Prop45
280
     0
102
RTVSPost2010PropOp45
 70
     1
102
RTVSPost2010Prop46
 90
       50
102
RTVSPost2010PropOp46
 70
     1
102
RTVSPost2010Prop47
 90
       50
102
RTVSPost2010PropOp47
 70
     1
102
RTVSPost2010Prop48
 90
       50
102
RTVSPost2010PropOp48
 70
     1
102
RTVSPost2010Prop49
280
     0
102
RTVSPost2010PropOp49
 70
     1
102
RTVSPost2010Prop50
 90
       50
102
RTVSPost2010PropOp50
 70
     1
102
RTVSPost2010Prop51ColorIndex
 90
      256
102
RTVSPost2010Prop51ColorRGB
 90
-16777216
102
RTVSPost2010PropOp51
 70
     0
102
RTVSPost2010Prop52
140
1.0
102
RTVSPost2010PropOp52
 70
     0
102
RTVSPost2010Prop53
 90
        2
102
RTVSPost2010PropOp53
 70
     1
102
RTVSPost2010Prop54
  1
strokes_ogs.tif
102
RTVSPost2010PropOp54
 70
     1
102
RTVSPost2010Prop55
280
     0
102
RTVSPost2010PropOp55
 70
     1
102
RTVSPost2010Prop56
140
1.0
102
RTVSPost2010PropOp56
 70
     1
102
RTVSPost2010Prop57
140
1.0
102
RTVSPost2010PropOp57
 70
     1
102
RTVSPropertyOp0
 70
     1
102
RTVSPropertyOp1
 70
     1
102
RTVSPropertyOp2
 70
     1
102
RTVSPropertyOp3
 70
     1
102
RTVSPropertyOp4
 70
     1
102
RTVSPropertyOp5
 70
     1
102
RTVSPropertyOp6
 70
     1
102
RTVSPropertyOp7
 70
     1
102
RTVSPropertyOp8
 70
     1
102
RTVSPropertyOp9
 70
     1
102
RTVSPropertyOp10
 70
     1
102
RTVSPropertyOp11
 70
     1
102
RTVSPropertyOp12
 70
     1
102
RTVSPropertyOp13
 70
     1
102
RTVSPropertyOp14
 70
     1
102
RTVSPropertyOp15
 70
     1
102
RTVSPropertyOp16
 70
     1
102
RTVSPropertyOp17
 70
     1
102
RTVSPropertyOp18
 70
     1
102
RTVSPropertyOp19
 70
     1
102
RTVSPropertyOp20
 70
     1
102
RTVSPropertyOp21
 70
     1
102
RTVSPropertyOp22
 70
     1
102
RTVSPropertyOp23
 70
     1
102
RTVSPropertyOp24
 70
     1
102
RTVSPropertyOp25
 70
     1
102
RTVSPropertyOp26
 70
     1
102
RTVSPropertyOp27
 70
     1
102
RTVSPropertyOp28
 70
     1
102
RTVSPropertyOp29
 70
     1
102
RTVSPropertyOp30
 70
     1
102
RTVSPropertyOp31
 70
     1
102
RTVSPropertyOp32
 70
     1
102
RTVSPropertyOp33
 70
     1
102
RTVSPropertyOp34
 70
     1
102
RTVSPropertyOp35
 70
     1
102
RTVSPropertyOp36
 70
     1
102
RTVSPropertyOp37
 70
     1
102
RTVSPropertyOp38
 70
     1
102
RTVSPropertyOp39
 70
     1
102
RTVSPropertyOp40
 70
     1
102
RTVSPropertyOp41
 70
     1
102
RTVSPropertyOp42
 70
     1
102
RTVSPropertyOp43
 70
     1
102
RTVSPropertyOp44
 70
     1
102
RTVSPropertyOp45
 70
     1
102
RTVSPropertyOp46
 70
     1
102
RTVSPropertyOp47
 70
     1
102
RTVSPropertyOp48
 70
     1
102
RTVSPropertyOp49
 70
     1
102
RTVSPropertyOp50
 70
     1
102
RTVSPropertyOp51
 70
     0
102
RTVSPropertyOp52
 70
     0
102
RTVSPropertyOp53
 70
     1
102
RTVSPropertyOp54
 70
     1
102
RTVSPropertyOp55
 70
     1
102
RTVSPropertyOp56
 70
     1
102
RTVSPropertyOp57
 70
     1
102
RTVSPropertyOp58
 70
     1
102
RTVSPropertyOp59
 70
     1
102
RTVSPropertyOp60
 70
     1
102
RTVSPropertyOp61
 70
     1
102
RTVSPropertyOp62
 70
     1
  0
XRECORD
  5
3340
102
{ACAD_REACTORS
330
333F
102
}
330
333F
100
AcDbXrecord
280
     1
102
RTVSPost2010Prop28
280
     0
102
RTVSPost2010PropOp28
 70
     1
102
RTVSPost2010Prop29
280
     1
102
RTVSPost2010PropOp29
 70
     1
102
RTVSPost2010Prop30
280
     1
102
RTVSPost2010PropOp30
 70
     1
102
RTVSPost2010Prop31
280
     0
102
RTVSPost2010PropOp31
 70
     1
102
RTVSPost2010Prop32
280
     0
102
RTVSPost2010PropOp32
 70
     1
102
RTVSPost2010Prop33
280
     0
102
RTVSPost2010PropOp33
 70
     1
102
RTVSPost2010Prop34
280
     0
102
RTVSPost2010PropOp34
 70
     1
102
RTVSPost2010Prop35
280
     0
102
RTVSPost2010PropOp35
 70
     1
102
RTVSPost2010Prop36
280
     0
102
RTVSPost2010PropOp36
 70
     1
102
RTVSPost2010Prop37
 90
       50
102
RTVSPost2010PropOp37
 70
     1
102
RTVSPost2010Prop38
140
0.0
102
RTVSPost2010PropOp38
 70
     1
102
RTVSPost2010Prop39
140
1.0
102
RTVSPost2010PropOp39
 70
     1
102
RTVSPost2010Prop40
 90
        0
102
RTVSPost2010PropOp40
 70
     1
102
RTVSPost2010Prop41ColorIndex
 90
       18
102
RTVSPost2010Prop41ColorRGB
 90
        0
102
RTVSPost2010PropOp41
 70
     1
102
RTVSPost2010Prop42
 90
       50
102
RTVSPost2010PropOp42
 70
     1
102
RTVSPost2010Prop43
 90
        3
102
RTVSPost2010PropOp43
 70
     1
102
RTVSPost2010Prop44ColorIndex
 90
        5
102
RTVSPost2010Prop44ColorRGB
 90
      255
102
RTVSPost2010PropOp44
 70
     1
102
RTVSPost2010Prop45
280
     0
102
RTVSPost2010PropOp45
 70
     1
102
RTVSPost2010Prop46
 90
       50
102
RTVSPost2010PropOp46
 70
     1
102
RTVSPost2010Prop47
 90
       50
102
RTVSPost2010PropOp47
 70
     1
102
RTVSPost2010Prop48
 90
       50
102
RTVSPost2010PropOp48
 70
     1
102
RTVSPost2010Prop49
280
     0
102
RTVSPost2010PropOp49
 70
     1
102
RTVSPost2010Prop50
 90
       50
102
RTVSPost2010PropOp50
 70
     1
102
RTVSPost2010Prop51ColorIndex
 90
      256
102
RTVSPost2010Prop51ColorRGB
 90
-16777216
102
RTVSPost2010PropOp51
 70
     0
102
RTVSPost2010Prop52
140
1.0
102
RTVSPost2010PropOp52
 70
     0
102
RTVSPost2010Prop53
 90
        2
102
RTVSPost2010PropOp53
 70
     1
102
RTVSPost2010Prop54
  1
strokes_ogs.tif
102
RTVSPost2010PropOp54
 70
     1
102
RTVSPost2010Prop55
280
     0
102
RTVSPost2010PropOp55
 70
     1
102
RTVSPost2010Prop56
140
1.0
102
RTVSPost2010PropOp56
 70
     1
102
RTVSPost2010Prop57
140
1.0
102
RTVSPost2010PropOp57
 70
     1
102
RTVSPropertyOp0
 70
     1
102
RTVSPropertyOp1
 70
     1
102
RTVSPropertyOp2
 70
     1
102
RTVSPropertyOp3
 70
     1
102
RTVSPropertyOp4
 70
     1
102
RTVSPropertyOp5
 70
     1
102
RTVSPropertyOp6
 70
     1
102
RTVSPropertyOp7
 70
     1
102
RTVSPropertyOp8
 70
     1
102
RTVSPropertyOp9
 70
     1
102
RTVSPropertyOp10
 70
     1
102
RTVSPropertyOp11
 70
     1
102
RTVSPropertyOp12
 70
     1
102
RTVSPropertyOp13
 70
     1
102
RTVSPropertyOp14
 70
     1
102
RTVSPropertyOp15
 70
     1
102
RTVSPropertyOp16
 70
     1
102
RTVSPropertyOp17
 70
     1
102
RTVSPropertyOp18
 70
     1
102
RTVSPropertyOp19
 70
     1
102
RTVSPropertyOp20
 70
     1
102
RTVSPropertyOp21
 70
     1
102
RTVSPropertyOp22
 70
     1
102
RTVSPropertyOp23
 70
     1
102
RTVSPropertyOp24
 70
     1
102
RTVSPropertyOp25
 70
     1
102
RTVSPropertyOp26
 70
     1
102
RTVSPropertyOp27
 70
     1
102
RTVSPropertyOp28
 70
     1
102
RTVSPropertyOp29
 70
     1
102
RTVSPropertyOp30
 70
     1
102
RTVSPropertyOp31
 70
     1
102
RTVSPropertyOp32
 70
     1
102
RTVSPropertyOp33
 70
     1
102
RTVSPropertyOp34
 70
     1
102
RTVSPropertyOp35
 70
     1
102
RTVSPropertyOp36
 70
     1
102
RTVSPropertyOp37
 70
     1
102
RTVSPropertyOp38
 70
     1
102
RTVSPropertyOp39
 70
     1
102
RTVSPropertyOp40
 70
     1
102
RTVSPropertyOp41
 70
     1
102
RTVSPropertyOp42
 70
     1
102
RTVSPropertyOp43
 70
     1
102
RTVSPropertyOp44
 70
     1
102
RTVSPropertyOp45
 70
     1
102
RTVSPropertyOp46
 70
     1
102
RTVSPropertyOp47
 70
     1
102
RTVSPropertyOp48
 70
     1
102
RTVSPropertyOp49
 70
     1
102
RTVSPropertyOp50
 70
     1
102
RTVSPropertyOp51
 70
     0
102
RTVSPropertyOp52
 70
     0
102
RTVSPropertyOp53
 70
     1
102
RTVSPropertyOp54
 70
     1
102
RTVSPropertyOp55
 70
     1
102
RTVSPropertyOp56
 70
     1
102
RTVSPropertyOp57
 70
     1
102
RTVSPropertyOp58
 70
     1
102
RTVSPropertyOp59
 70
     1
102
RTVSPropertyOp60
 70
     1
102
RTVSPropertyOp61
 70
     1
102
RTVSPropertyOp62
 70
     1
  0
XRECORD
  5
3344
102
{ACAD_REACTORS
330
3343
102
}
330
3343
100
AcDbXrecord
280
     1
102
RTVSPost2010Prop28
280
     0
102
RTVSPost2010PropOp28
 70
     1
102
RTVSPost2010Prop29
280
     1
102
RTVSPost2010PropOp29
 70
     1
102
RTVSPost2010Prop30
280
     1
102
RTVSPost2010PropOp30
 70
     1
102
RTVSPost2010Prop31
280
     0
102
RTVSPost2010PropOp31
 70
     1
102
RTVSPost2010Prop32
280
     0
102
RTVSPost2010PropOp32
 70
     1
102
RTVSPost2010Prop33
280
     0
102
RTVSPost2010PropOp33
 70
     1
102
RTVSPost2010Prop34
280
     0
102
RTVSPost2010PropOp34
 70
     1
102
RTVSPost2010Prop35
280
     0
102
RTVSPost2010PropOp35
 70
     1
102
RTVSPost2010Prop36
280
     0
102
RTVSPost2010PropOp36
 70
     1
102
RTVSPost2010Prop37
 90
       50
102
RTVSPost2010PropOp37
 70
     1
102
RTVSPost2010Prop38
140
0.0
102
RTVSPost2010PropOp38
 70
     1
102
RTVSPost2010Prop39
140
1.0
102
RTVSPost2010PropOp39
 70
     1
102
RTVSPost2010Prop40
 90
        0
102
RTVSPost2010PropOp40
 70
     1
102
RTVSPost2010Prop41ColorIndex
 90
       18
102
RTVSPost2010Prop41ColorRGB
 90
        0
102
RTVSPost2010PropOp41
 70
     1
102
RTVSPost2010Prop42
 90
       50
102
RTVSPost2010PropOp42
 70
     1
102
RTVSPost2010Prop43
 90
        3
102
RTVSPost2010PropOp43
 70
     1
102
RTVSPost2010Prop44ColorIndex
 90
        5
102
RTVSPost2010Prop44ColorRGB
 90
      255
102
RTVSPost2010PropOp44
 70
     1
102
RTVSPost2010Prop45
280
     0
102
RTVSPost2010PropOp45
 70
     1
102
RTVSPost2010Prop46
 90
       50
102
RTVSPost2010PropOp46
 70
     1
102
RTVSPost2010Prop47
 90
       50
102
RTVSPost2010PropOp47
 70
     1
102
RTVSPost2010Prop48
 90
       50
102
RTVSPost2010PropOp48
 70
     1
102
RTVSPost2010Prop49
280
     0
102
RTVSPost2010PropOp49
 70
     1
102
RTVSPost2010Prop50
 90
       50
102
RTVSPost2010PropOp50
 70
     1
102
RTVSPost2010Prop51ColorIndex
 90
      256
102
RTVSPost2010Prop51ColorRGB
 90
-16777216
102
RTVSPost2010PropOp51
 70
     0
102
RTVSPost2010Prop52
140
1.0
102
RTVSPost2010PropOp52
 70
     0
102
RTVSPost2010Prop53
 90
        2
102
RTVSPost2010PropOp53
 70
     1
102
RTVSPost2010Prop54
  1
strokes_ogs.tif
102
RTVSPost2010PropOp54
 70
     1
102
RTVSPost2010Prop55
280
     0
102
RTVSPost2010PropOp55
 70
     1
102
RTVSPost2010Prop56
140
1.0
102
RTVSPost2010PropOp56
 70
     1
102
RTVSPost2010Prop57
140
1.0
102
RTVSPost2010PropOp57
 70
     1
102
RTVSPropertyOp0
 70
     1
102
RTVSPropertyOp1
 70
     1
102
RTVSPropertyOp2
 70
     1
102
RTVSPropertyOp3
 70
     1
102
RTVSPropertyOp4
 70
     1
102
RTVSPropertyOp5
 70
     1
102
RTVSPropertyOp6
 70
     1
102
RTVSPropertyOp7
 70
     1
102
RTVSPropertyOp8
 70
     1
102
RTVSPropertyOp9
 70
     1
102
RTVSPropertyOp10
 70
     1
102
RTVSPropertyOp11
 70
     1
102
RTVSPropertyOp12
 70
     1
102
RTVSPropertyOp13
 70
     1
102
RTVSPropertyOp14
 70
     1
102
RTVSPropertyOp15
 70
     1
102
RTVSPropertyOp16
 70
     1
102
RTVSPropertyOp17
 70
     1
102
RTVSPropertyOp18
 70
     1
102
RTVSPropertyOp19
 70
     1
102
RTVSPropertyOp20
 70
     1
102
RTVSPropertyOp21
 70
     1
102
RTVSPropertyOp22
 70
     1
102
RTVSPropertyOp23
 70
     1
102
RTVSPropertyOp24
 70
     1
102
RTVSPropertyOp25
 70
     1
102
RTVSPropertyOp26
 70
     1
102
RTVSPropertyOp27
 70
     1
102
RTVSPropertyOp28
 70
     1
102
RTVSPropertyOp29
 70
     1
102
RTVSPropertyOp30
 70
     1
102
RTVSPropertyOp31
 70
     1
102
RTVSPropertyOp32
 70
     1
102
RTVSPropertyOp33
 70
     1
102
RTVSPropertyOp34
 70
     1
102
RTVSPropertyOp35
 70
     1
102
RTVSPropertyOp36
 70
     1
102
RTVSPropertyOp37
 70
     1
102
RTVSPropertyOp38
 70
     1
102
RTVSPropertyOp39
 70
     1
102
RTVSPropertyOp40
 70
     1
102
RTVSPropertyOp41
 70
     1
102
RTVSPropertyOp42
 70
     1
102
RTVSPropertyOp43
 70
     1
102
RTVSPropertyOp44
 70
     1
102
RTVSPropertyOp45
 70
     1
102
RTVSPropertyOp46
 70
     1
102
RTVSPropertyOp47
 70
     1
102
RTVSPropertyOp48
 70
     1
102
RTVSPropertyOp49
 70
     1
102
RTVSPropertyOp50
 70
     1
102
RTVSPropertyOp51
 70
     0
102
RTVSPropertyOp52
 70
     0
102
RTVSPropertyOp53
 70
     1
102
RTVSPropertyOp54
 70
     1
102
RTVSPropertyOp55
 70
     1
102
RTVSPropertyOp56
 70
     1
102
RTVSPropertyOp57
 70
     1
102
RTVSPropertyOp58
 70
     1
102
RTVSPropertyOp59
 70
     1
102
RTVSPropertyOp60
 70
     1
102
RTVSPropertyOp61
 70
     1
102
RTVSPropertyOp62
 70
     1
  0
XRECORD
  5
335E
102
{ACAD_REACTORS
330
335D
102
}
330
335D
100
AcDbXrecord
280
     1
102
RTVSPost2010Prop28
280
     0
102
RTVSPost2010PropOp28
 70
     0
102
RTVSPost2010Prop29
280
     1
102
RTVSPost2010PropOp29
 70
     0
102
RTVSPost2010Prop30
280
     1
102
RTVSPost2010PropOp30
 70
     0
102
RTVSPost2010Prop31
280
     0
102
RTVSPost2010PropOp31
 70
     0
102
RTVSPost2010Prop32
280
     0
102
RTVSPost2010PropOp32
 70
     0
102
RTVSPost2010Prop33
280
     0
102
RTVSPost2010PropOp33
 70
     0
102
RTVSPost2010Prop34
280
     0
102
RTVSPost2010PropOp34
 70
     0
102
RTVSPost2010Prop35
280
     0
102
RTVSPost2010PropOp35
 70
     0
102
RTVSPost2010Prop36
280
     0
102
RTVSPost2010PropOp36
 70
     0
102
RTVSPost2010Prop37
 90
       50
102
RTVSPost2010PropOp37
 70
     0
102
RTVSPost2010Prop38
140
0.0
102
RTVSPost2010PropOp38
 70
     0
102
RTVSPost2010Prop39
140
1.0
102
RTVSPost2010PropOp39
 70
     0
102
RTVSPost2010Prop40
 90
        0
102
RTVSPost2010PropOp40
 70
     0
102
RTVSPost2010Prop41ColorIndex
 90
       18
102
RTVSPost2010Prop41ColorRGB
 90
        0
102
RTVSPost2010PropOp41
 70
     0
102
RTVSPost2010Prop42
 90
       50
102
RTVSPost2010PropOp42
 70
     0
102
RTVSPost2010Prop43
 90
        3
102
RTVSPost2010PropOp43
 70
     0
102
RTVSPost2010Prop44ColorIndex
 90
        5
102
RTVSPost2010Prop44ColorRGB
 90
      255
102
RTVSPost2010PropOp44
 70
     0
102
RTVSPost2010Prop45
280
     0
102
RTVSPost2010PropOp45
 70
     0
102
RTVSPost2010Prop46
 90
       50
102
RTVSPost2010PropOp46
 70
     0
102
RTVSPost2010Prop47
 90
       50
102
RTVSPost2010PropOp47
 70
     0
102
RTVSPost2010Prop48
 90
       50
102
RTVSPost2010PropOp48
 70
     0
102
RTVSPost2010Prop49
280
     0
102
RTVSPost2010PropOp49
 70
     0
102
RTVSPost2010Prop50
 90
       50
102
RTVSPost2010PropOp50
 70
     0
102
RTVSPost2010Prop51ColorIndex
 90
      256
102
RTVSPost2010Prop51ColorRGB
 90
-16777216
102
RTVSPost2010PropOp51
 70
     0
102
RTVSPost2010Prop52
140
1.0
102
RTVSPost2010PropOp52
 70
     0
102
RTVSPost2010Prop53
 90
        2
102
RTVSPost2010PropOp53
 70
     0
102
RTVSPost2010Prop54
  1
strokes_ogs.tif
102
RTVSPost2010PropOp54
 70
     0
102
RTVSPost2010Prop55
280
     0
102
RTVSPost2010PropOp55
 70
     0
102
RTVSPost2010Prop56
140
1.0
102
RTVSPost2010PropOp56
 70
     0
102
RTVSPost2010Prop57
140
1.0
102
RTVSPost2010PropOp57
 70
     0
102
RTVSPropertyOp0
 70
     0
102
RTVSPropertyOp1
 70
     0
102
RTVSPropertyOp2
 70
     0
102
RTVSPropertyOp3
 70
     0
102
RTVSPropertyOp4
 70
     0
102
RTVSPropertyOp5
 70
     0
102
RTVSPropertyOp6
 70
     0
102
RTVSPropertyOp7
 70
     0
102
RTVSPropertyOp8
 70
     0
102
RTVSPropertyOp9
 70
     0
102
RTVSPropertyOp10
 70
     0
102
RTVSPropertyOp11
 70
     0
102
RTVSPropertyOp12
 70
     0
102
RTVSPropertyOp13
 70
     0
102
RTVSPropertyOp14
 70
     2
102
RTVSPropertyOp15
 70
     0
102
RTVSPropertyOp16
 70
     0
102
RTVSPropertyOp17
 70
     0
102
RTVSPropertyOp18
 70
     0
102
RTVSPropertyOp19
 70
     0
102
RTVSPropertyOp20
 70
     0
102
RTVSPropertyOp21
 70
     0
102
RTVSPropertyOp22
 70
     0
102
RTVSPropertyOp23
 70
     0
102
RTVSPropertyOp24
 70
     0
102
RTVSPropertyOp25
 70
     0
102
RTVSPropertyOp26
 70
     0
102
RTVSPropertyOp27
 70
     0
102
RTVSPropertyOp28
 70
     0
102
RTVSPropertyOp29
 70
     0
102
RTVSPropertyOp30
 70
     0
102
RTVSPropertyOp31
 70
     0
102
RTVSPropertyOp32
 70
     0
102
RTVSPropertyOp33
 70
     0
102
RTVSPropertyOp34
 70
     0
102
RTVSPropertyOp35
 70
     0
102
RTVSPropertyOp36
 70
     0
102
RTVSPropertyOp37
 70
     0
102
RTVSPropertyOp38
 70
     0
102
RTVSPropertyOp39
 70
     0
102
RTVSPropertyOp40
 70
     0
102
RTVSPropertyOp41
 70
     0
102
RTVSPropertyOp42
 70
     0
102
RTVSPropertyOp43
 70
     0
102
RTVSPropertyOp44
 70
     0
102
RTVSPropertyOp45
 70
     0
102
RTVSPropertyOp46
 70
     0
102
RTVSPropertyOp47
 70
     0
102
RTVSPropertyOp48
 70
     0
102
RTVSPropertyOp49
 70
     0
102
RTVSPropertyOp50
 70
     0
102
RTVSPropertyOp51
 70
     0
102
RTVSPropertyOp52
 70
     0
102
RTVSPropertyOp53
 70
     0
102
RTVSPropertyOp54
 70
     0
102
RTVSPropertyOp55
 70
     0
102
RTVSPropertyOp56
 70
     0
102
RTVSPropertyOp57
 70
     0
102
RTVSPropertyOp58
 70
     0
102
RTVSPropertyOp59
 70
     0
102
RTVSPropertyOp60
 70
     0
102
RTVSPropertyOp61
 70
     0
102
RTVSPropertyOp62
 70
     0
  0
XRECORD
  5
334C
102
{ACAD_REACTORS
330
334B
102
}
330
334B
100
AcDbXrecord
280
     1
102
RTVSPost2010Prop28
280
     0
102
RTVSPost2010PropOp28
 70
     1
102
RTVSPost2010Prop29
280
     1
102
RTVSPost2010PropOp29
 70
     1
102
RTVSPost2010Prop30
280
     1
102
RTVSPost2010PropOp30
 70
     1
102
RTVSPost2010Prop31
280
     0
102
RTVSPost2010PropOp31
 70
     1
102
RTVSPost2010Prop32
280
     0
102
RTVSPost2010PropOp32
 70
     1
102
RTVSPost2010Prop33
280
     0
102
RTVSPost2010PropOp33
 70
     1
102
RTVSPost2010Prop34
280
     0
102
RTVSPost2010PropOp34
 70
     1
102
RTVSPost2010Prop35
280
     0
102
RTVSPost2010PropOp35
 70
     1
102
RTVSPost2010Prop36
280
     0
102
RTVSPost2010PropOp36
 70
     1
102
RTVSPost2010Prop37
 90
       50
102
RTVSPost2010PropOp37
 70
     1
102
RTVSPost2010Prop38
140
0.0
102
RTVSPost2010PropOp38
 70
     1
102
RTVSPost2010Prop39
140
1.0
102
RTVSPost2010PropOp39
 70
     1
102
RTVSPost2010Prop40
 90
        0
102
RTVSPost2010PropOp40
 70
     1
102
RTVSPost2010Prop41ColorIndex
 90
       18
102
RTVSPost2010Prop41ColorRGB
 90
        0
102
RTVSPost2010PropOp41
 70
     1
102
RTVSPost2010Prop42
 90
       50
102
RTVSPost2010PropOp42
 70
     1
102
RTVSPost2010Prop43
 90
        3
102
RTVSPost2010PropOp43
 70
     1
102
RTVSPost2010Prop44ColorIndex
 90
        5
102
RTVSPost2010Prop44ColorRGB
 90
      255
102
RTVSPost2010PropOp44
 70
     1
102
RTVSPost2010Prop45
280
     0
102
RTVSPost2010PropOp45
 70
     1
102
RTVSPost2010Prop46
 90
       50
102
RTVSPost2010PropOp46
 70
     1
102
RTVSPost2010Prop47
 90
       50
102
RTVSPost2010PropOp47
 70
     1
102
RTVSPost2010Prop48
 90
       50
102
RTVSPost2010PropOp48
 70
     1
102
RTVSPost2010Prop49
280
     0
102
RTVSPost2010PropOp49
 70
     1
102
RTVSPost2010Prop50
 90
       50
102
RTVSPost2010PropOp50
 70
     1
102
RTVSPost2010Prop51ColorIndex
 90
      256
102
RTVSPost2010Prop51ColorRGB
 90
-16777216
102
RTVSPost2010PropOp51
 70
     0
102
RTVSPost2010Prop52
140
1.0
102
RTVSPost2010PropOp52
 70
     0
102
RTVSPost2010Prop53
 90
        2
102
RTVSPost2010PropOp53
 70
     1
102
RTVSPost2010Prop54
  1
strokes_ogs.tif
102
RTVSPost2010PropOp54
 70
     1
102
RTVSPost2010Prop55
280
     0
102
RTVSPost2010PropOp55
 70
     1
102
RTVSPost2010Prop56
140
1.0
102
RTVSPost2010PropOp56
 70
     1
102
RTVSPost2010Prop57
140
1.0
102
RTVSPost2010PropOp57
 70
     1
102
RTVSPropertyOp0
 70
     1
102
RTVSPropertyOp1
 70
     1
102
RTVSPropertyOp2
 70
     1
102
RTVSPropertyOp3
 70
     1
102
RTVSPropertyOp4
 70
     1
102
RTVSPropertyOp5
 70
     1
102
RTVSPropertyOp6
 70
     1
102
RTVSPropertyOp7
 70
     1
102
RTVSPropertyOp8
 70
     1
102
RTVSPropertyOp9
 70
     1
102
RTVSPropertyOp10
 70
     1
102
RTVSPropertyOp11
 70
     1
102
RTVSPropertyOp12
 70
     1
102
RTVSPropertyOp13
 70
     1
102
RTVSPropertyOp14
 70
     1
102
RTVSPropertyOp15
 70
     1
102
RTVSPropertyOp16
 70
     1
102
RTVSPropertyOp17
 70
     1
102
RTVSPropertyOp18
 70
     1
102
RTVSPropertyOp19
 70
     1
102
RTVSPropertyOp20
 70
     1
102
RTVSPropertyOp21
 70
     1
102
RTVSPropertyOp22
 70
     1
102
RTVSPropertyOp23
 70
     1
102
RTVSPropertyOp24
 70
     1
102
RTVSPropertyOp25
 70
     1
102
RTVSPropertyOp26
 70
     1
102
RTVSPropertyOp27
 70
     1
102
RTVSPropertyOp28
 70
     1
102
RTVSPropertyOp29
 70
     1
102
RTVSPropertyOp30
 70
     1
102
RTVSPropertyOp31
 70
     1
102
RTVSPropertyOp32
 70
     1
102
RTVSPropertyOp33
 70
     1
102
RTVSPropertyOp34
 70
     1
102
RTVSPropertyOp35
 70
     1
102
RTVSPropertyOp36
 70
     1
102
RTVSPropertyOp37
 70
     1
102
RTVSPropertyOp38
 70
     1
102
RTVSPropertyOp39
 70
     1
102
RTVSPropertyOp40
 70
     1
102
RTVSPropertyOp41
 70
     1
102
RTVSPropertyOp42
 70
     1
102
RTVSPropertyOp43
 70
     1
102
RTVSPropertyOp44
 70
     1
102
RTVSPropertyOp45
 70
     1
102
RTVSPropertyOp46
 70
     1
102
RTVSPropertyOp47
 70
     1
102
RTVSPropertyOp48
 70
     1
102
RTVSPropertyOp49
 70
     1
102
RTVSPropertyOp50
 70
     1
102
RTVSPropertyOp51
 70
     0
102
RTVSPropertyOp52
 70
     0
102
RTVSPropertyOp53
 70
     1
102
RTVSPropertyOp54
 70
     1
102
RTVSPropertyOp55
 70
     1
102
RTVSPropertyOp56
 70
     1
102
RTVSPropertyOp57
 70
     1
102
RTVSPropertyOp58
 70
     1
102
RTVSPropertyOp59
 70
     1
102
RTVSPropertyOp60
 70
     1
102
RTVSPropertyOp61
 70
     1
102
RTVSPropertyOp62
 70
     1
  0
XRECORD
  5
3330
102
{ACAD_REACTORS
330
332F
102
}
330
332F
100
AcDbXrecord
280
     1
102
RTVSPost2010Prop28
280
     0
102
RTVSPost2010PropOp28
 70
     1
102
RTVSPost2010Prop29
280
     1
102
RTVSPost2010PropOp29
 70
     1
102
RTVSPost2010Prop30
280
     1
102
RTVSPost2010PropOp30
 70
     1
102
RTVSPost2010Prop31
280
     0
102
RTVSPost2010PropOp31
 70
     1
102
RTVSPost2010Prop32
280
     0
102
RTVSPost2010PropOp32
 70
     1
102
RTVSPost2010Prop33
280
     0
102
RTVSPost2010PropOp33
 70
     1
102
RTVSPost2010Prop34
280
     0
102
RTVSPost2010PropOp34
 70
     1
102
RTVSPost2010Prop35
280
     0
102
RTVSPost2010PropOp35
 70
     1
102
RTVSPost2010Prop36
280
     0
102
RTVSPost2010PropOp36
 70
     1
102
RTVSPost2010Prop37
 90
       50
102
RTVSPost2010PropOp37
 70
     1
102
RTVSPost2010Prop38
140
0.0
102
RTVSPost2010PropOp38
 70
     1
102
RTVSPost2010Prop39
140
1.0
102
RTVSPost2010PropOp39
 70
     1
102
RTVSPost2010Prop40
 90
        0
102
RTVSPost2010PropOp40
 70
     1
102
RTVSPost2010Prop41ColorIndex
 90
       18
102
RTVSPost2010Prop41ColorRGB
 90
        0
102
RTVSPost2010PropOp41
 70
     1
102
RTVSPost2010Prop42
 90
       50
102
RTVSPost2010PropOp42
 70
     1
102
RTVSPost2010Prop43
 90
        3
102
RTVSPost2010PropOp43
 70
     1
102
RTVSPost2010Prop44ColorIndex
 90
        5
102
RTVSPost2010Prop44ColorRGB
 90
      255
102
RTVSPost2010PropOp44
 70
     1
102
RTVSPost2010Prop45
280
     0
102
RTVSPost2010PropOp45
 70
     1
102
RTVSPost2010Prop46
 90
       50
102
RTVSPost2010PropOp46
 70
     1
102
RTVSPost2010Prop47
 90
       50
102
RTVSPost2010PropOp47
 70
     1
102
RTVSPost2010Prop48
 90
       50
102
RTVSPost2010PropOp48
 70
     1
102
RTVSPost2010Prop49
280
     0
102
RTVSPost2010PropOp49
 70
     1
102
RTVSPost2010Prop50
 90
       50
102
RTVSPost2010PropOp50
 70
     1
102
RTVSPost2010Prop51ColorIndex
 90
      256
102
RTVSPost2010Prop51ColorRGB
 90
-16777216
102
RTVSPost2010PropOp51
 70
     0
102
RTVSPost2010Prop52
140
1.0
102
RTVSPost2010PropOp52
 70
     0
102
RTVSPost2010Prop53
 90
        2
102
RTVSPost2010PropOp53
 70
     1
102
RTVSPost2010Prop54
  1
strokes_ogs.tif
102
RTVSPost2010PropOp54
 70
     1
102
RTVSPost2010Prop55
280
     0
102
RTVSPost2010PropOp55
 70
     1
102
RTVSPost2010Prop56
140
1.0
102
RTVSPost2010PropOp56
 70
     1
102
RTVSPost2010Prop57
140
1.0
102
RTVSPost2010PropOp57
 70
     1
102
RTVSPropertyOp0
 70
     1
102
RTVSPropertyOp1
 70
     1
102
RTVSPropertyOp2
 70
     1
102
RTVSPropertyOp3
 70
     1
102
RTVSPropertyOp4
 70
     1
102
RTVSPropertyOp5
 70
     1
102
RTVSPropertyOp6
 70
     1
102
RTVSPropertyOp7
 70
     1
102
RTVSPropertyOp8
 70
     1
102
RTVSPropertyOp9
 70
     1
102
RTVSPropertyOp10
 70
     1
102
RTVSPropertyOp11
 70
     1
102
RTVSPropertyOp12
 70
     1
102
RTVSPropertyOp13
 70
     1
102
RTVSPropertyOp14
 70
     1
102
RTVSPropertyOp15
 70
     1
102
RTVSPropertyOp16
 70
     1
102
RTVSPropertyOp17
 70
     1
102
RTVSPropertyOp18
 70
     1
102
RTVSPropertyOp19
 70
     1
102
RTVSPropertyOp20
 70
     1
102
RTVSPropertyOp21
 70
     1
102
RTVSPropertyOp22
 70
     1
102
RTVSPropertyOp23
 70
     1
102
RTVSPropertyOp24
 70
     1
102
RTVSPropertyOp25
 70
     1
102
RTVSPropertyOp26
 70
     1
102
RTVSPropertyOp27
 70
     1
102
RTVSPropertyOp28
 70
     1
102
RTVSPropertyOp29
 70
     1
102
RTVSPropertyOp30
 70
     1
102
RTVSPropertyOp31
 70
     1
102
RTVSPropertyOp32
 70
     1
102
RTVSPropertyOp33
 70
     1
102
RTVSPropertyOp34
 70
     1
102
RTVSPropertyOp35
 70
     1
102
RTVSPropertyOp36
 70
     1
102
RTVSPropertyOp37
 70
     1
102
RTVSPropertyOp38
 70
     1
102
RTVSPropertyOp39
 70
     1
102
RTVSPropertyOp40
 70
     1
102
RTVSPropertyOp41
 70
     1
102
RTVSPropertyOp42
 70
     1
102
RTVSPropertyOp43
 70
     1
102
RTVSPropertyOp44
 70
     1
102
RTVSPropertyOp45
 70
     1
102
RTVSPropertyOp46
 70
     1
102
RTVSPropertyOp47
 70
     1
102
RTVSPropertyOp48
 70
     1
102
RTVSPropertyOp49
 70
     1
102
RTVSPropertyOp50
 70
     1
102
RTVSPropertyOp51
 70
     0
102
RTVSPropertyOp52
 70
     0
102
RTVSPropertyOp53
 70
     1
102
RTVSPropertyOp54
 70
     1
102
RTVSPropertyOp55
 70
     1
102
RTVSPropertyOp56
 70
     1
102
RTVSPropertyOp57
 70
     1
102
RTVSPropertyOp58
 70
     1
102
RTVSPropertyOp59
 70
     1
102
RTVSPropertyOp60
 70
     1
102
RTVSPropertyOp61
 70
     1
102
RTVSPropertyOp62
 70
     1
  0
XRECORD
  5
3332
102
{ACAD_REACTORS
330
3331
102
}
330
3331
100
AcDbXrecord
280
     1
102
RTVSPost2010Prop28
280
     0
102
RTVSPost2010PropOp28
 70
     1
102
RTVSPost2010Prop29
280
     1
102
RTVSPost2010PropOp29
 70
     1
102
RTVSPost2010Prop30
280
     1
102
RTVSPost2010PropOp30
 70
     1
102
RTVSPost2010Prop31
280
     0
102
RTVSPost2010PropOp31
 70
     1
102
RTVSPost2010Prop32
280
     0
102
RTVSPost2010PropOp32
 70
     1
102
RTVSPost2010Prop33
280
     0
102
RTVSPost2010PropOp33
 70
     1
102
RTVSPost2010Prop34
280
     0
102
RTVSPost2010PropOp34
 70
     1
102
RTVSPost2010Prop35
280
     0
102
RTVSPost2010PropOp35
 70
     1
102
RTVSPost2010Prop36
280
     0
102
RTVSPost2010PropOp36
 70
     1
102
RTVSPost2010Prop37
 90
       50
102
RTVSPost2010PropOp37
 70
     1
102
RTVSPost2010Prop38
140
0.0
102
RTVSPost2010PropOp38
 70
     1
102
RTVSPost2010Prop39
140
1.0
102
RTVSPost2010PropOp39
 70
     1
102
RTVSPost2010Prop40
 90
        0
102
RTVSPost2010PropOp40
 70
     1
102
RTVSPost2010Prop41ColorIndex
 90
       18
102
RTVSPost2010Prop41ColorRGB
 90
        0
102
RTVSPost2010PropOp41
 70
     1
102
RTVSPost2010Prop42
 90
       50
102
RTVSPost2010PropOp42
 70
     1
102
RTVSPost2010Prop43
 90
        3
102
RTVSPost2010PropOp43
 70
     1
102
RTVSPost2010Prop44ColorIndex
 90
        5
102
RTVSPost2010Prop44ColorRGB
 90
      255
102
RTVSPost2010PropOp44
 70
     1
102
RTVSPost2010Prop45
280
     0
102
RTVSPost2010PropOp45
 70
     1
102
RTVSPost2010Prop46
 90
       50
102
RTVSPost2010PropOp46
 70
     1
102
RTVSPost2010Prop47
 90
       50
102
RTVSPost2010PropOp47
 70
     1
102
RTVSPost2010Prop48
 90
       50
102
RTVSPost2010PropOp48
 70
     1
102
RTVSPost2010Prop49
280
     0
102
RTVSPost2010PropOp49
 70
     1
102
RTVSPost2010Prop50
 90
       50
102
RTVSPost2010PropOp50
 70
     1
102
RTVSPost2010Prop51ColorIndex
 90
      256
102
RTVSPost2010Prop51ColorRGB
 90
-16777216
102
RTVSPost2010PropOp51
 70
     0
102
RTVSPost2010Prop52
140
1.0
102
RTVSPost2010PropOp52
 70
     0
102
RTVSPost2010Prop53
 90
        2
102
RTVSPost2010PropOp53
 70
     1
102
RTVSPost2010Prop54
  1
strokes_ogs.tif
102
RTVSPost2010PropOp54
 70
     1
102
RTVSPost2010Prop55
280
     0
102
RTVSPost2010PropOp55
 70
     1
102
RTVSPost2010Prop56
140
1.0
102
RTVSPost2010PropOp56
 70
     1
102
RTVSPost2010Prop57
140
1.0
102
RTVSPost2010PropOp57
 70
     1
102
RTVSPropertyOp0
 70
     1
102
RTVSPropertyOp1
 70
     1
102
RTVSPropertyOp2
 70
     1
102
RTVSPropertyOp3
 70
     1
102
RTVSPropertyOp4
 70
     1
102
RTVSPropertyOp5
 70
     1
102
RTVSPropertyOp6
 70
     1
102
RTVSPropertyOp7
 70
     1
102
RTVSPropertyOp8
 70
     1
102
RTVSPropertyOp9
 70
     1
102
RTVSPropertyOp10
 70
     1
102
RTVSPropertyOp11
 70
     1
102
RTVSPropertyOp12
 70
     1
102
RTVSPropertyOp13
 70
     1
102
RTVSPropertyOp14
 70
     1
102
RTVSPropertyOp15
 70
     1
102
RTVSPropertyOp16
 70
     1
102
RTVSPropertyOp17
 70
     1
102
RTVSPropertyOp18
 70
     1
102
RTVSPropertyOp19
 70
     1
102
RTVSPropertyOp20
 70
     1
102
RTVSPropertyOp21
 70
     1
102
RTVSPropertyOp22
 70
     1
102
RTVSPropertyOp23
 70
     1
102
RTVSPropertyOp24
 70
     1
102
RTVSPropertyOp25
 70
     1
102
RTVSPropertyOp26
 70
     1
102
RTVSPropertyOp27
 70
     1
102
RTVSPropertyOp28
 70
     1
102
RTVSPropertyOp29
 70
     1
102
RTVSPropertyOp30
 70
     1
102
RTVSPropertyOp31
 70
     1
102
RTVSPropertyOp32
 70
     1
102
RTVSPropertyOp33
 70
     1
102
RTVSPropertyOp34
 70
     1
102
RTVSPropertyOp35
 70
     1
102
RTVSPropertyOp36
 70
     1
102
RTVSPropertyOp37
 70
     1
102
RTVSPropertyOp38
 70
     1
102
RTVSPropertyOp39
 70
     1
102
RTVSPropertyOp40
 70
     1
102
RTVSPropertyOp41
 70
     1
102
RTVSPropertyOp42
 70
     1
102
RTVSPropertyOp43
 70
     1
102
RTVSPropertyOp44
 70
     1
102
RTVSPropertyOp45
 70
     1
102
RTVSPropertyOp46
 70
     1
102
RTVSPropertyOp47
 70
     1
102
RTVSPropertyOp48
 70
     1
102
RTVSPropertyOp49
 70
     1
102
RTVSPropertyOp50
 70
     1
102
RTVSPropertyOp51
 70
     0
102
RTVSPropertyOp52
 70
     0
102
RTVSPropertyOp53
 70
     1
102
RTVSPropertyOp54
 70
     1
102
RTVSPropertyOp55
 70
     1
102
RTVSPropertyOp56
 70
     1
102
RTVSPropertyOp57
 70
     1
102
RTVSPropertyOp58
 70
     1
102
RTVSPropertyOp59
 70
     1
102
RTVSPropertyOp60
 70
     1
102
RTVSPropertyOp61
 70
     1
102
RTVSPropertyOp62
 70
     1
  0
XRECORD
  5
3334
102
{ACAD_REACTORS
330
3333
102
}
330
3333
100
AcDbXrecord
280
     1
102
RTVSPost2010Prop28
280
     0
102
RTVSPost2010PropOp28
 70
     1
102
RTVSPost2010Prop29
280
     1
102
RTVSPost2010PropOp29
 70
     1
102
RTVSPost2010Prop30
280
     1
102
RTVSPost2010PropOp30
 70
     1
102
RTVSPost2010Prop31
280
     0
102
RTVSPost2010PropOp31
 70
     1
102
RTVSPost2010Prop32
280
     0
102
RTVSPost2010PropOp32
 70
     1
102
RTVSPost2010Prop33
280
     0
102
RTVSPost2010PropOp33
 70
     1
102
RTVSPost2010Prop34
280
     0
102
RTVSPost2010PropOp34
 70
     1
102
RTVSPost2010Prop35
280
     0
102
RTVSPost2010PropOp35
 70
     1
102
RTVSPost2010Prop36
280
     0
102
RTVSPost2010PropOp36
 70
     1
102
RTVSPost2010Prop37
 90
       50
102
RTVSPost2010PropOp37
 70
     1
102
RTVSPost2010Prop38
140
0.0
102
RTVSPost2010PropOp38
 70
     1
102
RTVSPost2010Prop39
140
1.0
102
RTVSPost2010PropOp39
 70
     1
102
RTVSPost2010Prop40
 90
        0
102
RTVSPost2010PropOp40
 70
     1
102
RTVSPost2010Prop41ColorIndex
 90
       18
102
RTVSPost2010Prop41ColorRGB
 90
        0
102
RTVSPost2010PropOp41
 70
     1
102
RTVSPost2010Prop42
 90
       50
102
RTVSPost2010PropOp42
 70
     1
102
RTVSPost2010Prop43
 90
        3
102
RTVSPost2010PropOp43
 70
     1
102
RTVSPost2010Prop44ColorIndex
 90
        5
102
RTVSPost2010Prop44ColorRGB
 90
      255
102
RTVSPost2010PropOp44
 70
     1
102
RTVSPost2010Prop45
280
     0
102
RTVSPost2010PropOp45
 70
     1
102
RTVSPost2010Prop46
 90
       50
102
RTVSPost2010PropOp46
 70
     1
102
RTVSPost2010Prop47
 90
       50
102
RTVSPost2010PropOp47
 70
     1
102
RTVSPost2010Prop48
 90
       50
102
RTVSPost2010PropOp48
 70
     1
102
RTVSPost2010Prop49
280
     0
102
RTVSPost2010PropOp49
 70
     1
102
RTVSPost2010Prop50
 90
       50
102
RTVSPost2010PropOp50
 70
     1
102
RTVSPost2010Prop51ColorIndex
 90
      256
102
RTVSPost2010Prop51ColorRGB
 90
-16777216
102
RTVSPost2010PropOp51
 70
     0
102
RTVSPost2010Prop52
140
1.0
102
RTVSPost2010PropOp52
 70
     0
102
RTVSPost2010Prop53
 90
        2
102
RTVSPost2010PropOp53
 70
     1
102
RTVSPost2010Prop54
  1
strokes_ogs.tif
102
RTVSPost2010PropOp54
 70
     1
102
RTVSPost2010Prop55
280
     0
102
RTVSPost2010PropOp55
 70
     1
102
RTVSPost2010Prop56
140
1.0
102
RTVSPost2010PropOp56
 70
     1
102
RTVSPost2010Prop57
140
1.0
102
RTVSPost2010PropOp57
 70
     1
102
RTVSPropertyOp0
 70
     1
102
RTVSPropertyOp1
 70
     1
102
RTVSPropertyOp2
 70
     1
102
RTVSPropertyOp3
 70
     1
102
RTVSPropertyOp4
 70
     1
102
RTVSPropertyOp5
 70
     1
102
RTVSPropertyOp6
 70
     1
102
RTVSPropertyOp7
 70
     1
102
RTVSPropertyOp8
 70
     1
102
RTVSPropertyOp9
 70
     1
102
RTVSPropertyOp10
 70
     1
102
RTVSPropertyOp11
 70
     1
102
RTVSPropertyOp12
 70
     1
102
RTVSPropertyOp13
 70
     1
102
RTVSPropertyOp14
 70
     1
102
RTVSPropertyOp15
 70
     1
102
RTVSPropertyOp16
 70
     1
102
RTVSPropertyOp17
 70
     1
102
RTVSPropertyOp18
 70
     1
102
RTVSPropertyOp19
 70
     1
102
RTVSPropertyOp20
 70
     1
102
RTVSPropertyOp21
 70
     1
102
RTVSPropertyOp22
 70
     1
102
RTVSPropertyOp23
 70
     1
102
RTVSPropertyOp24
 70
     1
102
RTVSPropertyOp25
 70
     1
102
RTVSPropertyOp26
 70
     1
102
RTVSPropertyOp27
 70
     1
102
RTVSPropertyOp28
 70
     1
102
RTVSPropertyOp29
 70
     1
102
RTVSPropertyOp30
 70
     1
102
RTVSPropertyOp31
 70
     1
102
RTVSPropertyOp32
 70
     1
102
RTVSPropertyOp33
 70
     1
102
RTVSPropertyOp34
 70
     1
102
RTVSPropertyOp35
 70
     1
102
RTVSPropertyOp36
 70
     1
102
RTVSPropertyOp37
 70
     1
102
RTVSPropertyOp38
 70
     1
102
RTVSPropertyOp39
 70
     1
102
RTVSPropertyOp40
 70
     1
102
RTVSPropertyOp41
 70
     1
102
RTVSPropertyOp42
 70
     1
102
RTVSPropertyOp43
 70
     1
102
RTVSPropertyOp44
 70
     1
102
RTVSPropertyOp45
 70
     1
102
RTVSPropertyOp46
 70
     1
102
RTVSPropertyOp47
 70
     1
102
RTVSPropertyOp48
 70
     1
102
RTVSPropertyOp49
 70
     1
102
RTVSPropertyOp50
 70
     1
102
RTVSPropertyOp51
 70
     0
102
RTVSPropertyOp52
 70
     0
102
RTVSPropertyOp53
 70
     1
102
RTVSPropertyOp54
 70
     1
102
RTVSPropertyOp55
 70
     1
102
RTVSPropertyOp56
 70
     1
102
RTVSPropertyOp57
 70
     1
102
RTVSPropertyOp58
 70
     1
102
RTVSPropertyOp59
 70
     1
102
RTVSPropertyOp60
 70
     1
102
RTVSPropertyOp61
 70
     1
102
RTVSPropertyOp62
 70
     1
  0
XRECORD
  5
3336
102
{ACAD_REACTORS
330
3335
102
}
330
3335
100
AcDbXrecord
280
     1
102
RTVSPost2010Prop28
280
     0
102
RTVSPost2010PropOp28
 70
     1
102
RTVSPost2010Prop29
280
     1
102
RTVSPost2010PropOp29
 70
     1
102
RTVSPost2010Prop30
280
     1
102
RTVSPost2010PropOp30
 70
     1
102
RTVSPost2010Prop31
280
     0
102
RTVSPost2010PropOp31
 70
     1
102
RTVSPost2010Prop32
280
     0
102
RTVSPost2010PropOp32
 70
     1
102
RTVSPost2010Prop33
280
     0
102
RTVSPost2010PropOp33
 70
     1
102
RTVSPost2010Prop34
280
     0
102
RTVSPost2010PropOp34
 70
     1
102
RTVSPost2010Prop35
280
     0
102
RTVSPost2010PropOp35
 70
     1
102
RTVSPost2010Prop36
280
     0
102
RTVSPost2010PropOp36
 70
     1
102
RTVSPost2010Prop37
 90
       50
102
RTVSPost2010PropOp37
 70
     1
102
RTVSPost2010Prop38
140
0.0
102
RTVSPost2010PropOp38
 70
     1
102
RTVSPost2010Prop39
140
1.0
102
RTVSPost2010PropOp39
 70
     1
102
RTVSPost2010Prop40
 90
        0
102
RTVSPost2010PropOp40
 70
     1
102
RTVSPost2010Prop41ColorIndex
 90
       18
102
RTVSPost2010Prop41ColorRGB
 90
        0
102
RTVSPost2010PropOp41
 70
     1
102
RTVSPost2010Prop42
 90
       50
102
RTVSPost2010PropOp42
 70
     1
102
RTVSPost2010Prop43
 90
        3
102
RTVSPost2010PropOp43
 70
     1
102
RTVSPost2010Prop44ColorIndex
 90
        5
102
RTVSPost2010Prop44ColorRGB
 90
      255
102
RTVSPost2010PropOp44
 70
     1
102
RTVSPost2010Prop45
280
     0
102
RTVSPost2010PropOp45
 70
     1
102
RTVSPost2010Prop46
 90
       50
102
RTVSPost2010PropOp46
 70
     1
102
RTVSPost2010Prop47
 90
       50
102
RTVSPost2010PropOp47
 70
     1
102
RTVSPost2010Prop48
 90
       50
102
RTVSPost2010PropOp48
 70
     1
102
RTVSPost2010Prop49
280
     0
102
RTVSPost2010PropOp49
 70
     1
102
RTVSPost2010Prop50
 90
       50
102
RTVSPost2010PropOp50
 70
     1
102
RTVSPost2010Prop51ColorIndex
 90
      256
102
RTVSPost2010Prop51ColorRGB
 90
-16777216
102
RTVSPost2010PropOp51
 70
     0
102
RTVSPost2010Prop52
140
1.0
102
RTVSPost2010PropOp52
 70
     0
102
RTVSPost2010Prop53
 90
        2
102
RTVSPost2010PropOp53
 70
     1
102
RTVSPost2010Prop54
  1
strokes_ogs.tif
102
RTVSPost2010PropOp54
 70
     1
102
RTVSPost2010Prop55
280
     0
102
RTVSPost2010PropOp55
 70
     1
102
RTVSPost2010Prop56
140
1.0
102
RTVSPost2010PropOp56
 70
     1
102
RTVSPost2010Prop57
140
1.0
102
RTVSPost2010PropOp57
 70
     1
102
RTVSPropertyOp0
 70
     1
102
RTVSPropertyOp1
 70
     1
102
RTVSPropertyOp2
 70
     1
102
RTVSPropertyOp3
 70
     1
102
RTVSPropertyOp4
 70
     1
102
RTVSPropertyOp5
 70
     1
102
RTVSPropertyOp6
 70
     1
102
RTVSPropertyOp7
 70
     1
102
RTVSPropertyOp8
 70
     1
102
RTVSPropertyOp9
 70
     1
102
RTVSPropertyOp10
 70
     1
102
RTVSPropertyOp11
 70
     1
102
RTVSPropertyOp12
 70
     1
102
RTVSPropertyOp13
 70
     1
102
RTVSPropertyOp14
 70
     1
102
RTVSPropertyOp15
 70
     1
102
RTVSPropertyOp16
 70
     1
102
RTVSPropertyOp17
 70
     1
102
RTVSPropertyOp18
 70
     1
102
RTVSPropertyOp19
 70
     1
102
RTVSPropertyOp20
 70
     1
102
RTVSPropertyOp21
 70
     1
102
RTVSPropertyOp22
 70
     1
102
RTVSPropertyOp23
 70
     1
102
RTVSPropertyOp24
 70
     1
102
RTVSPropertyOp25
 70
     1
102
RTVSPropertyOp26
 70
     1
102
RTVSPropertyOp27
 70
     1
102
RTVSPropertyOp28
 70
     1
102
RTVSPropertyOp29
 70
     1
102
RTVSPropertyOp30
 70
     1
102
RTVSPropertyOp31
 70
     1
102
RTVSPropertyOp32
 70
     1
102
RTVSPropertyOp33
 70
     1
102
RTVSPropertyOp34
 70
     1
102
RTVSPropertyOp35
 70
     1
102
RTVSPropertyOp36
 70
     1
102
RTVSPropertyOp37
 70
     1
102
RTVSPropertyOp38
 70
     1
102
RTVSPropertyOp39
 70
     1
102
RTVSPropertyOp40
 70
     1
102
RTVSPropertyOp41
 70
     1
102
RTVSPropertyOp42
 70
     1
102
RTVSPropertyOp43
 70
     1
102
RTVSPropertyOp44
 70
     1
102
RTVSPropertyOp45
 70
     1
102
RTVSPropertyOp46
 70
     1
102
RTVSPropertyOp47
 70
     1
102
RTVSPropertyOp48
 70
     1
102
RTVSPropertyOp49
 70
     1
102
RTVSPropertyOp50
 70
     1
102
RTVSPropertyOp51
 70
     0
102
RTVSPropertyOp52
 70
     0
102
RTVSPropertyOp53
 70
     1
102
RTVSPropertyOp54
 70
     1
102
RTVSPropertyOp55
 70
     1
102
RTVSPropertyOp56
 70
     1
102
RTVSPropertyOp57
 70
     1
102
RTVSPropertyOp58
 70
     1
102
RTVSPropertyOp59
 70
     1
102
RTVSPropertyOp60
 70
     1
102
RTVSPropertyOp61
 70
     1
102
RTVSPropertyOp62
 70
     1
  0
XRECORD
  5
333E
102
{ACAD_REACTORS
330
333D
102
}
330
333D
100
AcDbXrecord
280
     1
102
RTVSPost2010Prop28
280
     0
102
RTVSPost2010PropOp28
 70
     1
102
RTVSPost2010Prop29
280
     1
102
RTVSPost2010PropOp29
 70
     1
102
RTVSPost2010Prop30
280
     1
102
RTVSPost2010PropOp30
 70
     1
102
RTVSPost2010Prop31
280
     0
102
RTVSPost2010PropOp31
 70
     1
102
RTVSPost2010Prop32
280
     0
102
RTVSPost2010PropOp32
 70
     1
102
RTVSPost2010Prop33
280
     0
102
RTVSPost2010PropOp33
 70
     1
102
RTVSPost2010Prop34
280
     0
102
RTVSPost2010PropOp34
 70
     1
102
RTVSPost2010Prop35
280
     0
102
RTVSPost2010PropOp35
 70
     1
102
RTVSPost2010Prop36
280
     0
102
RTVSPost2010PropOp36
 70
     1
102
RTVSPost2010Prop37
 90
       50
102
RTVSPost2010PropOp37
 70
     1
102
RTVSPost2010Prop38
140
0.0
102
RTVSPost2010PropOp38
 70
     1
102
RTVSPost2010Prop39
140
1.0
102
RTVSPost2010PropOp39
 70
     1
102
RTVSPost2010Prop40
 90
        0
102
RTVSPost2010PropOp40
 70
     1
102
RTVSPost2010Prop41ColorIndex
 90
       18
102
RTVSPost2010Prop41ColorRGB
 90
        0
102
RTVSPost2010PropOp41
 70
     1
102
RTVSPost2010Prop42
 90
       50
102
RTVSPost2010PropOp42
 70
     1
102
RTVSPost2010Prop43
 90
        3
102
RTVSPost2010PropOp43
 70
     1
102
RTVSPost2010Prop44ColorIndex
 90
        5
102
RTVSPost2010Prop44ColorRGB
 90
      255
102
RTVSPost2010PropOp44
 70
     1
102
RTVSPost2010Prop45
280
     0
102
RTVSPost2010PropOp45
 70
     1
102
RTVSPost2010Prop46
 90
       50
102
RTVSPost2010PropOp46
 70
     1
102
RTVSPost2010Prop47
 90
       50
102
RTVSPost2010PropOp47
 70
     1
102
RTVSPost2010Prop48
 90
       50
102
RTVSPost2010PropOp48
 70
     1
102
RTVSPost2010Prop49
280
     0
102
RTVSPost2010PropOp49
 70
     1
102
RTVSPost2010Prop50
 90
       50
102
RTVSPost2010PropOp50
 70
     1
102
RTVSPost2010Prop51ColorIndex
 90
      256
102
RTVSPost2010Prop51ColorRGB
 90
-16777216
102
RTVSPost2010PropOp51
 70
     0
102
RTVSPost2010Prop52
140
1.0
102
RTVSPost2010PropOp52
 70
     0
102
RTVSPost2010Prop53
 90
        2
102
RTVSPost2010PropOp53
 70
     1
102
RTVSPost2010Prop54
  1
strokes_ogs.tif
102
RTVSPost2010PropOp54
 70
     1
102
RTVSPost2010Prop55
280
     0
102
RTVSPost2010PropOp55
 70
     1
102
RTVSPost2010Prop56
140
1.0
102
RTVSPost2010PropOp56
 70
     1
102
RTVSPost2010Prop57
140
1.0
102
RTVSPost2010PropOp57
 70
     1
102
RTVSPropertyOp0
 70
     1
102
RTVSPropertyOp1
 70
     1
102
RTVSPropertyOp2
 70
     1
102
RTVSPropertyOp3
 70
     1
102
RTVSPropertyOp4
 70
     1
102
RTVSPropertyOp5
 70
     1
102
RTVSPropertyOp6
 70
     1
102
RTVSPropertyOp7
 70
     1
102
RTVSPropertyOp8
 70
     1
102
RTVSPropertyOp9
 70
     1
102
RTVSPropertyOp10
 70
     1
102
RTVSPropertyOp11
 70
     1
102
RTVSPropertyOp12
 70
     1
102
RTVSPropertyOp13
 70
     1
102
RTVSPropertyOp14
 70
     1
102
RTVSPropertyOp15
 70
     1
102
RTVSPropertyOp16
 70
     1
102
RTVSPropertyOp17
 70
     1
102
RTVSPropertyOp18
 70
     1
102
RTVSPropertyOp19
 70
     1
102
RTVSPropertyOp20
 70
     1
102
RTVSPropertyOp21
 70
     1
102
RTVSPropertyOp22
 70
     1
102
RTVSPropertyOp23
 70
     1
102
RTVSPropertyOp24
 70
     1
102
RTVSPropertyOp25
 70
     1
102
RTVSPropertyOp26
 70
     1
102
RTVSPropertyOp27
 70
     1
102
RTVSPropertyOp28
 70
     1
102
RTVSPropertyOp29
 70
     1
102
RTVSPropertyOp30
 70
     1
102
RTVSPropertyOp31
 70
     1
102
RTVSPropertyOp32
 70
     1
102
RTVSPropertyOp33
 70
     1
102
RTVSPropertyOp34
 70
     1
102
RTVSPropertyOp35
 70
     1
102
RTVSPropertyOp36
 70
     1
102
RTVSPropertyOp37
 70
     1
102
RTVSPropertyOp38
 70
     1
102
RTVSPropertyOp39
 70
     1
102
RTVSPropertyOp40
 70
     1
102
RTVSPropertyOp41
 70
     1
102
RTVSPropertyOp42
 70
     1
102
RTVSPropertyOp43
 70
     1
102
RTVSPropertyOp44
 70
     1
102
RTVSPropertyOp45
 70
     1
102
RTVSPropertyOp46
 70
     1
102
RTVSPropertyOp47
 70
     1
102
RTVSPropertyOp48
 70
     1
102
RTVSPropertyOp49
 70
     1
102
RTVSPropertyOp50
 70
     1
102
RTVSPropertyOp51
 70
     0
102
RTVSPropertyOp52
 70
     0
102
RTVSPropertyOp53
 70
     1
102
RTVSPropertyOp54
 70
     1
102
RTVSPropertyOp55
 70
     1
102
RTVSPropertyOp56
 70
     1
102
RTVSPropertyOp57
 70
     1
102
RTVSPropertyOp58
 70
     1
102
RTVSPropertyOp59
 70
     1
102
RTVSPropertyOp60
 70
     1
102
RTVSPropertyOp61
 70
     1
102
RTVSPropertyOp62
 70
     1
  0
XRECORD
  5
335A
102
{ACAD_REACTORS
330
3359
102
}
330
3359
100
AcDbXrecord
280
     1
102
RTVSPost2010Prop28
280
     0
102
RTVSPost2010PropOp28
 70
     0
102
RTVSPost2010Prop29
280
     1
102
RTVSPost2010PropOp29
 70
     0
102
RTVSPost2010Prop30
280
     1
102
RTVSPost2010PropOp30
 70
     0
102
RTVSPost2010Prop31
280
     0
102
RTVSPost2010PropOp31
 70
     0
102
RTVSPost2010Prop32
280
     0
102
RTVSPost2010PropOp32
 70
     0
102
RTVSPost2010Prop33
280
     0
102
RTVSPost2010PropOp33
 70
     0
102
RTVSPost2010Prop34
280
     0
102
RTVSPost2010PropOp34
 70
     0
102
RTVSPost2010Prop35
280
     0
102
RTVSPost2010PropOp35
 70
     0
102
RTVSPost2010Prop36
280
     0
102
RTVSPost2010PropOp36
 70
     0
102
RTVSPost2010Prop37
 90
       50
102
RTVSPost2010PropOp37
 70
     0
102
RTVSPost2010Prop38
140
0.0
102
RTVSPost2010PropOp38
 70
     0
102
RTVSPost2010Prop39
140
1.0
102
RTVSPost2010PropOp39
 70
     0
102
RTVSPost2010Prop40
 90
        0
102
RTVSPost2010PropOp40
 70
     0
102
RTVSPost2010Prop41ColorIndex
 90
       18
102
RTVSPost2010Prop41ColorRGB
 90
        0
102
RTVSPost2010PropOp41
 70
     0
102
RTVSPost2010Prop42
 90
       50
102
RTVSPost2010PropOp42
 70
     0
102
RTVSPost2010Prop43
 90
        3
102
RTVSPost2010PropOp43
 70
     0
102
RTVSPost2010Prop44ColorIndex
 90
        5
102
RTVSPost2010Prop44ColorRGB
 90
      255
102
RTVSPost2010PropOp44
 70
     0
102
RTVSPost2010Prop45
280
     0
102
RTVSPost2010PropOp45
 70
     0
102
RTVSPost2010Prop46
 90
       50
102
RTVSPost2010PropOp46
 70
     0
102
RTVSPost2010Prop47
 90
       50
102
RTVSPost2010PropOp47
 70
     0
102
RTVSPost2010Prop48
 90
       50
102
RTVSPost2010PropOp48
 70
     0
102
RTVSPost2010Prop49
280
     0
102
RTVSPost2010PropOp49
 70
     0
102
RTVSPost2010Prop50
 90
       50
102
RTVSPost2010PropOp50
 70
     0
102
RTVSPost2010Prop51ColorIndex
 90
      256
102
RTVSPost2010Prop51ColorRGB
 90
-16777216
102
RTVSPost2010PropOp51
 70
     0
102
RTVSPost2010Prop52
140
1.0
102
RTVSPost2010PropOp52
 70
     0
102
RTVSPost2010Prop53
 90
        2
102
RTVSPost2010PropOp53
 70
     0
102
RTVSPost2010Prop54
  1
strokes_ogs.tif
102
RTVSPost2010PropOp54
 70
     0
102
RTVSPost2010Prop55
280
     0
102
RTVSPost2010PropOp55
 70
     0
102
RTVSPost2010Prop56
140
1.0
102
RTVSPost2010PropOp56
 70
     0
102
RTVSPost2010Prop57
140
1.0
102
RTVSPost2010PropOp57
 70
     0
102
RTVSPropertyOp0
 70
     0
102
RTVSPropertyOp1
 70
     0
102
RTVSPropertyOp2
 70
     0
102
RTVSPropertyOp3
 70
     0
102
RTVSPropertyOp4
 70
     0
102
RTVSPropertyOp5
 70
     0
102
RTVSPropertyOp6
 70
     0
102
RTVSPropertyOp7
 70
     0
102
RTVSPropertyOp8
 70
     0
102
RTVSPropertyOp9
 70
     0
102
RTVSPropertyOp10
 70
     0
102
RTVSPropertyOp11
 70
     0
102
RTVSPropertyOp12
 70
     0
102
RTVSPropertyOp13
 70
     0
102
RTVSPropertyOp14
 70
     2
102
RTVSPropertyOp15
 70
     0
102
RTVSPropertyOp16
 70
     0
102
RTVSPropertyOp17
 70
     0
102
RTVSPropertyOp18
 70
     0
102
RTVSPropertyOp19
 70
     0
102
RTVSPropertyOp20
 70
     0
102
RTVSPropertyOp21
 70
     0
102
RTVSPropertyOp22
 70
     0
102
RTVSPropertyOp23
 70
     0
102
RTVSPropertyOp24
 70
     0
102
RTVSPropertyOp25
 70
     0
102
RTVSPropertyOp26
 70
     0
102
RTVSPropertyOp27
 70
     0
102
RTVSPropertyOp28
 70
     0
102
RTVSPropertyOp29
 70
     0
102
RTVSPropertyOp30
 70
     0
102
RTVSPropertyOp31
 70
     0
102
RTVSPropertyOp32
 70
     0
102
RTVSPropertyOp33
 70
     0
102
RTVSPropertyOp34
 70
     0
102
RTVSPropertyOp35
 70
     0
102
RTVSPropertyOp36
 70
     0
102
RTVSPropertyOp37
 70
     0
102
RTVSPropertyOp38
 70
     0
102
RTVSPropertyOp39
 70
     0
102
RTVSPropertyOp40
 70
     0
102
RTVSPropertyOp41
 70
     0
102
RTVSPropertyOp42
 70
     0
102
RTVSPropertyOp43
 70
     0
102
RTVSPropertyOp44
 70
     0
102
RTVSPropertyOp45
 70
     0
102
RTVSPropertyOp46
 70
     0
102
RTVSPropertyOp47
 70
     0
102
RTVSPropertyOp48
 70
     0
102
RTVSPropertyOp49
 70
     0
102
RTVSPropertyOp50
 70
     0
102
RTVSPropertyOp51
 70
     0
102
RTVSPropertyOp52
 70
     0
102
RTVSPropertyOp53
 70
     0
102
RTVSPropertyOp54
 70
     0
102
RTVSPropertyOp55
 70
     0
102
RTVSPropertyOp56
 70
     0
102
RTVSPropertyOp57
 70
     0
102
RTVSPropertyOp58
 70
     0
102
RTVSPropertyOp59
 70
     0
102
RTVSPropertyOp60
 70
     0
102
RTVSPropertyOp61
 70
     0
102
RTVSPropertyOp62
 70
     0
  0
XRECORD
  5
334A
102
{ACAD_REACTORS
330
3349
102
}
330
3349
100
AcDbXrecord
280
     1
102
RTVSPost2010Prop28
280
     0
102
RTVSPost2010PropOp28
 70
     1
102
RTVSPost2010Prop29
280
     1
102
RTVSPost2010PropOp29
 70
     1
102
RTVSPost2010Prop30
280
     1
102
RTVSPost2010PropOp30
 70
     1
102
RTVSPost2010Prop31
280
     0
102
RTVSPost2010PropOp31
 70
     1
102
RTVSPost2010Prop32
280
     0
102
RTVSPost2010PropOp32
 70
     1
102
RTVSPost2010Prop33
280
     0
102
RTVSPost2010PropOp33
 70
     1
102
RTVSPost2010Prop34
280
     0
102
RTVSPost2010PropOp34
 70
     1
102
RTVSPost2010Prop35
280
     0
102
RTVSPost2010PropOp35
 70
     1
102
RTVSPost2010Prop36
280
     0
102
RTVSPost2010PropOp36
 70
     1
102
RTVSPost2010Prop37
 90
       50
102
RTVSPost2010PropOp37
 70
     1
102
RTVSPost2010Prop38
140
0.0
102
RTVSPost2010PropOp38
 70
     1
102
RTVSPost2010Prop39
140
1.0
102
RTVSPost2010PropOp39
 70
     1
102
RTVSPost2010Prop40
 90
        0
102
RTVSPost2010PropOp40
 70
     1
102
RTVSPost2010Prop41ColorIndex
 90
       18
102
RTVSPost2010Prop41ColorRGB
 90
        0
102
RTVSPost2010PropOp41
 70
     1
102
RTVSPost2010Prop42
 90
       50
102
RTVSPost2010PropOp42
 70
     1
102
RTVSPost2010Prop43
 90
        3
102
RTVSPost2010PropOp43
 70
     1
102
RTVSPost2010Prop44ColorIndex
 90
        5
102
RTVSPost2010Prop44ColorRGB
 90
      255
102
RTVSPost2010PropOp44
 70
     1
102
RTVSPost2010Prop45
280
     0
102
RTVSPost2010PropOp45
 70
     1
102
RTVSPost2010Prop46
 90
       50
102
RTVSPost2010PropOp46
 70
     1
102
RTVSPost2010Prop47
 90
       50
102
RTVSPost2010PropOp47
 70
     1
102
RTVSPost2010Prop48
 90
       50
102
RTVSPost2010PropOp48
 70
     1
102
RTVSPost2010Prop49
280
     0
102
RTVSPost2010PropOp49
 70
     1
102
RTVSPost2010Prop50
 90
       50
102
RTVSPost2010PropOp50
 70
     1
102
RTVSPost2010Prop51ColorIndex
 90
      256
102
RTVSPost2010Prop51ColorRGB
 90
-16777216
102
RTVSPost2010PropOp51
 70
     0
102
RTVSPost2010Prop52
140
1.0
102
RTVSPost2010PropOp52
 70
     0
102
RTVSPost2010Prop53
 90
        2
102
RTVSPost2010PropOp53
 70
     1
102
RTVSPost2010Prop54
  1
strokes_ogs.tif
102
RTVSPost2010PropOp54
 70
     1
102
RTVSPost2010Prop55
280
     0
102
RTVSPost2010PropOp55
 70
     1
102
RTVSPost2010Prop56
140
1.0
102
RTVSPost2010PropOp56
 70
     1
102
RTVSPost2010Prop57
140
1.0
102
RTVSPost2010PropOp57
 70
     1
102
RTVSPropertyOp0
 70
     1
102
RTVSPropertyOp1
 70
     1
102
RTVSPropertyOp2
 70
     1
102
RTVSPropertyOp3
 70
     1
102
RTVSPropertyOp4
 70
     1
102
RTVSPropertyOp5
 70
     1
102
RTVSPropertyOp6
 70
     1
102
RTVSPropertyOp7
 70
     1
102
RTVSPropertyOp8
 70
     1
102
RTVSPropertyOp9
 70
     1
102
RTVSPropertyOp10
 70
     1
102
RTVSPropertyOp11
 70
     1
102
RTVSPropertyOp12
 70
     1
102
RTVSPropertyOp13
 70
     1
102
RTVSPropertyOp14
 70
     1
102
RTVSPropertyOp15
 70
     1
102
RTVSPropertyOp16
 70
     1
102
RTVSPropertyOp17
 70
     1
102
RTVSPropertyOp18
 70
     1
102
RTVSPropertyOp19
 70
     1
102
RTVSPropertyOp20
 70
     1
102
RTVSPropertyOp21
 70
     1
102
RTVSPropertyOp22
 70
     1
102
RTVSPropertyOp23
 70
     1
102
RTVSPropertyOp24
 70
     1
102
RTVSPropertyOp25
 70
     1
102
RTVSPropertyOp26
 70
     1
102
RTVSPropertyOp27
 70
     1
102
RTVSPropertyOp28
 70
     1
102
RTVSPropertyOp29
 70
     1
102
RTVSPropertyOp30
 70
     1
102
RTVSPropertyOp31
 70
     1
102
RTVSPropertyOp32
 70
     1
102
RTVSPropertyOp33
 70
     1
102
RTVSPropertyOp34
 70
     1
102
RTVSPropertyOp35
 70
     1
102
RTVSPropertyOp36
 70
     1
102
RTVSPropertyOp37
 70
     1
102
RTVSPropertyOp38
 70
     1
102
RTVSPropertyOp39
 70
     1
102
RTVSPropertyOp40
 70
     1
102
RTVSPropertyOp41
 70
     1
102
RTVSPropertyOp42
 70
     1
102
RTVSPropertyOp43
 70
     1
102
RTVSPropertyOp44
 70
     1
102
RTVSPropertyOp45
 70
     1
102
RTVSPropertyOp46
 70
     1
102
RTVSPropertyOp47
 70
     1
102
RTVSPropertyOp48
 70
     1
102
RTVSPropertyOp49
 70
     1
102
RTVSPropertyOp50
 70
     1
102
RTVSPropertyOp51
 70
     0
102
RTVSPropertyOp52
 70
     0
102
RTVSPropertyOp53
 70
     1
102
RTVSPropertyOp54
 70
     1
102
RTVSPropertyOp55
 70
     1
102
RTVSPropertyOp56
 70
     1
102
RTVSPropertyOp57
 70
     1
102
RTVSPropertyOp58
 70
     1
102
RTVSPropertyOp59
 70
     1
102
RTVSPropertyOp60
 70
     1
102
RTVSPropertyOp61
 70
     1
102
RTVSPropertyOp62
 70
     1
  0
XRECORD
  5
335C
102
{ACAD_REACTORS
330
335B
102
}
330
335B
100
AcDbXrecord
280
     1
102
RTVSPost2010Prop28
280
     0
102
RTVSPost2010PropOp28
 70
     0
102
RTVSPost2010Prop29
280
     1
102
RTVSPost2010PropOp29
 70
     0
102
RTVSPost2010Prop30
280
     1
102
RTVSPost2010PropOp30
 70
     0
102
RTVSPost2010Prop31
280
     0
102
RTVSPost2010PropOp31
 70
     0
102
RTVSPost2010Prop32
280
     0
102
RTVSPost2010PropOp32
 70
     0
102
RTVSPost2010Prop33
280
     0
102
RTVSPost2010PropOp33
 70
     0
102
RTVSPost2010Prop34
280
     0
102
RTVSPost2010PropOp34
 70
     0
102
RTVSPost2010Prop35
280
     0
102
RTVSPost2010PropOp35
 70
     0
102
RTVSPost2010Prop36
280
     0
102
RTVSPost2010PropOp36
 70
     0
102
RTVSPost2010Prop37
 90
       50
102
RTVSPost2010PropOp37
 70
     0
102
RTVSPost2010Prop38
140
0.0
102
RTVSPost2010PropOp38
 70
     0
102
RTVSPost2010Prop39
140
1.0
102
RTVSPost2010PropOp39
 70
     0
102
RTVSPost2010Prop40
 90
        0
102
RTVSPost2010PropOp40
 70
     0
102
RTVSPost2010Prop41ColorIndex
 90
       18
102
RTVSPost2010Prop41ColorRGB
 90
        0
102
RTVSPost2010PropOp41
 70
     0
102
RTVSPost2010Prop42
 90
       50
102
RTVSPost2010PropOp42
 70
     0
102
RTVSPost2010Prop43
 90
        3
102
RTVSPost2010PropOp43
 70
     0
102
RTVSPost2010Prop44ColorIndex
 90
        5
102
RTVSPost2010Prop44ColorRGB
 90
      255
102
RTVSPost2010PropOp44
 70
     0
102
RTVSPost2010Prop45
280
     0
102
RTVSPost2010PropOp45
 70
     0
102
RTVSPost2010Prop46
 90
       50
102
RTVSPost2010PropOp46
 70
     0
102
RTVSPost2010Prop47
 90
       50
102
RTVSPost2010PropOp47
 70
     0
102
RTVSPost2010Prop48
 90
       50
102
RTVSPost2010PropOp48
 70
     0
102
RTVSPost2010Prop49
280
     0
102
RTVSPost2010PropOp49
 70
     0
102
RTVSPost2010Prop50
 90
       50
102
RTVSPost2010PropOp50
 70
     0
102
RTVSPost2010Prop51ColorIndex
 90
      256
102
RTVSPost2010Prop51ColorRGB
 90
-16777216
102
RTVSPost2010PropOp51
 70
     0
102
RTVSPost2010Prop52
140
1.0
102
RTVSPost2010PropOp52
 70
     0
102
RTVSPost2010Prop53
 90
        2
102
RTVSPost2010PropOp53
 70
     0
102
RTVSPost2010Prop54
  1
strokes_ogs.tif
102
RTVSPost2010PropOp54
 70
     0
102
RTVSPost2010Prop55
280
     0
102
RTVSPost2010PropOp55
 70
     0
102
RTVSPost2010Prop56
140
1.0
102
RTVSPost2010PropOp56
 70
     0
102
RTVSPost2010Prop57
140
1.0
102
RTVSPost2010PropOp57
 70
     0
102
RTVSPropertyOp0
 70
     0
102
RTVSPropertyOp1
 70
     0
102
RTVSPropertyOp2
 70
     0
102
RTVSPropertyOp3
 70
     0
102
RTVSPropertyOp4
 70
     0
102
RTVSPropertyOp5
 70
     0
102
RTVSPropertyOp6
 70
     0
102
RTVSPropertyOp7
 70
     0
102
RTVSPropertyOp8
 70
     0
102
RTVSPropertyOp9
 70
     0
102
RTVSPropertyOp10
 70
     0
102
RTVSPropertyOp11
 70
     0
102
RTVSPropertyOp12
 70
     0
102
RTVSPropertyOp13
 70
     0
102
RTVSPropertyOp14
 70
     2
102
RTVSPropertyOp15
 70
     0
102
RTVSPropertyOp16
 70
     0
102
RTVSPropertyOp17
 70
     0
102
RTVSPropertyOp18
 70
     0
102
RTVSPropertyOp19
 70
     0
102
RTVSPropertyOp20
 70
     0
102
RTVSPropertyOp21
 70
     0
102
RTVSPropertyOp22
 70
     0
102
RTVSPropertyOp23
 70
     0
102
RTVSPropertyOp24
 70
     0
102
RTVSPropertyOp25
 70
     0
102
RTVSPropertyOp26
 70
     0
102
RTVSPropertyOp27
 70
     0
102
RTVSPropertyOp28
 70
     0
102
RTVSPropertyOp29
 70
     0
102
RTVSPropertyOp30
 70
     0
102
RTVSPropertyOp31
 70
     0
102
RTVSPropertyOp32
 70
     0
102
RTVSPropertyOp33
 70
     0
102
RTVSPropertyOp34
 70
     0
102
RTVSPropertyOp35
 70
     0
102
RTVSPropertyOp36
 70
     0
102
RTVSPropertyOp37
 70
     0
102
RTVSPropertyOp38
 70
     0
102
RTVSPropertyOp39
 70
     0
102
RTVSPropertyOp40
 70
     0
102
RTVSPropertyOp41
 70
     0
102
RTVSPropertyOp42
 70
     0
102
RTVSPropertyOp43
 70
     0
102
RTVSPropertyOp44
 70
     0
102
RTVSPropertyOp45
 70
     0
102
RTVSPropertyOp46
 70
     0
102
RTVSPropertyOp47
 70
     0
102
RTVSPropertyOp48
 70
     0
102
RTVSPropertyOp49
 70
     0
102
RTVSPropertyOp50
 70
     0
102
RTVSPropertyOp51
 70
     0
102
RTVSPropertyOp52
 70
     0
102
RTVSPropertyOp53
 70
     0
102
RTVSPropertyOp54
 70
     0
102
RTVSPropertyOp55
 70
     0
102
RTVSPropertyOp56
 70
     0
102
RTVSPropertyOp57
 70
     0
102
RTVSPropertyOp58
 70
     0
102
RTVSPropertyOp59
 70
     0
102
RTVSPropertyOp60
 70
     0
102
RTVSPropertyOp61
 70
     0
102
RTVSPropertyOp62
 70
     0
  0
XRECORD
  5
3342
102
{ACAD_REACTORS
330
3341
102
}
330
3341
100
AcDbXrecord
280
     1
102
RTVSPost2010Prop28
280
     0
102
RTVSPost2010PropOp28
 70
     1
102
RTVSPost2010Prop29
280
     1
102
RTVSPost2010PropOp29
 70
     1
102
RTVSPost2010Prop30
280
     1
102
RTVSPost2010PropOp30
 70
     1
102
RTVSPost2010Prop31
280
     0
102
RTVSPost2010PropOp31
 70
     1
102
RTVSPost2010Prop32
280
     0
102
RTVSPost2010PropOp32
 70
     1
102
RTVSPost2010Prop33
280
     0
102
RTVSPost2010PropOp33
 70
     1
102
RTVSPost2010Prop34
280
     0
102
RTVSPost2010PropOp34
 70
     1
102
RTVSPost2010Prop35
280
     0
102
RTVSPost2010PropOp35
 70
     1
102
RTVSPost2010Prop36
280
     0
102
RTVSPost2010PropOp36
 70
     1
102
RTVSPost2010Prop37
 90
       50
102
RTVSPost2010PropOp37
 70
     1
102
RTVSPost2010Prop38
140
0.0
102
RTVSPost2010PropOp38
 70
     1
102
RTVSPost2010Prop39
140
1.0
102
RTVSPost2010PropOp39
 70
     1
102
RTVSPost2010Prop40
 90
        0
102
RTVSPost2010PropOp40
 70
     1
102
RTVSPost2010Prop41ColorIndex
 90
       18
102
RTVSPost2010Prop41ColorRGB
 90
        0
102
RTVSPost2010PropOp41
 70
     1
102
RTVSPost2010Prop42
 90
       50
102
RTVSPost2010PropOp42
 70
     1
102
RTVSPost2010Prop43
 90
        3
102
RTVSPost2010PropOp43
 70
     1
102
RTVSPost2010Prop44ColorIndex
 90
        5
102
RTVSPost2010Prop44ColorRGB
 90
      255
102
RTVSPost2010PropOp44
 70
     1
102
RTVSPost2010Prop45
280
     0
102
RTVSPost2010PropOp45
 70
     1
102
RTVSPost2010Prop46
 90
       50
102
RTVSPost2010PropOp46
 70
     1
102
RTVSPost2010Prop47
 90
       50
102
RTVSPost2010PropOp47
 70
     1
102
RTVSPost2010Prop48
 90
       50
102
RTVSPost2010PropOp48
 70
     1
102
RTVSPost2010Prop49
280
     0
102
RTVSPost2010PropOp49
 70
     1
102
RTVSPost2010Prop50
 90
       50
102
RTVSPost2010PropOp50
 70
     1
102
RTVSPost2010Prop51ColorIndex
 90
      256
102
RTVSPost2010Prop51ColorRGB
 90
-16777216
102
RTVSPost2010PropOp51
 70
     0
102
RTVSPost2010Prop52
140
1.0
102
RTVSPost2010PropOp52
 70
     0
102
RTVSPost2010Prop53
 90
        2
102
RTVSPost2010PropOp53
 70
     1
102
RTVSPost2010Prop54
  1
strokes_ogs.tif
102
RTVSPost2010PropOp54
 70
     1
102
RTVSPost2010Prop55
280
     0
102
RTVSPost2010PropOp55
 70
     1
102
RTVSPost2010Prop56
140
1.0
102
RTVSPost2010PropOp56
 70
     1
102
RTVSPost2010Prop57
140
1.0
102
RTVSPost2010PropOp57
 70
     1
102
RTVSPropertyOp0
 70
     1
102
RTVSPropertyOp1
 70
     1
102
RTVSPropertyOp2
 70
     1
102
RTVSPropertyOp3
 70
     1
102
RTVSPropertyOp4
 70
     1
102
RTVSPropertyOp5
 70
     1
102
RTVSPropertyOp6
 70
     1
102
RTVSPropertyOp7
 70
     1
102
RTVSPropertyOp8
 70
     1
102
RTVSPropertyOp9
 70
     1
102
RTVSPropertyOp10
 70
     1
102
RTVSPropertyOp11
 70
     1
102
RTVSPropertyOp12
 70
     1
102
RTVSPropertyOp13
 70
     1
102
RTVSPropertyOp14
 70
     1
102
RTVSPropertyOp15
 70
     1
102
RTVSPropertyOp16
 70
     1
102
RTVSPropertyOp17
 70
     1
102
RTVSPropertyOp18
 70
     1
102
RTVSPropertyOp19
 70
     1
102
RTVSPropertyOp20
 70
     1
102
RTVSPropertyOp21
 70
     1
102
RTVSPropertyOp22
 70
     1
102
RTVSPropertyOp23
 70
     1
102
RTVSPropertyOp24
 70
     1
102
RTVSPropertyOp25
 70
     1
102
RTVSPropertyOp26
 70
     1
102
RTVSPropertyOp27
 70
     1
102
RTVSPropertyOp28
 70
     1
102
RTVSPropertyOp29
 70
     1
102
RTVSPropertyOp30
 70
     1
102
RTVSPropertyOp31
 70
     1
102
RTVSPropertyOp32
 70
     1
102
RTVSPropertyOp33
 70
     1
102
RTVSPropertyOp34
 70
     1
102
RTVSPropertyOp35
 70
     1
102
RTVSPropertyOp36
 70
     1
102
RTVSPropertyOp37
 70
     1
102
RTVSPropertyOp38
 70
     1
102
RTVSPropertyOp39
 70
     1
102
RTVSPropertyOp40
 70
     1
102
RTVSPropertyOp41
 70
     1
102
RTVSPropertyOp42
 70
     1
102
RTVSPropertyOp43
 70
     1
102
RTVSPropertyOp44
 70
     1
102
RTVSPropertyOp45
 70
     1
102
RTVSPropertyOp46
 70
     1
102
RTVSPropertyOp47
 70
     1
102
RTVSPropertyOp48
 70
     1
102
RTVSPropertyOp49
 70
     1
102
RTVSPropertyOp50
 70
     1
102
RTVSPropertyOp51
 70
     0
102
RTVSPropertyOp52
 70
     0
102
RTVSPropertyOp53
 70
     1
102
RTVSPropertyOp54
 70
     1
102
RTVSPropertyOp55
 70
     1
102
RTVSPropertyOp56
 70
     1
102
RTVSPropertyOp57
 70
     1
102
RTVSPropertyOp58
 70
     1
102
RTVSPropertyOp59
 70
     1
102
RTVSPropertyOp60
 70
     1
102
RTVSPropertyOp61
 70
     1
102
RTVSPropertyOp62
 70
     1
  0
XRECORD
  5
3358
102
{ACAD_REACTORS
330
3357
102
}
330
3357
100
AcDbXrecord
280
     1
102
RTVSPost2010Prop28
280
     0
102
RTVSPost2010PropOp28
 70
     1
102
RTVSPost2010Prop29
280
     1
102
RTVSPost2010PropOp29
 70
     1
102
RTVSPost2010Prop30
280
     1
102
RTVSPost2010PropOp30
 70
     1
102
RTVSPost2010Prop31
280
     0
102
RTVSPost2010PropOp31
 70
     1
102
RTVSPost2010Prop32
280
     0
102
RTVSPost2010PropOp32
 70
     1
102
RTVSPost2010Prop33
280
     0
102
RTVSPost2010PropOp33
 70
     1
102
RTVSPost2010Prop34
280
     0
102
RTVSPost2010PropOp34
 70
     1
102
RTVSPost2010Prop35
280
     0
102
RTVSPost2010PropOp35
 70
     1
102
RTVSPost2010Prop36
280
     0
102
RTVSPost2010PropOp36
 70
     1
102
RTVSPost2010Prop37
 90
       50
102
RTVSPost2010PropOp37
 70
     1
102
RTVSPost2010Prop38
140
0.0
102
RTVSPost2010PropOp38
 70
     1
102
RTVSPost2010Prop39
140
1.0
102
RTVSPost2010PropOp39
 70
     1
102
RTVSPost2010Prop40
 90
        0
102
RTVSPost2010PropOp40
 70
     1
102
RTVSPost2010Prop41ColorIndex
 90
       18
102
RTVSPost2010Prop41ColorRGB
 90
        0
102
RTVSPost2010PropOp41
 70
     1
102
RTVSPost2010Prop42
 90
       50
102
RTVSPost2010PropOp42
 70
     1
102
RTVSPost2010Prop43
 90
        3
102
RTVSPost2010PropOp43
 70
     1
102
RTVSPost2010Prop44ColorIndex
 90
        5
102
RTVSPost2010Prop44ColorRGB
 90
      255
102
RTVSPost2010PropOp44
 70
     1
102
RTVSPost2010Prop45
280
     0
102
RTVSPost2010PropOp45
 70
     1
102
RTVSPost2010Prop46
 90
       50
102
RTVSPost2010PropOp46
 70
     1
102
RTVSPost2010Prop47
 90
       50
102
RTVSPost2010PropOp47
 70
     1
102
RTVSPost2010Prop48
 90
       50
102
RTVSPost2010PropOp48
 70
     1
102
RTVSPost2010Prop49
280
     0
102
RTVSPost2010PropOp49
 70
     1
102
RTVSPost2010Prop50
 90
       50
102
RTVSPost2010PropOp50
 70
     1
102
RTVSPost2010Prop51ColorIndex
 90
      256
102
RTVSPost2010Prop51ColorRGB
 90
-16777216
102
RTVSPost2010PropOp51
 70
     0
102
RTVSPost2010Prop52
140
1.0
102
RTVSPost2010PropOp52
 70
     0
102
RTVSPost2010Prop53
 90
        2
102
RTVSPost2010PropOp53
 70
     1
102
RTVSPost2010Prop54
  1
strokes_ogs.tif
102
RTVSPost2010PropOp54
 70
     1
102
RTVSPost2010Prop55
280
     0
102
RTVSPost2010PropOp55
 70
     1
102
RTVSPost2010Prop56
140
1.0
102
RTVSPost2010PropOp56
 70
     1
102
RTVSPost2010Prop57
140
1.0
102
RTVSPost2010PropOp57
 70
     1
102
RTVSPropertyOp0
 70
     1
102
RTVSPropertyOp1
 70
     1
102
RTVSPropertyOp2
 70
     1
102
RTVSPropertyOp3
 70
     1
102
RTVSPropertyOp4
 70
     1
102
RTVSPropertyOp5
 70
     1
102
RTVSPropertyOp6
 70
     1
102
RTVSPropertyOp7
 70
     1
102
RTVSPropertyOp8
 70
     1
102
RTVSPropertyOp9
 70
     1
102
RTVSPropertyOp10
 70
     1
102
RTVSPropertyOp11
 70
     1
102
RTVSPropertyOp12
 70
     1
102
RTVSPropertyOp13
 70
     1
102
RTVSPropertyOp14
 70
     1
102
RTVSPropertyOp15
 70
     1
102
RTVSPropertyOp16
 70
     1
102
RTVSPropertyOp17
 70
     1
102
RTVSPropertyOp18
 70
     1
102
RTVSPropertyOp19
 70
     1
102
RTVSPropertyOp20
 70
     1
102
RTVSPropertyOp21
 70
     1
102
RTVSPropertyOp22
 70
     1
102
RTVSPropertyOp23
 70
     1
102
RTVSPropertyOp24
 70
     1
102
RTVSPropertyOp25
 70
     1
102
RTVSPropertyOp26
 70
     1
102
RTVSPropertyOp27
 70
     1
102
RTVSPropertyOp28
 70
     1
102
RTVSPropertyOp29
 70
     1
102
RTVSPropertyOp30
 70
     1
102
RTVSPropertyOp31
 70
     1
102
RTVSPropertyOp32
 70
     1
102
RTVSPropertyOp33
 70
     1
102
RTVSPropertyOp34
 70
     1
102
RTVSPropertyOp35
 70
     1
102
RTVSPropertyOp36
 70
     1
102
RTVSPropertyOp37
 70
     1
102
RTVSPropertyOp38
 70
     1
102
RTVSPropertyOp39
 70
     1
102
RTVSPropertyOp40
 70
     1
102
RTVSPropertyOp41
 70
     1
102
RTVSPropertyOp42
 70
     1
102
RTVSPropertyOp43
 70
     1
102
RTVSPropertyOp44
 70
     1
102
RTVSPropertyOp45
 70
     1
102
RTVSPropertyOp46
 70
     1
102
RTVSPropertyOp47
 70
     1
102
RTVSPropertyOp48
 70
     1
102
RTVSPropertyOp49
 70
     1
102
RTVSPropertyOp50
 70
     1
102
RTVSPropertyOp51
 70
     0
102
RTVSPropertyOp52
 70
     0
102
RTVSPropertyOp53
 70
     1
102
RTVSPropertyOp54
 70
     1
102
RTVSPropertyOp55
 70
     1
102
RTVSPropertyOp56
 70
     1
102
RTVSPropertyOp57
 70
     1
102
RTVSPropertyOp58
 70
     1
102
RTVSPropertyOp59
 70
     1
102
RTVSPropertyOp60
 70
     1
102
RTVSPropertyOp61
 70
     1
102
RTVSPropertyOp62
 70
     1
  0
XRECORD
  5
3356
102
{ACAD_REACTORS
330
3355
102
}
330
3355
100
AcDbXrecord
280
     1
102
RTVSPost2010Prop28
280
     0
102
RTVSPost2010PropOp28
 70
     1
102
RTVSPost2010Prop29
280
     1
102
RTVSPost2010PropOp29
 70
     1
102
RTVSPost2010Prop30
280
     1
102
RTVSPost2010PropOp30
 70
     1
102
RTVSPost2010Prop31
280
     0
102
RTVSPost2010PropOp31
 70
     1
102
RTVSPost2010Prop32
280
     0
102
RTVSPost2010PropOp32
 70
     1
102
RTVSPost2010Prop33
280
     0
102
RTVSPost2010PropOp33
 70
     1
102
RTVSPost2010Prop34
280
     0
102
RTVSPost2010PropOp34
 70
     1
102
RTVSPost2010Prop35
280
     0
102
RTVSPost2010PropOp35
 70
     1
102
RTVSPost2010Prop36
280
     0
102
RTVSPost2010PropOp36
 70
     1
102
RTVSPost2010Prop37
 90
       50
102
RTVSPost2010PropOp37
 70
     1
102
RTVSPost2010Prop38
140
0.0
102
RTVSPost2010PropOp38
 70
     1
102
RTVSPost2010Prop39
140
1.0
102
RTVSPost2010PropOp39
 70
     1
102
RTVSPost2010Prop40
 90
        0
102
RTVSPost2010PropOp40
 70
     1
102
RTVSPost2010Prop41ColorIndex
 90
       18
102
RTVSPost2010Prop41ColorRGB
 90
        0
102
RTVSPost2010PropOp41
 70
     1
102
RTVSPost2010Prop42
 90
       50
102
RTVSPost2010PropOp42
 70
     1
102
RTVSPost2010Prop43
 90
        3
102
RTVSPost2010PropOp43
 70
     1
102
RTVSPost2010Prop44ColorIndex
 90
        5
102
RTVSPost2010Prop44ColorRGB
 90
      255
102
RTVSPost2010PropOp44
 70
     1
102
RTVSPost2010Prop45
280
     0
102
RTVSPost2010PropOp45
 70
     1
102
RTVSPost2010Prop46
 90
       50
102
RTVSPost2010PropOp46
 70
     1
102
RTVSPost2010Prop47
 90
       50
102
RTVSPost2010PropOp47
 70
     1
102
RTVSPost2010Prop48
 90
       50
102
RTVSPost2010PropOp48
 70
     1
102
RTVSPost2010Prop49
280
     0
102
RTVSPost2010PropOp49
 70
     1
102
RTVSPost2010Prop50
 90
       50
102
RTVSPost2010PropOp50
 70
     1
102
RTVSPost2010Prop51ColorIndex
 90
      256
102
RTVSPost2010Prop51ColorRGB
 90
-16777216
102
RTVSPost2010PropOp51
 70
     0
102
RTVSPost2010Prop52
140
1.0
102
RTVSPost2010PropOp52
 70
     0
102
RTVSPost2010Prop53
 90
        2
102
RTVSPost2010PropOp53
 70
     1
102
RTVSPost2010Prop54
  1
strokes_ogs.tif
102
RTVSPost2010PropOp54
 70
     1
102
RTVSPost2010Prop55
280
     0
102
RTVSPost2010PropOp55
 70
     1
102
RTVSPost2010Prop56
140
1.0
102
RTVSPost2010PropOp56
 70
     1
102
RTVSPost2010Prop57
140
1.0
102
RTVSPost2010PropOp57
 70
     1
102
RTVSPropertyOp0
 70
     1
102
RTVSPropertyOp1
 70
     1
102
RTVSPropertyOp2
 70
     1
102
RTVSPropertyOp3
 70
     1
102
RTVSPropertyOp4
 70
     1
102
RTVSPropertyOp5
 70
     1
102
RTVSPropertyOp6
 70
     1
102
RTVSPropertyOp7
 70
     1
102
RTVSPropertyOp8
 70
     1
102
RTVSPropertyOp9
 70
     1
102
RTVSPropertyOp10
 70
     1
102
RTVSPropertyOp11
 70
     1
102
RTVSPropertyOp12
 70
     1
102
RTVSPropertyOp13
 70
     1
102
RTVSPropertyOp14
 70
     1
102
RTVSPropertyOp15
 70
     1
102
RTVSPropertyOp16
 70
     1
102
RTVSPropertyOp17
 70
     1
102
RTVSPropertyOp18
 70
     1
102
RTVSPropertyOp19
 70
     1
102
RTVSPropertyOp20
 70
     1
102
RTVSPropertyOp21
 70
     1
102
RTVSPropertyOp22
 70
     1
102
RTVSPropertyOp23
 70
     1
102
RTVSPropertyOp24
 70
     1
102
RTVSPropertyOp25
 70
     1
102
RTVSPropertyOp26
 70
     1
102
RTVSPropertyOp27
 70
     1
102
RTVSPropertyOp28
 70
     1
102
RTVSPropertyOp29
 70
     1
102
RTVSPropertyOp30
 70
     1
102
RTVSPropertyOp31
 70
     1
102
RTVSPropertyOp32
 70
     1
102
RTVSPropertyOp33
 70
     1
102
RTVSPropertyOp34
 70
     1
102
RTVSPropertyOp35
 70
     1
102
RTVSPropertyOp36
 70
     1
102
RTVSPropertyOp37
 70
     1
102
RTVSPropertyOp38
 70
     1
102
RTVSPropertyOp39
 70
     1
102
RTVSPropertyOp40
 70
     1
102
RTVSPropertyOp41
 70
     1
102
RTVSPropertyOp42
 70
     1
102
RTVSPropertyOp43
 70
     1
102
RTVSPropertyOp44
 70
     1
102
RTVSPropertyOp45
 70
     1
102
RTVSPropertyOp46
 70
     1
102
RTVSPropertyOp47
 70
     1
102
RTVSPropertyOp48
 70
     1
102
RTVSPropertyOp49
 70
     1
102
RTVSPropertyOp50
 70
     1
102
RTVSPropertyOp51
 70
     0
102
RTVSPropertyOp52
 70
     0
102
RTVSPropertyOp53
 70
     1
102
RTVSPropertyOp54
 70
     1
102
RTVSPropertyOp55
 70
     1
102
RTVSPropertyOp56
 70
     1
102
RTVSPropertyOp57
 70
     1
102
RTVSPropertyOp58
 70
     1
102
RTVSPropertyOp59
 70
     1
102
RTVSPropertyOp60
 70
     1
102
RTVSPropertyOp61
 70
     1
102
RTVSPropertyOp62
 70
     1
  0
XRECORD
  5
3350
102
{ACAD_REACTORS
330
334F
102
}
330
334F
100
AcDbXrecord
280
     1
102
RTVSPost2010Prop28
280
     0
102
RTVSPost2010PropOp28
 70
     1
102
RTVSPost2010Prop29
280
     1
102
RTVSPost2010PropOp29
 70
     1
102
RTVSPost2010Prop30
280
     1
102
RTVSPost2010PropOp30
 70
     1
102
RTVSPost2010Prop31
280
     0
102
RTVSPost2010PropOp31
 70
     1
102
RTVSPost2010Prop32
280
     0
102
RTVSPost2010PropOp32
 70
     1
102
RTVSPost2010Prop33
280
     0
102
RTVSPost2010PropOp33
 70
     1
102
RTVSPost2010Prop34
280
     0
102
RTVSPost2010PropOp34
 70
     1
102
RTVSPost2010Prop35
280
     0
102
RTVSPost2010PropOp35
 70
     1
102
RTVSPost2010Prop36
280
     0
102
RTVSPost2010PropOp36
 70
     1
102
RTVSPost2010Prop37
 90
       50
102
RTVSPost2010PropOp37
 70
     1
102
RTVSPost2010Prop38
140
0.0
102
RTVSPost2010PropOp38
 70
     1
102
RTVSPost2010Prop39
140
1.0
102
RTVSPost2010PropOp39
 70
     1
102
RTVSPost2010Prop40
 90
        0
102
RTVSPost2010PropOp40
 70
     1
102
RTVSPost2010Prop41ColorIndex
 90
       18
102
RTVSPost2010Prop41ColorRGB
 90
        0
102
RTVSPost2010PropOp41
 70
     1
102
RTVSPost2010Prop42
 90
       50
102
RTVSPost2010PropOp42
 70
     1
102
RTVSPost2010Prop43
 90
        3
102
RTVSPost2010PropOp43
 70
     1
102
RTVSPost2010Prop44ColorIndex
 90
        5
102
RTVSPost2010Prop44ColorRGB
 90
      255
102
RTVSPost2010PropOp44
 70
     1
102
RTVSPost2010Prop45
280
     0
102
RTVSPost2010PropOp45
 70
     1
102
RTVSPost2010Prop46
 90
       50
102
RTVSPost2010PropOp46
 70
     1
102
RTVSPost2010Prop47
 90
       50
102
RTVSPost2010PropOp47
 70
     1
102
RTVSPost2010Prop48
 90
       50
102
RTVSPost2010PropOp48
 70
     1
102
RTVSPost2010Prop49
280
     0
102
RTVSPost2010PropOp49
 70
     1
102
RTVSPost2010Prop50
 90
       50
102
RTVSPost2010PropOp50
 70
     1
102
RTVSPost2010Prop51ColorIndex
 90
      256
102
RTVSPost2010Prop51ColorRGB
 90
-16777216
102
RTVSPost2010PropOp51
 70
     0
102
RTVSPost2010Prop52
140
1.0
102
RTVSPost2010PropOp52
 70
     0
102
RTVSPost2010Prop53
 90
        2
102
RTVSPost2010PropOp53
 70
     1
102
RTVSPost2010Prop54
  1
strokes_ogs.tif
102
RTVSPost2010PropOp54
 70
     1
102
RTVSPost2010Prop55
280
     0
102
RTVSPost2010PropOp55
 70
     1
102
RTVSPost2010Prop56
140
1.0
102
RTVSPost2010PropOp56
 70
     1
102
RTVSPost2010Prop57
140
1.0
102
RTVSPost2010PropOp57
 70
     1
102
RTVSPropertyOp0
 70
     1
102
RTVSPropertyOp1
 70
     1
102
RTVSPropertyOp2
 70
     1
102
RTVSPropertyOp3
 70
     1
102
RTVSPropertyOp4
 70
     1
102
RTVSPropertyOp5
 70
     1
102
RTVSPropertyOp6
 70
     1
102
RTVSPropertyOp7
 70
     1
102
RTVSPropertyOp8
 70
     1
102
RTVSPropertyOp9
 70
     1
102
RTVSPropertyOp10
 70
     1
102
RTVSPropertyOp11
 70
     1
102
RTVSPropertyOp12
 70
     1
102
RTVSPropertyOp13
 70
     1
102
RTVSPropertyOp14
 70
     1
102
RTVSPropertyOp15
 70
     1
102
RTVSPropertyOp16
 70
     1
102
RTVSPropertyOp17
 70
     1
102
RTVSPropertyOp18
 70
     1
102
RTVSPropertyOp19
 70
     1
102
RTVSPropertyOp20
 70
     1
102
RTVSPropertyOp21
 70
     1
102
RTVSPropertyOp22
 70
     1
102
RTVSPropertyOp23
 70
     1
102
RTVSPropertyOp24
 70
     1
102
RTVSPropertyOp25
 70
     1
102
RTVSPropertyOp26
 70
     1
102
RTVSPropertyOp27
 70
     1
102
RTVSPropertyOp28
 70
     1
102
RTVSPropertyOp29
 70
     1
102
RTVSPropertyOp30
 70
     1
102
RTVSPropertyOp31
 70
     1
102
RTVSPropertyOp32
 70
     1
102
RTVSPropertyOp33
 70
     1
102
RTVSPropertyOp34
 70
     1
102
RTVSPropertyOp35
 70
     1
102
RTVSPropertyOp36
 70
     1
102
RTVSPropertyOp37
 70
     1
102
RTVSPropertyOp38
 70
     1
102
RTVSPropertyOp39
 70
     1
102
RTVSPropertyOp40
 70
     1
102
RTVSPropertyOp41
 70
     1
102
RTVSPropertyOp42
 70
     1
102
RTVSPropertyOp43
 70
     1
102
RTVSPropertyOp44
 70
     1
102
RTVSPropertyOp45
 70
     1
102
RTVSPropertyOp46
 70
     1
102
RTVSPropertyOp47
 70
     1
102
RTVSPropertyOp48
 70
     1
102
RTVSPropertyOp49
 70
     1
102
RTVSPropertyOp50
 70
     1
102
RTVSPropertyOp51
 70
     0
102
RTVSPropertyOp52
 70
     0
102
RTVSPropertyOp53
 70
     1
102
RTVSPropertyOp54
 70
     1
102
RTVSPropertyOp55
 70
     1
102
RTVSPropertyOp56
 70
     1
102
RTVSPropertyOp57
 70
     1
102
RTVSPropertyOp58
 70
     1
102
RTVSPropertyOp59
 70
     1
102
RTVSPropertyOp60
 70
     1
102
RTVSPropertyOp61
 70
     1
102
RTVSPropertyOp62
 70
     1
  0
XRECORD
  5
3352
102
{ACAD_REACTORS
330
3351
102
}
330
3351
100
AcDbXrecord
280
     1
102
RTVSPost2010Prop28
280
     0
102
RTVSPost2010PropOp28
 70
     1
102
RTVSPost2010Prop29
280
     1
102
RTVSPost2010PropOp29
 70
     1
102
RTVSPost2010Prop30
280
     1
102
RTVSPost2010PropOp30
 70
     1
102
RTVSPost2010Prop31
280
     0
102
RTVSPost2010PropOp31
 70
     1
102
RTVSPost2010Prop32
280
     0
102
RTVSPost2010PropOp32
 70
     1
102
RTVSPost2010Prop33
280
     0
102
RTVSPost2010PropOp33
 70
     1
102
RTVSPost2010Prop34
280
     0
102
RTVSPost2010PropOp34
 70
     1
102
RTVSPost2010Prop35
280
     0
102
RTVSPost2010PropOp35
 70
     1
102
RTVSPost2010Prop36
280
     0
102
RTVSPost2010PropOp36
 70
     1
102
RTVSPost2010Prop37
 90
       50
102
RTVSPost2010PropOp37
 70
     1
102
RTVSPost2010Prop38
140
0.0
102
RTVSPost2010PropOp38
 70
     1
102
RTVSPost2010Prop39
140
1.0
102
RTVSPost2010PropOp39
 70
     1
102
RTVSPost2010Prop40
 90
        0
102
RTVSPost2010PropOp40
 70
     1
102
RTVSPost2010Prop41ColorIndex
 90
       18
102
RTVSPost2010Prop41ColorRGB
 90
        0
102
RTVSPost2010PropOp41
 70
     1
102
RTVSPost2010Prop42
 90
       50
102
RTVSPost2010PropOp42
 70
     1
102
RTVSPost2010Prop43
 90
        3
102
RTVSPost2010PropOp43
 70
     1
102
RTVSPost2010Prop44ColorIndex
 90
        5
102
RTVSPost2010Prop44ColorRGB
 90
      255
102
RTVSPost2010PropOp44
 70
     1
102
RTVSPost2010Prop45
280
     0
102
RTVSPost2010PropOp45
 70
     1
102
RTVSPost2010Prop46
 90
       50
102
RTVSPost2010PropOp46
 70
     1
102
RTVSPost2010Prop47
 90
       50
102
RTVSPost2010PropOp47
 70
     1
102
RTVSPost2010Prop48
 90
       50
102
RTVSPost2010PropOp48
 70
     1
102
RTVSPost2010Prop49
280
     0
102
RTVSPost2010PropOp49
 70
     1
102
RTVSPost2010Prop50
 90
       50
102
RTVSPost2010PropOp50
 70
     1
102
RTVSPost2010Prop51ColorIndex
 90
      256
102
RTVSPost2010Prop51ColorRGB
 90
-16777216
102
RTVSPost2010PropOp51
 70
     0
102
RTVSPost2010Prop52
140
1.0
102
RTVSPost2010PropOp52
 70
     0
102
RTVSPost2010Prop53
 90
        2
102
RTVSPost2010PropOp53
 70
     1
102
RTVSPost2010Prop54
  1
strokes_ogs.tif
102
RTVSPost2010PropOp54
 70
     1
102
RTVSPost2010Prop55
280
     0
102
RTVSPost2010PropOp55
 70
     1
102
RTVSPost2010Prop56
140
1.0
102
RTVSPost2010PropOp56
 70
     1
102
RTVSPost2010Prop57
140
1.0
102
RTVSPost2010PropOp57
 70
     1
102
RTVSPropertyOp0
 70
     1
102
RTVSPropertyOp1
 70
     1
102
RTVSPropertyOp2
 70
     1
102
RTVSPropertyOp3
 70
     1
102
RTVSPropertyOp4
 70
     1
102
RTVSPropertyOp5
 70
     1
102
RTVSPropertyOp6
 70
     1
102
RTVSPropertyOp7
 70
     1
102
RTVSPropertyOp8
 70
     1
102
RTVSPropertyOp9
 70
     1
102
RTVSPropertyOp10
 70
     1
102
RTVSPropertyOp11
 70
     1
102
RTVSPropertyOp12
 70
     1
102
RTVSPropertyOp13
 70
     1
102
RTVSPropertyOp14
 70
     1
102
RTVSPropertyOp15
 70
     1
102
RTVSPropertyOp16
 70
     1
102
RTVSPropertyOp17
 70
     1
102
RTVSPropertyOp18
 70
     1
102
RTVSPropertyOp19
 70
     1
102
RTVSPropertyOp20
 70
     1
102
RTVSPropertyOp21
 70
     1
102
RTVSPropertyOp22
 70
     1
102
RTVSPropertyOp23
 70
     1
102
RTVSPropertyOp24
 70
     1
102
RTVSPropertyOp25
 70
     1
102
RTVSPropertyOp26
 70
     1
102
RTVSPropertyOp27
 70
     1
102
RTVSPropertyOp28
 70
     1
102
RTVSPropertyOp29
 70
     1
102
RTVSPropertyOp30
 70
     1
102
RTVSPropertyOp31
 70
     1
102
RTVSPropertyOp32
 70
     1
102
RTVSPropertyOp33
 70
     1
102
RTVSPropertyOp34
 70
     1
102
RTVSPropertyOp35
 70
     1
102
RTVSPropertyOp36
 70
     1
102
RTVSPropertyOp37
 70
     1
102
RTVSPropertyOp38
 70
     1
102
RTVSPropertyOp39
 70
     1
102
RTVSPropertyOp40
 70
     1
102
RTVSPropertyOp41
 70
     1
102
RTVSPropertyOp42
 70
     1
102
RTVSPropertyOp43
 70
     1
102
RTVSPropertyOp44
 70
     1
102
RTVSPropertyOp45
 70
     1
102
RTVSPropertyOp46
 70
     1
102
RTVSPropertyOp47
 70
     1
102
RTVSPropertyOp48
 70
     1
102
RTVSPropertyOp49
 70
     1
102
RTVSPropertyOp50
 70
     1
102
RTVSPropertyOp51
 70
     0
102
RTVSPropertyOp52
 70
     0
102
RTVSPropertyOp53
 70
     1
102
RTVSPropertyOp54
 70
     1
102
RTVSPropertyOp55
 70
     1
102
RTVSPropertyOp56
 70
     1
102
RTVSPropertyOp57
 70
     1
102
RTVSPropertyOp58
 70
     1
102
RTVSPropertyOp59
 70
     1
102
RTVSPropertyOp60
 70
     1
102
RTVSPropertyOp61
 70
     1
102
RTVSPropertyOp62
 70
     1
  0
XRECORD
  5
3348
102
{ACAD_REACTORS
330
3347
102
}
330
3347
100
AcDbXrecord
280
     1
102
RTVSPost2010Prop28
280
     0
102
RTVSPost2010PropOp28
 70
     1
102
RTVSPost2010Prop29
280
     1
102
RTVSPost2010PropOp29
 70
     1
102
RTVSPost2010Prop30
280
     1
102
RTVSPost2010PropOp30
 70
     1
102
RTVSPost2010Prop31
280
     0
102
RTVSPost2010PropOp31
 70
     1
102
RTVSPost2010Prop32
280
     0
102
RTVSPost2010PropOp32
 70
     1
102
RTVSPost2010Prop33
280
     0
102
RTVSPost2010PropOp33
 70
     1
102
RTVSPost2010Prop34
280
     0
102
RTVSPost2010PropOp34
 70
     1
102
RTVSPost2010Prop35
280
     0
102
RTVSPost2010PropOp35
 70
     1
102
RTVSPost2010Prop36
280
     0
102
RTVSPost2010PropOp36
 70
     1
102
RTVSPost2010Prop37
 90
       50
102
RTVSPost2010PropOp37
 70
     1
102
RTVSPost2010Prop38
140
0.0
102
RTVSPost2010PropOp38
 70
     1
102
RTVSPost2010Prop39
140
1.0
102
RTVSPost2010PropOp39
 70
     1
102
RTVSPost2010Prop40
 90
        0
102
RTVSPost2010PropOp40
 70
     1
102
RTVSPost2010Prop41ColorIndex
 90
       18
102
RTVSPost2010Prop41ColorRGB
 90
        0
102
RTVSPost2010PropOp41
 70
     1
102
RTVSPost2010Prop42
 90
       50
102
RTVSPost2010PropOp42
 70
     1
102
RTVSPost2010Prop43
 90
        3
102
RTVSPost2010PropOp43
 70
     1
102
RTVSPost2010Prop44ColorIndex
 90
        5
102
RTVSPost2010Prop44ColorRGB
 90
      255
102
RTVSPost2010PropOp44
 70
     1
102
RTVSPost2010Prop45
280
     0
102
RTVSPost2010PropOp45
 70
     1
102
RTVSPost2010Prop46
 90
       50
102
RTVSPost2010PropOp46
 70
     1
102
RTVSPost2010Prop47
 90
       50
102
RTVSPost2010PropOp47
 70
     1
102
RTVSPost2010Prop48
 90
       50
102
RTVSPost2010PropOp48
 70
     1
102
RTVSPost2010Prop49
280
     0
102
RTVSPost2010PropOp49
 70
     1
102
RTVSPost2010Prop50
 90
       50
102
RTVSPost2010PropOp50
 70
     1
102
RTVSPost2010Prop51ColorIndex
 90
      256
102
RTVSPost2010Prop51ColorRGB
 90
-16777216
102
RTVSPost2010PropOp51
 70
     0
102
RTVSPost2010Prop52
140
1.0
102
RTVSPost2010PropOp52
 70
     0
102
RTVSPost2010Prop53
 90
        2
102
RTVSPost2010PropOp53
 70
     1
102
RTVSPost2010Prop54
  1
strokes_ogs.tif
102
RTVSPost2010PropOp54
 70
     1
102
RTVSPost2010Prop55
280
     0
102
RTVSPost2010PropOp55
 70
     1
102
RTVSPost2010Prop56
140
1.0
102
RTVSPost2010PropOp56
 70
     1
102
RTVSPost2010Prop57
140
1.0
102
RTVSPost2010PropOp57
 70
     1
102
RTVSPropertyOp0
 70
     1
102
RTVSPropertyOp1
 70
     1
102
RTVSPropertyOp2
 70
     1
102
RTVSPropertyOp3
 70
     1
102
RTVSPropertyOp4
 70
     1
102
RTVSPropertyOp5
 70
     1
102
RTVSPropertyOp6
 70
     1
102
RTVSPropertyOp7
 70
     1
102
RTVSPropertyOp8
 70
     1
102
RTVSPropertyOp9
 70
     1
102
RTVSPropertyOp10
 70
     1
102
RTVSPropertyOp11
 70
     1
102
RTVSPropertyOp12
 70
     1
102
RTVSPropertyOp13
 70
     1
102
RTVSPropertyOp14
 70
     1
102
RTVSPropertyOp15
 70
     1
102
RTVSPropertyOp16
 70
     1
102
RTVSPropertyOp17
 70
     1
102
RTVSPropertyOp18
 70
     1
102
RTVSPropertyOp19
 70
     1
102
RTVSPropertyOp20
 70
     1
102
RTVSPropertyOp21
 70
     1
102
RTVSPropertyOp22
 70
     1
102
RTVSPropertyOp23
 70
     1
102
RTVSPropertyOp24
 70
     1
102
RTVSPropertyOp25
 70
     1
102
RTVSPropertyOp26
 70
     1
102
RTVSPropertyOp27
 70
     1
102
RTVSPropertyOp28
 70
     1
102
RTVSPropertyOp29
 70
     1
102
RTVSPropertyOp30
 70
     1
102
RTVSPropertyOp31
 70
     1
102
RTVSPropertyOp32
 70
     1
102
RTVSPropertyOp33
 70
     1
102
RTVSPropertyOp34
 70
     1
102
RTVSPropertyOp35
 70
     1
102
RTVSPropertyOp36
 70
     1
102
RTVSPropertyOp37
 70
     1
102
RTVSPropertyOp38
 70
     1
102
RTVSPropertyOp39
 70
     1
102
RTVSPropertyOp40
 70
     1
102
RTVSPropertyOp41
 70
     1
102
RTVSPropertyOp42
 70
     1
102
RTVSPropertyOp43
 70
     1
102
RTVSPropertyOp44
 70
     1
102
RTVSPropertyOp45
 70
     1
102
RTVSPropertyOp46
 70
     1
102
RTVSPropertyOp47
 70
     1
102
RTVSPropertyOp48
 70
     1
102
RTVSPropertyOp49
 70
     1
102
RTVSPropertyOp50
 70
     1
102
RTVSPropertyOp51
 70
     0
102
RTVSPropertyOp52
 70
     0
102
RTVSPropertyOp53
 70
     1
102
RTVSPropertyOp54
 70
     1
102
RTVSPropertyOp55
 70
     1
102
RTVSPropertyOp56
 70
     1
102
RTVSPropertyOp57
 70
     1
102
RTVSPropertyOp58
 70
     1
102
RTVSPropertyOp59
 70
     1
102
RTVSPropertyOp60
 70
     1
102
RTVSPropertyOp61
 70
     1
102
RTVSPropertyOp62
 70
     1
  0
XRECORD
  5
333C
102
{ACAD_REACTORS
330
333B
102
}
330
333B
100
AcDbXrecord
280
     1
102
RTVSPost2010Prop28
280
     0
102
RTVSPost2010PropOp28
 70
     1
102
RTVSPost2010Prop29
280
     1
102
RTVSPost2010PropOp29
 70
     1
102
RTVSPost2010Prop30
280
     1
102
RTVSPost2010PropOp30
 70
     1
102
RTVSPost2010Prop31
280
     0
102
RTVSPost2010PropOp31
 70
     1
102
RTVSPost2010Prop32
280
     0
102
RTVSPost2010PropOp32
 70
     1
102
RTVSPost2010Prop33
280
     0
102
RTVSPost2010PropOp33
 70
     1
102
RTVSPost2010Prop34
280
     0
102
RTVSPost2010PropOp34
 70
     1
102
RTVSPost2010Prop35
280
     0
102
RTVSPost2010PropOp35
 70
     1
102
RTVSPost2010Prop36
280
     0
102
RTVSPost2010PropOp36
 70
     1
102
RTVSPost2010Prop37
 90
       50
102
RTVSPost2010PropOp37
 70
     1
102
RTVSPost2010Prop38
140
0.0
102
RTVSPost2010PropOp38
 70
     1
102
RTVSPost2010Prop39
140
1.0
102
RTVSPost2010PropOp39
 70
     1
102
RTVSPost2010Prop40
 90
        0
102
RTVSPost2010PropOp40
 70
     1
102
RTVSPost2010Prop41ColorIndex
 90
       18
102
RTVSPost2010Prop41ColorRGB
 90
        0
102
RTVSPost2010PropOp41
 70
     1
102
RTVSPost2010Prop42
 90
       50
102
RTVSPost2010PropOp42
 70
     1
102
RTVSPost2010Prop43
 90
        3
102
RTVSPost2010PropOp43
 70
     1
102
RTVSPost2010Prop44ColorIndex
 90
        5
102
RTVSPost2010Prop44ColorRGB
 90
      255
102
RTVSPost2010PropOp44
 70
     1
102
RTVSPost2010Prop45
280
     0
102
RTVSPost2010PropOp45
 70
     1
102
RTVSPost2010Prop46
 90
       50
102
RTVSPost2010PropOp46
 70
     1
102
RTVSPost2010Prop47
 90
       50
102
RTVSPost2010PropOp47
 70
     1
102
RTVSPost2010Prop48
 90
       50
102
RTVSPost2010PropOp48
 70
     1
102
RTVSPost2010Prop49
280
     0
102
RTVSPost2010PropOp49
 70
     1
102
RTVSPost2010Prop50
 90
       50
102
RTVSPost2010PropOp50
 70
     1
102
RTVSPost2010Prop51ColorIndex
 90
      256
102
RTVSPost2010Prop51ColorRGB
 90
-16777216
102
RTVSPost2010PropOp51
 70
     0
102
RTVSPost2010Prop52
140
1.0
102
RTVSPost2010PropOp52
 70
     0
102
RTVSPost2010Prop53
 90
        2
102
RTVSPost2010PropOp53
 70
     1
102
RTVSPost2010Prop54
  1
strokes_ogs.tif
102
RTVSPost2010PropOp54
 70
     1
102
RTVSPost2010Prop55
280
     0
102
RTVSPost2010PropOp55
 70
     1
102
RTVSPost2010Prop56
140
1.0
102
RTVSPost2010PropOp56
 70
     1
102
RTVSPost2010Prop57
140
1.0
102
RTVSPost2010PropOp57
 70
     1
102
RTVSPropertyOp0
 70
     1
102
RTVSPropertyOp1
 70
     1
102
RTVSPropertyOp2
 70
     1
102
RTVSPropertyOp3
 70
     1
102
RTVSPropertyOp4
 70
     1
102
RTVSPropertyOp5
 70
     1
102
RTVSPropertyOp6
 70
     1
102
RTVSPropertyOp7
 70
     1
102
RTVSPropertyOp8
 70
     1
102
RTVSPropertyOp9
 70
     1
102
RTVSPropertyOp10
 70
     1
102
RTVSPropertyOp11
 70
     1
102
RTVSPropertyOp12
 70
     1
102
RTVSPropertyOp13
 70
     1
102
RTVSPropertyOp14
 70
     1
102
RTVSPropertyOp15
 70
     1
102
RTVSPropertyOp16
 70
     1
102
RTVSPropertyOp17
 70
     1
102
RTVSPropertyOp18
 70
     1
102
RTVSPropertyOp19
 70
     1
102
RTVSPropertyOp20
 70
     1
102
RTVSPropertyOp21
 70
     1
102
RTVSPropertyOp22
 70
     1
102
RTVSPropertyOp23
 70
     1
102
RTVSPropertyOp24
 70
     1
102
RTVSPropertyOp25
 70
     1
102
RTVSPropertyOp26
 70
     1
102
RTVSPropertyOp27
 70
     1
102
RTVSPropertyOp28
 70
     1
102
RTVSPropertyOp29
 70
     1
102
RTVSPropertyOp30
 70
     1
102
RTVSPropertyOp31
 70
     1
102
RTVSPropertyOp32
 70
     1
102
RTVSPropertyOp33
 70
     1
102
RTVSPropertyOp34
 70
     1
102
RTVSPropertyOp35
 70
     1
102
RTVSPropertyOp36
 70
     1
102
RTVSPropertyOp37
 70
     1
102
RTVSPropertyOp38
 70
     1
102
RTVSPropertyOp39
 70
     1
102
RTVSPropertyOp40
 70
     1
102
RTVSPropertyOp41
 70
     1
102
RTVSPropertyOp42
 70
     1
102
RTVSPropertyOp43
 70
     1
102
RTVSPropertyOp44
 70
     1
102
RTVSPropertyOp45
 70
     1
102
RTVSPropertyOp46
 70
     1
102
RTVSPropertyOp47
 70
     1
102
RTVSPropertyOp48
 70
     1
102
RTVSPropertyOp49
 70
     1
102
RTVSPropertyOp50
 70
     1
102
RTVSPropertyOp51
 70
     0
102
RTVSPropertyOp52
 70
     0
102
RTVSPropertyOp53
 70
     1
102
RTVSPropertyOp54
 70
     1
102
RTVSPropertyOp55
 70
     1
102
RTVSPropertyOp56
 70
     1
102
RTVSPropertyOp57
 70
     1
102
RTVSPropertyOp58
 70
     1
102
RTVSPropertyOp59
 70
     1
102
RTVSPropertyOp60
 70
     1
102
RTVSPropertyOp61
 70
     1
102
RTVSPropertyOp62
 70
     1
  0
XRECORD
  5
3354
102
{ACAD_REACTORS
330
3353
102
}
330
3353
100
AcDbXrecord
280
     1
102
RTVSPost2010Prop28
280
     0
102
RTVSPost2010PropOp28
 70
     1
102
RTVSPost2010Prop29
280
     1
102
RTVSPost2010PropOp29
 70
     1
102
RTVSPost2010Prop30
280
     1
102
RTVSPost2010PropOp30
 70
     1
102
RTVSPost2010Prop31
280
     0
102
RTVSPost2010PropOp31
 70
     1
102
RTVSPost2010Prop32
280
     0
102
RTVSPost2010PropOp32
 70
     1
102
RTVSPost2010Prop33
280
     0
102
RTVSPost2010PropOp33
 70
     1
102
RTVSPost2010Prop34
280
     0
102
RTVSPost2010PropOp34
 70
     1
102
RTVSPost2010Prop35
280
     0
102
RTVSPost2010PropOp35
 70
     1
102
RTVSPost2010Prop36
280
     0
102
RTVSPost2010PropOp36
 70
     1
102
RTVSPost2010Prop37
 90
       50
102
RTVSPost2010PropOp37
 70
     1
102
RTVSPost2010Prop38
140
0.0
102
RTVSPost2010PropOp38
 70
     1
102
RTVSPost2010Prop39
140
1.0
102
RTVSPost2010PropOp39
 70
     1
102
RTVSPost2010Prop40
 90
        0
102
RTVSPost2010PropOp40
 70
     1
102
RTVSPost2010Prop41ColorIndex
 90
       18
102
RTVSPost2010Prop41ColorRGB
 90
        0
102
RTVSPost2010PropOp41
 70
     1
102
RTVSPost2010Prop42
 90
       50
102
RTVSPost2010PropOp42
 70
     1
102
RTVSPost2010Prop43
 90
        3
102
RTVSPost2010PropOp43
 70
     1
102
RTVSPost2010Prop44ColorIndex
 90
        5
102
RTVSPost2010Prop44ColorRGB
 90
      255
102
RTVSPost2010PropOp44
 70
     1
102
RTVSPost2010Prop45
280
     0
102
RTVSPost2010PropOp45
 70
     1
102
RTVSPost2010Prop46
 90
       50
102
RTVSPost2010PropOp46
 70
     1
102
RTVSPost2010Prop47
 90
       50
102
RTVSPost2010PropOp47
 70
     1
102
RTVSPost2010Prop48
 90
       50
102
RTVSPost2010PropOp48
 70
     1
102
RTVSPost2010Prop49
280
     0
102
RTVSPost2010PropOp49
 70
     1
102
RTVSPost2010Prop50
 90
       50
102
RTVSPost2010PropOp50
 70
     1
102
RTVSPost2010Prop51ColorIndex
 90
      256
102
RTVSPost2010Prop51ColorRGB
 90
-16777216
102
RTVSPost2010PropOp51
 70
     0
102
RTVSPost2010Prop52
140
1.0
102
RTVSPost2010PropOp52
 70
     0
102
RTVSPost2010Prop53
 90
        2
102
RTVSPost2010PropOp53
 70
     1
102
RTVSPost2010Prop54
  1
strokes_ogs.tif
102
RTVSPost2010PropOp54
 70
     1
102
RTVSPost2010Prop55
280
     0
102
RTVSPost2010PropOp55
 70
     1
102
RTVSPost2010Prop56
140
1.0
102
RTVSPost2010PropOp56
 70
     1
102
RTVSPost2010Prop57
140
1.0
102
RTVSPost2010PropOp57
 70
     1
102
RTVSPropertyOp0
 70
     1
102
RTVSPropertyOp1
 70
     1
102
RTVSPropertyOp2
 70
     1
102
RTVSPropertyOp3
 70
     1
102
RTVSPropertyOp4
 70
     1
102
RTVSPropertyOp5
 70
     1
102
RTVSPropertyOp6
 70
     1
102
RTVSPropertyOp7
 70
     1
102
RTVSPropertyOp8
 70
     1
102
RTVSPropertyOp9
 70
     1
102
RTVSPropertyOp10
 70
     1
102
RTVSPropertyOp11
 70
     1
102
RTVSPropertyOp12
 70
     1
102
RTVSPropertyOp13
 70
     1
102
RTVSPropertyOp14
 70
     1
102
RTVSPropertyOp15
 70
     1
102
RTVSPropertyOp16
 70
     1
102
RTVSPropertyOp17
 70
     1
102
RTVSPropertyOp18
 70
     1
102
RTVSPropertyOp19
 70
     1
102
RTVSPropertyOp20
 70
     1
102
RTVSPropertyOp21
 70
     1
102
RTVSPropertyOp22
 70
     1
102
RTVSPropertyOp23
 70
     1
102
RTVSPropertyOp24
 70
     1
102
RTVSPropertyOp25
 70
     1
102
RTVSPropertyOp26
 70
     1
102
RTVSPropertyOp27
 70
     1
102
RTVSPropertyOp28
 70
     1
102
RTVSPropertyOp29
 70
     1
102
RTVSPropertyOp30
 70
     1
102
RTVSPropertyOp31
 70
     1
102
RTVSPropertyOp32
 70
     1
102
RTVSPropertyOp33
 70
     1
102
RTVSPropertyOp34
 70
     1
102
RTVSPropertyOp35
 70
     1
102
RTVSPropertyOp36
 70
     1
102
RTVSPropertyOp37
 70
     1
102
RTVSPropertyOp38
 70
     1
102
RTVSPropertyOp39
 70
     1
102
RTVSPropertyOp40
 70
     1
102
RTVSPropertyOp41
 70
     1
102
RTVSPropertyOp42
 70
     1
102
RTVSPropertyOp43
 70
     1
102
RTVSPropertyOp44
 70
     1
102
RTVSPropertyOp45
 70
     1
102
RTVSPropertyOp46
 70
     1
102
RTVSPropertyOp47
 70
     1
102
RTVSPropertyOp48
 70
     1
102
RTVSPropertyOp49
 70
     1
102
RTVSPropertyOp50
 70
     1
102
RTVSPropertyOp51
 70
     0
102
RTVSPropertyOp52
 70
     0
102
RTVSPropertyOp53
 70
     1
102
RTVSPropertyOp54
 70
     1
102
RTVSPropertyOp55
 70
     1
102
RTVSPropertyOp56
 70
     1
102
RTVSPropertyOp57
 70
     1
102
RTVSPropertyOp58
 70
     1
102
RTVSPropertyOp59
 70
     1
102
RTVSPropertyOp60
 70
     1
102
RTVSPropertyOp61
 70
     1
102
RTVSPropertyOp62
 70
     1
  0
ENDSEC
  0
EOF
