  0
SECTION
  2
HEADER
  9
$ACADVER
  1
AC1032
  9
$ACADMAINTVER
 90
      174
  9
$DWGCODEPAGE
  3
ANSI_932
  9
$REQUIREDVERSIONS
160
                 0
  9
$INSBASE
 10
0.0
 20
0.0
 30
0.0
  9
$EXTMIN
 10
387.9044676079039
 20
222.1166778733047
 30
0.0
  9
$EXTMAX
 10
444.6682932550865
 20
328.49392408127
 30
0.0
  9
$LIMMIN
 10
0.0
 20
0.0
  9
$LIMMAX
 10
420.0
 20
297.0
  9
$ORTHOMODE
 70
     1
  9
$REGENMODE
 70
     1
  9
$FILLMODE
 70
     1
  9
$QTEXTMODE
 70
     0
  9
$MIRRTEXT
 70
     0
  9
$LTSCALE
 40
1.0
  9
$ATTMODE
 70
     1
  9
$TEXTSIZE
 40
2.5
  9
$TRACEWID
 40
1.0
  9
$TEXTSTYLE
  7
Standard
  9
$CLAYER
  8
0
  9
$CELTYPE
  6
ByLayer
  9
$CECOLOR
 62
   256
  9
$CELTSCALE
 40
1.0
  9
$DISPSILH
 70
     0
  9
$DIMSCALE
 40
1.0
  9
$DIMASZ
 40
2.5
  9
$DIMEXO
 40
0.625
  9
$DIMDLI
 40
3.75
  9
$DIMRND
 40
0.0
  9
$DIMDLE
 40
0.0
  9
$DIMEXE
 40
1.25
  9
$DIMTP
 40
0.0
  9
$DIMTM
 40
0.0
  9
$DIMTXT
 40
2.5
  9
$DIMCEN
 40
2.5
  9
$DIMTSZ
 40
0.0
  9
$DIMTOL
 70
     0
  9
$DIMLIM
 70
     0
  9
$DIMTIH
 70
     0
  9
$DIMTOH
 70
     0
  9
$DIMSE1
 70
     0
  9
$DIMSE2
 70
     0
  9
$DIMTAD
 70
     1
  9
$DIMZIN
 70
     8
  9
$DIMBLK
  1

  9
$DIMASO
 70
     1
  9
$DIMSHO
 70
     1
  9
$DIMPOST
  1

  9
$DIMAPOST
  1

  9
$DIMALT
 70
     0
  9
$DIMALTD
 70
     3
  9
$DIMALTF
 40
0.03937007874016
  9
$DIMLFAC
 40
1.0
  9
$DIMTOFL
 70
     1
  9
$DIMTVP
 40
0.0
  9
$DIMTIX
 70
     0
  9
$DIMSOXD
 70
     0
  9
$DIMSAH
 70
     0
  9
$DIMBLK1
  1

  9
$DIMBLK2
  1

  9
$DIMSTYLE
  2
ISO-25
  9
$DIMCLRD
 70
     0
  9
$DIMCLRE
 70
     0
  9
$DIMCLRT
 70
     0
  9
$DIMTFAC
 40
1.0
  9
$DIMGAP
 40
0.625
  9
$DIMJUST
 70
     0
  9
$DIMSD1
 70
     0
  9
$DIMSD2
 70
     0
  9
$DIMTOLJ
 70
     0
  9
$DIMTZIN
 70
     8
  9
$DIMALTZ
 70
     0
  9
$DIMALTTZ
 70
     0
  9
$DIMUPT
 70
     0
  9
$DIMDEC
 70
     2
  9
$DIMTDEC
 70
     2
  9
$DIMALTU
 70
     2
  9
$DIMALTTD
 70
     3
  9
$DIMTXSTY
  7
Standard
  9
$DIMAUNIT
 70
     0
  9
$DIMADEC
 70
     0
  9
$DIMALTRND
 40
0.0
  9
$DIMAZIN
 70
     0
  9
$DIMDSEP
 70
    44
  9
$DIMATFIT
 70
     3
  9
$DIMFRAC
 70
     0
  9
$DIMLDRBLK
  1

  9
$DIMLUNIT
 70
     2
  9
$DIMLWD
 70
    -2
  9
$DIMLWE
 70
    -2
  9
$DIMTMOVE
 70
     0
  9
$DIMFXL
 40
1.0
  9
$DIMFXLON
 70
     0
  9
$DIMJOGANG
 40
0.7853981633974483
  9
$DIMTFILL
 70
     0
  9
$DIMTFILLCLR
 70
     0
  9
$DIMARCSYM
 70
     0
  9
$DIMLTYPE
  6

  9
$DIMLTEX1
  6

  9
$DIMLTEX2
  6

  9
$DIMTXTDIRECTION
 70
     0
  9
$LUNITS
 70
     2
  9
$LUPREC
 70
     4
  9
$SKETCHINC
 40
1.0
  9
$FILLETRAD
 40
0.0
  9
$AUNITS
 70
     0
  9
$AUPREC
 70
     0
  9
$MENU
  1
.
  9
$ELEVATION
 40
0.0
  9
$PELEVATION
 40
0.0
  9
$THICKNESS
 40
0.0
  9
$LIMCHECK
 70
     0
  9
$CHAMFERA
 40
0.0
  9
$CHAMFERB
 40
0.0
  9
$CHAMFERC
 40
0.0
  9
$CHAMFERD
 40
0.0
  9
$SKPOLY
 70
     0
  9
$TDCREATE
 40
2459439.371539352
  9
$TDUCREATE
 40
2459439.038206018
  9
$TDUPDATE
 40
2459439.371539352
  9
$TDUUPDATE
 40
2459439.038206018
  9
$TDINDWG
 40
0.0012731481
  9
$TDUSRTIMER
 40
0.0012731481
  9
$USRTIMER
 70
     1
  9
$ANGBASE
 50
0.0
  9
$ANGDIR
 70
     0
  9
$PDMODE
 70
     0
  9
$PDSIZE
 40
0.0
  9
$PLINEWID
 40
0.0
  9
$SPLFRAME
 70
     0
  9
$SPLINETYPE
 70
     6
  9
$SPLINESEGS
 70
     8
  9
$HANDSEED
  5
27A
  9
$SURFTAB1
 70
     6
  9
$SURFTAB2
 70
     6
  9
$SURFTYPE
 70
     6
  9
$SURFU
 70
     6
  9
$SURFV
 70
     6
  9
$UCSBASE
  2

  9
$UCSNAME
  2

  9
$UCSORG
 10
0.0
 20
0.0
 30
0.0
  9
$UCSXDIR
 10
1.0
 20
0.0
 30
0.0
  9
$UCSYDIR
 10
0.0
 20
1.0
 30
0.0
  9
$UCSORTHOREF
  2

  9
$UCSORTHOVIEW
 70
     0
  9
$UCSORGTOP
 10
0.0
 20
0.0
 30
0.0
  9
$UCSORGBOTTOM
 10
0.0
 20
0.0
 30
0.0
  9
$UCSORGLEFT
 10
0.0
 20
0.0
 30
0.0
  9
$UCSORGRIGHT
 10
0.0
 20
0.0
 30
0.0
  9
$UCSORGFRONT
 10
0.0
 20
0.0
 30
0.0
  9
$UCSORGBACK
 10
0.0
 20
0.0
 30
0.0
  9
$PUCSBASE
  2

  9
$PUCSNAME
  2

  9
$PUCSORG
 10
0.0
 20
0.0
 30
0.0
  9
$PUCSXDIR
 10
1.0
 20
0.0
 30
0.0
  9
$PUCSYDIR
 10
0.0
 20
1.0
 30
0.0
  9
$PUCSORTHOREF
  2

  9
$PUCSORTHOVIEW
 70
     0
  9
$PUCSORGTOP
 10
0.0
 20
0.0
 30
0.0
  9
$PUCSORGBOTTOM
 10
0.0
 20
0.0
 30
0.0
  9
$PUCSORGLEFT
 10
0.0
 20
0.0
 30
0.0
  9
$PUCSORGRIGHT
 10
0.0
 20
0.0
 30
0.0
  9
$PUCSORGFRONT
 10
0.0
 20
0.0
 30
0.0
  9
$PUCSORGBACK
 10
0.0
 20
0.0
 30
0.0
  9
$USERI1
 70
     0
  9
$USERI2
 70
     0
  9
$USERI3
 70
     0
  9
$USERI4
 70
     0
  9
$USERI5
 70
     0
  9
$USERR1
 40
0.0
  9
$USERR2
 40
0.0
  9
$USERR3
 40
0.0
  9
$USERR4
 40
0.0
  9
$USERR5
 40
0.0
  9
$WORLDVIEW
 70
     1
  9
$SHADEDGE
 70
     3
  9
$SHADEDIF
 70
    70
  9
$TILEMODE
 70
     1
  9
$MAXACTVP
 70
    64
  9
$PINSBASE
 10
0.0
 20
0.0
 30
0.0
  9
$PLIMCHECK
 70
     0
  9
$PEXTMIN
 10
0.0
 20
0.0
 30
0.0
  9
$PEXTMAX
 10
0.0
 20
0.0
 30
0.0
  9
$PLIMMIN
 10
0.0
 20
0.0
  9
$PLIMMAX
 10
12.0
 20
9.0
  9
$UNITMODE
 70
     0
  9
$VISRETAIN
 70
     1
  9
$PLINEGEN
 70
     0
  9
$PSLTSCALE
 70
     1
  9
$TREEDEPTH
 70
  3020
  9
$CMLSTYLE
  2
Standard
  9
$CMLJUST
 70
     0
  9
$CMLSCALE
 40
20.0
  9
$PROXYGRAPHICS
 70
     1
  9
$MEASUREMENT
 70
     1
  9
$CELWEIGHT
370
    -1
  9
$ENDCAPS
280
     0
  9
$JOINSTYLE
280
     0
  9
$LWDISPLAY
290
     0
  9
$INSUNITS
 70
     4
  9
$HYPERLINKBASE
  1

  9
$STYLESHEET
  1

  9
$XEDIT
290
     1
  9
$CEPSNTYPE
380
     0
  9
$PSTYLEMODE
290
     1
  9
$FINGERPRINTGUID
  2
{9AC9CD10-6886-074C-89AF-A56E7D7ED9E1}
  9
$VERSIONGUID
  2
{B307EBB0-8CFC-E24D-BE72-8E871D3FA658}
  9
$EXTNAMES
290
     1
  9
$PSVPSCALE
 40
0.0
  9
$OLESTARTUP
290
     0
  9
$SORTENTS
280
   127
  9
$INDEXCTL
280
     0
  9
$HIDETEXT
280
     1
  9
$XCLIPFRAME
280
     2
  9
$HALOGAP
280
     0
  9
$OBSCOLOR
 70
   257
  9
$OBSLTYPE
280
     0
  9
$INTERSECTIONDISPLAY
280
     0
  9
$INTERSECTIONCOLOR
 70
   257
  9
$DIMASSOC
280
     2
  9
$PROJECTNAME
  1

  9
$CAMERADISPLAY
290
     0
  9
$LENSLENGTH
 40
50.0
  9
$CAMERAHEIGHT
 40
0.0
  9
$STEPSPERSEC
 40
2.0
  9
$STEPSIZE
 40
6.0
  9
$3DDWFPREC
 40
2.0
  9
$PSOLWIDTH
 40
5.0
  9
$PSOLHEIGHT
 40
80.0
  9
$LOFTANG1
 40
1.570796326794896
  9
$LOFTANG2
 40
1.570796326794896
  9
$LOFTMAG1
 40
0.0
  9
$LOFTMAG2
 40
0.0
  9
$LOFTPARAM
 70
     7
  9
$LOFTNORMALS
280
     1
  9
$LATITUDE
 40
37.795
  9
$LONGITUDE
 40
-122.394
  9
$NORTHDIRECTION
 40
0.0
  9
$TIMEZONE
 70
 -8000
  9
$LIGHTGLYPHDISPLAY
280
     1
  9
$TILEMODELIGHTSYNCH
280
     1
  9
$CMATERIAL
347
38
  9
$SOLIDHIST
280
     0
  9
$SHOWHIST
280
     1
  9
$DWFFRAME
280
     2
  9
$DGNFRAME
280
     0
  9
$REALWORLDSCALE
290
     1
  9
$INTERFERECOLOR
 62
     1
  9
$INTERFEREOBJVS
345
51
  9
$INTERFEREVPVS
346
52
  9
$CSHADOW
280
     0
  9
$SHADOWPLANELOCATION
 40
0.0
  0
ENDSEC
  0
SECTION
  2
CLASSES
  0
CLASS
  1
ACDBDICTIONARYWDFLT
  2
AcDbDictionaryWithDefault
  3
ObjectDBX Classes
 90
        0
 91
        1
280
     0
281
     0
  0
CLASS
  1
DICTIONARYVAR
  2
AcDbDictionaryVar
  3
ObjectDBX Classes
 90
        0
 91
       11
280
     0
281
     0
  0
CLASS
  1
TABLESTYLE
  2
AcDbTableStyle
  3
ObjectDBX Classes
 90
     4095
 91
        1
280
     0
281
     0
  0
CLASS
  1
MATERIAL
  2
AcDbMaterial
  3
ObjectDBX Classes
 90
     1153
 91
        3
280
     0
281
     0
  0
CLASS
  1
VISUALSTYLE
  2
AcDbVisualStyle
  3
ObjectDBX Classes
 90
     4095
 91
        3
280
     0
281
     0
  0
CLASS
  1
SCALE
  2
AcDbScale
  3
ObjectDBX Classes
 90
     1153
 91
       17
280
     0
281
     0
  0
CLASS
  1
MLEADERSTYLE
  2
AcDbMLeaderStyle
  3
ACDB_MLEADERSTYLE_CLASS
 90
     4095
 91
        0
280
     0
281
     0
  0
CLASS
  1
CELLSTYLEMAP
  2
AcDbCellStyleMap
  3
ObjectDBX Classes
 90
     1152
 91
        1
280
     0
281
     0
  0
CLASS
  1
EXACXREFPANELOBJECT
  2
ExAcXREFPanelObject
  3
EXAC_ESW
 90
     1025
 91
        0
280
     1
281
     0
  0
CLASS
  1
NPOCOLLECTION
  2
AcDbImpNonPersistentObjectsCollection
  3
ObjectDBX Classes
 90
     1153
 91
        0
280
     0
281
     0
  0
CLASS
  1
LAYER_INDEX
  2
AcDbLayerIndex
  3
ObjectDBX Classes
 90
        0
 91
        0
280
     0
281
     0
  0
CLASS
  1
SPATIAL_INDEX
  2
AcDbSpatialIndex
  3
ObjectDBX Classes
 90
        0
 91
        0
280
     0
281
     0
  0
CLASS
  1
IDBUFFER
  2
AcDbIdBuffer
  3
ObjectDBX Classes
 90
        0
 91
        0
280
     0
281
     0
  0
CLASS
  1
ACDBSECTIONVIEWSTYLE
  2
AcDbSectionViewStyle
  3
ObjectDBX Classes
 90
     1025
 91
        0
280
     0
281
     0
  0
CLASS
  1
ACDBDETAILVIEWSTYLE
  2
AcDbDetailViewStyle
  3
ObjectDBX Classes
 90
     1025
 91
        0
280
     0
281
     0
  0
CLASS
  1
SORTENTSTABLE
  2
AcDbSortentsTable
  3
ObjectDBX Classes
 90
        0
 91
        0
280
     0
281
     0
  0
CLASS
  1
DIMASSOC
  2
AcDbDimAssoc
  3
"AcDbDimAssoc|Product Desc:     AcDim ARX App For Dimension|Company:          Autodesk, Inc.|WEB Address:      www.autodesk.com"
 90
        0
 91
        0
280
     0
281
     0
  0
ENDSEC
  0
SECTION
  2
TABLES
  0
TABLE
  2
VPORT
  5
28
330
0
100
AcDbSymbolTable
 70
     1
  0
VPORT
  5
29
330
28
100
AcDbSymbolTableRecord
100
AcDbViewportTableRecord
  2
*Active
 70
     0
 10
0.0
 20
0.0
 11
1.0
 21
1.0
 12
455.8713856812919
 22
241.9301805193514
 13
0.0
 23
0.0
 14
10.0
 24
10.0
 15
10.0
 25
10.0
 16
0.0
 26
0.0
 36
1.0
 17
0.0
 27
0.0
 37
0.0
 40
106.6500986393521
 41
1.845624385447394
 42
50.0
 43
0.0
 44
0.0
 50
0.0
 51
0.0
 71
     0
 72
  1000
 73
     1
 74
     3
 75
     0
 76
     1
 77
     0
 78
     0
281
     0
 65
     1
110
0.0
120
0.0
130
0.0
111
1.0
121
0.0
131
0.0
112
0.0
122
1.0
132
0.0
 79
     0
146
0.0
348
2A
 60
     3
 61
     5
292
     1
282
     1
141
0.0
142
0.0
 63
   250
421
  3355443
1001
ACAD_NAV_VCDISPLAY
1070
     3
  0
ENDTAB
  0
TABLE
  2
LTYPE
  5
23
330
0
100
AcDbSymbolTable
 70
     1
  0
LTYPE
  5
24
330
23
100
AcDbSymbolTableRecord
100
AcDbLinetypeTableRecord
  2
ByBlock
 70
     0
  3

 72
    65
 73
     0
 40
0.0
  0
LTYPE
  5
25
330
23
100
AcDbSymbolTableRecord
100
AcDbLinetypeTableRecord
  2
ByLayer
 70
     0
  3

 72
    65
 73
     0
 40
0.0
  0
LTYPE
  5
13
330
23
100
AcDbSymbolTableRecord
100
AcDbLinetypeTableRecord
  2
Continuous
 70
     0
  3
Solid line
 72
    65
 73
     0
 40
0.0
  0
ENDTAB
  0
TABLE
  2
LAYER
  5
1D
102
{ACAD_XDICTIONARY
360
1E
102
}
330
0
100
AcDbSymbolTable
 70
     1
  0
LAYER
  5
5
102
{ACAD_XDICTIONARY
360
6
102
}
330
1D
100
AcDbSymbolTableRecord
100
AcDbLayerTableRecord
  2
0
 70
     0
 62
     7
  6
Continuous
370
    -3
390
7
347
A
348
0
  0
ENDTAB
  0
TABLE
  2
STYLE
  5
20
330
0
100
AcDbSymbolTable
 70
     1
  0
STYLE
  5
21
330
20
100
AcDbSymbolTableRecord
100
AcDbTextStyleTableRecord
  2
Standard
 70
     0
 40
0.0
 41
1.0
 50
0.0
 71
     0
 42
2.5
  3
arial.ttf
  4

1001
ACAD
1000
Arial
1071
       34
  0
ENDTAB
  0
TABLE
  2
VIEW
  5
26
330
0
100
AcDbSymbolTable
 70
     0
  0
ENDTAB
  0
TABLE
  2
UCS
  5
27
330
0
100
AcDbSymbolTable
 70
     0
  0
ENDTAB
  0
TABLE
  2
APPID
  5
2D
330
0
100
AcDbSymbolTable
 70
     6
  0
APPID
  5
12
330
2D
100
AcDbSymbolTableRecord
100
AcDbRegAppTableRecord
  2
ACAD
 70
     0
  0
APPID
  5
18
330
2D
100
AcDbSymbolTableRecord
100
AcDbRegAppTableRecord
  2
ACAD_PSEXT
 70
     0
  0
APPID
  5
31
330
2D
100
AcDbSymbolTableRecord
100
AcDbRegAppTableRecord
  2
AcadAnnotative
 70
     0
  0
APPID
  5
32
330
2D
100
AcDbSymbolTableRecord
100
AcDbRegAppTableRecord
  2
ACAD_DSTYLE_DIMJAG
 70
     0
  0
APPID
  5
33
330
2D
100
AcDbSymbolTableRecord
100
AcDbRegAppTableRecord
  2
ACAD_DSTYLE_DIMTALN
 70
     0
  0
APPID
  5
2C
330
2D
100
AcDbSymbolTableRecord
100
AcDbRegAppTableRecord
  2
ACAD_NAV_VCDISPLAY
 70
     0
  0
ENDTAB
  0
TABLE
  2
DIMSTYLE
  5
2E
330
0
100
AcDbSymbolTable
 70
     2
100
AcDbDimStyleTable
 71
     2
340
2F
340
30
  0
DIMSTYLE
105
30
330
2E
100
AcDbSymbolTableRecord
100
AcDbDimStyleTableRecord
  2
Annotative
 70
     0
 40
0.0
 41
2.5
 42
0.625
 43
3.75
 44
1.25
 73
     0
 74
     0
 77
     1
 78
     8
140
2.5
141
2.5
143
0.03937007874016
147
0.625
171
     3
172
     1
271
     2
272
     2
274
     3
278
    44
283
     0
284
     8
340
21
1001
AcadAnnotative
1000
AnnotativeData
1002
{
1070
     1
1070
     1
1002
}
1001
ACAD_DSTYLE_DIMJAG
1070
   388
1040
1.5
1001
ACAD_DSTYLE_DIMTALN
1070
   392
1070
     0
  0
DIMSTYLE
105
2F
330
2E
100
AcDbSymbolTableRecord
100
AcDbDimStyleTableRecord
  2
ISO-25
 70
     0
 41
2.5
 42
0.625
 43
3.75
 44
1.25
 73
     0
 74
     0
 77
     1
 78
     8
140
2.5
141
2.5
143
0.03937007874016
147
0.625
171
     3
172
     1
271
     2
272
     2
274
     3
278
    44
283
     0
284
     8
340
21
  0
ENDTAB
  0
TABLE
  2
BLOCK_RECORD
  5
1
330
0
100
AcDbSymbolTable
 70
     0
  0
BLOCK_RECORD
  5
2
102
{ACAD_XDICTIONARY
360
3
102
}
330
1
100
AcDbSymbolTableRecord
100
AcDbBlockTableRecord
  2
*Model_Space
340
15
 70
     0
280
     1
281
     0
  0
BLOCK_RECORD
  5
19
330
1
100
AcDbSymbolTableRecord
100
AcDbBlockTableRecord
  2
*Paper_Space
340
1C
 70
     0
280
     1
281
     0
  0
ENDTAB
  0
ENDSEC
  0
SECTION
  2
BLOCKS
  0
BLOCK
  5
4
330
2
100
AcDbEntity
  8
0
100
AcDbBlockBegin
  2
*Model_Space
 70
     0
 10
0.0
 20
0.0
 30
0.0
  3
*Model_Space
  1

  0
ENDBLK
  5
14
330
2
100
AcDbEntity
  8
0
100
AcDbBlockEnd
  0
BLOCK
  5
1A
330
19
100
AcDbEntity
 67
     1
  8
0
100
AcDbBlockBegin
  2
*Paper_Space
 70
     0
 10
0.0
 20
0.0
 30
0.0
  3
*Paper_Space
  1

  0
ENDBLK
  5
1B
330
19
100
AcDbEntity
 67
     1
  8
0
100
AcDbBlockEnd
  0
ENDSEC
  0
SECTION
  2
ENTITIES
  0
LINE
  5
64
330
2
100
AcDbEntity
  8
0
100
AcDbLine
 10
425.5024777586887
 20
266.7026554897839
 30
0.0
 11
408.7739708094129
 21
271.5317594849389
 31
0.0
  0
LINE
  5
65
330
2
100
AcDbEntity
  8
0
100
AcDbLine
 10
429.091253358714
 20
267.7098985143935
 30
0.0
 11
413.0318870463978
 21
272.3458382461289
 31
0.0
  0
LINE
  5
66
330
2
100
AcDbEntity
  8
0
100
AcDbLine
 10
429.3704337713087
 20
261.978224547198
 30
0.0
 11
429.3704337713087
 21
267.3387261641312
 31
0.0
  0
SPLINE
  5
67
330
2
100
AcDbEntity
  8
0
100
AcDbSpline
210
0.0
220
0.0
230
1.0
 70
     8
 71
     3
 72
    11
 73
     7
 74
     0
 42
0.000000001
 43
0.0000000001
 40
0.0
 40
0.0
 40
0.0
 40
0.0
 40
0.2503944982798353
 40
0.5005124717337023
 40
0.7503775375731494
 40
1.0
 40
1.0
 40
1.0
 40
1.0
 10
429.804817081957
 20
261.3282887108014
 30
0.0
 10
429.7965733281111
 20
261.4024226157533
 30
0.0
 10
429.7800949244636
 20
261.5506085553874
 30
0.0
 10
429.6539163740363
 20
261.767687601826
 30
0.0
 10
429.4738007669534
 20
261.945867547786
 30
0.0
 10
429.3312112822021
 20
262.0033651286059
 30
0.0
 10
429.259951168014
 20
262.0320999555947
 30
0.0
  0
LINE
  5
68
330
2
100
AcDbEntity
  8
0
100
AcDbLine
 10
429.2556151910303
 20
262.0338368980706
 30
0.0
 11
398.4585621798634
 21
270.9241803211862
 31
0.0
  0
LINE
  5
69
330
2
100
AcDbEntity
  8
0
100
AcDbLine
 10
429.8056376023516
 20
258.9357200268319
 30
0.0
 11
429.8056376023516
 21
261.3211781945858
 31
0.0
  0
SPLINE
  5
6A
330
2
100
AcDbEntity
  8
0
100
AcDbSpline
210
0.0
220
0.0
230
1.0
 70
     8
 71
     3
 72
     9
 73
     5
 74
     0
 42
0.000000001
 43
0.0000000001
 40
0.0
 40
0.0
 40
0.0
 40
0.0
 40
0.4983554418935503
 40
1.0
 40
1.0
 40
1.0
 40
1.0
 10
429.9438831657659
 20
258.2868103906809
 30
0.0
 10
429.9035025943995
 20
258.3687639705851
 30
0.0
 10
429.8224749423024
 20
258.5332120191362
 30
0.0
 10
429.8107436599636
 20
258.8058703059242
 30
0.0
 10
429.8048587260187
 20
258.9426478517141
 30
0.0
  0
LINE
  5
6B
330
2
100
AcDbEntity
  8
0
100
AcDbLine
 10
430.5786099364848
 20
257.2994489762388
 30
0.0
 11
429.9405680330131
 21
258.2924082075487
 31
0.0
  0
SPLINE
  5
6C
330
2
100
AcDbEntity
  8
0
100
AcDbSpline
210
0.0
220
0.0
230
1.0
 70
     8
 71
     3
 72
     9
 73
     5
 74
     0
 42
0.000000001
 43
0.0000000001
 40
0.0
 40
0.0
 40
0.0
 40
0.0
 40
0.49830190249093
 40
1.0
 40
1.0
 40
1.0
 40
1.0
 10
430.7247974401105
 20
256.7677668545495
 30
0.0
 10
430.7130958152586
 20
256.8732882336734
 30
0.0
 10
430.6896128126986
 20
257.0850501767773
 30
0.0
 10
430.6178266722297
 20
257.2242309724205
 30
0.0
 10
430.581811702129
 20
257.2940577128046
 30
0.0
  0
LINE
  5
6D
330
2
100
AcDbEntity
  8
0
100
AcDbLine
 10
431.2558697052725
 20
248.2323812566891
 30
0.0
 11
430.7258706727539
 21
256.7606415505566
 31
0.0
  0
SPLINE
  5
6E
330
2
100
AcDbEntity
  8
0
100
AcDbSpline
210
0.0
220
0.0
230
1.0
 70
     8
 71
     3
 72
     9
 73
     5
 74
     0
 42
0.000000001
 43
0.0000000001
 40
0.0
 40
0.0
 40
0.0
 40
0.0
 40
0.4999705185875544
 40
1.0
 40
1.0
 40
1.0
 40
1.0
 10
428.4126634931498
 20
243.1200060689564
 30
0.0
 10
428.4909880744041
 20
243.3599603080672
 30
0.0
 10
428.6476464739344
 20
243.839897084717
 30
0.0
 10
428.8591976451699
 20
244.2961280585013
 30
0.0
 10
428.9649794676149
 20
244.5242569957268
 30
0.0
  0
SPLINE
  5
6F
330
2
100
AcDbEntity
  8
0
100
AcDbSpline
210
0.0
220
0.0
230
1.0
 70
     8
 71
     3
 72
    12
 73
     8
 74
     0
 42
0.000000001
 43
0.0000000001
 40
0.0
 40
0.0
 40
0.0
 40
0.0
 40
0.1798409596190858
 40
0.4064847644057749
 40
0.5836187718742025
 40
0.7814710839806857
 40
1.0
 40
1.0
 40
1.0
 40
1.0
 10
428.9509610676359
 20
244.4920635313225
 30
0.0
 10
429.01618932922
 20
244.6588449428707
 30
0.0
 10
429.1636212301549
 20
245.0358119192703
 30
0.0
 10
429.4035186993159
 20
245.5415799821159
 30
0.0
 10
429.6673140988121
 20
246.0229809002914
 30
0.0
 10
429.9412271723888
 20
246.4592367413584
 30
0.0
 10
430.1421441744233
 20
246.7154603058757
 30
0.0
 10
430.2475912303871
 20
246.8499338460605
 30
0.0
  0
SPLINE
  5
70
330
2
100
AcDbEntity
  8
0
100
AcDbSpline
210
0.0
220
0.0
230
1.0
 70
     8
 71
     3
 72
    12
 73
     8
 74
     0
 42
0.000000001
 43
0.0000000001
 40
0.0
 40
0.0
 40
0.0
 40
0.0
 40
0.1902244263956465
 40
0.3554407250304459
 40
0.4954054675878088
 40
0.6100255067271694
 40
1.0
 40
1.0
 40
1.0
 40
1.0
 10
430.2920780281568
 20
246.9680029340934
 30
0.0
 10
430.3017607871654
 20
247.0595808263322
 30
0.0
 10
430.3198533473455
 20
247.2306971915169
 30
0.0
 10
430.3970591306534
 20
247.4769332473707
 30
0.0
 10
430.4811004910177
 20
247.660193193422
 30
0.0
 10
430.5598947267445
 20
247.7843948021186
 30
0.0
 10
430.6300284064176
 20
247.8661787416353
 30
0.0
 10
430.6497080614049
 20
247.8786441529554
 30
0.0
  0
SPLINE
  5
71
330
2
100
AcDbEntity
  8
0
100
AcDbSpline
210
0.0
220
0.0
230
1.0
 70
     8
 71
     3
 72
    11
 73
     7
 74
     0
 42
0.000000001
 43
0.0000000001
 40
0.0
 40
0.0
 40
0.0
 40
0.0
 40
0.1938732068710249
 40
0.4876476247607052
 40
0.7712881275228579
 40
1.0
 40
1.0
 40
1.0
 40
1.0
 10
430.2577122703691
 20
246.8632766289029
 30
0.0
 10
430.2612458626772
 20
246.8681931862262
 30
0.0
 10
430.2701338772911
 20
246.8805597609553
 30
0.0
 10
430.2811343696378
 20
246.9062529980375
 30
0.0
 10
430.2896097961782
 20
246.934237384873
 30
0.0
 10
430.2912136730514
 20
246.9504121019311
 30
0.0
 10
430.2919296367135
 20
246.9576324252944
 30
0.0
  0
SPLINE
  5
72
330
2
100
AcDbEntity
  8
0
100
AcDbSpline
210
0.0
220
0.0
230
1.0
 70
     8
 71
     3
 72
    11
 73
     7
 74
     0
 42
0.000000001
 43
0.0000000001
 40
0.0
 40
0.0
 40
0.0
 40
0.0
 40
0.2527244815215816
 40
0.5069002775611166
 40
0.7576743614202687
 40
1.0
 40
1.0
 40
1.0
 40
1.0
 10
430.9346649531779
 20
247.5500724413903
 30
0.0
 10
430.9387510598796
 20
247.5513245463727
 30
0.0
 10
430.9567303164732
 20
247.5460085393261
 30
0.0
 10
430.9853028822935
 20
247.5462248321973
 30
0.0
 10
431.0134245584008
 20
247.5520588060016
 30
0.0
 10
431.0304995563307
 20
247.5609212117891
 30
0.0
 10
431.0388907794217
 20
247.5652764933764
 30
0.0
  0
LINE
  5
73
330
2
100
AcDbEntity
  8
0
100
AcDbLine
 10
431.0420366343714
 20
247.5672522993596
 30
0.0
 11
431.1816308092034
 21
247.6452177483103
 31
0.0
  0
LINE
  5
74
330
2
100
AcDbEntity
  8
0
100
AcDbLine
 10
431.2919884624251
 20
247.9512758158189
 30
0.0
 11
431.2548422600841
 21
248.2393156935631
 31
0.0
  0
SPLINE
  5
75
330
2
100
AcDbEntity
  8
0
100
AcDbSpline
210
0.0
220
0.0
230
1.0
 70
     8
 71
     3
 72
    15
 73
    11
 74
     0
 42
0.000000001
 43
0.0000000001
 40
0.0
 40
0.0
 40
0.0
 40
0.0
 40
0.0883618188712277
 40
0.2222796949408273
 40
0.35505708343078
 40
0.4866585558831659
 40
0.6169833420761302
 40
0.7459738042405256
 40
0.8736356771114735
 40
1.0
 40
1.0
 40
1.0
 40
1.0
 10
431.1816308092034
 20
247.6452177483103
 30
0.0
 10
431.187531773614
 20
247.6490718525762
 30
0.0
 10
431.2023760195312
 20
247.6587670934779
 30
0.0
 10
431.2259415933634
 20
247.687671187338
 30
0.0
 10
431.2500912979498
 20
247.727528648532
 30
0.0
 10
431.2702975459479
 20
247.7738684540585
 30
0.0
 10
431.2853541575286
 20
247.8227979222412
 30
0.0
 10
431.2942832421099
 20
247.8707797131701
 30
0.0
 10
431.2972511652275
 20
247.9153111899592
 30
0.0
 10
431.2939047689653
 20
247.9387510679016
 30
0.0
 10
431.292240117426
 20
247.9504111421547
 30
0.0
  0
LINE
  5
76
330
2
100
AcDbEntity
  8
0
100
AcDbLine
 10
396.9976614079158
 20
268.8431401167097
 30
0.0
 11
396.0424654308834
 21
263.9253023000738
 31
0.0
  0
LINE
  5
77
330
2
100
AcDbEntity
  8
0
100
AcDbLine
 10
396.0790553405331
 20
264.0340541966105
 30
0.0
 11
396.0125943877553
 21
263.5933127691222
 31
0.0
  0
SPLINE
  5
78
330
2
100
AcDbEntity
  8
0
100
AcDbSpline
210
0.0
220
0.0
230
1.0
 70
     8
 71
     3
 72
     9
 73
     5
 74
     0
 42
0.000000001
 43
0.0000000001
 40
0.0
 40
0.0
 40
0.0
 40
0.0
 40
0.1893147484638626
 40
1.0
 40
1.0
 40
1.0
 40
1.0
 10
397.3425069575695
 20
270.264896638127
 30
0.0
 10
397.3353822298873
 20
270.2510802234042
 30
0.0
 10
397.297747931767
 20
270.1780990381831
 30
0.0
 10
397.2808864804495
 20
270.0987112099786
 30
0.0
 10
397.2672171505469
 20
270.0343526685017
 30
0.0
  0
LINE
  5
79
330
2
100
AcDbEntity
  8
0
100
AcDbLine
 10
398.0240489715773
 20
270.8634701476201
 30
0.0
 11
397.5473218266653
 21
270.4947553996199
 31
0.0
  0
SPLINE
  5
7A
330
2
100
AcDbEntity
  8
0
100
AcDbSpline
210
0.0
220
0.0
230
1.0
 70
     8
 71
     3
 72
    10
 73
     6
 74
     0
 42
0.000000001
 43
0.0000000001
 40
0.0
 40
0.0
 40
0.0
 40
0.0
 40
0.3214753271183901
 40
0.6856158195674399
 40
1.0
 40
1.0
 40
1.0
 40
1.0
 10
397.2663329631817
 20
270.0292586537187
 30
0.0
 10
397.2383582669212
 20
269.9003166963937
 30
0.0
 10
397.1786961632205
 20
269.6253200223396
 30
0.0
 10
397.0823171494613
 20
269.2212819077513
 30
0.0
 10
397.0244804910809
 20
268.9628458371236
 30
0.0
 10
396.9976827471365
 20
268.8431033789556
 30
0.0
  0
LINE
  5
7B
330
2
100
AcDbEntity
  8
0
100
AcDbLine
 10
430.7259160740581
 20
229.2484307907855
 30
0.0
 11
431.2145214212345
 21
237.9920946114658
 31
0.0
  0
SPLINE
  5
7C
330
2
100
AcDbEntity
  8
0
100
AcDbSpline
210
0.0
220
0.0
230
1.0
 70
     8
 71
     3
 72
    11
 73
     7
 74
     0
 42
0.000000001
 43
0.0000000001
 40
0.0
 40
0.0
 40
0.0
 40
0.0
 40
0.267336628641623
 40
0.5388334210003413
 40
0.8127575808094615
 40
1.0
 40
1.0
 40
1.0
 40
1.0
 10
398.4628959980785
 20
270.9224435033513
 30
0.0
 10
398.4208688894904
 20
270.9324661172912
 30
0.0
 10
398.3361606667138
 20
270.9526673122566
 30
0.0
 10
398.2115834151517
 20
270.9449626936343
 30
0.0
 10
398.1063822139256
 20
270.9165989744869
 30
0.0
 10
398.0527779662746
 20
270.8790840860537
 30
0.0
 10
398.0310136202311
 20
270.8638523264558
 30
0.0
  0
LINE
  5
7D
330
2
100
AcDbEntity
  8
0
100
AcDbLine
 10
396.011819994493
 20
263.6154334088598
 30
0.0
 11
396.011819994493
 21
235.3515544552756
 31
0.0
  0
LINE
  5
7E
330
2
100
AcDbEntity
  8
0
100
AcDbLine
 10
429.9550528821554
 20
226.3657063483061
 30
0.0
 11
430.5930946417586
 21
228.5097229363071
 31
0.0
  0
SPLINE
  5
7F
330
2
100
AcDbEntity
  8
0
100
AcDbSpline
210
0.0
220
0.0
230
1.0
 70
     8
 71
     3
 72
     9
 73
     5
 74
     0
 42
0.000000001
 43
0.0000000001
 40
0.0
 40
0.0
 40
0.0
 40
0.0
 40
0.4998259934297288
 40
1.0
 40
1.0
 40
1.0
 40
1.0
 10
430.5915738857795
 20
228.5093968351818
 30
0.0
 10
430.6253372911477
 20
228.6360308871145
 30
0.0
 10
430.6928876102829
 20
228.889387162293
 30
0.0
 10
430.714482122194
 20
229.133125313675
 30
0.0
 10
430.7252831357366
 20
229.2550368014059
 30
0.0
  0
SPLINE
  5
80
330
2
100
AcDbEntity
  8
0
100
AcDbSpline
210
0.0
220
0.0
230
1.0
 70
     8
 71
     3
 72
     9
 73
     5
 74
     0
 42
0.000000001
 43
0.0000000001
 40
0.0
 40
0.0
 40
0.0
 40
0.0
 40
0.4996158231630132
 40
1.0
 40
1.0
 40
1.0
 40
1.0
 10
429.8048582942633
 20
225.4189357858187
 30
0.0
 10
429.811581424057
 20
225.5705958284671
 30
0.0
 10
429.8250380230718
 20
225.8741491500737
 30
0.0
 10
429.9107035198244
 20
226.2015518786294
 30
0.0
 10
429.9535691789003
 20
226.365379023452
 30
0.0
  0
LINE
  5
81
330
2
100
AcDbEntity
  8
0
100
AcDbLine
 10
429.8056376023516
 20
223.0265501670859
 30
0.0
 11
429.8056376023516
 21
225.4120083348398
 31
0.0
  0
SPLINE
  5
82
330
2
100
AcDbEntity
  8
0
100
AcDbSpline
210
0.0
220
0.0
230
1.0
 70
     8
 71
     3
 72
    10
 73
     6
 74
     0
 42
0.000000001
 43
0.0000000001
 40
0.0
 40
0.0
 40
0.0
 40
0.0
 40
0.5249486554755234
 40
0.7847936561741859
 40
1.0
 40
1.0
 40
1.0
 40
1.0
 10
427.1430629563861
 20
222.343592374802
 30
0.0
 10
427.3866822666589
 20
222.2825231781643
 30
0.0
 10
427.7508910082747
 20
222.1912252624366
 30
0.0
 10
428.2495367796226
 20
222.1279179858311
 30
0.0
 10
428.4896206225758
 20
222.1201822797921
 30
0.0
 10
428.5983826893484
 20
222.1166778733047
 30
0.0
  0
SPLINE
  5
83
330
2
100
AcDbEntity
  8
0
100
AcDbSpline
210
0.0
220
0.0
230
1.0
 70
     8
 71
     3
 72
    11
 73
     7
 74
     0
 42
0.000000001
 43
0.0000000001
 40
0.0
 40
0.0
 40
0.0
 40
0.0
 40
0.6581262710881609
 40
0.8643846262079881
 40
0.9389164702629035
 40
1.0
 40
1.0
 40
1.0
 40
1.0
 10
428.5937451557069
 20
222.1178467751459
 30
0.0
 10
428.7262137124776
 20
222.1279474957168
 30
0.0
 10
428.9001982333192
 20
222.1412138063909
 30
0.0
 10
429.0673755034377
 20
222.1779078407323
 30
0.0
 10
429.1164656090106
 20
222.187348715677
 30
0.0
 10
429.1272887591318
 20
222.1888576182836
 30
0.0
 10
429.1321636947221
 20
222.1895372543357
 30
0.0
  0
LINE
  5
84
330
2
100
AcDbEntity
  8
0
100
AcDbLine
 10
429.2206248836007
 20
222.2483843389097
 30
0.0
 11
429.67736875708
 21
222.6888655919684
 31
0.0
  0
LINE
  5
85
330
2
100
AcDbEntity
  8
0
100
AcDbLine
 10
398.8260062934023
 20
230.5180221859739
 30
0.0
 11
427.1435928643376
 21
222.3434390711919
 31
0.0
  0
SPLINE
  5
86
330
2
100
AcDbEntity
  8
0
100
AcDbSpline
210
0.0
220
0.0
230
1.0
 70
     8
 71
     3
 72
    11
 73
     7
 74
     0
 42
0.000000001
 43
0.0000000001
 40
0.0
 40
0.0
 40
0.0
 40
0.0
 40
0.263297606569131
 40
0.5257213890077544
 40
0.7862111826029312
 40
1.0
 40
1.0
 40
1.0
 40
1.0
 10
429.6549752723404
 20
222.6677327237086
 30
0.0
 10
429.6780264226281
 20
222.691190791086
 30
0.0
 10
429.7240522217434
 20
222.7380290739164
 30
0.0
 10
429.771070640491
 20
222.8277967029972
 30
0.0
 10
429.7999518592731
 20
222.9211669897241
 30
0.0
 10
429.8023912075144
 20
222.9865657394394
 30
0.0
 10
429.8056376023516
 20
223.0265501670859
 30
0.0
  0
LINE
  5
87
330
2
100
AcDbEntity
  8
0
100
AcDbLine
 10
396.1397077349903
 20
234.671882132503
 30
0.0
 11
397.1127102151477
 21
231.9685949110974
 31
0.0
  0
SPLINE
  5
88
330
2
100
AcDbEntity
  8
0
100
AcDbSpline
210
0.0
220
0.0
230
1.0
 70
     8
 71
     3
 72
    11
 73
     7
 74
     0
 42
0.000000001
 43
0.0000000001
 40
0.0
 40
0.0
 40
0.0
 40
0.0
 40
0.2259714942651333
 40
0.4658663806456853
 40
0.723287247312809
 40
1.0
 40
1.0
 40
1.0
 40
1.0
 10
397.5243309871574
 20
231.1653540707597
 30
0.0
 10
397.6031413588428
 20
231.0996660125664
 30
0.0
 10
397.7656180585423
 20
230.9642424804009
 30
0.0
 10
398.0717307354029
 20
230.7977490771106
 30
0.0
 10
398.4236624452093
 20
230.6431201243132
 30
0.0
 10
398.6888410948315
 20
230.5606722407024
 30
0.0
 10
398.8262192927803
 20
230.5179593688658
 30
0.0
  0
LINE
  5
89
330
2
100
AcDbEntity
  8
0
100
AcDbLine
 10
429.4005831955928
 20
238.4826474774072
 30
0.0
 11
430.3780061946649
 21
238.2004897615641
 31
0.0
  0
LINE
  5
8A
330
2
100
AcDbEntity
  8
0
100
AcDbLine
 10
432.432524410332
 20
247.2578797623843
 30
0.0
 11
431.9721399299004
 21
247.3907813142323
 31
0.0
  0
LINE
  5
8B
330
2
100
AcDbEntity
  8
0
100
AcDbLine
 10
430.444921355116
 20
238.1811730185951
 30
0.0
 11
430.9802326681322
 21
238.0266419532217
 31
0.0
  0
LINE
  5
8C
330
2
100
AcDbEntity
  8
0
100
AcDbLine
 10
436.6964034668446
 20
249.3209456356053
 30
0.0
 11
436.1610921538284
 21
249.4754767009787
 31
0.0
  0
LINE
  5
8D
330
2
100
AcDbEntity
  8
0
100
AcDbLine
 10
439.5851571005207
 20
228.5818561472973
 30
0.0
 11
444.4528934302777
 21
232.7974394677286
 31
0.0
  0
LINE
  5
8E
330
2
100
AcDbEntity
  8
0
100
AcDbLine
 10
431.9690707152044
 20
234.8985752802638
 30
0.0
 11
431.9690707152044
 21
235.43388659328
 31
0.0
  0
LWPOLYLINE
  5
8F
330
2
100
AcDbEntity
  8
0
100
AcDbPolyline
 90
        3
 70
   128
 43
0.0
 10
422.4033985047413
 20
264.063727235812
 10
422.3732510301018
 20
264.0324757320353
 10
422.3655685158779
 20
264.0228212185026
  0
LWPOLYLINE
  5
90
330
2
100
AcDbEntity
  8
0
100
AcDbPolyline
 90
        3
 70
   128
 43
0.0
 10
405.637061566602
 20
268.8519252136576
 10
405.6447440808259
 20
268.8615797271902
 10
405.6748915554654
 20
268.8928312309669
  0
LINE
  5
91
330
2
100
AcDbEntity
  8
0
100
AcDbLine
 10
405.6748915554654
 20
268.8928312309669
 30
0.0
 11
422.4033985047413
 21
264.063727235812
 31
0.0
  0
LINE
  5
92
330
2
100
AcDbEntity
  8
0
100
AcDbLine
 10
425.4167593159709
 20
266.6733742490792
 30
0.0
 11
422.4033985047413
 21
264.063727235812
 31
0.0
  0
LINE
  5
93
330
2
100
AcDbEntity
  8
0
100
AcDbLine
 10
408.6882523666949
 20
271.5024782442342
 30
0.0
 11
405.6748915554654
 21
268.8928312309669
 31
0.0
  0
LWPOLYLINE
  5
94
330
2
100
AcDbEntity
  8
0
100
AcDbPolyline
 90
        9
 70
   128
 43
0.0
 10
425.5712909569736
 20
266.5395459223264
 10
425.5683216302461
 20
266.5891923648219
 10
425.5595276332981
 20
266.631786342274
 10
425.5452474626765
 20
266.6656946102197
 10
425.5260297356559
 20
266.689611470576
 10
425.5026124664288
 20
266.7026166029798
 10
425.4758960091381
 20
266.7042134533832
 10
425.4469067906104
 20
266.6943397031652
 10
425.4167593159709
 20
266.6733742490792
  0
ARC
  5
95
330
2
100
AcDbEntity
  8
0
100
AcDbCircle
 10
408.7581530917939
 20
271.4379570689743
 30
0.0
 40
0.0951267229710216
100
AcDbArc
 50
80.42837149720009
 51
137.2917478973006
  0
LINE
  5
96
330
2
100
AcDbEntity
  8
0
100
AcDbLine
 10
425.5712909569736
 20
263.0974095259977
 30
0.0
 11
425.5712909569736
 21
266.5395459223264
 31
0.0
  0
LINE
  5
97
330
2
100
AcDbEntity
  8
0
100
AcDbLine
 10
428.9841048735947
 20
267.6732955925878
 30
0.0
 11
425.5712903109554
 21
264.7177114828646
 31
0.0
  0
LINE
  5
98
330
2
100
AcDbEntity
  8
0
100
AcDbLine
 10
412.9247385612784
 20
272.309235324246
 30
0.0
 11
411.2137333712491
 21
270.8274613636914
 31
0.0
  0
LINE
  5
99
330
2
100
AcDbEntity
  8
0
100
AcDbLine
 10
428.7391832653372
 20
262.390877263751
 30
0.0
 11
428.5590847880995
 21
262.2349074073294
 31
0.0
  0
LWPOLYLINE
  5
9A
330
2
100
AcDbEntity
  8
0
100
AcDbPolyline
 90
        9
 70
   128
 43
0.0
 10
428.7391832653372
 20
262.390877263751
 10
428.8131038439236
 20
262.4803622069263
 10
428.8757705703105
 20
262.6071580105944
 10
428.9176433741624
 20
262.751963873702
 10
428.9323472409421
 20
262.8927319936165
 10
428.9176433741624
 20
263.0080322692919
 10
428.8757705703105
 20
263.0803123086868
 10
428.8131038439236
 20
263.0985671553305
 10
428.7391832653372
 20
263.0600169035973
  0
LINE
  5
9B
330
2
100
AcDbEntity
  8
0
100
AcDbLine
 10
427.9795922856557
 20
262.4021918187149
 30
0.0
 11
428.7391832653372
 21
263.0600169035973
 31
0.0
  0
LINE
  5
9C
330
2
100
AcDbEntity
  8
0
100
AcDbLine
 10
428.7391832653372
 20
263.729157540557
 30
0.0
 11
427.400099783212
 21
262.5694772272139
 31
0.0
  0
LWPOLYLINE
  5
9D
330
2
100
AcDbEntity
  8
0
100
AcDbPolyline
 90
        9
 70
   128
 43
0.0
 10
428.7391832653372
 20
263.729157540557
 10
428.8131038439236
 20
263.8186424837322
 10
428.8757705703105
 20
263.9454392845137
 10
428.9176433741624
 20
264.0902441504307
 10
428.9323472409421
 20
264.2310122704224
 10
428.9176433741624
 20
264.3463135431339
 10
428.8757705703105
 20
264.4185925854156
 10
428.8131038439236
 20
264.4368474320592
 10
428.7391832653372
 20
264.3982981774394
  0
LINE
  5
9E
330
2
100
AcDbEntity
  8
0
100
AcDbLine
 10
426.8206078564746
 20
262.7367631343082
 30
0.0
 11
428.7391832653372
 21
264.3982981774394
 31
0.0
  0
LINE
  5
9F
330
2
100
AcDbEntity
  8
0
100
AcDbLine
 10
428.7391832653372
 20
265.0674378172857
 30
0.0
 11
426.8075412066947
 21
263.3945867234818
 31
0.0
  0
LWPOLYLINE
  5
A0
330
2
100
AcDbEntity
  8
0
100
AcDbPolyline
 90
        9
 70
   128
 43
0.0
 10
428.7391832653372
 20
265.0674378172857
 10
428.8131038439236
 20
265.1569227604609
 10
428.8757705703105
 20
265.2837195612424
 10
428.9176433741624
 20
265.4285244272366
 10
428.9323472409421
 20
265.5692935442645
 10
428.9176433741624
 20
265.6845938199399
 10
428.8757705703105
 20
265.7568728622215
 10
428.8131038439236
 20
265.7751277088651
 10
428.7391832653372
 20
265.7365784542454
  0
LINE
  5
A1
330
2
100
AcDbEntity
  8
0
100
AcDbLine
 10
426.8075412066947
 20
264.0637273604415
 30
0.0
 11
428.7391832653372
 21
265.7365784542454
 31
0.0
  0
LWPOLYLINE
  5
A2
330
2
100
AcDbEntity
  8
0
100
AcDbPolyline
 90
        9
 70
   128
 43
0.0
 10
426.8075412066947
 20
264.0637273604415
 10
426.7336206281855
 20
263.9742424172663
 10
426.6709539017214
 20
263.8474456164848
 10
426.6290810978694
 20
263.7026407504906
 10
426.6143772311671
 20
263.5618726305761
 10
426.6290810978694
 20
263.4465713577873
 10
426.6709539017214
 20
263.3742923155057
 10
426.7336206281855
 20
263.3560374688621
 10
426.8075412066947
 20
263.3945867234818
  0
LINE
  5
A3
330
2
100
AcDbEntity
  8
0
100
AcDbLine
 10
426.0348847287233
 20
263.7291570419617
 30
0.0
 11
426.0348847287233
 21
262.9635811992449
 31
0.0
  0
ARC
  5
A4
330
2
100
AcDbEntity
  8
0
100
AcDbCircle
 10
427.4996504425291
 20
263.7415728932536
 30
0.0
 40
1.464818333365168
100
AcDbArc
 50
137.4109042905003
 51
180.4856468388002
  0
LINE
  5
A5
330
2
100
AcDbEntity
  8
0
100
AcDbLine
 10
429.3186751920745
 20
267.242143640955
 30
0.0
 11
426.4212132555622
 21
264.7328679974012
 31
0.0
  0
ARC
  5
A6
330
2
100
AcDbEntity
  8
0
100
AcDbCircle
 10
426.1359850946446
 20
264.718765625735
 30
0.0
 40
0.2855765758476265
100
AcDbArc
 50
2.830537249799435
 51
72.79183471779894
  0
LINE
  5
A7
330
2
100
AcDbEntity
  8
0
100
AcDbLine
 10
426.2204712639125
 20
264.9915587119726
 30
0.0
 11
425.9707442063042
 21
265.0636487038858
 31
0.0
  0
LWPOLYLINE
  5
A8
330
2
100
AcDbEntity
  8
0
100
AcDbPolyline
 90
        9
 70
   128
 43
0.0
 10
429.177269424906
 20
267.506011181125
 10
429.1735574785661
 20
267.5680684864866
 10
429.1625655581263
 20
267.6213124539138
 10
429.1447150569961
 20
267.6636950468035
 10
429.1206927542744
 20
267.6935914961954
 10
429.0914214555744
 20
267.7098486595737
 10
429.0580260278875
 20
267.7118453457256
 10
429.0217896487511
 20
267.6995022854885
 10
428.9841048735947
 20
267.6732955925878
  0
ARC
  5
A9
330
2
100
AcDbEntity
  8
0
100
AcDbCircle
 10
413.0121177219658
 20
272.228578953708
 30
0.0
 40
0.1189141195731555
100
AcDbArc
 50
80.43021510489861
 51
137.2910760646981
  0
LWPOLYLINE
  5
AA
330
2
100
AcDbEntity
  8
0
100
AcDbPolyline
 90
        9
 70
   128
 43
0.0
 10
429.177269424906
 20
267.506011181125
 10
429.2388289251343
 20
267.4839542976908
 10
429.2906002545166
 20
267.456316825805
 10
429.3305923308251
 20
267.4241601244872
 10
429.3572699033206
 20
267.3887204068094
 10
429.3696064533846
 20
267.3513595671762
 10
429.367128502051
 20
267.3135131717217
 10
429.3499311861453
 20
267.2766354426834
 10
429.3186751920745
 20
267.242143640955
  0
SPLINE
  5
AB
330
2
100
AcDbEntity
  8
0
100
AcDbSpline
210
0.0
220
0.0
230
1.0
 70
     8
 71
     3
 72
    32
 73
    28
 74
     0
 42
0.000000001
 43
0.0000000001
 40
0.0
 40
0.0
 40
0.0
 40
0.0
 40
0.016737579274544
 40
0.0337717741317787
 40
0.0511031132126578
 40
0.0687318662513806
 40
0.0866578733429868
 40
0.1048809309389477
 40
0.1234008827666687
 40
0.1422176403185929
 40
0.1613310257955903
 40
0.1807407270749931
 40
0.2004465356981772
 40
0.2204480687609974
 40
0.2407450693266974
 40
0.3566786370377765
 40
0.4912084992883998
 40
0.6109909638005919
 40
0.7450809601289141
 40
0.7762761227100607
 40
0.8076628301162253
 40
0.8392409561792264
 40
0.8710103062928499
 40
0.9029710262027748
 40
0.935123166870148
 40
0.9674652279946723
 40
1.0
 40
1.0
 40
1.0
 40
1.0
 10
427.4770744881834
 20
254.5444888938526
 30
0.0
 10
427.4766446911292
 20
254.5599110989706
 30
0.0
 10
427.4757774803576
 20
254.5910288143415
 30
0.0
 10
427.4727707823258
 20
254.6385931464811
 30
0.0
 10
427.4684317587563
 20
254.6872950929389
 30
0.0
 10
427.4625744294896
 20
254.7371456600406
 30
0.0
 10
427.4551707039833
 20
254.7881036384522
 30
0.0
 10
427.4461509841595
 20
254.8401368671103
 30
0.0
 10
427.4354588001917
 20
254.8932050992921
 30
0.0
 10
427.4230364413583
 20
254.9472650962742
 30
0.0
 10
427.408829642552
 20
255.0022691434726
 30
0.0
 10
427.3927866925522
 20
255.0581657157179
 30
0.0
 10
427.3748584031296
 20
255.1148978333107
 30
0.0
 10
427.3549991438705
 20
255.1724089428895
 30
0.0
 10
427.2989866373893
 20
255.3217703279564
 30
0.0
 10
427.1770554352484
 20
255.5782385560005
 30
0.0
 10
426.9546141477168
 20
255.9087213036741
 30
0.0
 10
426.6723105401258
 20
256.2195214476448
 30
0.0
 10
426.4358679388722
 20
256.413729556786
 30
0.0
 10
426.264528588068
 20
256.5284615008226
 30
0.0
 10
426.1810878128356
 20
256.5798891824114
 30
0.0
 10
426.0959354139461
 20
256.627941256224
 30
0.0
 10
426.0092419134348
 20
256.6724418657848
 30
0.0
 10
425.9211957496636
 20
256.7132436747221
 30
0.0
 10
425.8319930269799
 20
256.750067063822
 30
0.0
 10
425.7418361740534
 20
256.7831603518112
 30
0.0
 10
425.6814187088473
 20
256.8015523469914
 30
0.0
 10
425.6511202438823
 20
256.8107756604771
 30
0.0
  0
LWPOLYLINE
  5
AC
330
2
100
AcDbEntity
  8
0
100
AcDbPolyline
 90
        3
 70
   128
 43
0.0
 10
428.949877994657
 20
259.2768422603592
 10
428.1251086931579
 20
256.626723860423
 10
427.477074843864
 20
254.5444889579479
  0
LINE
  5
AD
330
2
100
AcDbEntity
  8
0
100
AcDbLine
 10
427.477074843864
 20
226.2818085146501
 30
0.0
 11
427.477074843864
 21
254.5444889579479
 31
0.0
  0
LINE
  5
AE
330
2
100
AcDbEntity
  8
0
100
AcDbLine
 10
428.949877994657
 20
244.5344395433845
 30
0.0
 11
428.949877994657
 21
259.2768422603592
 31
0.0
  0
SPLINE
  5
AF
330
2
100
AcDbEntity
  8
0
100
AcDbSpline
210
0.0
220
0.0
230
1.0
 70
     8
 71
     3
 72
     9
 73
     5
 74
     0
 42
0.000000001
 43
0.0000000001
 40
0.0
 40
0.0
 40
0.0
 40
0.0
 40
0.5
 40
1.0
 40
1.0
 40
1.0
 40
1.0
 10
428.949878433057
 20
244.5344392351633
 30
0.0
 10
428.8382985430645
 20
244.3053684557004
 30
0.0
 10
428.6343046003876
 20
243.8397928655431
 30
0.0
 10
428.4672991604118
 20
243.3603195478884
 30
0.0
 10
428.3932767154841
 20
243.1170125216919
 30
0.0
  0
SPLINE
  5
B0
330
2
100
AcDbEntity
  8
0
100
AcDbSpline
210
0.0
220
0.0
230
1.0
 70
     8
 71
     3
 72
    21
 73
    17
 74
     0
 42
0.000000001
 43
0.0000000001
 40
0.0
 40
0.0
 40
0.0
 40
0.0
 40
0.125
 40
0.125
 40
0.25
 40
0.25
 40
0.375
 40
0.375
 40
0.5
 40
0.625
 40
0.625
 40
0.75
 40
0.75
 40
0.875
 40
0.875
 40
1.0
 40
1.0
 40
1.0
 40
1.0
 10
428.3932767154841
 20
243.1170125216919
 30
0.0
 10
428.3702771132279
 20
243.0414102776439
 30
0.0
 10
428.3473499444749
 20
242.9623332727385
 30
0.0
 10
428.3022923494967
 20
242.7977646156989
 30
0.0
 10
428.2801904782258
 20
242.7124529469856
 30
0.0
 10
428.2372069140998
 20
242.5345099694484
 30
0.0
 10
428.2162700221487
 20
242.441622091785
 30
0.0
 10
428.1760588534388
 20
242.247284696878
 30
0.0
 10
428.1376739863953
 20
242.0450519709088
 30
0.0
 10
428.1056842573631
 20
241.8322339444109
 30
0.0
 10
428.0778836769561
 20
241.618352847011
 30
0.0
 10
428.066141733398
 20
241.5110840356769
 30
0.0
 10
428.0473283958641
 20
241.2980867389363
 30
0.0
 10
428.0402279593856
 20
241.1923275443201
 30
0.0
 10
428.0307502984885
 20
240.9832769685459
 30
0.0
 10
428.0283673867432
 20
240.8798437329908
 30
0.0
 10
428.0283673308089
 20
240.7772877307584
 30
0.0
  0
SPLINE
  5
B1
330
2
100
AcDbEntity
  8
0
100
AcDbSpline
210
0.0
220
0.0
230
1.0
 70
     8
 71
     3
 72
    21
 73
    17
 74
     0
 42
0.000000001
 43
0.0000000001
 40
0.0
 40
0.0
 40
0.0
 40
0.0
 40
0.1250000000000002
 40
0.1250000000000002
 40
0.2500000000000003
 40
0.2500000000000003
 40
0.3750000000000005
 40
0.3750000000000005
 40
0.5000000000000006
 40
0.6250000000000004
 40
0.6250000000000004
 40
0.7500000000000002
 40
0.7500000000000002
 40
0.875
 40
0.875
 40
1.0
 40
1.0
 40
1.0
 40
1.0
 10
428.3932767154841
 20
238.9196229232273
 30
0.0
 10
428.3702771132279
 20
238.9648418344794
 30
0.0
 10
428.3473499444748
 20
239.0136311661146
 30
0.0
 10
428.3022923494967
 20
239.118677006334
 30
0.0
 10
428.2801904782258
 20
239.1747912586172
 30
0.0
 10
428.2372069140998
 20
239.2959513267213
 30
0.0
 10
428.2162700221487
 20
239.3611807906866
 30
0.0
 10
428.1760588534389
 20
239.5023977347282
 30
0.0
 10
428.1376739863954
 20
239.653922614904
 30
0.0
 10
428.1056842573629
 20
239.8244808801513
 30
0.0
 10
428.077883676956
 20
240.0016364158215
 30
0.0
 10
428.0661417333988
 20
240.0933938774154
 30
0.0
 10
428.0473283958643
 20
240.2815381805356
 30
0.0
 10
428.0402279593822
 20
240.377917189222
 30
0.0
 10
428.0307502984756
 20
240.5744463333097
 30
0.0
 10
428.0283673867273
 20
240.6747310758431
 30
0.0
 10
428.0283673308089
 20
240.7772877307584
 30
0.0
  0
SPLINE
  5
B2
330
2
100
AcDbEntity
  8
0
100
AcDbSpline
210
0.0
220
0.0
230
1.0
 70
     8
 71
     3
 72
     9
 73
     5
 74
     0
 42
0.000000001
 43
0.0000000001
 40
0.0
 40
0.0
 40
0.0
 40
0.0
 40
0.5
 40
1.0
 40
1.0
 40
1.0
 40
1.0
 10
428.949878433057
 20
238.2374880505226
 30
0.0
 10
428.8382985430645
 20
238.3191576592192
 30
0.0
 10
428.6343046003876
 20
238.5152492703028
 30
0.0
 10
428.4672991604118
 20
238.774102629934
 30
0.0
 10
428.3932767154841
 20
238.9196229232273
 30
0.0
  0
LINE
  5
B3
330
2
100
AcDbEntity
  8
0
100
AcDbLine
 10
428.949877994657
 20
238.2374881240926
 30
0.0
 11
428.949877994657
 21
223.4950854071179
 31
0.0
  0
SPLINE
  5
B4
330
2
100
AcDbEntity
  8
0
100
AcDbSpline
210
0.0
220
0.0
230
1.0
 70
     8
 71
     3
 72
    12
 73
     8
 74
     0
 42
0.000000001
 43
0.0000000001
 40
0.0
 40
0.0
 40
0.0
 40
0.0
 40
0.2500000000000013
 40
0.2500000000000013
 40
0.5000000000000026
 40
0.5000000000000026
 40
1.0
 40
1.0
 40
1.0
 40
1.0
 10
428.5237462462434
 20
261.7043734572901
 30
0.0
 10
428.4345331483548
 20
261.7086687702619
 30
0.0
 10
428.3401324117463
 20
261.7160641297832
 30
0.0
 10
428.1493997045913
 20
261.7370922974477
 30
0.0
 10
428.0528821598746
 20
261.7506639984653
 30
0.0
 10
427.7655352799174
 20
261.7995583146732
 30
0.0
 10
427.5768377546841
 20
261.8429871149433
 30
0.0
 10
427.399863846347
 20
261.8951365477751
 30
0.0
  0
SPLINE
  5
B5
330
2
100
AcDbEntity
  8
0
100
AcDbSpline
210
0.0
220
0.0
230
1.0
 70
     8
 71
     3
 72
    14
 73
    10
 74
     0
 42
0.000000001
 43
0.0000000001
 40
0.0
 40
0.0
 40
0.0
 40
0.0
 40
0.1805440950833188
 40
0.3726700504371152
 40
0.576469602016929
 40
0.7249312550006437
 40
0.8449755578674242
 40
0.9366376670546699
 40
1.0
 40
1.0
 40
1.0
 40
1.0
 10
428.5237462462433
 20
261.7043734572924
 30
0.0
 10
428.5418538475874
 20
261.7035765371883
 30
0.0
 10
428.5792306485462
 20
261.7019315747471
 30
0.0
 10
428.6372006345765
 20
261.7002680016282
 30
0.0
 10
428.6920061569939
 20
261.6992991016082
 30
0.0
 10
428.7395712272781
 20
261.6986113609171
 30
0.0
 10
428.7758034390409
 20
261.6977449646877
 30
0.0
 10
428.8034687434
 20
261.6969269983574
 30
0.0
 10
428.8189618853302
 20
261.6959907197715
 30
0.0
 10
428.825294316551
 20
261.6956080395008
 30
0.0
  0
SPLINE
  5
B6
330
2
100
AcDbEntity
  8
0
100
AcDbSpline
210
0.0
220
0.0
230
1.0
 70
     8
 71
     3
 72
    33
 73
    29
 74
     0
 42
0.000000001
 43
0.0000000001
 40
0.0
 40
0.0
 40
0.0
 40
0.0
 40
0.0264310705933446
 40
0.0537418645291704
 40
0.0819484358648957
 40
0.1110653554422008
 40
0.1411058679165408
 40
0.1720820317001359
 40
0.2040048433880562
 40
0.2368843482232091
 40
0.2707297380856656
 40
0.3055494383898256
 40
0.3413511851547676
 40
0.3781420933910058
 40
0.4159287178265842
 40
0.4547171068818491
 40
0.4945128506969324
 40
0.535321123920527
 40
0.5771467238827417
 40
0.6199941046983203
 40
0.6638674077792697
 40
0.7087704891761185
 40
0.7547069441153807
 40
0.801680129054899
 40
0.8496931815391613
 40
0.8987490381018707
 40
0.9488504504328421
 40
1.0
 40
1.0
 40
1.0
 40
1.0
 10
428.831761353522
 20
261.6950115033777
 30
0.0
 10
428.8398803888022
 20
261.6925231507801
 30
0.0
 10
428.8563886907493
 20
261.6874636240489
 30
0.0
 10
428.8809970407275
 20
261.6779674252586
 30
0.0
 10
428.9059322121256
 20
261.6668323274788
 30
0.0
 10
428.931085807534
 20
261.6538393559785
 30
0.0
 10
428.9563896427264
 20
261.6389453593472
 30
0.0
 10
428.9817505326107
 20
261.6220634955065
 30
0.0
 10
429.0070680566572
 20
261.6031263819249
 30
0.0
 10
429.0322291000277
 20
261.5820699261034
 30
0.0
 10
429.0571090237216
 20
261.5588395212538
 30
0.0
 10
429.0815711029202
 20
261.5333900561274
 30
0.0
 10
429.1054665984916
 20
261.5056877362083
 30
0.0
 10
429.1286348196655
 20
261.4757114619716
 30
0.0
 10
429.1509033789886
 20
261.4434543791995
 30
0.0
 10
429.1720886045886
 20
261.4089254100484
 30
0.0
 10
429.1919961419673
 20
261.3721507954615
 30
0.0
 10
429.2104217534764
 20
261.333175615317
 30
0.0
 10
429.2271523481288
 20
261.2920652622879
 30
0.0
 10
429.2419671937815
 20
261.2489068579228
 30
0.0
 10
429.2546395644057
 20
261.2038105199033
 30
0.0
 10
429.2649379051095
 20
261.1569106889257
 30
0.0
 10
429.2726301091879
 20
261.1083665520411
 30
0.0
 10
429.277477060646
 20
261.0583651137591
 30
0.0
 10
429.2792689059364
 20
261.007113028689
 30
0.0
 10
429.2776978302502
 20
260.9548705713903
 30
0.0
 10
429.2728622935281
 20
260.9018217914218
 30
0.0
 10
429.2665792676778
 20
260.8666875994512
 30
0.0
 10
429.2634052342054
 20
260.8489386510955
 30
0.0
  0
LINE
  5
B7
330
2
100
AcDbEntity
  8
0
100
AcDbLine
 10
429.2634055933096
 20
260.8489385694318
 30
0.0
 11
428.949877994657
 21
259.2768422603592
 31
0.0
  0
LINE
  5
B8
330
2
100
AcDbEntity
  8
0
100
AcDbLine
 10
399.0822769542745
 20
270.0697190816905
 30
0.0
 11
427.3998635252871
 21
261.8951359669084
 31
0.0
  0
SPLINE
  5
B9
330
2
100
AcDbEntity
  8
0
100
AcDbSpline
210
0.0
220
0.0
230
1.0
 70
     8
 71
     3
 72
    12
 73
     8
 74
     0
 42
0.000000001
 43
0.0000000001
 40
0.0
 40
0.0
 40
0.0
 40
0.0
 40
0.2500000000000013
 40
0.2500000000000013
 40
0.5000000000000026
 40
0.5000000000000026
 40
1.0
 40
1.0
 40
1.0
 40
1.0
 10
398.1840167899446
 20
270.4626989416571
 30
0.0
 10
398.2370113350009
 20
270.4259424441614
 30
0.0
 10
398.2978983188007
 20
270.388510100093
 30
0.0
 10
398.4311904701187
 20
270.3160003481258
 30
0.0
 10
398.5035876519368
 20
270.2808105677259
 30
0.0
 10
398.7334535336111
 20
270.1803984203557
 30
0.0
 10
398.9035112241714
 20
270.12026351042
 30
0.0
 10
399.0822767366682
 20
270.0697198180618
 30
0.0
  0
SPLINE
  5
BA
330
2
100
AcDbEntity
  8
0
100
AcDbSpline
210
0.0
220
0.0
230
1.0
 70
     8
 71
     3
 72
    25
 73
    21
 74
     0
 42
0.000000001
 43
0.0000000001
 40
0.0
 40
0.0
 40
0.0
 40
0.0
 40
0.1351234036185102
 40
0.2734652684634223
 40
0.4132200026551435
 40
0.5523915975606427
 40
0.788228142292046
 40
0.8903580876428529
 40
0.9366022431703303
 40
0.9584581494421033
 40
0.9690700576183564
 40
0.9742999195286099
 40
0.9768967392968832
 40
0.9851506180063664
 40
0.9891126152759721
 40
0.9925301157306677
 40
0.9947917882783395
 40
0.9959090514932132
 40
0.997212786803294
 40
1.0
 40
1.0
 40
1.0
 40
1.0
 10
398.1840277973251
 20
270.463748714802
 30
0.0
 10
398.1756959460707
 20
270.4696419503234
 30
0.0
 10
398.158833789856
 20
270.4815687904624
 30
0.0
 10
398.1342134346362
 20
270.4994724431103
 30
0.0
 10
398.1099310736514
 20
270.517549343613
 30
0.0
 10
398.0806346832163
 20
270.5399511206513
 30
0.0
 10
398.0542417250627
 20
270.561077852117
 30
0.0
 10
398.0317321088832
 20
270.577875083857
 30
0.0
 10
398.0209219604441
 20
270.5850778063942
 30
0.0
 10
398.0156122698994
 20
270.588368999942
 30
0.0
 10
398.0130367952084
 20
270.5899091314725
 30
0.0
 10
398.01169502266
 20
270.5907001758808
 30
0.0
 10
398.0106749367699
 20
270.5913000973138
 30
0.0
 10
398.008590373144
 20
270.5925246733885
 30
0.0
 10
398.010762977758
 20
270.5924048121691
 30
0.0
 10
398.0111830187067
 20
270.5919726925908
 30
0.0
 10
398.0115085106178
 20
270.5916861390543
 30
0.0
 10
398.0113666527296
 20
270.5913802547912
 30
0.0
 10
398.0107183688515
 20
270.591547088275
 30
0.0
 10
398.0104528170333
 20
270.5916958267128
 30
0.0
 10
398.0102718933354
 20
270.5917971640275
 30
0.0
  0
LINE
  5
BB
330
2
100
AcDbEntity
  8
0
100
AcDbLine
 10
425.6262362188973
 20
257.5721246583819
 30
0.0
 11
425.2132018672183
 21
257.6913574054876
 31
0.0
  0
LINE
  5
BC
330
2
100
AcDbEntity
  8
0
100
AcDbLine
 10
397.8106745719097
 20
264.8476205564105
 30
0.0
 11
425.6511204521653
 21
256.8107760946997
 31
0.0
  0
LWPOLYLINE
  5
BD
330
2
100
AcDbEntity
  8
0
100
AcDbPolyline
 90
        3
 70
   128
 43
0.0
 10
429.8048056327254
 20
261.3283340601722
 10
429.8052768758551
 20
261.3258937335082
 10
429.8056376023516
 20
261.3211781945858
  0
LWPOLYLINE
  5
BE
330
2
100
AcDbEntity
  8
0
100
AcDbPolyline
 90
        3
 70
   128
 43
0.0
 10
429.2599874355172
 20
262.0320795151152
 10
429.2567819384068
 20
262.0334653549222
 10
429.2556151910303
 20
262.0338368980706
  0
LINE
  5
BF
330
2
100
AcDbEntity
  8
0
100
AcDbLine
 10
430.5786099364848
 20
257.2994489762388
 30
0.0
 11
430.5818466610542
 21
257.2939944425455
 31
0.0
  0
LWPOLYLINE
  5
C0
330
2
100
AcDbEntity
  8
0
100
AcDbPolyline
 90
        3
 70
   128
 43
0.0
 10
430.724791509948
 20
256.7677944909422
 10
430.725567271817
 20
256.7636858589749
 10
430.7258706727539
 20
256.7606415505566
  0
SPLINE
  5
C1
330
2
100
AcDbEntity
  8
0
100
AcDbSpline
210
0.0
220
0.0
230
1.0
 70
     8
 71
     3
 72
    14
 73
    10
 74
     0
 42
0.000000001
 43
0.0000000001
 40
0.0
 40
0.0
 40
0.0
 40
0.0
 40
0.2500000000000007
 40
0.2500000000000007
 40
0.5000000000000014
 40
0.5000000000000014
 40
0.7500000000000022
 40
0.7500000000000022
 40
1.0
 40
1.0
 40
1.0
 40
1.0
 10
430.7680581421387
 20
247.6075069938212
 30
0.0
 10
430.7692309296091
 20
247.5867307041208
 30
0.0
 10
430.7723422517106
 20
247.5690036075723
 30
0.0
 10
430.7820269298734
 20
247.5389099195922
 30
0.0
 10
430.7885448592848
 20
247.5266678757066
 30
0.0
 10
430.804828607375
 20
247.5089226208072
 30
0.0
 10
430.8148392095942
 20
247.5033739230311
 30
0.0
 10
430.8376681689572
 20
247.5006192394867
 30
0.0
 10
430.8502095128897
 20
247.503452478784
 30
0.0
 10
430.8641551383871
 20
247.5114543355463
 30
0.0
  0
ARC
  5
C2
330
2
100
AcDbEntity
  8
0
100
AcDbCircle
 10
431.7326142681831
 20
247.989161805831
 30
0.0
 40
0.5468839190886678
100
AcDbArc
 50
208.0904109604994
 51
232.1762434457985
  0
ARC
  5
C3
330
2
100
AcDbEntity
  8
0
100
AcDbCircle
 10
434.7994809269653
 20
241.1018845002793
 30
0.0
 40
6.698078201906045
100
AcDbArc
 50
162.4643833964322
 51
193.225151311507
  0
SPLINE
  5
C4
330
2
100
AcDbEntity
  8
0
100
AcDbSpline
210
0.0
220
0.0
230
1.0
 70
     8
 71
     3
 72
    17
 73
    13
 74
     0
 42
0.000000001
 43
0.0000000001
 40
0.0
 40
0.0
 40
0.0
 40
0.0
 40
0.0476816977243034
 40
0.0991840826062574
 40
0.1416754119882044
 40
0.1923377337393759
 40
0.3615891049150511
 40
0.4723560088858344
 40
0.5852355015230789
 40
0.7387303129296614
 40
0.8769790822369426
 40
1.0
 40
1.0
 40
1.0
 40
1.0
 10
431.6308019267055
 20
247.4723518713646
 30
0.0
 10
431.6275130433969
 20
247.4726986078546
 30
0.0
 10
431.6206717418214
 20
247.4734198644859
 30
0.0
 10
431.6095165680837
 20
247.4751765840824
 30
0.0
 10
431.5975038824235
 20
247.4774244471133
 30
0.0
 10
431.5750391612537
 20
247.4821450311615
 30
0.0
 10
431.5459001658964
 20
247.4897154290748
 30
0.0
 10
431.5122402989671
 20
247.5004434005511
 30
0.0
 10
431.4809712906625
 20
247.5120397849357
 30
0.0
 10
431.4494831596173
 20
247.5259412397674
 30
0.0
 10
431.419916148641
 20
247.5416003151537
 30
0.0
 10
431.4045034003574
 20
247.5521910390302
 30
0.0
 10
431.3972461847947
 20
247.5571777659087
 30
0.0
  0
ARC
  5
C5
330
2
100
AcDbEntity
  8
0
100
AcDbCircle
 10
431.563699700566
 20
246.5758026118071
 30
0.0
 40
0.8943887675093721
100
AcDbArc
 50
76.70215777090195
 51
88.03476849260082
  0
ARC
  5
C6
330
2
100
AcDbEntity
  8
0
100
AcDbCircle
 10
431.5609339026464
 20
246.4675316548547
 30
0.0
 40
1.002691338255637
100
AcDbArc
 50
88.08898302440203
 51
98.58945547110122
  0
ARC
  5
C7
330
2
100
AcDbEntity
  8
0
100
AcDbCircle
 10
431.5916326796966
 20
246.2675607965516
 30
0.0
 40
1.205004365090446
100
AcDbArc
 50
98.61266535080019
 51
107.9014257387004
  0
ARC
  5
C8
330
2
100
AcDbEntity
  8
0
100
AcDbCircle
 10
431.6853510302326
 20
245.9773425965327
 30
0.0
 40
1.509979335027456
100
AcDbArc
 50
107.9004310011002
 51
115.8913356585991
  0
ARC
  5
C9
330
2
100
AcDbEntity
  8
0
100
AcDbCircle
 10
431.8663028425979
 20
245.6034944259162
 30
0.0
 40
1.925317568785988
100
AcDbArc
 50
115.8777020746996
 51
122.6729023913003
  0
ARC
  5
CA
330
2
100
AcDbEntity
  8
0
100
AcDbCircle
 10
432.1514886386748
 20
245.1574451022931
 30
0.0
 40
2.454742267831834
100
AcDbArc
 50
122.6557113870001
 51
128.4348845398998
  0
ARC
  5
CB
330
2
100
AcDbEntity
  8
0
100
AcDbCircle
 10
432.549358750487
 20
244.6546455213754
 30
0.0
 40
3.095918849801008
100
AcDbArc
 50
128.4183205061008
 51
133.3681457575004
  0
ARC
  5
CC
330
2
100
AcDbEntity
  8
0
100
AcDbCircle
 10
433.0588687898768
 20
244.1138810847642
 30
0.0
 40
3.838903331509282
100
AcDbArc
 50
133.3540814304007
 51
137.6427249295994
  0
ARC
  5
CD
330
2
100
AcDbEntity
  8
0
100
AcDbCircle
 10
433.6694549263519
 20
243.5558927460596
 30
0.0
 40
4.666046414041161
100
AcDbArc
 50
137.631101688199
 51
141.3965324496009
  0
ARC
  5
CE
330
2
100
AcDbEntity
  8
0
100
AcDbCircle
 10
434.3621589977724
 20
243.0016985149112
 30
0.0
 40
5.55315942884983
100
AcDbArc
 50
141.3872825114994
 51
144.7400199937999
  0
ARC
  5
CF
330
2
100
AcDbEntity
  8
0
100
AcDbCircle
 10
435.1088907199964
 20
242.4727430708505
 30
0.0
 40
6.468255887287901
100
AcDbArc
 50
144.7326237488002
 51
147.7611492751993
  0
ARC
  5
D0
330
2
100
AcDbEntity
  8
0
100
AcDbCircle
 10
435.8771399055441
 20
241.9873100083706
 30
0.0
 40
7.377019633508036
100
AcDbArc
 50
147.7551520139986
 51
150.5294597167004
  0
LINE
  5
D1
330
2
100
AcDbEntity
  8
0
100
AcDbLine
 10
430.2471819403133
 20
246.8495433124264
 30
0.0
 11
430.2518813978558
 21
246.8545740974209
 31
0.0
  0
LINE
  5
D2
330
2
100
AcDbEntity
  8
0
100
AcDbLine
 10
405.8424759313202
 20
264.2319650699481
 30
0.0
 11
405.7686312653213
 21
263.952352293224
 31
0.0
  0
SPLINE
  5
D3
330
2
100
AcDbEntity
  8
0
100
AcDbSpline
210
0.0
220
0.0
230
1.0
 70
     8
 71
     3
 72
     8
 73
     4
 74
     0
 42
0.000000001
 43
0.0000000001
 40
0.0
 40
0.0
 40
0.0
 40
0.0
 40
1.0
 40
1.0
 40
1.0
 40
1.0
 10
428.951961062842
 20
238.2505644470199
 30
0.0
 10
428.950460576457
 20
238.2464793446538
 30
0.0
 10
428.9498784330971
 20
238.2421244194546
 30
0.0
 10
428.949878433057
 20
238.2374880505226
 30
0.0
  0
LINE
  5
D4
330
2
100
AcDbEntity
  8
0
100
AcDbLine
 10
431.0388471536604
 20
247.5652503664828
 30
0.0
 11
431.0420081193235
 21
247.5672336093365
 31
0.0
  0
SPLINE
  5
D5
330
2
100
AcDbEntity
  8
0
100
AcDbSpline
210
0.0
220
0.0
230
1.0
 70
     8
 71
     3
 72
    21
 73
    17
 74
     0
 42
0.000000001
 43
0.0000000001
 40
0.0
 40
0.0
 40
0.0
 40
0.0
 40
0.125
 40
0.125
 40
0.25
 40
0.25
 40
0.375
 40
0.375
 40
0.5
 40
0.625
 40
0.625
 40
0.75
 40
0.75
 40
0.875
 40
0.875
 40
1.0
 40
1.0
 40
1.0
 40
1.0
 10
428.951961062842
 20
238.2505644470199
 30
0.0
 10
428.995914588228
 20
238.2132858516062
 30
0.0
 10
429.0423588205278
 20
238.179452025936
 30
0.0
 10
429.1421728070883
 20
238.1199893505913
 30
0.0
 10
429.1959319131934
 20
238.0942444625866
 30
0.0
 10
429.309204940742
 20
238.0532034057229
 30
0.0
 10
429.3685394955493
 20
238.0381149332346
 30
0.0
 10
429.4891853804603
 20
238.0206363136722
 30
0.0
 10
429.6117468035233
 20
238.0152573107021
 30
0.0
 10
429.730688317906
 20
238.0317588797499
 30
0.0
 10
429.8462462639967
 20
238.0564107696569
 30
0.0
 10
429.9021374566656
 20
238.0727084701002
 30
0.0
 10
430.0105306296041
 20
238.1114914662126
 30
0.0
 10
430.0631893918655
 20
238.1340284170216
 30
0.0
 10
430.1660921159981
 20
238.1839995569875
 30
0.0
 10
430.216218510116
 20
238.2114338408035
 30
0.0
 10
430.2647625215325
 20
238.2406204781698
 30
0.0
  0
LINE
  5
D6
330
2
100
AcDbEntity
  8
0
100
AcDbLine
 10
396.0450899955142
 20
263.9247747102633
 30
0.0
 11
396.0164100970141
 21
263.6264005881387
 31
0.0
  0
SPLINE
  5
D7
330
2
100
AcDbEntity
  8
0
100
AcDbSpline
210
0.0
220
0.0
230
1.0
 70
     8
 71
     3
 72
    12
 73
     8
 74
     0
 42
0.000000001
 43
0.0000000001
 40
0.0
 40
0.0
 40
0.0
 40
0.0
 40
0.2298651975538158
 40
0.5084900377558475
 40
0.6676872997159236
 40
0.8400515840248401
 40
1.0
 40
1.0
 40
1.0
 40
1.0
 10
398.0102808151977
 20
270.5924056804912
 30
0.0
 10
397.9504750789991
 20
270.6023456232534
 30
0.0
 10
397.8181774481212
 20
270.6243339969792
 30
0.0
 10
397.6466608241647
 20
270.5664463796109
 30
0.0
 10
397.515200757576
 20
270.4740142794781
 30
0.0
 10
397.4237045258076
 20
270.3770523072972
 30
0.0
 10
397.3810265544335
 20
270.2952292643912
 30
0.0
 10
397.3604848360084
 20
270.2558462793538
 30
0.0
  0
SPLINE
  5
D8
330
2
100
AcDbEntity
  8
0
100
AcDbSpline
210
0.0
220
0.0
230
1.0
 70
     8
 71
     3
 72
    34
 73
    30
 74
     0
 42
0.000000001
 43
0.0000000001
 40
0.0
 40
0.0
 40
0.0
 40
0.0
 40
0.017475550507887
 40
0.0348812362917841
 40
0.0522183156187041
 40
0.0694875407123576
 40
0.0866886888183654
 40
0.1038214341277669
 40
0.1208856412579279
 40
0.1378813739236452
 40
0.1548086914322539
 40
0.1716676194982052
 40
0.1884581311476887
 40
0.2051801853104924
 40
0.221833772803532
 40
0.2384188763673463
 40
0.2549354586319985
 40
0.3904718432355465
 40
0.5088049149926341
 40
0.6370093465106541
 40
0.7592713368730291
 40
0.7886051879497611
 40
0.8181591161277344
 40
0.8479313195875391
 40
0.8779199441948421
 40
0.9081230523332484
 40
0.9385387954811276
 40
0.9691647374521448
 40
1.0
 40
1.0
 40
1.0
 40
1.0
 10
425.6511202438823
 20
225.0331448279356
 30
0.0
 10
425.6673931225334
 20
225.0285836460985
 30
0.0
 10
425.6998738232197
 20
225.0194795173698
 30
0.0
 10
425.7484693429752
 20
225.0075121559279
 30
0.0
 10
425.796808697415
 20
224.9968059255154
 30
0.0
 10
425.8448613743072
 20
224.9874695008308
 30
0.0
 10
425.8925957590235
 20
224.9794617199091
 30
0.0
 10
425.9399801859183
 20
224.972782297837
 30
0.0
 10
425.9869840640649
 20
224.9674187786887
 30
0.0
 10
426.0335783672417
 20
224.9633587809192
 30
0.0
 10
426.0797347336381
 20
224.9605903039145
 30
0.0
 10
426.1254257182319
 20
224.9590999828854
 30
0.0
 10
426.1706247414984
 20
224.958873135239
 30
0.0
 10
426.2153058089181
 20
224.9598962244103
 30
0.0
 10
426.2594432330442
 20
224.9621533207998
 30
0.0
 10
426.3030155491668
 20
224.9656289601066
 30
0.0
 10
426.44927355069
 20
224.9815386940921
 30
0.0
 10
426.6734844223986
 20
225.0377678024604
 30
0.0
 10
426.9509039232192
 20
225.1863436652367
 30
0.0
 10
427.1735432105493
 20
225.3902303868653
 30
0.0
 10
427.3008253794277
 20
225.5865079454115
 30
0.0
 10
427.364672260758
 20
225.726978129823
 30
0.0
 10
427.3923239941971
 20
225.7982120785965
 30
0.0
 10
427.4164217029509
 20
225.8723297428519
 30
0.0
 10
427.4367868631618
 20
225.94922712051
 30
0.0
 10
427.4532803222627
 20
226.0287665403917
 30
0.0
 10
427.4656410741557
 20
226.1108368757127
 30
0.0
 10
427.4741213283461
 20
226.1951519505116
 30
0.0
 10
427.4760878690659
 20
226.2528576643435
 30
0.0
 10
427.477074488184
 20
226.2818087864449
 30
0.0
  0
SPLINE
  5
D9
330
2
100
AcDbEntity
  8
0
100
AcDbSpline
210
0.0
220
0.0
230
1.0
 70
     8
 71
     3
 72
    22
 73
    18
 74
     0
 42
0.000000001
 43
0.0000000001
 40
0.0
 40
0.0
 40
0.0
 40
0.0
 40
0.0560479305623779
 40
0.1125000725483743
 40
0.1693410776791862
 40
0.2265441902796248
 40
0.2840713368691428
 40
0.3418733765644313
 40
0.3998905138442405
 40
0.4580528746307724
 40
0.5162812457281766
 40
0.6438416672543318
 40
0.7735970217897802
 40
0.8345241170468721
 40
0.8925860012651702
 40
0.9477501217951306
 40
1.0
 40
1.0
 40
1.0
 40
1.0
 10
428.6779871662529
 20
222.2887822735292
 30
0.0
 10
428.684298463316
 20
222.3075600904277
 30
0.0
 10
428.6969665738126
 20
222.3452511477453
 30
0.0
 10
428.7169372773109
 20
222.4031057673914
 30
0.0
 10
428.7374258240936
 20
222.4623162622388
 30
0.0
 10
428.7582824559811
 20
222.5230483304115
 30
0.0
 10
428.7792437504157
 20
222.5853592104274
 30
0.0
 10
428.800066817293
 20
222.6493138687873
 30
0.0
 10
428.820491214222
 20
222.714949296101
 30
0.0
 10
428.8402690273829
 20
222.7822844664511
 30
0.0
 10
428.8665773028268
 20
222.8787166503618
 30
0.0
 10
428.897598176507
 20
223.0083750181432
 30
0.0
 10
428.9222904014665
 20
223.1465429758279
 30
0.0
 10
428.9362805341006
 20
223.2587977084703
 30
0.0
 10
428.9435478960539
 20
223.3393414169612
 30
0.0
 10
428.9482680184571
 20
223.4175218740051
 30
0.0
 10
428.9493514244415
 20
223.4697031857381
 30
0.0
 10
428.9498784305243
 20
223.49508597769
 30
0.0
  0
SPLINE
  5
DA
330
2
100
AcDbEntity
  8
0
100
AcDbSpline
210
0.0
220
0.0
230
1.0
 70
     8
 71
     3
 72
    19
 73
    15
 74
     0
 42
0.000000001
 43
0.0000000001
 40
0.0
 40
0.0
 40
0.0
 40
0.0
 40
0.0505351771279586
 40
0.100570861254471
 40
0.1501391879765946
 40
0.1992740942391105
 40
0.2480113773817224
 40
0.3714970546633216
 40
0.4980855719798692
 40
0.5991678642368468
 40
0.6996020900736571
 40
0.7996776442762066
 40
0.899702586812465
 40
1.0
 40
1.0
 40
1.0
 40
1.0
 10
426.5297378330411
 20
224.1945624968998
 30
0.0
 10
426.5265658892541
 20
224.1900432111246
 30
0.0
 10
426.5202533533804
 20
224.1810493084908
 30
0.0
 10
426.5095369008283
 20
224.1683514233312
 30
0.0
 10
426.4979686066668
 20
224.1563505498056
 30
0.0
 10
426.4854597856295
 20
224.1451160794156
 30
0.0
 10
426.4651567173285
 20
224.129279715334
 30
0.0
 10
426.4339883736615
 20
224.1105537805191
 30
0.0
 10
426.3915631519217
 20
224.0934039433073
 30
0.0
 10
426.347712856398
 20
224.0815670968737
 30
0.0
 10
426.3042166975565
 20
224.0742310676564
 30
0.0
 10
426.2578243439126
 20
224.0707693914497
 30
0.0
 10
426.2088606206674
 20
224.0709343231426
 30
0.0
 10
426.1742131647361
 20
224.0744518854612
 30
0.0
 10
426.1568658737115
 20
224.0762130588458
 30
0.0
  0
SPLINE
  5
DB
330
2
100
AcDbEntity
  8
0
100
AcDbSpline
210
0.0
220
0.0
230
1.0
 70
     8
 71
     3
 72
     8
 73
     4
 74
     0
 42
0.000000001
 43
0.0000000001
 40
0.0
 40
0.0
 40
0.0
 40
0.0
 40
1.0
 40
1.0
 40
1.0
 40
1.0
 10
426.5666263771487
 20
224.2507373999525
 30
0.0
 10
426.5541573661506
 20
224.2317210623933
 30
0.0
 10
426.5418612431567
 20
224.2130052730588
 30
0.0
 10
426.5297378330417
 20
224.1945624969011
 30
0.0
  0
SPLINE
  5
DC
330
2
100
AcDbEntity
  8
0
100
AcDbSpline
210
0.0
220
0.0
230
1.0
 70
     8
 71
     3
 72
    19
 73
    15
 74
     0
 42
0.000000001
 43
0.0000000001
 40
0.0
 40
0.0
 40
0.0
 40
0.0
 40
0.1954724188406158
 40
0.2475822089260478
 40
0.3013215774318739
 40
0.4197662907704808
 40
0.5548255591133025
 40
0.6266301508206043
 40
0.7003898496495243
 40
0.7738624969229321
 40
0.8483187001379905
 40
0.8983959827178617
 40
0.9488982698859576
 40
1.0
 40
1.0
 40
1.0
 40
1.0
 10
426.2536803416306
 20
224.68582760444
 30
0.0
 10
426.2967172496333
 20
224.6734039192296
 30
0.0
 10
426.3427807974358
 20
224.6603547363058
 30
0.0
 10
426.3887269555072
 20
224.6397671626831
 30
0.0
 10
426.4482945182621
 20
224.6025145673552
 30
0.0
 10
426.5166390209137
 20
224.5463522735991
 30
0.0
 10
426.5651193015099
 20
224.4842663060605
 30
0.0
 10
426.5909190202168
 20
224.4317134275291
 30
0.0
 10
426.6026134835605
 20
224.3917000924688
 30
0.0
 10
426.6062432163988
 20
224.352820999609
 30
0.0
 10
426.6021121694747
 20
224.3200729995304
 30
0.0
 10
426.5931981021408
 20
224.2930083732525
 30
0.0
 10
426.5821343407866
 20
224.2708874104209
 30
0.0
 10
426.5718159904138
 20
224.2574804362432
 30
0.0
 10
426.5666263771477
 20
224.2507373999499
 30
0.0
  0
LINE
  5
DD
330
2
100
AcDbEntity
  8
0
100
AcDbLine
 10
425.6511204521653
 20
225.0331442734217
 30
0.0
 11
397.8106745719097
 21
233.0699887350553
 31
0.0
  0
SPLINE
  5
DE
330
2
100
AcDbEntity
  8
0
100
AcDbSpline
210
0.0
220
0.0
230
1.0
 70
     8
 71
     3
 72
     8
 73
     4
 74
     0
 42
0.000000001
 43
0.0000000001
 40
0.0
 40
0.0
 40
0.0
 40
0.0
 40
1.0
 40
1.0
 40
1.0
 40
1.0
 10
426.1568658737107
 20
224.0762130588441
 30
0.0
 10
426.0938370318667
 20
224.0835807884321
 30
0.0
 10
426.0257739862973
 20
224.097730018363
 30
0.0
 10
425.9544195067724
 20
224.1182989752394
 30
0.0
  0
LWPOLYLINE
  5
DF
330
2
100
AcDbEntity
  8
0
100
AcDbPolyline
 90
        3
 70
   128
 43
0.0
 10
429.9532411601131
 20
226.3653899581612
 10
429.9535056393215
 20
226.3653810798728
 10
429.9550528821554
 20
226.3657063483061
  0
SPLINE
  5
E0
330
2
100
AcDbEntity
  8
0
100
AcDbSpline
210
0.0
220
0.0
230
1.0
 70
     8
 71
     3
 72
    10
 73
     6
 74
     0
 42
0.000000001
 43
0.0000000001
 40
0.0
 40
0.0
 40
0.0
 40
0.0
 40
0.4816488859447426
 40
0.8981372175113387
 40
1.0
 40
1.0
 40
1.0
 40
1.0
 10
428.6779079423598
 20
222.2897255291739
 30
0.0
 10
428.6621160106225
 20
222.2453920707924
 30
0.0
 10
428.6326685810869
 20
222.1627228689832
 30
0.0
 10
428.6157683130305
 20
222.1150675655181
 30
0.0
 10
428.6015107173644
 20
222.1224601252221
 30
0.0
 10
428.5987089130918
 20
222.1239128600205
 30
0.0
  0
SPLINE
  5
E1
330
2
100
AcDbEntity
  8
0
100
AcDbSpline
210
0.0
220
0.0
230
1.0
 70
     8
 71
     3
 72
    32
 73
    28
 74
     0
 42
0.000000001
 43
0.0000000001
 40
0.0
 40
0.0
 40
0.0
 40
0.0
 40
0.0167375792852025
 40
0.0337717741516771
 40
0.0511031132401036
 40
0.0687318662846964
 40
0.0866578733803034
 40
0.1048809309780427
 40
0.1234008828054167
 40
0.1422176403553305
 40
0.1613310258288651
 40
0.1807407271029272
 40
0.2004465357184463
 40
0.2204480687715414
 40
0.2407450693260204
 40
0.3566786378241436
 40
0.4912084992867294
 40
0.6109909647456341
 40
0.7450809601284968
 40
0.7762761226219228
 40
0.8076628299657679
 40
0.8392409559915252
 40
0.8710103060925925
 40
0.9029710260147679
 40
0.9351231667196302
 40
0.9674652279065879
 40
1.0
 40
1.0
 40
1.0
 40
1.0
 10
396.0164104547506
 20
235.3637202107384
 30
0.0
 10
396.0163445579405
 20
235.3478687221311
 30
0.0
 10
396.0162115965279
 20
235.3158848322214
 30
0.0
 10
396.0177592614333
 20
235.2670569402998
 30
0.0
 10
396.0206524900607
 20
235.2171028986666
 30
0.0
 10
396.0250824891129
 20
235.1660162273158
 30
0.0
 10
396.031078003209
 20
235.1138387020319
 30
0.0
 10
396.0387115363683
 20
235.0606050004996
 30
0.0
 10
396.0480413288587
 20
235.006356902688
 30
0.0
 10
396.0591274068253
 20
234.9511396525344
 30
0.0
 10
396.0720269663926
 20
234.8950035029568
 30
0.0
 10
396.0867951514989
 20
234.8380029519473
 30
0.0
 10
396.1034847286675
 20
234.7801980781005
 30
0.0
 10
396.1221462978902
 20
234.7216497385588
 30
0.0
 10
396.1751955113717
 20
234.5697220655069
 30
0.0
 10
396.2930726769763
 20
234.3097429386998
 30
0.0
 10
396.5118182732171
 20
233.9760596271801
 30
0.0
 10
396.7916652116901
 20
233.6631319463999
 30
0.0
 10
397.0270157315201
 20
233.4679780672575
 30
0.0
 10
397.1978333742876
 20
233.3527943122705
 30
0.0
 10
397.2810661607402
 20
233.3011865073546
 30
0.0
 10
397.3660520361697
 20
233.252990220123
 30
0.0
 10
397.4526211707928
 20
233.2083819065692
 30
0.0
 10
397.5405852349403
 20
233.1675089972049
 30
0.0
 10
397.6297490609227
 20
233.1306519224242
 30
0.0
 10
397.7199063834221
 20
233.0975590408626
 30
0.0
 10
397.7803587917592
 20
233.0791973071527
 30
0.0
 10
397.8106747801991
 20
233.0699891693433
 30
0.0
  0
LINE
  5
E2
330
2
100
AcDbEntity
  8
0
100
AcDbLine
 10
431.7694208218761
 20
247.4462106125136
 30
0.0
 11
431.972110282679
 21
247.3906791117707
 31
0.0
  0
LINE
  5
E3
330
2
100
AcDbEntity
  8
0
100
AcDbLine
 10
434.4236294695666
 20
243.1683900897281
 30
0.0
 11
434.4353766743882
 21
243.1653236433835
 31
0.0
  0
LWPOLYLINE
  5
E4
330
2
100
AcDbEntity
  8
0
100
AcDbPolyline
 90
       12
 70
   128
 43
0.0
 10
437.7788669977694
 20
248.2586925771115
 10
437.5999797387791
 20
248.585895410246
 10
437.3954427465366
 20
248.8592494744874
 10
437.1671091158337
 20
249.0762797887488
 10
436.9170466678426
 20
249.2350210755253
 10
436.6475195286664
 20
249.3340352719975
 10
436.360968556248
 20
249.3724257389559
 10
436.0599894649922
 20
249.3498452375526
 10
435.7473069202106
 20
249.2664971753658
 10
435.4257538138482
 20
249.1231378503481
 10
435.0982413296802
 20
248.9210647345713
 10
434.7677359160559
 20
248.6621077497732
  0
LINE
  5
E5
330
2
100
AcDbEntity
  8
0
100
AcDbLine
 10
444.6264022479594
 20
233.646225832951
 30
0.0
 11
437.7788669977694
 21
248.2586925771115
 31
0.0
  0
LINE
  5
E6
330
2
100
AcDbEntity
  8
0
100
AcDbLine
 10
434.8070273974694
 20
239.9973116269404
 30
0.0
 11
439.7586659182023
 21
229.4306425124426
 31
0.0
  0
LWPOLYLINE
  5
E7
330
2
100
AcDbEntity
  8
0
100
AcDbPolyline
 90
        9
 70
   128
 43
0.0
 10
434.1378874769169
 20
240.0869598447487
 10
434.2387392391737
 20
240.1628508698357
 10
434.3378657062871
 20
240.2145450997525
 10
434.4335703668144
 20
240.2411581096001
 10
434.5242154280494
 20
240.2422339769482
 10
434.6082511755068
 20
240.2177552525828
 10
434.6842378482229
 20
240.1681397200616
 10
434.7508773012965
 20
240.0942374043739
 10
434.8070273974694
 20
239.9973116269404
  0
LINE
  5
E8
330
2
100
AcDbEntity
  8
0
100
AcDbLine
 10
432.2660110353249
 20
238.4658672935552
 30
0.0
 11
434.1378874769169
 21
240.0869598447487
 31
0.0
  0
LWPOLYLINE
  5
E9
330
2
100
AcDbEntity
  8
0
100
AcDbPolyline
 90
       30
 70
   128
 43
0.0
 10
432.2660110353249
 20
246.4955504497905
 10
432.0153942132261
 20
246.2549749429507
 10
431.767715919375
 20
245.9701495302334
 10
431.5258795657791
 20
245.644413737942
 10
431.2927206351016
 20
245.2815861971362
 10
431.0709725717335
 20
244.8859211456134
 10
430.8632354073756
 20
244.462057077303
 10
430.6719442433695
 20
244.0149635221398
 10
430.4993421937306
 20
243.5498822176114
 10
430.3474527527829
 20
243.072265787172
 10
430.2180566241135
 20
242.5877140504654
 10
430.1126708529714
 20
242.1019077168676
 10
430.032531051765
 20
241.6205423897163
 10
429.9785767923703
 20
241.1492618233022
 10
429.9514405247661
 20
240.6935911643317
 10
429.9514405247661
 20
240.2588728569678
 10
429.9785767923703
 20
239.8502035921936
 10
430.032531051765
 20
239.4723745443674
 10
430.1126708529714
 20
239.1298154246996
 10
430.2180566241135
 20
238.8265426011467
 10
430.3474527527829
 20
238.5661115335131
 10
430.4993421937306
 20
238.3515753320124
 10
430.6719442433695
 20
238.1854495469184
 10
430.8632354073756
 20
238.0696820068314
 10
431.0709725717335
 20
238.0056292617675
 10
431.2927206351016
 20
237.9940431225536
 10
431.5258795657791
 20
238.0350586959295
 10
431.767715919375
 20
238.1281957550868
 10
432.0153942132261
 20
238.2723617313178
 10
432.2660110353249
 20
238.4658672935552
  0
LINE
  5
EA
330
2
100
AcDbEntity
  8
0
100
AcDbLine
 10
434.7677359160559
 20
248.6621077497732
 30
0.0
 11
432.2660110353249
 21
246.4955504497905
 31
0.0
  0
LWPOLYLINE
  5
EB
330
2
100
AcDbEntity
  8
0
100
AcDbPolyline
 90
       25
 70
   128
 43
0.0
 10
431.7306997223085
 20
246.6500815150868
 10
431.4800829002098
 20
246.409506008247
 10
431.2324046063587
 20
246.1246805956069
 10
430.9905682527628
 20
245.7989448033154
 10
430.7574093220854
 20
245.4361172625096
 10
430.53566125864
 20
245.040452210987
 10
430.3279240943593
 20
244.6165881425992
 10
430.1366329303532
 20
244.1694945875133
 10
429.9640308807144
 20
243.7044132829849
 10
429.8121414396895
 20
243.2267968524683
 10
429.6827453110974
 20
242.7422451158388
 10
429.5773595399553
 20
242.2564387822411
 10
429.4972197386716
 20
241.7750734550125
 10
429.4432654793539
 20
241.3037928886757
 10
429.4161292117498
 20
240.8481222297052
 10
429.4161292117498
 20
240.4134039223413
 10
429.4432654793539
 20
240.0047346575671
 10
429.4972197386716
 20
239.6269056097409
 10
429.5773595399553
 20
239.2843464900732
 10
429.6827453110974
 20
238.981073666443
 10
429.8121414396895
 20
238.7206425988093
 10
429.9640308807144
 20
238.5061063973086
 10
430.1366329303532
 20
238.3399806122919
 10
430.3279240943593
 20
238.2242130722048
 10
430.444921355116
 20
238.1811730185951
  0
LINE
  5
EC
330
2
100
AcDbEntity
  8
0
100
AcDbLine
 10
434.2324246030397
 20
248.8166388151467
 30
0.0
 11
431.7306997223085
 21
246.6500815150868
 31
0.0
  0
LWPOLYLINE
  5
ED
330
2
100
AcDbEntity
  8
0
100
AcDbPolyline
 90
        8
 70
   128
 43
0.0
 10
434.2324246030397
 20
248.8166388151467
 10
434.5629300166639
 20
249.0755957998676
 10
434.8904425008321
 20
249.2776689156444
 10
435.2119956071943
 20
249.421028240662
 10
435.524678151976
 20
249.5043763028489
 10
435.825657243232
 20
249.5269568043294
 10
436.1122082156502
 20
249.4885663373711
 10
436.1610921538284
 20
249.4754767009787
  0
LINE
  5
EE
330
2
100
AcDbEntity
  8
0
100
AcDbLine
 10
434.2717160844531
 20
240.1518426923138
 30
0.0
 11
434.2599141906083
 21
240.1758418130957
 31
0.0
  0
LINE
  5
EF
330
2
100
AcDbEntity
  8
0
100
AcDbLine
 10
434.2717160844531
 20
240.1518426923138
 30
0.0
 11
439.2233546051861
 21
229.5851735778161
 31
0.0
  0
SPLINE
  5
F0
330
2
100
AcDbEntity
  8
0
100
AcDbSpline
210
0.0
220
0.0
230
1.0
 70
     8
 71
     3
 72
    11
 73
     7
 74
     0
 42
0.000000001
 43
0.0000000001
 40
0.0
 40
0.0
 40
0.0
 40
0.0
 40
0.2499998895081078
 40
0.5000004305884794
 40
0.7500001240234364
 40
1.0
 40
1.0
 40
1.0
 40
1.0
 10
439.2233546051861
 20
229.5851735777846
 30
0.0
 10
439.2533671542969
 20
229.4770642202595
 30
0.0
 10
439.3133923307403
 20
229.2608452234447
 30
0.0
 10
439.2149531436636
 20
229.0451983442724
 30
0.0
 10
439.0091094944314
 20
228.9470171867395
 30
0.0
 10
438.809679642209
 20
229.0145301340456
 30
0.0
 10
438.7099646796936
 20
229.0482866200226
 30
0.0
  0
SPLINE
  5
F1
330
2
100
AcDbEntity
  8
0
100
AcDbSpline
210
0.0
220
0.0
230
1.0
 70
     8
 71
     3
 72
    15
 73
    11
 74
     0
 42
0.000000001
 43
0.0000000001
 40
0.0
 40
0.0
 40
0.0
 40
0.0
 40
0.1250000881271769
 40
0.2499996612589501
 40
0.3749998014641317
 40
0.4999999531117695
 40
0.6249998305732522
 40
0.7499999737872072
 40
0.8750001621541242
 40
1.0
 40
1.0
 40
1.0
 40
1.0
 10
439.7586659182109
 20
229.4306425124471
 30
0.0
 10
439.776759934945
 20
229.3398724848556
 30
0.0
 10
439.8129478938665
 20
229.1583328036416
 30
0.0
 10
439.7898305124709
 20
228.9195306285315
 30
0.0
 10
439.7133353198717
 20
228.718072091866
 30
0.0
 10
439.5827310355263
 20
228.5643387329453
 30
0.0
 10
439.4062215380759
 20
228.464588060726
 30
0.0
 10
439.1913915417581
 20
228.4258068708406
 30
0.0
 10
438.948431850121
 20
228.4455249775072
 30
0.0
 10
438.7729264126683
 20
228.5129292370979
 30
0.0
 10
438.6851738169787
 20
228.54663131964
 30
0.0
  0
SPLINE
  5
F2
330
2
100
AcDbEntity
  8
0
100
AcDbSpline
210
0.0
220
0.0
230
1.0
 70
     8
 71
     3
 72
     9
 73
     5
 74
     0
 42
0.000000001
 43
0.0000000001
 40
0.0
 40
0.0
 40
0.0
 40
0.0
 40
0.5622684775873991
 40
1.0
 40
1.0
 40
1.0
 40
1.0
 10
438.6851738169787
 20
228.54663131964
 30
0.0
 10
438.6522645488557
 20
228.5612170510794
 30
0.0
 10
438.5937350928487
 20
228.5871579174464
 30
0.0
 10
438.5266016235921
 20
228.6155929890686
 30
0.0
 10
438.4972151878897
 20
228.6280399162596
 30
0.0
  0
SPLINE
  5
F3
330
2
100
AcDbEntity
  8
0
100
AcDbSpline
210
0.0
220
0.0
230
1.0
 70
     8
 71
     3
 72
    11
 73
     7
 74
     0
 42
0.000000001
 43
0.0000000001
 40
0.0
 40
0.0
 40
0.0
 40
0.0
 40
0.2542012391675069
 40
0.5084009469961929
 40
0.7626013239854597
 40
1.0
 40
1.0
 40
1.0
 40
1.0
 10
444.6264022479447
 20
233.646225832921
 30
0.0
 10
444.6445512913757
 20
233.5553942050091
 30
0.0
 10
444.6808492689057
 20
233.3737314963661
 30
0.0
 10
444.6569135183858
 20
233.1358597251833
 30
0.0
 10
444.5851439136404
 20
232.9353805322595
 30
0.0
 10
444.4949254200383
 20
232.8434214923845
 30
0.0
 10
444.4513579013413
 20
232.7990134444428
 30
0.0
  0
LINE
  5
F4
330
2
100
AcDbEntity
  8
0
100
AcDbLine
 10
438.4862578078716
 20
229.1538618598748
 30
0.0
 11
438.709964679677
 21
229.0482866200351
 31
0.0
  0
SPLINE
  5
F5
330
2
100
AcDbEntity
  8
0
100
AcDbSpline
210
0.0
220
0.0
230
1.0
 70
     8
 71
     3
 72
     9
 73
     5
 74
     0
 42
0.000000001
 43
0.0000000001
 40
0.0
 40
0.0
 40
0.0
 40
0.0
 40
0.5594801028669398
 40
1.0
 40
1.0
 40
1.0
 40
1.0
 10
438.4972151878897
 20
228.6280399162596
 30
0.0
 10
438.4565767515737
 20
228.6443583860999
 30
0.0
 10
438.3839406808579
 20
228.6735255892884
 30
0.0
 10
438.3042182830739
 20
228.697593856639
 30
0.0
 10
438.2690989806029
 20
228.7081964072964
 30
0.0
  0
LINE
  5
F6
330
2
100
AcDbEntity
  8
0
100
AcDbLine
 10
438.1736080253539
 20
229.2710735846942
 30
0.0
 11
438.4862578078716
 21
229.1538618598748
 31
0.0
  0
LWPOLYLINE
  5
F7
330
2
100
AcDbEntity
  8
0
100
AcDbPolyline
 90
       18
 70
   128
 43
0.0
 10
432.4359147435226
 20
238.6130071561923
 10
432.5929461437064
 20
238.5170448538495
 10
433.0321351028066
 20
238.2195057860281
 10
433.4256252505967
 20
237.9063879353041
 10
433.7712152903976
 20
237.5794421802549
 10
434.0669743927507
 20
237.2404981987679
 10
434.3112494365239
 20
236.8914517419993
 10
434.5026702561773
 20
236.5342524840397
 10
434.6401708894346
 20
236.1709005473541
 10
434.7229794764202
 20
235.8034268171909
 10
434.750633406356
 20
235.4338859109469
 10
434.7229790807427
 20
235.064345610234
 10
434.6401712135641
 20
234.6968724390105
 10
434.5026714430551
 20
234.3335200993845
 10
434.3112489017682
 20
233.9763213298984
 10
434.0669743772976
 20
233.6272736378064
 10
433.7712150897387
 20
233.2883301710633
 10
433.4256252084869
 20
232.9613851729857
  0
LWPOLYLINE
  5
F8
330
2
100
AcDbEntity
  8
0
100
AcDbPolyline
 90
       13
 70
   128
 43
0.0
 10
431.1634092011125
 20
237.0774273400172
 10
431.3030638866496
 20
236.9359643552293
 10
431.5403788170868
 20
236.6495014002239
 10
431.7268557243131
 20
236.3537864562021
 10
431.8610769962624
 20
236.0510700577738
 10
431.942020765632
 20
235.7436573395615
 10
431.9690707152044
 20
235.43388659328
 10
431.9420209219404
 20
235.1241159040978
 10
431.8610775311726
 20
234.8167027253822
 10
431.72685560007
 20
234.5139861775221
 10
431.5403787423709
 20
234.2182711969536
 10
431.3030642324906
 20
233.9318075763818
 10
431.016719812981
 20
233.656776262255
  0
LWPOLYLINE
  5
F9
330
2
100
AcDbEntity
  8
0
100
AcDbPolyline
 90
       12
 70
   128
 43
0.0
 10
433.4256252084869
 20
232.9613851729857
 10
433.2547243072352
 20
232.8437727870661
 10
433.0386530814609
 20
232.7464973692136
 10
432.7868537516446
 20
232.6738088736946
 10
432.5103312427328
 20
232.6288852820803
 10
432.2211722883633
 20
232.6136895796352
 10
431.9320122913709
 20
232.6288856861024
 10
431.6554902528526
 20
232.6738096788801
 10
431.4036914254177
 20
232.7464977392389
 10
431.1876197682691
 20
232.8437732978693
 10
431.0167198398693
 20
232.961385052374
 10
430.9378517022257
 20
233.0410493200429
  0
LINE
  5
FA
330
2
100
AcDbEntity
  8
0
100
AcDbLine
 10
430.9697864008245
 20
233.6125224100335
 30
0.0
 11
431.016719812981
 21
233.656776262255
 31
0.0
  0
LWPOLYLINE
  5
FB
330
2
100
AcDbEntity
  8
0
100
AcDbPolyline
 90
        3
 70
   128
 43
0.0
 10
433.8949502773746
 20
239.8765689935585
 10
434.1862222362536
 20
239.7234656575717
 10
434.5766901928444
 20
239.5010360514759
  0
LINE
  5
FC
330
2
100
AcDbEntity
  8
0
100
AcDbLine
 10
438.1736080253539
 20
229.2710735846942
 30
0.0
 11
430.8453958685432
 21
231.3865462154044
 31
0.0
  0
LINE
  5
FD
330
2
100
AcDbEntity
  8
0
100
AcDbLine
 10
438.2690989805674
 20
228.7081964072915
 30
0.0
 11
430.8159565880314
 21
230.8597332906414
 31
0.0
  0
LINE
  5
FE
330
2
100
AcDbEntity
  8
0
100
AcDbLine
 10
431.016719812981
 20
233.1214649492387
 30
0.0
 11
431.016719812981
 21
233.656776262255
 31
0.0
  0
LINE
  5
FF
330
2
100
AcDbEntity
  8
0
100
AcDbLine
 10
430.9378968475486
 20
233.0418545717434
 30
0.0
 11
431.016719812981
 21
233.1214649492387
 31
0.0
  0
LWPOLYLINE
  5
100
330
2
100
AcDbEntity
  8
0
100
AcDbPolyline
 90
       12
 70
   128
 43
0.0
 10
432.0484445088682
 20
238.2951733143873
 10
432.1105160468742
 20
238.2620311321769
 10
432.5929461437064
 20
237.9817335408333
 10
433.0321351028066
 20
237.6841944730119
 10
433.4256252505967
 20
237.3710766222879
 10
433.7712152903976
 20
237.0441308672387
 10
434.0669743927507
 20
236.7051868857517
 10
434.3112494365239
 20
236.3561404289831
 10
434.5026702561773
 20
235.9989411710235
 10
434.6401708894346
 20
235.6355892343379
 10
434.7229794764202
 20
235.2681155041747
 10
434.7361360169963
 20
235.1662311400965
  0
ARC
  5
101
330
2
100
AcDbEntity
  8
0
100
AcDbCircle
 10
429.5550147218521
 20
235.0485275448422
 30
0.0
 40
2.418708750681919
100
AcDbArc
 50
307.1808477053987
 51
356.4455640911999
  0
LINE
  5
102
330
2
100
AcDbEntity
  8
0
100
AcDbLine
 10
422.4033985047413
 20
264.063727235812
 30
0.0
 11
422.4033985047413
 21
264.0119001427956
 31
0.0
  0
ARC
  5
103
330
2
100
AcDbEntity
  8
0
100
AcDbCircle
 10
430.48605966554
 20
247.6451320700064
 30
0.0
 40
0.284497299464351
100
AcDbArc
 50
352.4002486108009
 51
56.19887108879954
  0
ARC
  5
104
330
2
100
AcDbEntity
  8
0
100
AcDbCircle
 10
431.8483634660197
 20
245.7981467927213
 30
0.0
 40
1.975876628444562
100
AcDbArc
 50
117.5438224245012
 51
119.8751911184003
  0
LWPOLYLINE
  5
105
330
2
100
AcDbEntity
  8
0
100
AcDbPolyline
 90
        9
 70
   128
 43
0.0
 10
428.2790453428071
 20
239.5695100707264
 10
428.3281645877698
 20
239.4185083733153
 10
428.4512278700244
 20
239.130305669465
 10
428.5985722923478
 20
238.8889210809431
 10
428.7684162876318
 20
238.6972731098961
 10
428.9587060665354
 20
238.5576789467081
 10
429.1671409478742
 20
238.4718269254106
 10
429.3912003426487
 20
238.4407547744017
 10
429.522507133434
 20
238.4474509020248
  0
SPLINE
  5
106
330
2
100
AcDbEntity
  8
0
100
AcDbSpline
210
0.0
220
0.0
230
1.0
 70
     8
 71
     3
 72
    17
 73
    13
 74
     0
 42
0.000000001
 43
0.0000000001
 40
0.0
 40
0.0
 40
0.0
 40
0.0
 40
0.097620389504583
 40
0.1933179394400332
 40
0.2870908382024091
 40
0.3911744766902118
 40
0.4866212538567878
 40
0.5734277525951386
 40
0.7179001804083604
 40
0.8556757057300741
 40
0.9891860161975671
 40
1.0
 40
1.0
 40
1.0
 40
1.0
 10
397.8106745718763
 20
264.8476205563765
 30
0.0
 10
397.7299138069279
 20
264.8677440122914
 30
0.0
 10
397.5699830307172
 20
264.9075945501924
 30
0.0
 10
397.3368127659059
 20
264.9264930724657
 30
0.0
 10
397.1066551168552
 20
264.9157773069483
 30
0.0
 10
396.8892187438963
 20
264.8708161384292
 30
0.0
 10
396.6933969268103
 20
264.7948629322582
 30
0.0
 10
396.4912384337738
 20
264.6758894863221
 30
0.0
 10
396.2950891152014
 20
264.4981512491276
 30
0.0
 10
396.1389067159208
 20
264.2419121234413
 30
0.0
 10
396.0559435528447
 20
264.0470966108042
 30
0.0
 10
396.0458465476668
 20
263.9333012136261
 30
0.0
 10
396.0450899955492
 20
263.9247747102533
 30
0.0
  0
ARC
  5
107
330
2
100
AcDbEntity
  8
0
100
AcDbCircle
 10
419.9167382583762
 20
229.3148404983581
 30
0.0
 40
2.379147239032378
100
AcDbArc
 50
182.7632224255989
 51
252.8590425800972
  0
LINE
  5
108
330
2
100
AcDbEntity
  8
0
100
AcDbLine
 10
417.4505108325613
 20
257.8653035784226
 30
0.0
 11
417.4505108325613
 21
228.690768825428
 31
0.0
  0
LINE
  5
109
330
2
100
AcDbEntity
  8
0
100
AcDbLine
 10
416.6980842027079
 20
258.0825104370057
 30
0.0
 11
416.7267208392845
 21
258.2182146420308
 31
0.0
  0
LINE
  5
10A
330
2
100
AcDbEntity
  8
0
100
AcDbLine
 10
416.7267208392845
 20
258.2182146420308
 30
0.0
 11
416.8082744307282
 21
258.3167248436924
 31
0.0
  0
LINE
  5
10B
330
2
100
AcDbEntity
  8
0
100
AcDbLine
 10
416.8082744307282
 20
258.3167248436924
 30
0.0
 11
416.930326129114
 21
258.363044147448
 31
0.0
  0
LINE
  5
10C
330
2
100
AcDbEntity
  8
0
100
AcDbLine
 10
416.930326129114
 20
258.363044147448
 30
0.0
 11
417.0742970189624
 21
258.3501209651827
 31
0.0
  0
LINE
  5
10D
330
2
100
AcDbEntity
  8
0
100
AcDbLine
 10
417.0742970189624
 20
258.3501209651827
 30
0.0
 11
417.2182679091198
 21
258.279922515382
 31
0.0
  0
LINE
  5
10E
330
2
100
AcDbEntity
  8
0
100
AcDbLine
 10
417.2182679091198
 20
258.279922515382
 30
0.0
 11
417.340320604542
 21
258.1631363425859
 31
0.0
  0
LINE
  5
10F
330
2
100
AcDbEntity
  8
0
100
AcDbLine
 10
417.340320604542
 20
258.1631363425859
 30
0.0
 11
417.4218731989483
 21
258.0175414411406
 31
0.0
  0
LINE
  5
110
330
2
100
AcDbEntity
  8
0
100
AcDbLine
 10
417.4218731989483
 20
258.0175414411406
 30
0.0
 11
417.4505108325613
 21
257.8653035784226
 31
0.0
  0
LINE
  5
111
330
2
100
AcDbEntity
  8
0
100
AcDbLine
 10
416.6980842027079
 20
228.9079756843202
 30
0.0
 11
416.6980842027079
 21
258.0825104370057
 31
0.0
  0
LINE
  5
112
330
2
100
AcDbEntity
  8
0
100
AcDbLine
 10
417.4505108325613
 20
228.690768825428
 30
0.0
 11
417.4218731989483
 21
228.5550649081407
 31
0.0
  0
LINE
  5
113
330
2
100
AcDbEntity
  8
0
100
AcDbLine
 10
417.4218731989483
 20
228.5550649081407
 30
0.0
 11
417.340320604542
 21
228.4565544190512
 31
0.0
  0
LINE
  5
114
330
2
100
AcDbEntity
  8
0
100
AcDbLine
 10
417.340320604542
 20
228.4565544190512
 30
0.0
 11
417.2182679091198
 21
228.4102354030328
 31
0.0
  0
LINE
  5
115
330
2
100
AcDbEntity
  8
0
100
AcDbLine
 10
417.2182679091198
 20
228.4102354030328
 30
0.0
 11
417.0742970189624
 21
228.4231585852981
 31
0.0
  0
LINE
  5
116
330
2
100
AcDbEntity
  8
0
100
AcDbLine
 10
417.0742970189624
 20
228.4231585852981
 30
0.0
 11
416.930326129114
 21
228.4933570350985
 31
0.0
  0
LINE
  5
117
330
2
100
AcDbEntity
  8
0
100
AcDbLine
 10
416.930326129114
 20
228.4933570350985
 30
0.0
 11
416.8082744307282
 21
228.6101429198478
 31
0.0
  0
LINE
  5
118
330
2
100
AcDbEntity
  8
0
100
AcDbLine
 10
416.8082744307282
 20
228.6101429198478
 30
0.0
 11
416.7267208392845
 21
228.75573810934
 31
0.0
  0
LINE
  5
119
330
2
100
AcDbEntity
  8
0
100
AcDbLine
 10
416.7267208392845
 20
228.75573810934
 30
0.0
 11
416.6980842027079
 21
228.9079756843202
 31
0.0
  0
ARC
  5
11A
330
2
100
AcDbEntity
  8
0
100
AcDbCircle
 10
424.9138694041809
 20
254.3439666357389
 30
0.0
 40
1.564039184289688
100
AcDbArc
 50
2.830928776799681
 51
72.79129716839264
  0
LINE
  5
11B
330
2
100
AcDbEntity
  8
0
100
AcDbLine
 10
417.8534391169627
 20
229.0677539041602
 30
0.0
 11
417.8474691833381
 21
229.200708252363
 31
0.0
  0
LINE
  5
11C
330
2
100
AcDbEntity
  8
0
100
AcDbLine
 10
418.9528440876582
 20
257.6923664095689
 30
0.0
 11
425.3765953185667
 21
255.8379891583741
 31
0.0
  0
LINE
  5
11D
330
2
100
AcDbEntity
  8
0
100
AcDbLine
 10
426.4759998698653
 20
254.421212853329
 30
0.0
 11
426.4759998698653
 21
226.3173034301413
 31
0.0
  0
ARC
  5
11E
330
2
100
AcDbEntity
  8
0
100
AcDbCircle
 10
418.6589201203038
 20
256.9417688690463
 30
0.0
 40
0.8060942665933465
100
AcDbArc
 50
68.61535273919288
 51
182.2350630238959
  0
LINE
  5
11F
330
2
100
AcDbEntity
  8
0
100
AcDbLine
 10
417.8534391002728
 20
255.9735348296051
 30
0.0
 11
417.8534391002728
 21
256.910331744043
 31
0.0
  0
LINE
  5
120
330
2
100
AcDbEntity
  8
0
100
AcDbLine
 10
417.8534391002728
 20
228.8064213238185
 30
0.0
 11
417.8534391002728
 21
255.9735348296051
 31
0.0
  0
ARC
  5
121
330
2
100
AcDbEntity
  8
0
100
AcDbCircle
 10
425.670518570133
 20
226.2858667415346
 30
0.0
 40
0.8060945290493435
100
AcDbArc
 50
248.6154146923932
 51
2.235031262597295
  0
LINE
  5
122
330
2
100
AcDbEntity
  8
0
100
AcDbLine
 10
425.3765953185667
 20
225.5352686385179
 30
0.0
 11
418.9528440876582
 21
227.3896458897127
 31
0.0
  0
ARC
  5
123
330
2
100
AcDbEntity
  8
0
100
AcDbCircle
 10
419.4155689543223
 20
228.8836681277009
 30
0.0
 40
1.564038602377896
100
AcDbArc
 50
182.8309513434962
 51
252.7913307512937
  0
ARC
  5
124
330
2
100
AcDbEntity
  8
0
100
AcDbCircle
 10
424.9381097927869
 20
254.3678125396007
 30
0.0
 40
2.379144527432676
100
AcDbArc
 50
2.763176137199722
 51
72.85906323360119
  0
LINE
  5
125
330
2
100
AcDbEntity
  8
0
100
AcDbLine
 10
425.6392987537176
 20
256.6412818541841
 30
0.0
 11
419.2155475228085
 21
258.4956591053789
 31
0.0
  0
ARC
  5
126
330
2
100
AcDbEntity
  8
0
100
AcDbCircle
 10
418.7698253528892
 20
257.348951125257
 30
0.0
 40
1.230287545412789
100
AcDbArc
 50
68.75903575969705
 51
182.0913482619002
  0
LINE
  5
127
330
2
100
AcDbEntity
  8
0
100
AcDbLine
 10
417.5403572827436
 20
257.3040544774083
 30
0.0
 11
417.5403572827436
 21
229.2001450545297
 31
0.0
  0
ARC
  5
128
330
2
100
AcDbEntity
  8
0
100
AcDbCircle
 10
419.9167368901558
 20
229.3148394339456
 30
0.0
 40
2.379145821335161
100
AcDbArc
 50
182.7631984015015
 51
252.8590625988027
  0
LINE
  5
129
330
2
100
AcDbEntity
  8
0
100
AcDbLine
 10
419.2155475228085
 20
227.0413688908369
 30
0.0
 11
425.6392987537176
 21
225.1869916396425
 31
0.0
  0
ARC
  5
12A
330
2
100
AcDbEntity
  8
0
100
AcDbCircle
 10
426.0850204445895
 20
226.3336994340176
 30
0.0
 40
1.230287198892497
100
AcDbArc
 50
248.7590534155913
 51
2.091368819802074
  0
LINE
  5
12B
330
2
100
AcDbEntity
  8
0
100
AcDbLine
 10
427.3144881522033
 20
226.3785965102274
 30
0.0
 11
427.3144881522033
 21
254.4825059331058
 31
0.0
  0
ARC
  5
12C
330
2
100
AcDbEntity
  8
0
100
AcDbCircle
 10
409.2104935516473
 20
232.4054671300504
 30
0.0
 40
2.379147239032378
100
AcDbArc
 50
182.7632224255989
 51
252.8590425800972
  0
LINE
  5
12D
330
2
100
AcDbEntity
  8
0
100
AcDbLine
 10
406.7442661258324
 20
260.955930210115
 30
0.0
 11
406.7442661258324
 21
231.7813954571203
 31
0.0
  0
LINE
  5
12E
330
2
100
AcDbEntity
  8
0
100
AcDbLine
 10
405.9918394959789
 20
261.173137068698
 30
0.0
 11
406.0204761325556
 21
261.3088412737231
 31
0.0
  0
LINE
  5
12F
330
2
100
AcDbEntity
  8
0
100
AcDbLine
 10
406.0204761325556
 20
261.3088412737231
 30
0.0
 11
406.1020297239992
 21
261.4073514753846
 31
0.0
  0
LINE
  5
130
330
2
100
AcDbEntity
  8
0
100
AcDbLine
 10
406.1020297239992
 20
261.4073514753846
 30
0.0
 11
406.2240814223851
 21
261.4536707791403
 31
0.0
  0
LINE
  5
131
330
2
100
AcDbEntity
  8
0
100
AcDbLine
 10
406.2240814223851
 20
261.4536707791403
 30
0.0
 11
406.3680523122335
 21
261.440747596875
 31
0.0
  0
LINE
  5
132
330
2
100
AcDbEntity
  8
0
100
AcDbLine
 10
406.3680523122335
 20
261.440747596875
 30
0.0
 11
406.5120232023909
 21
261.3705491470744
 31
0.0
  0
LINE
  5
133
330
2
100
AcDbEntity
  8
0
100
AcDbLine
 10
406.5120232023909
 20
261.3705491470744
 30
0.0
 11
406.6340758978131
 21
261.2537629742782
 31
0.0
  0
LINE
  5
134
330
2
100
AcDbEntity
  8
0
100
AcDbLine
 10
406.6340758978131
 20
261.2537629742782
 30
0.0
 11
406.7156284922195
 21
261.1081680728328
 31
0.0
  0
LINE
  5
135
330
2
100
AcDbEntity
  8
0
100
AcDbLine
 10
406.7156284922195
 20
261.1081680728328
 30
0.0
 11
406.7442661258324
 21
260.955930210115
 31
0.0
  0
LINE
  5
136
330
2
100
AcDbEntity
  8
0
100
AcDbLine
 10
405.9918394959789
 20
231.9986023160125
 30
0.0
 11
405.9918394959789
 21
261.173137068698
 31
0.0
  0
LINE
  5
137
330
2
100
AcDbEntity
  8
0
100
AcDbLine
 10
406.7442661258324
 20
231.7813954571203
 30
0.0
 11
406.7156284922195
 21
231.645691539833
 31
0.0
  0
LINE
  5
138
330
2
100
AcDbEntity
  8
0
100
AcDbLine
 10
406.7156284922195
 20
231.645691539833
 30
0.0
 11
406.6340758978131
 21
231.5471810507435
 31
0.0
  0
LINE
  5
139
330
2
100
AcDbEntity
  8
0
100
AcDbLine
 10
406.6340758978131
 20
231.5471810507435
 30
0.0
 11
406.5120232023909
 21
231.5008620347251
 31
0.0
  0
LINE
  5
13A
330
2
100
AcDbEntity
  8
0
100
AcDbLine
 10
406.5120232023909
 20
231.5008620347251
 30
0.0
 11
406.3680523122335
 21
231.5137852169904
 31
0.0
  0
LINE
  5
13B
330
2
100
AcDbEntity
  8
0
100
AcDbLine
 10
406.3680523122335
 20
231.5137852169904
 30
0.0
 11
406.2240814223851
 21
231.5839836667908
 31
0.0
  0
LINE
  5
13C
330
2
100
AcDbEntity
  8
0
100
AcDbLine
 10
406.2240814223851
 20
231.5839836667908
 30
0.0
 11
406.1020297239992
 21
231.7007695515401
 31
0.0
  0
LINE
  5
13D
330
2
100
AcDbEntity
  8
0
100
AcDbLine
 10
406.1020297239992
 20
231.7007695515401
 30
0.0
 11
406.0204761325556
 21
231.8463647410323
 31
0.0
  0
LINE
  5
13E
330
2
100
AcDbEntity
  8
0
100
AcDbLine
 10
406.0204761325556
 20
231.8463647410323
 30
0.0
 11
405.9918394959789
 21
231.9986023160125
 31
0.0
  0
ARC
  5
13F
330
2
100
AcDbEntity
  8
0
100
AcDbCircle
 10
414.207624697452
 20
257.4345932674312
 30
0.0
 40
1.564039184289688
100
AcDbArc
 50
2.830928776799681
 51
72.79129716839264
  0
LINE
  5
140
330
2
100
AcDbEntity
  8
0
100
AcDbLine
 10
407.1471944102339
 20
232.1583805358526
 30
0.0
 11
407.1412244766092
 21
232.2913348840553
 31
0.0
  0
LINE
  5
141
330
2
100
AcDbEntity
  8
0
100
AcDbLine
 10
408.2465993809293
 20
260.7829930412612
 30
0.0
 11
414.6703506118379
 21
258.9286157900664
 31
0.0
  0
LINE
  5
142
330
2
100
AcDbEntity
  8
0
100
AcDbLine
 10
415.7697551631365
 20
257.5118394850214
 30
0.0
 11
415.7697551631365
 21
229.4079300618337
 31
0.0
  0
ARC
  5
143
330
2
100
AcDbEntity
  8
0
100
AcDbCircle
 10
407.9526754135749
 20
260.0323955007386
 30
0.0
 40
0.8060942665933465
100
AcDbArc
 50
68.61535273919288
 51
182.2350630238959
  0
LINE
  5
144
330
2
100
AcDbEntity
  8
0
100
AcDbLine
 10
407.1471943935439
 20
259.0641614612974
 30
0.0
 11
407.1471943935439
 21
260.0009583757354
 31
0.0
  0
LINE
  5
145
330
2
100
AcDbEntity
  8
0
100
AcDbLine
 10
407.1471943935439
 20
231.8970479555108
 30
0.0
 11
407.1471943935439
 21
259.0641614612974
 31
0.0
  0
ARC
  5
146
330
2
100
AcDbEntity
  8
0
100
AcDbCircle
 10
414.9642738634041
 20
229.3764933732269
 30
0.0
 40
0.8060945290493435
100
AcDbArc
 50
248.6154146923932
 51
2.235031262597295
  0
LINE
  5
147
330
2
100
AcDbEntity
  8
0
100
AcDbLine
 10
414.6703506118379
 20
228.6258952702102
 30
0.0
 11
408.2465993809293
 21
230.480272521405
 31
0.0
  0
ARC
  5
148
330
2
100
AcDbEntity
  8
0
100
AcDbCircle
 10
408.7093242475934
 20
231.9742947593932
 30
0.0
 40
1.564038602377896
100
AcDbArc
 50
182.8309513434962
 51
252.7913307512937
  0
ARC
  5
149
330
2
100
AcDbEntity
  8
0
100
AcDbCircle
 10
414.231865086058
 20
257.458439171293
 30
0.0
 40
2.379144527432676
100
AcDbArc
 50
2.763176137199722
 51
72.85906323360119
  0
LINE
  5
14A
330
2
100
AcDbEntity
  8
0
100
AcDbLine
 10
414.9330540469886
 20
259.7319084858764
 30
0.0
 11
408.5093028160796
 21
261.5862857370713
 31
0.0
  0
ARC
  5
14B
330
2
100
AcDbEntity
  8
0
100
AcDbCircle
 10
408.0635806461604
 20
260.4395777569494
 30
0.0
 40
1.230287545412789
100
AcDbArc
 50
68.75903575969705
 51
182.0913482619002
  0
LINE
  5
14C
330
2
100
AcDbEntity
  8
0
100
AcDbLine
 10
406.8341125760147
 20
260.3946811091006
 30
0.0
 11
406.8341125760147
 21
232.290771686222
 31
0.0
  0
ARC
  5
14D
330
2
100
AcDbEntity
  8
0
100
AcDbCircle
 10
409.2104921834268
 20
232.4054660656379
 30
0.0
 40
2.379145821335161
100
AcDbArc
 50
182.7631984015015
 51
252.8590625988027
  0
LINE
  5
14E
330
2
100
AcDbEntity
  8
0
100
AcDbLine
 10
408.5093028160796
 20
230.1319955225293
 30
0.0
 11
414.9330540469886
 21
228.2776182713348
 31
0.0
  0
ARC
  5
14F
330
2
100
AcDbEntity
  8
0
100
AcDbCircle
 10
415.3787757378605
 20
229.4243260657099
 30
0.0
 40
1.230287198892497
100
AcDbArc
 50
248.7590534155913
 51
2.091368819802074
  0
LINE
  5
150
330
2
100
AcDbEntity
  8
0
100
AcDbLine
 10
416.6082434454743
 20
229.4692231419197
 30
0.0
 11
416.6082434454743
 21
257.5731325647981
 31
0.0
  0
LINE
  5
151
330
2
100
AcDbEntity
  8
0
100
AcDbLine
 10
432.4253229592025
 20
241.1176266085331
 30
0.0
 11
433.7234478037947
 21
240.7428899050161
 31
0.0
  0
LINE
  5
152
330
2
100
AcDbEntity
  8
0
100
AcDbLine
 10
433.1867706200589
 20
243.7553579160015
 30
0.0
 11
432.7768374374664
 21
243.873695432865
 31
0.0
  0
LINE
  5
153
330
2
100
AcDbEntity
  8
0
100
AcDbLine
 10
431.9541220395922
 20
241.0237318082166
 30
0.0
 11
432.3640569644348
 21
240.9053934494186
 31
0.0
  0
LINE
  5
154
330
2
100
AcDbEntity
  8
0
100
AcDbLine
 10
432.8249751308304
 20
244.0404492943675
 30
0.0
 11
432.5516849849681
 21
244.1193413637908
 31
0.0
  0
LINE
  5
155
330
2
100
AcDbEntity
  8
0
100
AcDbLine
 10
431.632696236408
 20
240.9358714649083
 30
0.0
 11
431.9059843459114
 21
240.8569799830717
 31
0.0
  0
LINE
  5
156
330
2
100
AcDbEntity
  8
0
100
AcDbLine
 10
432.3715233736648
 20
241.1405902355732
 30
0.0
 11
432.4253229592025
 21
241.1176266085331
 31
0.0
  0
LINE
  5
157
330
2
100
AcDbEntity
  8
0
100
AcDbLine
 10
434.4989583114127
 20
242.0799045556485
 30
0.0
 11
434.403043240445
 21
242.6151174408488
 31
0.0
  0
LINE
  5
158
330
2
100
AcDbEntity
  8
0
100
AcDbLine
 10
434.403043240445
 20
242.6151174408488
 30
0.0
 11
434.0459469730659
 21
242.4711284259127
 31
0.0
  0
LINE
  5
159
330
2
100
AcDbEntity
  8
0
100
AcDbLine
 10
433.784765776656
 20
241.7919285618186
 30
0.0
 11
434.0459469730659
 21
242.4711284259127
 31
0.0
  0
LINE
  5
15A
330
2
100
AcDbEntity
  8
0
100
AcDbLine
 10
433.8806811417326
 20
241.2567159309658
 30
0.0
 11
433.784765776656
 21
241.7919285618186
 31
0.0
  0
LINE
  5
15B
330
2
100
AcDbEntity
  8
0
100
AcDbLine
 10
433.8806811417326
 20
241.2567159309658
 30
0.0
 11
434.2377774091116
 21
241.4007029098597
 31
0.0
  0
LINE
  5
15C
330
2
100
AcDbEntity
  8
0
100
AcDbLine
 10
434.4989583114127
 20
242.0799045556485
 30
0.0
 11
434.2377774091116
 21
241.4007029098597
 31
0.0
  0
LINE
  5
15D
330
2
100
AcDbEntity
  8
0
100
AcDbLine
 10
433.8339873397763
 20
241.5172670625036
 30
0.0
 11
434.2377774091116
 21
241.4007029098597
 31
0.0
  0
LINE
  5
15E
330
2
100
AcDbEntity
  8
0
100
AcDbLine
 10
433.9557990730011
 20
242.236701461333
 30
0.0
 11
434.4989583114127
 21
242.0799045556485
 31
0.0
  0
LINE
  5
15F
330
2
100
AcDbEntity
  8
0
100
AcDbLine
 10
432.7768374374664
 20
243.873695432865
 30
0.0
 11
432.7578438681192
 21
243.8784613341567
 31
0.0
  0
LINE
  5
160
330
2
100
AcDbEntity
  8
0
100
AcDbLine
 10
432.6407802236558
 20
240.9506642944087
 30
0.0
 11
432.5411994830185
 21
240.9794107782714
 31
0.0
  0
LINE
  5
161
330
2
100
AcDbEntity
  8
0
100
AcDbLine
 10
432.5283564676983
 20
240.9053326190226
 30
0.0
 11
432.5283564676983
 21
240.9053326190226
 31
0.0
  0
LINE
  5
162
330
2
100
AcDbEntity
  8
0
100
AcDbLine
 10
432.558496308915
 20
241.0791827737253
 30
0.0
 11
432.5283564676983
 21
240.9053326190226
 31
0.0
  0
LINE
  5
163
330
2
100
AcDbEntity
  8
0
100
AcDbLine
 10
432.650723288502
 20
241.0525581199631
 30
0.0
 11
432.6407802236558
 21
240.9506642944087
 31
0.0
  0
LINE
  5
164
330
2
100
AcDbEntity
  8
0
100
AcDbLine
 10
432.1516431488415
 20
240.8773840706559
 30
0.0
 11
432.1516431488415
 21
240.8773840706559
 31
0.0
  0
LINE
  5
165
330
2
100
AcDbEntity
  8
0
100
AcDbLine
 10
431.6036952393544
 20
240.9458145729874
 30
0.0
 11
431.632696236408
 21
240.9358714649083
 31
0.0
  0
ELLIPSE
  5
166
330
2
100
AcDbEntity
  8
0
100
AcDbEllipse
 10
434.0821271788702
 20
241.9503149868628
 30
0.0
 11
-0.3586793750749915
 21
-1.207425081846615
 31
0.0
210
0.0
220
0.0
230
0.9999999999999998
 40
0.4371239547278871
 41
0.0
 42
6.283185307179584
  0
ELLIPSE
  5
167
330
2
100
AcDbEntity
  8
0
100
AcDbEllipse
 10
432.7485139993196
 20
242.3418585144089
 30
0.0
 11
0.3769906256551959
 21
1.201268278835889
 31
0.0
210
0.0
220
0.0
230
1.0
 40
0.4076744545455247
 41
0.0
 42
3.141592653589792
  0
ELLIPSE
  5
168
330
2
100
AcDbEntity
  8
0
100
AcDbEllipse
 10
432.7754137922471
 20
242.3303756827098
 30
0.0
 11
0.4113568278123238
 21
1.424982233291435
 31
0.0
210
0.0
220
0.0
230
1.0
 40
0.4391595104879257
 41
5.999143157104827
 42
9.977568273525797
  0
ARC
  5
169
330
2
100
AcDbEntity
  8
0
100
AcDbCircle
 10
432.8426733350553
 20
243.2576884698105
 30
0.0
 40
0.6364373692082925
100
AcDbArc
 50
17.55019796121913
 51
37.78505631591288
  0
ELLIPSE
  5
16A
330
2
100
AcDbEntity
  8
0
100
AcDbEllipse
 10
432.3559829538559
 20
242.4510965711863
 30
0.0
 11
0.4018609142634803
 21
1.42736476296998
 31
0.0
210
0.0
220
0.0
230
1.0
 40
0.4271225323414707
 41
0.0
 42
3.141592653589792
  0
ELLIPSE
  5
16B
330
2
100
AcDbEntity
  8
0
100
AcDbEllipse
 10
432.3654797383707
 20
242.4487146387197
 30
0.0
 11
0.4594953924593056
 21
1.591734655647833
 31
0.0
210
0.0
220
0.0
230
1.0
 40
0.4392531529546968
 41
5.821353584842302
 42
9.886607296654599
  0
ELLIPSE
  5
16C
330
2
100
AcDbEntity
  8
0
100
AcDbEllipse
 10
432.0776901121621
 20
242.5325779683892
 30
0.0
 11
0.4739948728068441
 21
1.586763395401775
 31
0.0
210
0.0
220
0.0
230
0.9999999999999998
 40
0.4229334210521109
 41
0.0
 42
3.141592653589792
  0
ELLIPSE
  5
16D
330
2
100
AcDbEntity
  8
0
100
AcDbEllipse
 10
430.792093812437
 20
241.2100180581829
 30
0.0
 11
-0.1255566704939017
 21
-0.4854053761010126
 31
0.0
210
0.0
220
0.0
230
0.9999999999999998
 40
0.4377124451218318
 41
0.0
 42
6.283185307179584
  0
ELLIPSE
  5
16E
330
2
100
AcDbEntity
  8
0
100
AcDbEllipse
 10
432.2601001352332
 20
239.941624673207
 30
0.0
 11
-0.1255566704939017
 21
-0.4854053761010126
 31
0.0
210
0.0
220
0.0
230
0.9999999999999998
 40
0.4377124451218318
 41
0.0
 42
6.283185307179584
  0
ELLIPSE
  5
16F
330
2
100
AcDbEntity
  8
0
100
AcDbEllipse
 10
433.7304865162624
 20
243.7549058173361
 30
0.0
 11
-0.1255566704939017
 21
-0.4854053761010126
 31
0.0
210
0.0
220
0.0
230
0.9999999999999998
 40
0.4377124451218318
 41
0.7224588986309298
 42
5.536280207029361
  0
ELLIPSE
  5
170
330
2
100
AcDbEntity
  8
0
100
AcDbEllipse
 10
432.258618994309
 20
245.0209482836311
 30
0.0
 11
-0.1255566704939017
 21
-0.4854053761010126
 31
0.0
210
0.0
220
0.0
230
0.9999999999999998
 40
0.4377124451218318
 41
0.0
 42
6.283185307179584
  0
ELLIPSE
  5
171
330
2
100
AcDbEntity
  8
0
100
AcDbEllipse
 10
432.1316323426046
 20
242.357266386043
 30
0.0
 11
-1.121749159496008
 21
-4.336711626027086
 31
0.0
210
0.0
220
0.0
230
1.0
 40
0.4377124451218318
 41
7.591373539602846
 42
7.592733789180027
  0
ELLIPSE
  5
172
330
2
100
AcDbEntity
  8
0
100
AcDbEllipse
 10
432.1316323426046
 20
242.357266386043
 30
0.0
 11
-1.121749159496008
 21
-4.336711626027086
 31
0.0
210
0.0
220
0.0
230
1.0
 40
0.4377124451218318
 41
8.163095797098671
 42
8.163252719515911
  0
LINE
  5
173
330
2
100
AcDbEntity
  8
0
100
AcDbLine
 10
433.1255046249747
 20
243.5431267932447
 30
0.0
 11
434.4236294695666
 21
243.1683900897281
 31
0.0
  0
ARC
  5
174
330
2
100
AcDbEntity
  8
0
100
AcDbCircle
 10
398.5042497824179
 20
235.4960938458972
 30
0.0
 40
2.379147239032378
100
AcDbArc
 50
182.7632224255989
 51
252.8590425800972
  0
ARC
  5
175
330
2
100
AcDbEntity
  8
0
100
AcDbCircle
 10
403.5013809282226
 20
260.525219983278
 30
0.0
 40
1.564039184289688
100
AcDbArc
 50
2.830928776799681
 51
72.79129716839264
  0
LINE
  5
176
330
2
100
AcDbEntity
  8
0
100
AcDbLine
 10
396.4409506410045
 20
235.2490072516993
 30
0.0
 11
396.4349807073798
 21
235.3819615999021
 31
0.0
  0
LINE
  5
177
330
2
100
AcDbEntity
  8
0
100
AcDbLine
 10
397.5403556116999
 20
263.8736197571079
 30
0.0
 11
403.9641068426084
 21
262.0192425059131
 31
0.0
  0
LINE
  5
178
330
2
100
AcDbEntity
  8
0
100
AcDbLine
 10
405.063511393907
 20
260.6024662008681
 30
0.0
 11
405.063511393907
 21
232.4985567776804
 31
0.0
  0
ARC
  5
179
330
2
100
AcDbEntity
  8
0
100
AcDbCircle
 10
397.2464316443456
 20
263.1230222165854
 30
0.0
 40
0.8060942665933465
100
AcDbArc
 50
68.61535273919288
 51
182.2350630238959
  0
LINE
  5
17A
330
2
100
AcDbEntity
  8
0
100
AcDbLine
 10
396.4409506243146
 20
262.1547881771442
 30
0.0
 11
396.4409506243146
 21
263.0915850915822
 31
0.0
  0
LINE
  5
17B
330
2
100
AcDbEntity
  8
0
100
AcDbLine
 10
396.4409506243146
 20
234.9876746713575
 30
0.0
 11
396.4409506243146
 21
262.1547881771442
 31
0.0
  0
ARC
  5
17C
330
2
100
AcDbEntity
  8
0
100
AcDbCircle
 10
404.2580300941748
 20
232.4671200890737
 30
0.0
 40
0.8060945290493435
100
AcDbArc
 50
248.6154146923932
 51
2.235031262597295
  0
LINE
  5
17D
330
2
100
AcDbEntity
  8
0
100
AcDbLine
 10
403.9641068426084
 20
231.7165219860569
 30
0.0
 11
397.5403556116999
 21
233.5708992372517
 31
0.0
  0
ARC
  5
17E
330
2
100
AcDbEntity
  8
0
100
AcDbCircle
 10
398.003080478364
 20
235.06492147524
 30
0.0
 40
1.564038602377896
100
AcDbArc
 50
182.8309513434962
 51
252.7913307512937
  0
ARC
  5
17F
330
2
100
AcDbEntity
  8
0
100
AcDbCircle
 10
403.5256213168286
 20
260.5490658871397
 30
0.0
 40
2.379144527432676
100
AcDbArc
 50
2.763176137199722
 51
72.85906323360119
  0
LINE
  5
180
330
2
100
AcDbEntity
  8
0
100
AcDbLine
 10
404.2268102777593
 20
262.8225352017231
 30
0.0
 11
397.8030590468502
 21
264.676912452918
 31
0.0
  0
ARC
  5
181
330
2
100
AcDbEntity
  8
0
100
AcDbCircle
 10
397.357336876931
 20
263.5302044727961
 30
0.0
 40
1.230287545412789
100
AcDbArc
 50
68.75903575969705
 51
182.0913482619002
  0
ARC
  5
182
330
2
100
AcDbEntity
  8
0
100
AcDbCircle
 10
398.5042484141975
 20
235.4960927814847
 30
0.0
 40
2.379145821335161
100
AcDbArc
 50
182.7631984015015
 51
252.8590625988027
  0
LINE
  5
183
330
2
100
AcDbEntity
  8
0
100
AcDbLine
 10
397.8030590468502
 20
233.222622238376
 30
0.0
 11
404.2268102777593
 21
231.3682449871815
 31
0.0
  0
ARC
  5
184
330
2
100
AcDbEntity
  8
0
100
AcDbCircle
 10
404.6725319686312
 20
232.5149527815566
 30
0.0
 40
1.230287198892497
100
AcDbArc
 50
248.7590534155913
 51
2.091368819802074
  0
LINE
  5
185
330
2
100
AcDbEntity
  8
0
100
AcDbLine
 10
405.9019996762449
 20
232.5598498577664
 30
0.0
 11
405.9019996762449
 21
260.6637592806448
 31
0.0
  0
LINE
  5
186
330
2
100
AcDbEntity
  8
0
100
AcDbLine
 10
396.1278688070458
 20
235.3813984018512
 30
0.0
 11
396.127868806818
 21
263.4853078251405
 31
0.0
  0
ELLIPSE
  5
187
330
2
100
AcDbEntity
  8
0
100
AcDbEllipse
 10
415.5844584179225
 20
267.8165598840454
 30
0.0
 11
-1.854375965238936
 21
-0.0000000787723388
 31
0.0
210
0.0
220
0.0
230
1.0
 40
0.5047258131645322
 41
0.0
 42
6.283185307179586
  0
ELLIPSE
  5
188
330
2
100
AcDbEntity
  8
0
100
AcDbEllipse
 10
419.2111985860491
 20
268.4772458401823
 30
0.0
 11
-1.854375965238936
 21
-0.0000000787723388
 31
0.0
210
0.0
220
0.0
230
1.0
 40
0.5047258131645322
 41
2.660598668018259
 42
5.725109292691046
  0
ARC
  5
189
330
2
100
AcDbEntity
  8
0
100
AcDbCircle
 10
399.3738438992337
 20
232.6202249236756
 30
0.0
 40
2.353156860602586
100
AcDbArc
 50
196.0763096310031
 51
218.1894321848518
  0
SPLINE
  5
18A
330
2
100
AcDbEntity
  8
0
100
AcDbSpline
210
0.0
220
0.0
230
1.0
 70
     8
 71
     3
 72
    10
 73
     6
 74
     0
 42
0.000000001
 43
0.0000000001
 40
0.0
 40
0.0
 40
0.0
 40
0.0
 40
0.356035306597794
 40
0.7568901658972307
 40
1.0
 40
1.0
 40
1.0
 40
1.0
 10
417.4305865966364
 20
259.9520160960403
 30
0.0
 10
417.4133030920545
 20
259.9574525448074
 30
0.0
 10
417.3765603465793
 20
259.9690098104295
 30
0.0
 10
417.350356410103
 20
259.9920550877117
 30
0.0
 10
417.3476201190026
 20
259.9873749018926
 30
0.0
 10
417.3465871131835
 20
259.9856080360852
 30
0.0
  0
LINE
  5
18B
330
2
100
AcDbEntity
  8
0
100
AcDbLine
 10
416.1672460848808
 20
260.3177130042876
 30
0.0
 11
415.6110116944418
 21
260.47828404189
 31
0.0
  0
SPLINE
  5
18C
330
2
100
AcDbEntity
  8
0
100
AcDbSpline
210
0.0
220
0.0
230
1.0
 70
     8
 71
     3
 72
    10
 73
     6
 74
     0
 42
0.000000001
 43
0.0000000001
 40
0.0
 40
0.0
 40
0.0
 40
0.0
 40
0.3560350934070337
 40
0.7568904258313514
 40
1.0
 40
1.0
 40
1.0
 40
1.0
 10
415.6239078615715
 20
260.4735593230548
 30
0.0
 10
415.6066243962354
 20
260.4789957624244
 30
0.0
 10
415.5698816995729
 20
260.4905530189579
 30
0.0
 10
415.5436775477784
 20
260.5135983518908
 30
0.0
 10
415.5409413932507
 20
260.5089181242367
 30
0.0
 10
415.539908440437
 20
260.5071512451097
 30
0.0
  0
LINE
  5
18D
330
2
100
AcDbEntity
  8
0
100
AcDbLine
 10
414.361016105713
 20
260.8391266866656
 30
0.0
 11
413.8043327724059
 21
260.9998273228161
 31
0.0
  0
SPLINE
  5
18E
330
2
100
AcDbEntity
  8
0
100
AcDbSpline
210
0.0
220
0.0
230
1.0
 70
     8
 71
     3
 72
    10
 73
     6
 74
     0
 42
0.000000001
 43
0.0000000001
 40
0.0
 40
0.0
 40
0.0
 40
0.0
 40
0.3560357569544261
 40
0.7568906763337039
 40
1.0
 40
1.0
 40
1.0
 40
1.0
 10
413.8172291888252
 20
260.9951025320795
 30
0.0
 10
413.7999456256269
 20
261.0005389953601
 30
0.0
 10
413.7632027772395
 20
261.0120962850116
 30
0.0
 10
413.7369986297565
 20
261.0351416315841
 30
0.0
 10
413.734262472326
 20
261.030461404867
 30
0.0
 10
413.7332295184168
 20
261.0286945260936
 30
0.0
  0
LINE
  5
18F
330
2
100
AcDbEntity
  8
0
100
AcDbLine
 10
413.113179868221
 20
261.1841096363912
 30
0.0
 11
412.7001460151379
 21
261.3033422395508
 31
0.0
  0
LINE
  5
190
330
2
100
AcDbEntity
  8
0
100
AcDbLine
 10
413.3499888422288
 20
261.1157487739419
 30
0.0
 11
414.2700154645705
 21
260.8501599649427
 31
0.0
  0
LINE
  5
191
330
2
100
AcDbEntity
  8
0
100
AcDbLine
 10
414.9198585409978
 20
260.6625664273996
 30
0.0
 11
414.5068244385783
 21
260.7817991024934
 31
0.0
  0
LINE
  5
192
330
2
100
AcDbEntity
  8
0
100
AcDbLine
 10
415.1566677642644
 20
260.5942054930159
 30
0.0
 11
416.0766941373474
 21
260.3286167558739
 31
0.0
  0
LINE
  5
193
330
2
100
AcDbEntity
  8
0
100
AcDbLine
 10
416.7265372760507
 20
260.1410232004051
 30
0.0
 11
416.3135033606143
 21
260.2602558214903
 31
0.0
  0
SPLINE
  5
194
330
2
100
AcDbEntity
  8
0
100
AcDbSpline
210
0.0
220
0.0
230
1.0
 70
     8
 71
     3
 72
     9
 73
     5
 74
     0
 42
0.000000001
 43
0.0000000001
 40
0.0
 40
0.0
 40
0.0
 40
0.0
 40
0.1702169374476337
 40
1.0
 40
1.0
 40
1.0
 40
1.0
 10
417.3827319606539
 20
259.9515954882814
 30
0.0
 10
417.3843982022827
 20
259.9527169872227
 30
0.0
 10
417.3941871319488
 20
259.9593056320314
 30
0.0
 10
417.4032200166372
 20
259.9585098722624
 30
0.0
 10
417.4107153513577
 20
259.957849564284
 30
0.0
  0
LINE
  5
195
330
2
100
AcDbEntity
  8
0
100
AcDbLine
 10
417.4107153513451
 20
259.9578495642693
 30
0.0
 11
417.4284597002702
 21
259.9502436101967
 31
0.0
  0
LINE
  5
196
330
2
100
AcDbEntity
  8
0
100
AcDbLine
 10
417.3646151282985
 20
259.9766646837131
 30
0.0
 11
417.3782155159182
 21
259.9910648952747
 31
0.0
  0
LINE
  5
197
330
2
100
AcDbEntity
  8
0
100
AcDbLine
 10
417.3782155159182
 20
259.9910648952747
 30
0.0
 11
417.3785767764749
 21
259.971971898447
 31
0.0
  0
SPLINE
  5
198
330
2
100
AcDbEntity
  8
0
100
AcDbSpline
210
0.0
220
0.0
230
1.0
 70
     8
 71
     3
 72
     9
 73
     5
 74
     0
 42
0.000000001
 43
0.0000000001
 40
0.0
 40
0.0
 40
0.0
 40
0.0
 40
0.1702168554641489
 40
1.0
 40
1.0
 40
1.0
 40
1.0
 10
415.5760531944296
 20
260.4731387242907
 30
0.0
 10
415.5777194710317
 20
260.4742602131337
 30
0.0
 10
415.5875086108764
 20
260.4808488017891
 30
0.0
 10
415.5965413100946
 20
260.4800530930106
 30
0.0
 10
415.6040364916559
 20
260.479392827278
 30
0.0
  0
LINE
  5
199
330
2
100
AcDbEntity
  8
0
100
AcDbLine
 10
415.6040364916625
 20
260.4793928272698
 30
0.0
 11
415.6217809029412
 21
260.4717868552715
 31
0.0
  0
LINE
  5
19A
330
2
100
AcDbEntity
  8
0
100
AcDbLine
 10
415.5592004682388
 20
260.4997449656774
 30
0.0
 11
415.5715366561584
 21
260.5126081582749
 31
0.0
  0
LINE
  5
19B
330
2
100
AcDbEntity
  8
0
100
AcDbLine
 10
415.5715366561584
 20
260.5126081582749
 30
0.0
 11
415.5718981037753
 21
260.493515107516
 31
0.0
  0
SPLINE
  5
19C
330
2
100
AcDbEntity
  8
0
100
AcDbSpline
210
0.0
220
0.0
230
1.0
 70
     8
 71
     3
 72
     9
 73
     5
 74
     0
 42
0.000000001
 43
0.0000000001
 40
0.0
 40
0.0
 40
0.0
 40
0.0
 40
0.1702170488936785
 40
1.0
 40
1.0
 40
1.0
 40
1.0
 10
413.7693745216832
 20
260.9946819333154
 30
0.0
 10
413.7710407064965
 20
260.9958034486613
 30
0.0
 10
413.7808292959709
 20
261.0023921855305
 30
0.0
 10
413.7898623470923
 20
261.0015963811829
 30
0.0
 10
413.7973578189093
 20
261.0009360363027
 30
0.0
  0
LINE
  5
19D
330
2
100
AcDbEntity
  8
0
100
AcDbLine
 10
413.7973578188857
 20
261.0009360363386
 30
0.0
 11
413.8151022301643
 21
260.993330064263
 31
0.0
  0
LINE
  5
19E
330
2
100
AcDbEntity
  8
0
100
AcDbLine
 10
413.751257720469
 20
261.0197511197764
 30
0.0
 11
413.7648579834588
 21
261.0341513672666
 31
0.0
  0
LINE
  5
19F
330
2
100
AcDbEntity
  8
0
100
AcDbLine
 10
413.7648579834588
 20
261.0341513672666
 30
0.0
 11
413.7652194309984
 21
261.0150583165077
 31
0.0
  0
SPLINE
  5
1A0
330
2
100
AcDbEntity
  8
0
100
AcDbSpline
210
0.0
220
0.0
230
1.0
 70
     8
 71
     3
 72
    15
 73
    11
 74
     0
 42
0.000000001
 43
0.0000000001
 40
0.0
 40
0.0
 40
0.0
 40
0.0
 40
0.0963511121633696
 40
0.1952141889461218
 40
0.3009540179886477
 40
0.4195984467789815
 40
0.5552999397323392
 40
0.7004195668145591
 40
0.8498830823178719
 40
1.0
 40
1.0
 40
1.0
 40
1.0
 10
426.1601173700565
 20
257.0631427594121
 30
0.0
 10
426.190377442372
 20
257.0589523938025
 30
0.0
 10
426.2516864957071
 20
257.0504624157885
 30
0.0
 10
426.3466119231718
 20
257.0749172271641
 30
0.0
 10
426.4369871291526
 20
257.1296293503049
 30
0.0
 10
426.5168097137332
 20
257.2188409130536
 30
0.0
 10
426.5762865326775
 20
257.3388917834542
 30
0.0
 10
426.606733336187
 20
257.4803433313718
 30
0.0
 10
426.606908539134
 20
257.6310410406881
 30
0.0
 10
426.5801592539106
 20
257.7277387717665
 30
0.0
 10
426.5298611352629
 20
257.9097754405911
 30
0.0
  0
SPLINE
  5
1A1
330
2
100
AcDbEntity
  8
0
100
AcDbSpline
210
0.0
220
0.0
230
1.0
 70
     8
 71
     3
 72
    10
 73
     6
 74
     0
 42
0.000000001
 43
0.0000000001
 40
0.0
 40
0.0
 40
0.0
 40
0.0
 40
0.0931001383357514
 40
0.4988362274197499
 40
1.0
 40
1.0
 40
1.0
 40
1.0
 10
426.5298611352629
 20
257.9097754405911
 30
0.0
 10
426.5238868751008
 20
257.9298641379101
 30
0.0
 10
426.4918764242657
 20
258.0375006050896
 30
0.0
 10
426.3891757612488
 20
258.2433594918472
 30
0.0
 10
426.2395920874623
 20
258.3674463410476
 30
0.0
 10
426.156930349998
 20
258.4360182265463
 30
0.0
  0
SPLINE
  5
1A2
330
2
100
AcDbEntity
  8
0
100
AcDbSpline
210
0.0
220
0.0
230
1.0
 70
     8
 71
     3
 72
     9
 73
     5
 74
     0
 42
0.000000001
 43
0.0000000001
 40
0.0
 40
0.0
 40
0.0
 40
0.0
 40
0.5599475811448509
 40
1.0
 40
1.0
 40
1.0
 40
1.0
 10
398.1363660997499
 20
266.5246295676192
 30
0.0
 10
398.1778787036187
 20
266.5240751527365
 30
0.0
 10
398.252015292947
 20
266.5230850334806
 30
0.0
 10
398.3239587523299
 20
266.505016096843
 30
0.0
 10
398.3556176456521
 20
266.4970648175696
 30
0.0
  0
SPLINE
  5
1A3
330
2
100
AcDbEntity
  8
0
100
AcDbSpline
210
0.0
220
0.0
230
1.0
 70
     8
 71
     3
 72
     9
 73
     5
 74
     0
 42
0.000000001
 43
0.0000000001
 40
0.0
 40
0.0
 40
0.0
 40
0.0
 40
0.5599475811448509
 40
1.0
 40
1.0
 40
1.0
 40
1.0
 10
426.156930349998
 20
258.4360182265463
 30
0.0
 10
426.1207831442773
 20
258.4578822676496
 30
0.0
 10
426.0562285199915
 20
258.4969288531507
 30
0.0
 10
425.9855522492832
 20
258.5200306862932
 30
0.0
 10
425.9544509854022
 20
258.5301967038476
 30
0.0
  0
SPLINE
  5
1A4
330
2
100
AcDbEntity
  8
0
100
AcDbSpline
210
0.0
220
0.0
230
1.0
 70
     8
 71
     3
 72
     9
 73
     5
 74
     0
 42
0.000000001
 43
0.0000000001
 40
0.0
 40
0.0
 40
0.0
 40
0.0
 40
0.5718308887998629
 40
1.0
 40
1.0
 40
1.0
 40
1.0
 10
425.3743813880278
 20
258.2928245396845
 30
0.0
 10
425.3439551176737
 20
258.1780983834782
 30
0.0
 10
425.2907466062941
 20
257.9774688644134
 30
0.0
 10
425.2363909198662
 20
257.7771944355118
 30
0.0
 10
425.2131174939196
 20
257.6914431112929
 30
0.0
  0
SPLINE
  5
1A5
330
2
100
AcDbEntity
  8
0
100
AcDbSpline
210
0.0
220
0.0
230
1.0
 70
     8
 71
     3
 72
     9
 73
     5
 74
     0
 42
0.000000001
 43
0.0000000001
 40
0.0
 40
0.0
 40
0.0
 40
0.0
 40
0.5718308887998629
 40
1.0
 40
1.0
 40
1.0
 40
1.0
 10
425.7691465393723
 20
258.1788656564869
 30
0.0
 10
425.7415869540773
 20
258.0633119595851
 30
0.0
 10
425.6933916120024
 20
257.8612352631964
 30
0.0
 10
425.6463555563972
 20
257.6588478388821
 30
0.0
 10
425.6262161702742
 20
257.5721917952953
 30
0.0
  0
SPLINE
  5
1A6
330
2
100
AcDbEntity
  8
0
100
AcDbSpline
210
0.0
220
0.0
230
1.0
 70
     8
 71
     3
 72
     9
 73
     5
 74
     0
 42
0.000000001
 43
0.0000000001
 40
0.0
 40
0.0
 40
0.0
 40
0.0
 40
0.5718308623903785
 40
1.0
 40
1.0
 40
1.0
 40
1.0
 10
423.5717496717962
 20
258.8129706777025
 30
0.0
 10
423.5413237411446
 20
258.6982444196238
 30
0.0
 10
423.4881158213682
 20
258.4976147131421
 30
0.0
 10
423.4337591347104
 20
258.2973405912907
 30
0.0
 10
423.4104852790609
 20
258.2115893932521
 30
0.0
  0
SPLINE
  5
1A7
330
2
100
AcDbEntity
  8
0
100
AcDbSpline
210
0.0
220
0.0
230
1.0
 70
     8
 71
     3
 72
     9
 73
     5
 74
     0
 42
0.000000001
 43
0.0000000001
 40
0.0
 40
0.0
 40
0.0
 40
0.0
 40
0.5718308623903785
 40
1.0
 40
1.0
 40
1.0
 40
1.0
 10
423.9665143245134
 20
258.6990119384461
 30
0.0
 10
423.9389543977284
 20
258.5834583363155
 30
0.0
 10
423.8907584562396
 20
258.3813817963271
 30
0.0
 10
423.8437234094599
 20
258.1789940990983
 30
0.0
 10
423.8235844540428
 20
258.0923379333133
 30
0.0
  0
SPLINE
  5
1A8
330
2
100
AcDbEntity
  8
0
100
AcDbSpline
210
0.0
220
0.0
230
1.0
 70
     8
 71
     3
 72
     9
 73
     5
 74
     0
 42
0.000000001
 43
0.0000000001
 40
0.0
 40
0.0
 40
0.0
 40
0.0
 40
0.5718308683588581
 40
1.0
 40
1.0
 40
1.0
 40
1.0
 10
421.831710265603
 20
259.3152767874855
 30
0.0
 10
421.8012841214377
 20
259.2005505919037
 30
0.0
 10
421.748075828831
 20
258.9999209968084
 30
0.0
 10
421.6937192033653
 20
258.7996468531548
 30
0.0
 10
421.6704453742407
 20
258.7138956469765
 30
0.0
  0
SPLINE
  5
1A9
330
2
100
AcDbEntity
  8
0
100
AcDbSpline
210
0.0
220
0.0
230
1.0
 70
     8
 71
     3
 72
     9
 73
     5
 74
     0
 42
0.000000001
 43
0.0000000001
 40
0.0
 40
0.0
 40
0.0
 40
0.0
 40
0.5718308623903785
 40
1.0
 40
1.0
 40
1.0
 40
1.0
 10
422.2264744196931
 20
259.2013181921704
 30
0.0
 10
422.198914492908
 20
259.0857645900398
 30
0.0
 10
422.1507185514194
 20
258.8836880500512
 30
0.0
 10
422.1036835046395
 20
258.6813003528226
 30
0.0
 10
422.0835445492224
 20
258.5946441870374
 30
0.0
  0
SPLINE
  5
1AA
330
2
100
AcDbEntity
  8
0
100
AcDbSpline
210
0.0
220
0.0
230
1.0
 70
     8
 71
     3
 72
     9
 73
     5
 74
     0
 42
0.000000001
 43
0.0000000001
 40
0.0
 40
0.0
 40
0.0
 40
0.0
 40
0.5718308572794185
 40
1.0
 40
1.0
 40
1.0
 40
1.0
 10
420.4195100182167
 20
259.7229438839744
 30
0.0
 10
420.3919500595384
 20
259.6073902903138
 30
0.0
 10
420.3437540618452
 20
259.4053137633307
 30
0.0
 10
420.2967192514883
 20
259.2029260013958
 30
0.0
 10
420.2765803970597
 20
259.1162698068711
 30
0.0
  0
SPLINE
  5
1AB
330
2
100
AcDbEntity
  8
0
100
AcDbSpline
210
0.0
220
0.0
230
1.0
 70
     8
 71
     3
 72
     9
 73
     5
 74
     0
 42
0.000000001
 43
0.0000000001
 40
0.0
 40
0.0
 40
0.0
 40
0.0
 40
0.5718308653745387
 40
1.0
 40
1.0
 40
1.0
 40
1.0
 10
420.0247456148131
 20
259.8369025512603
 30
0.0
 10
419.9943195774046
 20
259.7221763244301
 30
0.0
 10
419.9411114712133
 20
259.5215466736415
 30
0.0
 10
419.8867548151516
 20
259.3212725408891
 30
0.0
 10
419.8634809727645
 20
259.2355213387806
 30
0.0
  0
SPLINE
  5
1AC
330
2
100
AcDbEntity
  8
0
100
AcDbSpline
210
0.0
220
0.0
230
1.0
 70
     8
 71
     3
 72
     9
 73
     5
 74
     0
 42
0.000000001
 43
0.0000000001
 40
0.0
 40
0.0
 40
0.0
 40
0.0
 40
0.5718308646284839
 40
1.0
 40
1.0
 40
1.0
 40
1.0
 10
418.21778108868
 20
260.3585282790498
 30
0.0
 10
418.1873550779608
 20
260.2438020444076
 30
0.0
 10
418.134147018373
 20
260.0431723796958
 30
0.0
 10
418.0797903546623
 20
259.8428982496685
 30
0.0
 10
418.0565165089596
 20
259.7571470485775
 30
0.0
  0
SPLINE
  5
1AD
330
2
100
AcDbEntity
  8
0
100
AcDbSpline
210
0.0
220
0.0
230
1.0
 70
     8
 71
     3
 72
     9
 73
     5
 74
     0
 42
0.000000001
 43
0.0000000001
 40
0.0
 40
0.0
 40
0.0
 40
0.0
 40
0.5718308638824388
 40
1.0
 40
1.0
 40
1.0
 40
1.0
 10
418.6125454920837
 20
260.2445696117641
 30
0.0
 10
418.5849856187777
 20
260.1290159944107
 30
0.0
 10
418.5367897709382
 20
259.9269394283278
 30
0.0
 10
418.4897547083746
 20
259.7245517346212
 30
0.0
 10
418.4696157462698
 20
259.637895570646
 30
0.0
  0
SPLINE
  5
1AE
330
2
100
AcDbEntity
  8
0
100
AcDbSpline
210
0.0
220
0.0
230
1.0
 70
     8
 71
     3
 72
     9
 73
     5
 74
     0
 42
0.000000001
 43
0.0000000001
 40
0.0
 40
0.0
 40
0.0
 40
0.0
 40
0.5718308638824388
 40
1.0
 40
1.0
 40
1.0
 40
1.0
 10
416.4777411838596
 20
260.8608345327743
 30
0.0
 10
416.4473151998295
 20
260.7461082903197
 30
0.0
 10
416.3941071868457
 20
260.5454786116847
 30
0.0
 10
416.3397505154859
 20
260.3452044843828
 30
0.0
 10
416.3164766664676
 20
260.2594532843091
 30
0.0
  0
SPLINE
  5
1AF
330
2
100
AcDbEntity
  8
0
100
AcDbSpline
210
0.0
220
0.0
230
1.0
 70
     8
 71
     3
 72
     9
 73
     5
 74
     0
 42
0.000000001
 43
0.0000000001
 40
0.0
 40
0.0
 40
0.0
 40
0.0
 40
0.5718308646284839
 40
1.0
 40
1.0
 40
1.0
 40
1.0
 10
416.8725055872632
 20
260.7468758654883
 30
0.0
 10
416.8449457406974
 20
260.6313222405234
 30
0.0
 10
416.7967499396821
 20
260.4292456613936
 30
0.0
 10
416.7497148692267
 20
260.2268579694479
 30
0.0
 10
416.7295759037779
 20
260.1402018063776
 30
0.0
  0
SPLINE
  5
1B0
330
2
100
AcDbEntity
  8
0
100
AcDbSpline
210
0.0
220
0.0
230
1.0
 70
     8
 71
     3
 72
     9
 73
     5
 74
     0
 42
0.000000001
 43
0.0000000001
 40
0.0
 40
0.0
 40
0.0
 40
0.0
 40
0.5718308572794185
 40
1.0
 40
1.0
 40
1.0
 40
1.0
 10
414.6707766577266
 20
261.3824602605637
 30
0.0
 10
414.640350758622
 20
261.2677339926411
 30
0.0
 10
414.5871428935389
 20
261.0671042671514
 30
0.0
 10
414.5327859721219
 20
260.8668302166125
 30
0.0
 10
414.5095120156776
 20
260.781079048084
 30
0.0
  0
SPLINE
  5
1B1
330
2
100
AcDbEntity
  8
0
100
AcDbSpline
210
0.0
220
0.0
230
1.0
 70
     8
 71
     3
 72
     9
 73
     5
 74
     0
 42
0.000000001
 43
0.0000000001
 40
0.0
 40
0.0
 40
0.0
 40
0.0
 40
0.5718308653745387
 40
1.0
 40
1.0
 40
1.0
 40
1.0
 10
415.0655410611301
 20
261.2685015932781
 30
0.0
 10
415.0379812413039
 20
261.1529479607015
 30
0.0
 10
414.989785487113
 20
260.9508713685244
 30
0.0
 10
414.9427504087658
 20
260.7484836783398
 30
0.0
 10
414.9226114399731
 20
260.6618275161745
 30
0.0
  0
SPLINE
  5
1B2
330
2
100
AcDbEntity
  8
0
100
AcDbSpline
210
0.0
220
0.0
230
1.0
 70
     8
 71
     3
 72
     9
 73
     5
 74
     0
 42
0.000000001
 43
0.0000000001
 40
0.0
 40
0.0
 40
0.0
 40
0.0
 40
0.5718308683588581
 40
1.0
 40
1.0
 40
1.0
 40
1.0
 10
413.2585764103403
 20
261.7901273570528
 30
0.0
 10
413.2310166974727
 20
261.6745736940304
 30
0.0
 10
413.1828211305797
 20
261.472497049665
 30
0.0
 10
413.1357860206654
 20
261.2701093665241
 30
0.0
 10
413.1156470384969
 20
261.1834532079787
 30
0.0
  0
SPLINE
  5
1B3
330
2
100
AcDbEntity
  8
0
100
AcDbSpline
210
0.0
220
0.0
230
1.0
 70
     8
 71
     3
 72
     9
 73
     5
 74
     0
 42
0.000000001
 43
0.0000000001
 40
0.0
 40
0.0
 40
0.0
 40
0.0
 40
0.5718308623903785
 40
1.0
 40
1.0
 40
1.0
 40
1.0
 10
412.8638122562502
 20
261.9040859523679
 30
0.0
 10
412.8333863255985
 20
261.7893596942893
 30
0.0
 10
412.7801784058223
 20
261.5887299878078
 30
0.0
 10
412.7258217191645
 20
261.3884558659563
 30
0.0
 10
412.7025478635148
 20
261.3027046679176
 30
0.0
  0
SPLINE
  5
1B4
330
2
100
AcDbEntity
  8
0
100
AcDbSpline
210
0.0
220
0.0
230
1.0
 70
     8
 71
     3
 72
     9
 73
     5
 74
     0
 42
0.000000001
 43
0.0000000001
 40
0.0
 40
0.0
 40
0.0
 40
0.0
 40
0.5718308623903785
 40
1.0
 40
1.0
 40
1.0
 40
1.0
 10
411.1237723514299
 20
262.4063922060923
 30
0.0
 10
411.0933464207782
 20
262.2916659480137
 30
0.0
 10
411.0401385010018
 20
262.0910362415322
 30
0.0
 10
410.9857818143443
 20
261.8907621196805
 30
0.0
 10
410.9625079586946
 20
261.805010921642
 30
0.0
  0
SPLINE
  5
1B5
330
2
100
AcDbEntity
  8
0
100
AcDbSpline
210
0.0
220
0.0
230
1.0
 70
     8
 71
     3
 72
     9
 73
     5
 74
     0
 42
0.000000001
 43
0.0000000001
 40
0.0
 40
0.0
 40
0.0
 40
0.0
 40
0.5718308623903785
 40
1.0
 40
1.0
 40
1.0
 40
1.0
 10
411.5185370041472
 20
262.2924334668359
 30
0.0
 10
411.490977077362
 20
262.1768798647054
 30
0.0
 10
411.4427811358734
 20
261.9748033247171
 30
0.0
 10
411.3957460890937
 20
261.7724156274882
 30
0.0
 10
411.3756071336765
 20
261.6857594617031
 30
0.0
  0
SPLINE
  5
1B6
330
2
100
AcDbEntity
  8
0
100
AcDbSpline
210
0.0
220
0.0
230
1.0
 70
     8
 71
     3
 72
     9
 73
     5
 74
     0
 42
0.000000001
 43
0.0000000001
 40
0.0
 40
0.0
 40
0.0
 40
0.0
 40
0.5718308623903785
 40
1.0
 40
1.0
 40
1.0
 40
1.0
 10
409.3168077006399
 20
262.9280179698672
 30
0.0
 10
409.2863817699884
 20
262.8132917117887
 30
0.0
 10
409.2331738502119
 20
262.6126620053069
 30
0.0
 10
409.1788171635544
 20
262.4123878834554
 30
0.0
 10
409.1555433079046
 20
262.3266366854169
 30
0.0
  0
SPLINE
  5
1B7
330
2
100
AcDbEntity
  8
0
100
AcDbSpline
210
0.0
220
0.0
230
1.0
 70
     8
 71
     3
 72
     9
 73
     5
 74
     0
 42
0.000000001
 43
0.0000000001
 40
0.0
 40
0.0
 40
0.0
 40
0.0
 40
0.5718308623903785
 40
1.0
 40
1.0
 40
1.0
 40
1.0
 10
409.7115723533572
 20
262.8140592306107
 30
0.0
 10
409.684012426572
 20
262.6985056284803
 30
0.0
 10
409.6358164850835
 20
262.4964290884917
 30
0.0
 10
409.5887814383037
 20
262.2940413912632
 30
0.0
 10
409.5686424828866
 20
262.2073852254779
 30
0.0
  0
SPLINE
  5
1B8
330
2
100
AcDbEntity
  8
0
100
AcDbSpline
210
0.0
220
0.0
230
1.0
 70
     8
 71
     3
 72
     9
 73
     5
 74
     0
 42
0.000000001
 43
0.0000000001
 40
0.0
 40
0.0
 40
0.0
 40
0.0
 40
0.5718308564225351
 40
1.0
 40
1.0
 40
1.0
 40
1.0
 10
407.5098430498499
 20
263.4496437336421
 30
0.0
 10
407.4794173327119
 20
263.3349174130668
 30
0.0
 10
407.4262097857661
 20
263.1342875951989
 30
0.0
 10
407.3718530379165
 20
262.9340134951494
 30
0.0
 10
407.3485791557419
 20
262.8482623052504
 30
0.0
  0
SPLINE
  5
1B9
330
2
100
AcDbEntity
  8
0
100
AcDbSpline
210
0.0
220
0.0
230
1.0
 70
     8
 71
     3
 72
     9
 73
     5
 74
     0
 42
0.000000001
 43
0.0000000001
 40
0.0
 40
0.0
 40
0.0
 40
0.0
 40
0.5718308564225351
 40
1.0
 40
1.0
 40
1.0
 40
1.0
 10
407.9046082011944
 20
263.3356848504444
 30
0.0
 10
407.8770480604918
 20
263.2201313092058
 30
0.0
 10
407.8288517444077
 20
263.0180548735946
 30
0.0
 10
407.7818167607623
 20
262.815667162278
 30
0.0
 10
407.7616778320966
 20
262.7290109892527
 30
0.0
  0
SPLINE
  5
1BA
330
2
100
AcDbEntity
  8
0
100
AcDbSpline
210
0.0
220
0.0
230
1.0
 70
     8
 71
     3
 72
     9
 73
     5
 74
     0
 42
0.000000001
 43
0.0000000001
 40
0.0
 40
0.0
 40
0.0
 40
0.0
 40
0.5718308683588581
 40
1.0
 40
1.0
 40
1.0
 40
1.0
 10
406.164567797747
 20
263.83799124811
 30
0.0
 10
406.1370080848796
 20
263.7224375850875
 30
0.0
 10
406.0888125179863
 20
263.5203609407223
 30
0.0
 10
406.0417774080723
 20
263.3179732575813
 30
0.0
 10
406.0216384259035
 20
263.2313170990357
 30
0.0
  0
SPLINE
  5
1BB
330
2
100
AcDbEntity
  8
0
100
AcDbSpline
210
0.0
220
0.0
230
1.0
 70
     8
 71
     3
 72
     9
 73
     5
 74
     0
 42
0.000000001
 43
0.0000000001
 40
0.0
 40
0.0
 40
0.0
 40
0.0
 40
0.5718308683588581
 40
1.0
 40
1.0
 40
1.0
 40
1.0
 10
405.769803643657
 20
263.9519498434252
 30
0.0
 10
405.7393774994917
 20
263.8372236478434
 30
0.0
 10
405.6861692068851
 20
263.6365940527479
 30
0.0
 10
405.6318125814192
 20
263.4363199090944
 30
0.0
 10
405.6085387522945
 20
263.350568702916
 30
0.0
  0
SPLINE
  5
1BC
330
2
100
AcDbEntity
  8
0
100
AcDbSpline
210
0.0
220
0.0
230
1.0
 70
     8
 71
     3
 72
     9
 73
     5
 74
     0
 42
0.000000001
 43
0.0000000001
 40
0.0
 40
0.0
 40
0.0
 40
0.0
 40
0.5718308683588581
 40
1.0
 40
1.0
 40
1.0
 40
1.0
 10
403.9628394914942
 20
264.4735754632587
 30
0.0
 10
403.932413347329
 20
264.3588492676769
 30
0.0
 10
403.8792050547224
 20
264.1582196725817
 30
0.0
 10
403.8248484292565
 20
263.9579455289279
 30
0.0
 10
403.8015746001319
 20
263.8721943227496
 30
0.0
  0
SPLINE
  5
1BD
330
2
100
AcDbEntity
  8
0
100
AcDbSpline
210
0.0
220
0.0
230
1.0
 70
     8
 71
     3
 72
     9
 73
     5
 74
     0
 42
0.000000001
 43
0.0000000001
 40
0.0
 40
0.0
 40
0.0
 40
0.0
 40
0.5718308683588581
 40
1.0
 40
1.0
 40
1.0
 40
1.0
 10
404.3576036455842
 20
264.3596168679436
 30
0.0
 10
404.3300439327166
 20
264.2440632049211
 30
0.0
 10
404.2818483658236
 20
264.0419865605558
 30
0.0
 10
404.2348132559093
 20
263.8395988774147
 30
0.0
 10
404.2146742737408
 20
263.7529427188694
 30
0.0
  0
SPLINE
  5
1BE
330
2
100
AcDbEntity
  8
0
100
AcDbSpline
210
0.0
220
0.0
230
1.0
 70
     8
 71
     3
 72
     9
 73
     5
 74
     0
 42
0.000000001
 43
0.0000000001
 40
0.0
 40
0.0
 40
0.0
 40
0.0
 40
0.5718308564225351
 40
1.0
 40
1.0
 40
1.0
 40
1.0
 10
402.155874342077
 20
264.9952013709747
 30
0.0
 10
402.125448624939
 20
264.8804750503996
 30
0.0
 10
402.0722410779931
 20
264.6798452325318
 30
0.0
 10
402.0178843301435
 20
264.4795711324821
 30
0.0
 10
401.994610447969
 20
264.3938199425832
 30
0.0
  0
SPLINE
  5
1BF
330
2
100
AcDbEntity
  8
0
100
AcDbSpline
210
0.0
220
0.0
230
1.0
 70
     8
 71
     3
 72
     9
 73
     5
 74
     0
 42
0.000000001
 43
0.0000000001
 40
0.0
 40
0.0
 40
0.0
 40
0.0
 40
0.5718308564225351
 40
1.0
 40
1.0
 40
1.0
 40
1.0
 10
402.5506394934216
 20
264.8812424877771
 30
0.0
 10
402.5230793527188
 20
264.7656889465387
 30
0.0
 10
402.4748830366347
 20
264.5636125109274
 30
0.0
 10
402.4278480529895
 20
264.3612247996106
 30
0.0
 10
402.4077091243236
 20
264.2745686265855
 30
0.0
  0
SPLINE
  5
1C0
330
2
100
AcDbEntity
  8
0
100
AcDbSpline
210
0.0
220
0.0
230
1.0
 70
     8
 71
     3
 72
     9
 73
     5
 74
     0
 42
0.000000001
 43
0.0000000001
 40
0.0
 40
0.0
 40
0.0
 40
0.0
 40
0.4981692180306485
 40
1.0
 40
1.0
 40
1.0
 40
1.0
 10
397.596669487398
 20
266.2618396185059
 30
0.0
 10
397.673988247034
 20
266.3348839170923
 30
0.0
 10
397.8291940623226
 20
266.4815093928194
 30
0.0
 10
398.0337257852804
 20
266.5102211327288
 30
0.0
 10
398.1363660997499
 20
266.5246295676192
 30
0.0
  0
SPLINE
  5
1C1
330
2
100
AcDbEntity
  8
0
100
AcDbSpline
210
0.0
220
0.0
230
1.0
 70
     8
 71
     3
 72
     9
 73
     5
 74
     0
 42
0.000000001
 43
0.0000000001
 40
0.0
 40
0.0
 40
0.0
 40
0.0
 40
0.561215280618309
 40
1.0
 40
1.0
 40
1.0
 40
1.0
 10
397.5111926988484
 20
266.1635827588306
 30
0.0
 10
397.527134732814
 20
266.1819607271547
 30
0.0
 10
397.5555410049096
 20
266.214707462603
 30
0.0
 10
397.584126575728
 20
266.2474657726323
 30
0.0
 10
397.596669487398
 20
266.2618396185059
 30
0.0
  0
SPLINE
  5
1C2
330
2
100
AcDbEntity
  8
0
100
AcDbSpline
210
0.0
220
0.0
230
1.0
 70
     8
 71
     3
 72
    15
 73
    11
 74
     0
 42
0.000000001
 43
0.0000000001
 40
0.0
 40
0.0
 40
0.0
 40
0.0
 40
0.0963509274014347
 40
0.195212221227588
 40
0.3009515942447997
 40
0.4195954329937355
 40
0.5548829956202319
 40
0.7004210106289215
 40
0.8483495573845994
 40
1.0
 40
1.0
 40
1.0
 40
1.0
 10
397.5083668717926
 20
265.3339618755854
 30
0.0
 10
397.4831960925706
 20
265.3457747049701
 30
0.0
 10
397.4321987243616
 20
265.3697081400218
 30
0.0
 10
397.3718447233253
 20
265.4389821852605
 30
0.0
 10
397.3290427722911
 20
265.5321402184364
 30
0.0
 10
397.3094981824193
 20
265.6499099686647
 30
0.0
 10
397.3177209136288
 20
265.7847259047507
 30
0.0
 10
397.3556313588742
 20
265.9235059460817
 30
0.0
 10
397.419128180662
 20
266.0560800941853
 30
0.0
 10
397.4802513994951
 20
266.1274529642736
 30
0.0
 10
397.5111926988484
 20
266.1635827588306
 30
0.0
  0
SPLINE
  5
1C3
330
2
100
AcDbEntity
  8
0
100
AcDbSpline
210
0.0
220
0.0
230
1.0
 70
     8
 71
     3
 72
     9
 73
     5
 74
     0
 42
0.000000001
 43
0.0000000001
 40
0.0
 40
0.0
 40
0.0
 40
0.0
 40
0.5718308564225351
 40
1.0
 40
1.0
 40
1.0
 40
1.0
 10
400.8106000872285
 20
265.3835485975601
 30
0.0
 10
400.7830399465255
 20
265.2679950563217
 30
0.0
 10
400.7348436304418
 20
265.0659186207103
 30
0.0
 10
400.6878086467962
 20
264.8635309093936
 30
0.0
 10
400.6676697181306
 20
264.7768747363687
 30
0.0
  0
SPLINE
  5
1C4
330
2
100
AcDbEntity
  8
0
100
AcDbSpline
210
0.0
220
0.0
230
1.0
 70
     8
 71
     3
 72
     9
 73
     5
 74
     0
 42
0.000000001
 43
0.0000000001
 40
0.0
 40
0.0
 40
0.0
 40
0.0
 40
0.5718308887998629
 40
1.0
 40
1.0
 40
1.0
 40
1.0
 10
400.415834935884
 20
265.4975074807578
 30
0.0
 10
400.3854086655299
 20
265.3827813245514
 30
0.0
 10
400.3322001541501
 20
265.1821518054866
 30
0.0
 10
400.2778444677223
 20
264.9818773765852
 30
0.0
 10
400.2545710417758
 20
264.8961260523662
 30
0.0
  0
SPLINE
  5
1C5
330
2
100
AcDbEntity
  8
0
100
AcDbSpline
210
0.0
220
0.0
230
1.0
 70
     8
 71
     3
 72
     9
 73
     5
 74
     0
 42
0.000000001
 43
0.0000000001
 40
0.0
 40
0.0
 40
0.0
 40
0.0
 40
0.5718308887998629
 40
1.0
 40
1.0
 40
1.0
 40
1.0
 10
399.0036349378114
 20
265.9051745052762
 30
0.0
 10
398.9760753525166
 20
265.7896208083745
 30
0.0
 10
398.9278800104417
 20
265.5875441119858
 30
0.0
 10
398.8808439548364
 20
265.3851566876716
 30
0.0
 10
398.8607045687134
 20
265.2985006440848
 30
0.0
  0
LINE
  5
1C6
330
2
100
AcDbEntity
  8
0
100
AcDbLine
 10
425.7593100079636
 20
257.1584061833794
 30
0.0
 11
426.160117369944
 21
257.0631427595292
 31
0.0
  0
LINE
  5
1C7
330
2
100
AcDbEntity
  8
0
100
AcDbLine
 10
425.9544509854022
 20
258.5301967038476
 30
0.0
 11
398.3556176457174
 21
266.4970648174537
 31
0.0
  0
LINE
  5
1C8
330
2
100
AcDbEntity
  8
0
100
AcDbLine
 10
425.6262161702104
 20
257.5721917952894
 30
0.0
 11
425.2131174937721
 21
257.6914431112813
 31
0.0
  0
LINE
  5
1C9
330
2
100
AcDbEntity
  8
0
100
AcDbLine
 10
398.4476058922154
 20
265.4177519600672
 30
0.0
 11
398.8607045686535
 21
265.2985006440752
 31
0.0
  0
LINE
  5
1CA
330
2
100
AcDbEntity
  8
0
100
AcDbLine
 10
400.2545710417719
 20
264.8961260523042
 30
0.0
 11
400.6676697182101
 21
264.7768747363124
 31
0.0
  0
LINE
  5
1CB
330
2
100
AcDbEntity
  8
0
100
AcDbLine
 10
402.4077091242043
 20
264.2745686264878
 30
0.0
 11
401.9946104480751
 21
264.3938199424799
 31
0.0
  0
LINE
  5
1CC
330
2
100
AcDbEntity
  8
0
100
AcDbLine
 10
404.2146742737608
 20
263.752942718725
 30
0.0
 11
403.8015746001288
 21
263.8721943228089
 31
0.0
  0
LINE
  5
1CD
330
2
100
AcDbEntity
  8
0
100
AcDbLine
 10
406.0216384258145
 20
263.2313170990541
 30
0.0
 11
405.6085387521825
 21
263.350568702829
 31
0.0
  0
LINE
  5
1CE
330
2
100
AcDbEntity
  8
0
100
AcDbLine
 10
407.3485791556795
 20
262.8482623052216
 30
0.0
 11
407.7616778321177
 21
262.7290109892297
 31
0.0
  0
LINE
  5
1CF
330
2
100
AcDbEntity
  8
0
100
AcDbLine
 10
409.1555433080423
 20
262.3266366855507
 30
0.0
 11
409.5686424827684
 21
262.2073852255129
 31
0.0
  0
LINE
  5
1D0
330
2
100
AcDbEntity
  8
0
100
AcDbLine
 10
410.9625079586929
 20
261.8050109215247
 30
0.0
 11
411.3756071337281
 21
261.685759461796
 31
0.0
  0
LINE
  5
1D1
330
2
100
AcDbEntity
  8
0
100
AcDbLine
 10
413.1156470386282
 20
261.1834532079256
 30
0.0
 11
412.702547863593
 21
261.3027046679635
 31
0.0
  0
LINE
  5
1D2
330
2
100
AcDbEntity
  8
0
100
AcDbLine
 10
414.9226114398259
 20
260.6618275162317
 30
0.0
 11
414.5095120156467
 21
260.7810790479835
 31
0.0
  0
LINE
  5
1D3
330
2
100
AcDbEntity
  8
0
100
AcDbLine
 10
416.7295759037731
 20
260.1402018063002
 30
0.0
 11
416.3164766666066
 21
260.2594532842665
 31
0.0
  0
LINE
  5
1D4
330
2
100
AcDbEntity
  8
0
100
AcDbLine
 10
418.0565165090659
 20
259.7571470486337
 30
0.0
 11
418.4696157462326
 21
259.6378955706673
 31
0.0
  0
LINE
  5
1D5
330
2
100
AcDbEntity
  8
0
100
AcDbLine
 10
419.8634809727042
 20
259.2355213387022
 30
0.0
 11
420.2765803971924
 21
259.1162698069505
 31
0.0
  0
LINE
  5
1D6
330
2
100
AcDbEntity
  8
0
100
AcDbLine
 10
421.6704453742109
 20
258.7138956470083
 30
0.0
 11
422.0835445492461
 21
258.5946441869705
 31
0.0
  0
LINE
  5
1D7
330
2
100
AcDbEntity
  8
0
100
AcDbLine
 10
423.8235844541462
 20
258.0923379334091
 30
0.0
 11
423.4104852791109
 21
258.211589393138
 31
0.0
  0
LINE
  5
1D8
330
2
100
AcDbEntity
  8
0
100
AcDbLine
 10
425.6305491047968
 20
257.5707121696924
 30
0.0
 11
425.2174499297618
 21
257.6899636294211
 31
0.0
  0
LINE
  5
1D9
330
2
100
AcDbEntity
  8
0
100
AcDbLine
 10
397.8802800919541
 20
265.2061600815238
 30
0.0
 11
425.7592446665939
 21
257.1581962305339
 31
0.0
  0
LINE
  5
1DA
330
2
100
AcDbEntity
  8
0
100
AcDbLine
 10
425.4737223948724
 20
258.6689710944893
 30
0.0
 11
425.3743813880467
 21
258.2928245397752
 31
0.0
  0
LINE
  5
1DB
330
2
100
AcDbEntity
  8
0
100
AcDbLine
 10
425.859865315404
 20
258.5575012349336
 30
0.0
 11
425.7691465394459
 21
258.1788656565178
 31
0.0
  0
LINE
  5
1DC
330
2
100
AcDbEntity
  8
0
100
AcDbLine
 10
424.057233771123
 20
259.0776473232595
 30
0.0
 11
423.9665143244756
 21
258.6990119383744
 31
0.0
  0
LINE
  5
1DD
330
2
100
AcDbEntity
  8
0
100
AcDbLine
 10
422.3171945368646
 20
259.5799533834017
 30
0.0
 11
422.2264744195756
 21
259.2013181922447
 31
0.0
  0
LINE
  5
1DE
330
2
100
AcDbEntity
  8
0
100
AcDbLine
 10
423.6710900078723
 20
259.1891174260872
 30
0.0
 11
423.5717496716735
 21
258.8129706775858
 31
0.0
  0
LINE
  5
1DF
330
2
100
AcDbEntity
  8
0
100
AcDbLine
 10
421.9310499307916
 20
259.6914237295312
 30
0.0
 11
421.8317102656793
 21
259.3152767874103
 31
0.0
  0
LINE
  5
1E0
330
2
100
AcDbEntity
  8
0
100
AcDbLine
 10
418.7032652741419
 20
260.6232048997185
 30
0.0
 11
418.6125454919902
 21
260.2445696117986
 31
0.0
  0
LINE
  5
1E1
330
2
100
AcDbEntity
  8
0
100
AcDbLine
 10
420.1240856157729
 20
260.2130493963694
 30
0.0
 11
420.0247456147196
 21
259.8369025511271
 31
0.0
  0
LINE
  5
1E2
330
2
100
AcDbEntity
  8
0
100
AcDbLine
 10
420.5102298002416
 20
260.1015791719466
 30
0.0
 11
420.4195100180688
 21
259.7229438839387
 31
0.0
  0
LINE
  5
1E3
330
2
100
AcDbEntity
  8
0
100
AcDbLine
 10
416.963225369089
 20
261.1255111535027
 30
0.0
 11
416.8725055873992
 21
260.7468758653599
 31
0.0
  0
LINE
  5
1E4
330
2
100
AcDbEntity
  8
0
100
AcDbLine
 10
418.3171210892847
 20
260.7346751242537
 30
0.0
 11
418.2177810886408
 21
260.3585282789871
 31
0.0
  0
LINE
  5
1E5
330
2
100
AcDbEntity
  8
0
100
AcDbLine
 10
416.577081184841
 20
261.2369813778618
 30
0.0
 11
416.4777411837408
 21
260.8608345328574
 31
0.0
  0
LINE
  5
1E6
330
2
100
AcDbEntity
  8
0
100
AcDbLine
 10
413.3492965275816
 20
262.1687625482251
 30
0.0
 11
413.2585764103607
 21
261.7901273569367
 31
0.0
  0
LINE
  5
1E7
330
2
100
AcDbEntity
  8
0
100
AcDbLine
 10
414.7701166583531
 20
261.7586071057458
 30
0.0
 11
414.6707766576621
 21
261.3824602607174
 31
0.0
  0
LINE
  5
1E8
330
2
100
AcDbEntity
  8
0
100
AcDbLine
 10
415.156260843182
 20
261.6471368812189
 30
0.0
 11
415.0655410610114
 21
261.2685015932198
 31
0.0
  0
LINE
  5
1E9
330
2
100
AcDbEntity
  8
0
100
AcDbLine
 10
411.6092564506969
 20
262.6710688516127
 30
0.0
 11
411.5185370040577
 21
262.292433466761
 31
0.0
  0
LINE
  5
1EA
330
2
100
AcDbEntity
  8
0
100
AcDbLine
 10
412.9631519217296
 20
262.2802328942908
 30
0.0
 11
412.8638122561553
 21
261.9040859524113
 31
0.0
  0
LINE
  5
1EB
330
2
100
AcDbEntity
  8
0
100
AcDbLine
 10
411.2231126873464
 20
262.7825389544692
 30
0.0
 11
411.1237723515644
 21
262.4063922059725
 31
0.0
  0
LINE
  5
1EC
330
2
100
AcDbEntity
  8
0
100
AcDbLine
 10
407.9953269769929
 20
263.7143204288347
 30
0.0
 11
407.9046082010442
 21
263.335684850458
 31
0.0
  0
LINE
  5
1ED
330
2
100
AcDbEntity
  8
0
100
AcDbLine
 10
409.4161480368235
 20
263.304164718159
 30
0.0
 11
409.3168077006046
 21
262.9280179699986
 31
0.0
  0
LINE
  5
1EE
330
2
100
AcDbEntity
  8
0
100
AcDbLine
 10
409.8022917999552
 20
263.1926946153658
 30
0.0
 11
409.7115723534069
 21
262.8140592304781
 31
0.0
  0
LINE
  5
1EF
330
2
100
AcDbEntity
  8
0
100
AcDbLine
 10
406.2552879150485
 20
264.2166264392342
 30
0.0
 11
406.1645677978563
 21
263.8379912480652
 31
0.0
  0
LINE
  5
1F0
330
2
100
AcDbEntity
  8
0
100
AcDbLine
 10
407.6091840567475
 20
263.8257902883077
 30
0.0
 11
407.5098430499542
 21
263.4496437337156
 31
0.0
  0
LINE
  5
1F1
330
2
100
AcDbEntity
  8
0
100
AcDbLine
 10
405.8691433091937
 20
264.3280967853006
 30
0.0
 11
405.7698036436508
 21
263.9519498435399
 31
0.0
  0
LINE
  5
1F2
330
2
100
AcDbEntity
  8
0
100
AcDbLine
 10
402.6413582693892
 20
265.2598780660954
 30
0.0
 11
402.5506394934398
 21
264.8812424877163
 31
0.0
  0
LINE
  5
1F3
330
2
100
AcDbEntity
  8
0
100
AcDbLine
 10
404.0621791566818
 20
264.8497224052272
 30
0.0
 11
403.9628394915972
 21
264.4735754632108
 31
0.0
  0
LINE
  5
1F4
330
2
100
AcDbEntity
  8
0
100
AcDbLine
 10
404.4483237627572
 20
264.738252059097
 30
0.0
 11
404.3576036454935
 21
264.3596168680452
 31
0.0
  0
LINE
  5
1F5
330
2
100
AcDbEntity
  8
0
100
AcDbLine
 10
400.901318863082
 20
265.7621841759038
 30
0.0
 11
400.8106000871365
 21
265.3835485975407
 31
0.0
  0
LINE
  5
1F6
330
2
100
AcDbEntity
  8
0
100
AcDbLine
 10
402.2552140075081
 20
265.3713483128653
 30
0.0
 11
402.1558743420404
 21
264.9952013709738
 31
0.0
  0
LINE
  5
1F7
330
2
100
AcDbEntity
  8
0
100
AcDbLine
 10
397.8802800919541
 20
265.2061600815238
 30
0.0
 11
397.5083668719184
 21
265.333961875714
 31
0.0
  0
LINE
  5
1F8
330
2
100
AcDbEntity
  8
0
100
AcDbLine
 10
400.5151759425491
 20
265.8736540354598
 30
0.0
 11
400.4158349357373
 21
265.4975074807979
 31
0.0
  0
LINE
  5
1F9
330
2
100
AcDbEntity
  8
0
100
AcDbLine
 10
399.0943537138115
 20
266.2838100835698
 30
0.0
 11
399.0036349378891
 21
265.9051745053034
 31
0.0
  0
LINE
  5
1FA
330
2
100
AcDbEntity
  8
0
100
AcDbLine
 10
423.9665143244756
 20
258.6990119383744
 30
0.0
 11
424.3012010985258
 21
259.0072200221858
 31
0.0
  0
LINE
  5
1FB
330
2
100
AcDbEntity
  8
0
100
AcDbLine
 10
422.2264744195756
 20
259.2013181922447
 30
0.0
 11
422.5611611935176
 21
259.5095262759568
 31
0.0
  0
LINE
  5
1FC
330
2
100
AcDbEntity
  8
0
100
AcDbLine
 10
418.6125454919902
 20
260.2445696117986
 30
0.0
 11
418.9472320985083
 21
260.5527777438589
 31
0.0
  0
LINE
  5
1FD
330
2
100
AcDbEntity
  8
0
100
AcDbLine
 10
420.4195100180688
 20
259.7229438839387
 30
0.0
 11
420.754196792103
 21
260.0311519677354
 31
0.0
  0
LINE
  5
1FE
330
2
100
AcDbEntity
  8
0
100
AcDbLine
 10
416.8725055873992
 20
260.7468758653599
 30
0.0
 11
417.2071922775522
 21
261.0550839733664
 31
0.0
  0
LINE
  5
1FF
330
2
100
AcDbEntity
  8
0
100
AcDbLine
 10
413.2585764103607
 20
261.7901273569367
 30
0.0
 11
413.5932631843954
 21
262.0983354407339
 31
0.0
  0
LINE
  5
200
330
2
100
AcDbEntity
  8
0
100
AcDbLine
 10
415.0655410610114
 20
261.2685015932198
 30
0.0
 11
415.4002278350378
 21
261.5767096770094
 31
0.0
  0
LINE
  5
201
330
2
100
AcDbEntity
  8
0
100
AcDbLine
 10
411.5185370040577
 20
262.292433466761
 30
0.0
 11
411.8532231073212
 21
262.600641744176
 31
0.0
  0
LINE
  5
202
330
2
100
AcDbEntity
  8
0
100
AcDbLine
 10
407.9046082010442
 20
263.335684850458
 30
0.0
 11
408.2392943045798
 21
263.6438931277079
 31
0.0
  0
LINE
  5
203
330
2
100
AcDbEntity
  8
0
100
AcDbLine
 10
409.7115723534069
 20
262.8140592304781
 30
0.0
 11
410.0462591274355
 21
263.1222673142698
 31
0.0
  0
LINE
  5
204
330
2
100
AcDbEntity
  8
0
100
AcDbLine
 10
406.1645677978563
 20
263.8379912480652
 30
0.0
 11
406.4992552422254
 21
264.1461991382257
 31
0.0
  0
LINE
  5
205
330
2
100
AcDbEntity
  8
0
100
AcDbLine
 10
402.5506394934398
 20
264.8812424877163
 30
0.0
 11
402.885325596634
 21
265.1894507650673
 31
0.0
  0
LINE
  5
206
330
2
100
AcDbEntity
  8
0
100
AcDbLine
 10
404.3576036454935
 20
264.3596168680452
 30
0.0
 11
404.6922897489293
 21
264.6678251452032
 31
0.0
  0
LINE
  5
207
330
2
100
AcDbEntity
  8
0
100
AcDbLine
 10
400.8106000871365
 20
265.3835485975407
 30
0.0
 11
401.0594297101465
 21
265.6126939142721
 31
0.0
  0
LINE
  5
208
330
2
100
AcDbEntity
  8
0
100
AcDbLine
 10
399.0036349378891
 20
265.9051745053034
 30
0.0
 11
399.3383223824973
 21
266.2133823953011
 31
0.0
  0
LINE
  5
209
330
2
100
AcDbEntity
  8
0
100
AcDbLine
 10
397.3170966760282
 20
265.7441018602091
 30
0.0
 11
426.5561262989849
 21
257.3035210484239
 31
0.0
  0
LINE
  5
20A
330
2
100
AcDbEntity
  8
0
100
AcDbLine
 10
425.7691465393723
 20
258.1788656564869
 30
0.0
 11
426.0905099900423
 21
258.4748052684958
 31
0.0
  0
LINE
  5
20B
330
2
100
AcDbEntity
  8
0
100
AcDbLine
 10
398.7082107932764
 20
266.3952799431264
 30
0.0
 11
398.4476058923588
 21
265.4177519600823
 31
0.0
  0
SPLINE
  5
20C
330
2
100
AcDbEntity
  8
0
100
AcDbSpline
210
0.0
220
0.0
230
1.0
 70
     8
 71
     3
 72
     8
 73
     4
 74
     0
 42
0.000000001
 43
0.0000000001
 40
0.0
 40
0.0
 40
0.0
 40
0.0
 40
1.0
 40
1.0
 40
1.0
 40
1.0
 10
398.1363666004822
 20
232.165037044484
 30
0.0
 10
398.2105084891763
 20
232.1328052826459
 30
0.0
 10
398.2842213267691
 20
232.1060264707675
 30
0.0
 10
398.3556171451518
 20
232.085386961547
 30
0.0
  0
SPLINE
  5
20D
330
2
100
AcDbEntity
  8
0
100
AcDbSpline
210
0.0
220
0.0
230
1.0
 70
     8
 71
     3
 72
    12
 73
     8
 74
     0
 42
0.000000001
 43
0.0000000001
 40
0.0
 40
0.0
 40
0.0
 40
0.0
 40
0.1640679824131984
 40
0.3281099996996862
 40
0.492132075864575
 40
0.7762585991390291
 40
1.0
 40
1.0
 40
1.0
 40
1.0
 10
397.8802792086563
 20
232.8765234778725
 30
0.0
 10
397.8591528199041
 20
232.8827136143971
 30
0.0
 10
397.8169033858264
 20
232.8950929078055
 30
0.0
 10
397.7545720171418
 20
232.914194976327
 30
0.0
 10
397.6780583163636
 20
232.9384332136018
 30
0.0
 10
397.5955882543989
 20
232.9657562717599
 30
0.0
 10
397.5350404685651
 20
232.9873143540202
 30
0.0
 10
397.5083661192361
 20
232.9968117750929
 30
0.0
  0
SPLINE
  5
20E
330
2
100
AcDbEntity
  8
0
100
AcDbSpline
210
0.0
220
0.0
230
1.0
 70
     8
 71
     3
 72
    25
 73
    21
 74
     0
 42
0.000000001
 43
0.0000000001
 40
0.0
 40
0.0
 40
0.0
 40
0.0
 40
0.0235737597006877
 40
0.0473997570532455
 40
0.0716987839538936
 40
0.0964751318441833
 40
0.1442437961298869
 40
0.195412333337609
 40
0.2458102324401843
 40
0.3012284987081159
 40
0.4196388607215643
 40
0.4951720926771828
 40
0.5752959455378433
 40
0.6379004014367155
 40
0.700460549418188
 40
0.7602003390405022
 40
0.8199848277463619
 40
0.8798564660317776
 40
0.9398508288248942
 40
1.0
 40
1.0
 40
1.0
 40
1.0
 10
397.5083661192344
 20
232.9968117750905
 30
0.0
 10
397.5020557396164
 20
232.9991556096957
 30
0.0
 10
397.4893674597408
 20
233.0038683577797
 30
0.0
 10
397.4709580088492
 20
233.0099185729683
 30
0.0
 10
397.4529438977954
 20
233.0151604726768
 30
0.0
 10
397.4301742400641
 20
233.0207268671056
 30
0.0
 10
397.4034483701267
 20
233.025211730634
 30
0.0
 10
397.3757348089587
 20
233.0261188838357
 30
0.0
 10
397.3519988618491
 20
233.0221764670119
 30
0.0
 10
397.3264087739715
 20
233.0095894517476
 30
0.0
 10
397.3126804499309
 20
232.9839303699076
 30
0.0
 10
397.3136521533066
 20
232.9450909632384
 30
0.0
 10
397.3232088041682
 20
232.9087195657438
 30
0.0
 10
397.3390498365028
 20
232.8708095054293
 30
0.0
 10
397.3582732749098
 20
232.8342774855475
 30
0.0
 10
397.3815736880896
 20
232.7965218821888
 30
0.0
 10
397.4084329103452
 20
232.7580204418033
 30
0.0
 10
397.4390766585341
 20
232.7185683419632
 30
0.0
 10
397.4730468818402
 20
232.6785055930785
 30
0.0
 10
397.498466690481
 20
232.6517583152884
 30
0.0
 10
397.511192971877
 20
232.6383674440769
 30
0.0
  0
SPLINE
  5
20F
330
2
100
AcDbEntity
  8
0
100
AcDbSpline
210
0.0
220
0.0
230
1.0
 70
     8
 71
     3
 72
     8
 73
     4
 74
     0
 42
0.000000001
 43
0.0000000001
 40
0.0
 40
0.0
 40
0.0
 40
0.0
 40
1.0
 40
1.0
 40
1.0
 40
1.0
 10
397.5111929718792
 20
232.6383674440798
 30
0.0
 10
397.539706955449
 20
232.6075167583226
 30
0.0
 10
397.5681986097121
 20
232.5770230305991
 30
0.0
 10
397.5966698052666
 20
232.5468581309486
 30
0.0
  0
SPLINE
  5
210
330
2
100
AcDbEntity
  8
0
100
AcDbSpline
210
0.0
220
0.0
230
1.0
 70
     8
 71
     3
 72
    17
 73
    13
 74
     0
 42
0.000000001
 43
0.0000000001
 40
0.0
 40
0.0
 40
0.0
 40
0.0
 40
0.0548483114358953
 40
0.1374792539378433
 40
0.2480004522058223
 40
0.3729705539238236
 40
0.4980973165827459
 40
0.6029955965319198
 40
0.7490828469807517
 40
0.8450938430744781
 40
0.9287472560154515
 40
1.0
 40
1.0
 40
1.0
 40
1.0
 10
397.596669805265
 20
232.5468581309465
 30
0.0
 10
397.604477863325
 20
232.5387053254212
 30
0.0
 10
397.6240490400615
 20
232.518270026836
 30
0.0
 10
397.6612998873672
 20
232.4816299156966
 30
0.0
 10
397.7118461649175
 20
232.4352615540375
 30
0.0
 10
397.7729608890163
 20
232.3841418896881
 30
0.0
 10
397.8367321926489
 20
232.3360580139043
 30
0.0
 10
397.9070637590796
 20
232.2877670849899
 30
0.0
 10
397.9744222712416
 20
232.2462199147032
 30
0.0
 10
398.039370446544
 20
232.2107619715191
 30
0.0
 10
398.0901354732269
 20
232.1854943761055
 30
0.0
 10
398.1218012012826
 20
232.1714822518449
 30
0.0
 10
398.1363666004828
 20
232.1650370444856
 30
0.0
  0
LINE
  5
211
330
2
100
AcDbEntity
  8
0
100
AcDbLine
 10
397.8802800918797
 20
232.8765227404917
 30
0.0
 11
426.2717789918164
 21
224.6806029741616
 31
0.0
  0
LINE
  5
212
330
2
100
AcDbEntity
  8
0
100
AcDbLine
 10
425.9544191314629
 20
224.1182989187434
 30
0.0
 11
398.3556176456431
 21
232.0853866524211
 31
0.0
  0
LINE
  5
213
330
2
100
AcDbEntity
  8
0
100
AcDbLine
 10
418.2966694924032
 20
226.6649793013737
 30
0.0
 11
418.6845883052207
 21
226.55299678577
 31
0.0
  0
LINE
  5
214
330
2
100
AcDbEntity
  8
0
100
AcDbLine
 10
418.6845883052207
 20
226.55299678577
 30
0.0
 11
418.8303573633259
 21
226.828756364354
 31
0.0
  0
LINE
  5
215
330
2
100
AcDbEntity
  8
0
100
AcDbLine
 10
420.1036338314694
 20
226.1433536272991
 30
0.0
 11
420.4915528312994
 21
226.0313710579101
 31
0.0
  0
LINE
  5
216
330
2
100
AcDbEntity
  8
0
100
AcDbLine
 10
420.4915528312994
 20
226.0313710579101
 30
0.0
 11
420.6373218894427
 21
226.3071306365663
 31
0.0
  0
LINE
  5
217
330
2
100
AcDbEntity
  8
0
100
AcDbLine
 10
421.9105984824292
 20
225.6217278635823
 30
0.0
 11
422.2985174822591
 21
225.5097452941931
 31
0.0
  0
LINE
  5
218
330
2
100
AcDbEntity
  8
0
100
AcDbLine
 10
422.2985174822591
 20
225.5097452941931
 30
0.0
 11
422.4442862227357
 21
225.7855049644423
 31
0.0
  0
LINE
  5
219
330
2
100
AcDbEntity
  8
0
100
AcDbLine
 10
424.0385573868502
 20
225.0074390403228
 30
0.0
 11
423.6506383870199
 21
225.119421610021
 31
0.0
  0
LINE
  5
21A
330
2
100
AcDbEntity
  8
0
100
AcDbLine
 10
424.0385573868502
 20
225.0074390403228
 30
0.0
 11
424.184326127584
 21
225.2831987107073
 31
0.0
  0
LINE
  5
21B
330
2
100
AcDbEntity
  8
0
100
AcDbLine
 10
425.8455215392131
 20
224.4858134206518
 30
0.0
 11
425.457602539383
 21
224.597795990041
 31
0.0
  0
LINE
  5
21C
330
2
100
AcDbEntity
  8
0
100
AcDbLine
 10
425.8455215392131
 20
224.4858134206518
 30
0.0
 11
425.9912909147551
 21
224.7615729075599
 31
0.0
  0
LINE
  5
21D
330
2
100
AcDbEntity
  8
0
100
AcDbLine
 10
398.6877580032397
 20
232.3255844647329
 30
0.0
 11
399.0756780002637
 21
232.213601607252
 31
0.0
  0
LINE
  5
21E
330
2
100
AcDbEntity
  8
0
100
AcDbLine
 10
399.0756780002637
 20
232.213601607252
 30
0.0
 11
399.2214461055406
 21
232.4893614609821
 31
0.0
  0
LINE
  5
21F
330
2
100
AcDbEntity
  8
0
100
AcDbLine
 10
400.4947231524872
 20
231.8039585569701
 30
0.0
 11
400.8826411551235
 21
231.6919762753639
 31
0.0
  0
LINE
  5
220
330
2
100
AcDbEntity
  8
0
100
AcDbLine
 10
400.8826411551235
 20
231.6919762753639
 30
0.0
 11
401.0284118015468
 21
231.9677353954767
 31
0.0
  0
LINE
  5
221
330
2
100
AcDbEntity
  8
0
100
AcDbLine
 10
402.6226815586205
 20
231.1896698777566
 30
0.0
 11
402.2347625587903
 21
231.3016524471458
 31
0.0
  0
LINE
  5
222
330
2
100
AcDbEntity
  8
0
100
AcDbLine
 10
402.6226815586205
 20
231.1896698777566
 30
0.0
 11
402.7684509343437
 21
231.4654293646137
 31
0.0
  0
LINE
  5
223
330
2
100
AcDbEntity
  8
0
100
AcDbLine
 10
404.4296467078679
 20
230.6680439699938
 30
0.0
 11
404.0417277080378
 21
230.7800265393828
 31
0.0
  0
LINE
  5
224
330
2
100
AcDbEntity
  8
0
100
AcDbLine
 10
404.4296467078679
 20
230.6680439699938
 30
0.0
 11
404.575414813471
 21
230.9438038235959
 31
0.0
  0
LINE
  5
225
330
2
100
AcDbEntity
  8
0
100
AcDbLine
 10
406.2366108602309
 20
230.1464183500137
 30
0.0
 11
405.8486918604008
 21
230.258400919712
 31
0.0
  0
LINE
  5
226
330
2
100
AcDbEntity
  8
0
100
AcDbLine
 10
406.2366108602309
 20
230.1464183500137
 30
0.0
 11
406.3823802358554
 21
230.4221778370783
 31
0.0
  0
LINE
  5
227
330
2
100
AcDbEntity
  8
0
100
AcDbLine
 10
407.5887322638976
 20
229.7560945217956
 30
0.0
 11
407.9766502662248
 21
229.6441122401893
 31
0.0
  0
LINE
  5
228
330
2
100
AcDbEntity
  8
0
100
AcDbLine
 10
407.9766502662248
 20
229.6441122401893
 30
0.0
 11
408.1224196422352
 21
229.9198717272387
 31
0.0
  0
LINE
  5
229
330
2
100
AcDbEntity
  8
0
100
AcDbLine
 10
409.3956964159515
 20
229.2344689021247
 30
0.0
 11
409.7836154157816
 21
229.1224863327355
 31
0.0
  0
LINE
  5
22A
330
2
100
AcDbEntity
  8
0
100
AcDbLine
 10
409.7836154157816
 20
229.1224863327355
 30
0.0
 11
409.9293841562388
 21
229.3982460029479
 31
0.0
  0
LINE
  5
22B
330
2
100
AcDbEntity
  8
0
100
AcDbLine
 10
411.2026605680053
 20
228.7128432821446
 30
0.0
 11
411.5905795678353
 21
228.6008607127556
 31
0.0
  0
LINE
  5
22C
330
2
100
AcDbEntity
  8
0
100
AcDbLine
 10
411.5905795678353
 20
228.6008607127556
 30
0.0
 11
411.736348943786
 21
228.876620199692
 31
0.0
  0
LINE
  5
22D
330
2
100
AcDbEntity
  8
0
100
AcDbLine
 10
413.3306194727353
 20
228.0985544591942
 30
0.0
 11
412.9427004729052
 21
228.2105370285834
 31
0.0
  0
LINE
  5
22E
330
2
100
AcDbEntity
  8
0
100
AcDbLine
 10
413.3306194727353
 20
228.0985544591942
 30
0.0
 11
413.4763888484386
 21
228.3743139460134
 31
0.0
  0
LINE
  5
22F
330
2
100
AcDbEntity
  8
0
100
AcDbLine
 10
415.137584123695
 20
227.5769286951682
 30
0.0
 11
414.7496651238649
 21
227.6889112648664
 31
0.0
  0
LINE
  5
230
330
2
100
AcDbEntity
  8
0
100
AcDbLine
 10
415.137584123695
 20
227.5769286951682
 30
0.0
 11
415.2833531815121
 21
227.8526882739526
 31
0.0
  0
LINE
  5
231
330
2
100
AcDbEntity
  8
0
100
AcDbLine
 10
416.9445484627614
 20
227.0553030214028
 30
0.0
 11
416.5566296499437
 21
227.1672855370064
 31
0.0
  0
LINE
  5
232
330
2
100
AcDbEntity
  8
0
100
AcDbLine
 10
416.9445484627614
 20
227.0553030214028
 30
0.0
 11
417.0903176000564
 21
227.3310625772188
 31
0.0
  0
LINE
  5
233
330
2
100
AcDbEntity
  8
0
100
AcDbLine
 10
425.7734789753609
 20
224.653814915798
 30
0.0
 11
425.6907041387571
 21
224.8483448355789
 31
0.0
  0
LINE
  5
234
330
2
100
AcDbEntity
  8
0
100
AcDbLine
 10
425.8455215392131
 20
224.4858134206518
 30
0.0
 11
425.7734789753609
 21
224.653814915798
 31
0.0
  0
LINE
  5
235
330
2
100
AcDbEntity
  8
0
100
AcDbLine
 10
425.457602539383
 20
224.597795990041
 30
0.0
 11
425.3787143225586
 21
224.7677736550095
 31
0.0
  0
LINE
  5
236
330
2
100
AcDbEntity
  8
0
100
AcDbLine
 10
425.3787143225586
 20
224.7677736550095
 30
0.0
 11
425.2865325500485
 21
224.9650191233494
 31
0.0
  0
LINE
  5
237
330
2
100
AcDbEntity
  8
0
100
AcDbLine
 10
423.9665143244011
 20
225.1754406795149
 30
0.0
 11
423.8837394881452
 21
225.3699705993051
 31
0.0
  0
LINE
  5
238
330
2
100
AcDbEntity
  8
0
100
AcDbLine
 10
424.0385573868502
 20
225.0074390403228
 30
0.0
 11
423.9665143244011
 21
225.1754406795149
 31
0.0
  0
LINE
  5
239
330
2
100
AcDbEntity
  8
0
100
AcDbLine
 10
423.6506383870199
 20
225.119421610021
 30
0.0
 11
423.5717496715988
 21
225.2893994187263
 31
0.0
  0
LINE
  5
23A
330
2
100
AcDbEntity
  8
0
100
AcDbLine
 10
423.5717496715988
 20
225.2893994187263
 30
0.0
 11
423.4795678990295
 21
225.486644887193
 31
0.0
  0
LINE
  5
23B
330
2
100
AcDbEntity
  8
0
100
AcDbLine
 10
422.226474419501
 20
225.6777469330761
 30
0.0
 11
422.1437001505251
 21
225.8722766892955
 31
0.0
  0
LINE
  5
23C
330
2
100
AcDbEntity
  8
0
100
AcDbLine
 10
422.2985174822591
 20
225.5097452941931
 30
0.0
 11
422.226474419501
 21
225.6777469330761
 31
0.0
  0
LINE
  5
23D
330
2
100
AcDbEntity
  8
0
100
AcDbLine
 10
421.9105984824292
 20
225.6217278635823
 30
0.0
 11
421.8317102656048
 21
225.7917055285509
 31
0.0
  0
LINE
  5
23E
330
2
100
AcDbEntity
  8
0
100
AcDbLine
 10
421.8317102656048
 20
225.7917055285509
 30
0.0
 11
421.7395279257035
 21
225.9889511606959
 31
0.0
  0
LINE
  5
23F
330
2
100
AcDbEntity
  8
0
100
AcDbLine
 10
420.4195100179943
 20
226.1993726250792
 30
0.0
 11
420.3367354651377
 21
226.3939024630605
 31
0.0
  0
LINE
  5
240
330
2
100
AcDbEntity
  8
0
100
AcDbLine
 10
420.4915528312994
 20
226.0313710579101
 30
0.0
 11
420.4195100179943
 21
226.1993726250792
 31
0.0
  0
LINE
  5
241
330
2
100
AcDbEntity
  8
0
100
AcDbLine
 10
420.1036338314694
 20
226.1433536272991
 30
0.0
 11
420.0247456146451
 21
226.3133312922676
 31
0.0
  0
LINE
  5
242
330
2
100
AcDbEntity
  8
0
100
AcDbLine
 10
420.0247456146451
 20
226.3133312922676
 30
0.0
 11
419.9325635586748
 21
226.5105768425586
 31
0.0
  0
LINE
  5
243
330
2
100
AcDbEntity
  8
0
100
AcDbLine
 10
418.6125454919158
 20
226.7209983529392
 30
0.0
 11
418.5297709390995
 21
226.9155281908253
 31
0.0
  0
LINE
  5
244
330
2
100
AcDbEntity
  8
0
100
AcDbLine
 10
418.6845883052207
 20
226.55299678577
 30
0.0
 11
418.6125454919158
 21
226.7209983529392
 31
0.0
  0
LINE
  5
245
330
2
100
AcDbEntity
  8
0
100
AcDbLine
 10
418.2966694924032
 20
226.6649793013737
 30
0.0
 11
418.2177810885664
 21
226.8349570201277
 31
0.0
  0
LINE
  5
246
330
2
100
AcDbEntity
  8
0
100
AcDbLine
 10
418.2177810885664
 20
226.8349570201277
 30
0.0
 11
418.1255989615421
 21
227.0322025908468
 31
0.0
  0
LINE
  5
247
330
2
100
AcDbEntity
  8
0
100
AcDbLine
 10
416.8725055873247
 20
227.2233046065003
 30
0.0
 11
416.7897311051524
 21
227.4178344240929
 31
0.0
  0
LINE
  5
248
330
2
100
AcDbEntity
  8
0
100
AcDbLine
 10
416.9445484627614
 20
227.0553030214028
 30
0.0
 11
416.8725055873247
 21
227.2233046065003
 31
0.0
  0
LINE
  5
249
330
2
100
AcDbEntity
  8
0
100
AcDbLine
 10
416.5566296499437
 20
227.1672855370064
 30
0.0
 11
416.4777411836665
 21
227.3372632736888
 31
0.0
  0
LINE
  5
24A
330
2
100
AcDbEntity
  8
0
100
AcDbLine
 10
416.4777411836665
 20
227.3372632736888
 30
0.0
 11
416.3855591276392
 21
227.5345088241016
 31
0.0
  0
LINE
  5
24B
330
2
100
AcDbEntity
  8
0
100
AcDbLine
 10
415.065541060937
 20
227.7449303343604
 30
0.0
 11
414.9827665080697
 21
227.9394601723665
 31
0.0
  0
LINE
  5
24C
330
2
100
AcDbEntity
  8
0
100
AcDbLine
 10
415.137584123695
 20
227.5769286951682
 30
0.0
 11
415.065541060937
 21
227.7449303343604
 31
0.0
  0
LINE
  5
24D
330
2
100
AcDbEntity
  8
0
100
AcDbLine
 10
414.7496651238649
 20
227.6889112648664
 30
0.0
 11
414.6707766575877
 21
227.8588890015488
 31
0.0
  0
LINE
  5
24E
330
2
100
AcDbEntity
  8
0
100
AcDbLine
 10
414.6707766575877
 20
227.8588890015488
 30
0.0
 11
414.5785946016058
 21
228.056134551865
 31
0.0
  0
LINE
  5
24F
330
2
100
AcDbEntity
  8
0
100
AcDbLine
 10
413.2585764102863
 20
228.2665560980773
 30
0.0
 11
413.1758021409797
 21
228.4610858542469
 31
0.0
  0
LINE
  5
250
330
2
100
AcDbEntity
  8
0
100
AcDbLine
 10
413.3306194727353
 20
228.0985544591942
 30
0.0
 11
413.2585764102863
 21
228.2665560980773
 31
0.0
  0
LINE
  5
251
330
2
100
AcDbEntity
  8
0
100
AcDbLine
 10
412.9427004729052
 20
228.2105370285834
 30
0.0
 11
412.8638122560808
 21
228.3805146935519
 31
0.0
  0
LINE
  5
252
330
2
100
AcDbEntity
  8
0
100
AcDbLine
 10
412.8638122560808
 20
228.3805146935519
 30
0.0
 11
412.7716299162099
 21
228.5777603256325
 31
0.0
  0
LINE
  5
253
330
2
100
AcDbEntity
  8
0
100
AcDbLine
 10
411.5185370039831
 20
228.7688622079017
 30
0.0
 11
411.4357621677093
 21
228.9633921277338
 31
0.0
  0
LINE
  5
254
330
2
100
AcDbEntity
  8
0
100
AcDbLine
 10
411.5905795678353
 20
228.6008607127556
 30
0.0
 11
411.5185370039831
 21
228.7688622079017
 31
0.0
  0
LINE
  5
255
330
2
100
AcDbEntity
  8
0
100
AcDbLine
 10
411.2026605680053
 20
228.7128432821446
 30
0.0
 11
411.12377235149
 21
228.8828209471132
 31
0.0
  0
LINE
  5
256
330
2
100
AcDbEntity
  8
0
100
AcDbLine
 10
411.12377235149
 20
228.8828209471132
 30
0.0
 11
411.0315905789491
 21
229.0800664155191
 31
0.0
  0
LINE
  5
257
330
2
100
AcDbEntity
  8
0
100
AcDbLine
 10
409.7115723533326
 20
229.2904879716186
 30
0.0
 11
409.6388173244871
 21
229.4614702472192
 31
0.0
  0
LINE
  5
258
330
2
100
AcDbEntity
  8
0
100
AcDbLine
 10
409.7836154157816
 20
229.1224863327355
 30
0.0
 11
409.7115723533326
 21
229.2904879716186
 31
0.0
  0
LINE
  5
259
330
2
100
AcDbEntity
  8
0
100
AcDbLine
 10
409.3956964159515
 20
229.2344689021247
 30
0.0
 11
409.3168077005302
 21
229.40444671083
 31
0.0
  0
LINE
  5
25A
330
2
100
AcDbEntity
  8
0
100
AcDbLine
 10
409.3168077005302
 20
229.40444671083
 30
0.0
 11
409.2246259279301
 21
229.6016921793628
 31
0.0
  0
LINE
  5
25B
330
2
100
AcDbEntity
  8
0
100
AcDbLine
 10
407.9046082009697
 20
229.8121135915987
 30
0.0
 11
407.8218327975267
 21
230.0066436750928
 31
0.0
  0
LINE
  5
25C
330
2
100
AcDbEntity
  8
0
100
AcDbLine
 10
407.9766502662248
 20
229.6441122401893
 30
0.0
 11
407.9046082009697
 21
229.8121135915987
 31
0.0
  0
LINE
  5
25D
330
2
100
AcDbEntity
  8
0
100
AcDbLine
 10
407.5887322638976
 20
229.7560945217956
 30
0.0
 11
407.5098430498796
 21
229.926072474547
 31
0.0
  0
LINE
  5
25E
330
2
100
AcDbEntity
  8
0
100
AcDbLine
 10
407.5098430498796
 20
229.926072474547
 30
0.0
 11
407.4176618446523
 21
230.1233177793136
 31
0.0
  0
LINE
  5
25F
330
2
100
AcDbEntity
  8
0
100
AcDbLine
 10
406.1645677977818
 20
230.3144199892058
 30
0.0
 11
406.0817935285172
 21
230.508949745277
 31
0.0
  0
LINE
  5
260
330
2
100
AcDbEntity
  8
0
100
AcDbLine
 10
406.2366108602309
 20
230.1464183500137
 30
0.0
 11
406.1645677977818
 21
230.3144199892058
 31
0.0
  0
LINE
  5
261
330
2
100
AcDbEntity
  8
0
100
AcDbLine
 10
405.8486918604008
 20
230.258400919712
 30
0.0
 11
405.7698036435765
 21
230.4283785843713
 31
0.0
  0
LINE
  5
262
330
2
100
AcDbEntity
  8
0
100
AcDbLine
 10
405.7698036435765
 20
230.4283785843713
 30
0.0
 11
405.6776213037751
 21
230.6256242166544
 31
0.0
  0
LINE
  5
263
330
2
100
AcDbEntity
  8
0
100
AcDbLine
 10
404.357603645419
 20
230.8360456088768
 30
0.0
 11
404.274829376447
 21
231.0305753650865
 31
0.0
  0
LINE
  5
264
330
2
100
AcDbEntity
  8
0
100
AcDbLine
 10
404.4296467078679
 20
230.6680439699938
 30
0.0
 11
404.357603645419
 21
230.8360456088768
 31
0.0
  0
LINE
  5
265
330
2
100
AcDbEntity
  8
0
100
AcDbLine
 10
404.0417277080378
 20
230.7800265393828
 30
0.0
 11
403.9628394915227
 21
230.9500042043514
 31
0.0
  0
LINE
  5
266
330
2
100
AcDbEntity
  8
0
100
AcDbLine
 10
403.9628394915227
 20
230.9500042043514
 30
0.0
 11
403.870657151626
 21
231.1472498364868
 31
0.0
  0
LINE
  5
267
330
2
100
AcDbEntity
  8
0
100
AcDbLine
 10
402.5506394933653
 20
231.3576712288567
 30
0.0
 11
402.4678640895049
 21
231.5522013125054
 31
0.0
  0
LINE
  5
268
330
2
100
AcDbEntity
  8
0
100
AcDbLine
 10
402.6226815586205
 20
231.1896698777566
 30
0.0
 11
402.5506394933653
 21
231.3576712288567
 31
0.0
  0
LINE
  5
269
330
2
100
AcDbEntity
  8
0
100
AcDbLine
 10
402.2347625587903
 20
231.3016524471458
 30
0.0
 11
402.1558743419659
 21
231.4716301121143
 31
0.0
  0
LINE
  5
26A
330
2
100
AcDbEntity
  8
0
100
AcDbLine
 10
402.1558743419659
 20
231.4716301121143
 30
0.0
 11
402.0636920020715
 21
231.6688757442452
 31
0.0
  0
LINE
  5
26B
330
2
100
AcDbEntity
  8
0
100
AcDbLine
 10
400.8106000870619
 20
231.8599773386812
 30
0.0
 11
400.727824683606
 21
232.0545074222062
 31
0.0
  0
LINE
  5
26C
330
2
100
AcDbEntity
  8
0
100
AcDbLine
 10
400.8826411551235
 20
231.6919762753639
 30
0.0
 11
400.8106000870619
 21
231.8599773386812
 31
0.0
  0
LINE
  5
26D
330
2
100
AcDbEntity
  8
0
100
AcDbLine
 10
400.4947231524872
 20
231.8039585569701
 30
0.0
 11
400.415834935663
 21
231.9739362219387
 31
0.0
  0
LINE
  5
26E
330
2
100
AcDbEntity
  8
0
100
AcDbLine
 10
400.415834935663
 20
231.9739362219387
 30
0.0
 11
400.323652595772
 21
232.1711818540617
 31
0.0
  0
LINE
  5
26F
330
2
100
AcDbEntity
  8
0
100
AcDbLine
 10
399.0036349378146
 20
232.381603246444
 30
0.0
 11
398.9208606684046
 21
232.5761330025052
 31
0.0
  0
LINE
  5
270
330
2
100
AcDbEntity
  8
0
100
AcDbLine
 10
399.0756780002637
 20
232.213601607252
 30
0.0
 11
399.0036349378146
 21
232.381603246444
 31
0.0
  0
LINE
  5
271
330
2
100
AcDbEntity
  8
0
100
AcDbLine
 10
398.6877580032397
 20
232.3255844647329
 30
0.0
 11
398.6088697864154
 21
232.4955621293924
 31
0.0
  0
LINE
  5
272
330
2
100
AcDbEntity
  8
0
100
AcDbLine
 10
398.6088697864154
 20
232.4955621293924
 30
0.0
 11
398.5166874465979
 21
232.6928077617104
 31
0.0
  0
LINE
  5
273
330
2
100
AcDbEntity
  8
0
100
AcDbLine
 10
429.1321636947221
 20
222.1895372543357
 30
0.0
 11
429.2206248836007
 21
222.2483843389097
 31
0.0
  0
ELLIPSE
  5
274
330
2
100
AcDbEntity
  8
0
100
AcDbEllipse
 10
395.3117435473346
 20
253.1544877287628
 30
0.0
 11
-0.3389984895737023
 21
-1.188186057891585
 31
0.0
210
0.0
220
0.0
230
1.0
 40
0.460484873336336
 41
3.078702321273086
 42
6.331946567686848
  0
ELLIPSE
  5
275
330
2
100
AcDbEntity
  8
0
100
AcDbEllipse
 10
397.7302332448857
 20
252.4274581967319
 30
0.0
 11
-1.288489038309276
 21
-4.463461270216716
 31
0.0
210
0.0
220
0.0
230
1.0
 40
0.4322293424115272
 41
4.567000015194523
 42
6.035454284493272
  0
ELLIPSE
  5
276
330
2
100
AcDbEntity
  8
0
100
AcDbEllipse
 10
397.2017052776929
 20
252.6069663434199
 30
0.0
 11
-1.288489038309276
 21
-4.463461270216716
 31
0.0
210
0.0
220
0.0
230
1.0
 40
0.4322293424115272
 41
4.270890366929601
 42
6.283185307179584
  0
LINE
  5
277
330
2
100
AcDbEntity
  8
0
100
AcDbLine
 10
395.9132162393835
 20
248.1435050732031
 30
0.0
 11
396.0118195699955
 21
248.121153310945
 31
0.0
  0
ENDSEC
  0
SECTION
  2
OBJECTS
  0
DICTIONARY
  5
9
330
0
100
AcDbDictionary
281
     1
  3
ACAD_COLOR
350
3E
  3
ACAD_GROUP
350
35
  3
ACAD_LAYOUT
350
16
  3
ACAD_MATERIAL
350
B
  3
ACAD_MLEADERSTYLE
350
41
  3
ACAD_MLINESTYLE
350
36
  3
ACAD_PLOTSETTINGS
350
37
  3
ACAD_PLOTSTYLENAME
350
8
  3
ACAD_SCALELIST
350
3F
  3
ACAD_TABLESTYLE
350
40
  3
ACAD_VISUALSTYLE
350
2B
  3
ACDB_RECOMPOSE_DATA
350
279
  3
AcDbVariableDictionary
350
42
  0
DICTIONARY
  5
1E
330
1D
100
AcDbDictionary
280
     1
281
     1
  3
ACAD_LAYERSTATES
360
1F
  0
DICTIONARY
  5
6
330
5
100
AcDbDictionary
280
     1
281
     1
  0
DICTIONARY
  5
3
330
2
100
AcDbDictionary
280
     1
281
     1
  0
DICTIONARY
  5
3E
102
{ACAD_REACTORS
330
9
102
}
330
9
100
AcDbDictionary
281
     1
  0
DICTIONARY
  5
35
102
{ACAD_REACTORS
330
9
102
}
330
9
100
AcDbDictionary
281
     1
  0
DICTIONARY
  5
16
102
{ACAD_REACTORS
330
9
102
}
330
9
100
AcDbDictionary
281
     1
  3
Model
350
15
  3
布局1
350
1C
  0
DICTIONARY
  5
B
102
{ACAD_REACTORS
330
9
102
}
330
9
100
AcDbDictionary
281
     1
  3
ByBlock
350
3B
  3
ByLayer
350
38
  3
Global
350
A
  0
DICTIONARY
  5
41
102
{ACAD_REACTORS
330
9
102
}
330
9
100
AcDbDictionary
281
     1
  0
DICTIONARY
  5
36
102
{ACAD_REACTORS
330
9
102
}
330
9
100
AcDbDictionary
281
     1
  3
Standard
350
4E
  0
DICTIONARY
  5
37
102
{ACAD_REACTORS
330
9
102
}
330
9
100
AcDbDictionary
281
     1
  0
ACDBDICTIONARYWDFLT
  5
8
102
{ACAD_REACTORS
330
9
102
}
330
9
100
AcDbDictionary
281
     1
  3
Normal
350
7
100
AcDbDictionaryWithDefault
340
7
  0
DICTIONARY
  5
3F
102
{ACAD_REACTORS
330
9
102
}
330
9
100
AcDbDictionary
281
     1
  3
A0
350
53
  3
A1
350
54
  3
A2
350
55
  3
A3
350
56
  3
A4
350
57
  3
A5
350
58
  3
A6
350
59
  3
A7
350
5A
  3
A8
350
5B
  3
A9
350
5C
  3
B0
350
5D
  3
B1
350
5E
  3
B2
350
5F
  3
B3
350
60
  3
B4
350
61
  3
B5
350
62
  3
B6
350
63
  0
DICTIONARY
  5
40
102
{ACAD_REACTORS
330
9
102
}
330
9
100
AcDbDictionary
281
     1
  3
Standard
350
4F
  0
DICTIONARY
  5
2B
102
{ACAD_REACTORS
330
9
102
}
330
9
100
AcDbDictionary
281
     1
  3
2dWireframe
350
2A
  3
Realistic
350
51
  3
Wireframe
350
52
  0
XRECORD
  5
279
102
{ACAD_REACTORS
330
9
102
}
330
9
100
AcDbXrecord
280
     1
 90
        1
330
4F
  0
DICTIONARY
  5
42
102
{ACAD_REACTORS
330
9
102
}
330
9
100
AcDbDictionary
281
     1
  3
CANNOSCALE
350
43
  3
CENTEREXE
350
44
  3
CENTERLTYPEFILE
350
45
  3
CMLEADERSTYLE
350
46
  3
CTABLESTYLE
350
47
  3
CVIEWDETAILSTYLE
350
48
  3
CVIEWSECTIONSTYLE
350
49
  3
DIMASSOC
350
4A
  3
HIDETEXT
350
4B
  3
LAYEREVAL
350
4C
  3
LAYERNOTIFY
350
4D
  0
DICTIONARY
  5
1F
102
{ACAD_REACTORS
330
1E
102
}
330
1E
100
AcDbDictionary
281
     1
  0
LAYOUT
  5
15
102
{ACAD_XDICTIONARY
360
17
102
}
102
{ACAD_REACTORS
330
16
102
}
330
16
100
AcDbPlotSettings
  1

  2
none_device
  4
ISO_A4_(210.00_x_297.00_MM)
  6

 40
7.5
 41
20.0
 42
7.5
 43
20.0
 44
210.0
 45
297.0
 46
11.54999923706054
 47
-13.65000009536743
 48
0.0
 49
0.0
140
0.0
141
0.0
142
1.0
143
8.704084754739808
 70
 11952
 72
     1
 73
     0
 74
     0
  7

 75
     0
147
0.1148885871608098
 76
     0
 77
     2
 78
   300
148
0.0
149
0.0
100
AcDbLayout
  1
Model
 70
     1
 71
     0
 10
0.0
 20
0.0
 11
12.0
 21
9.0
 12
0.0
 22
0.0
 32
0.0
 14
0.0
 24
0.0
 34
0.0
 15
0.0
 25
0.0
 35
0.0
146
0.0
 13
0.0
 23
0.0
 33
0.0
 16
1.0
 26
0.0
 36
0.0
 17
0.0
 27
1.0
 37
0.0
 76
     0
330
2
331
29
1001
ACAD_PSEXT
1000
None
1000
None
1000
Not applicable
1000
The layout will not be plotted unless a new plotter configuration name is selected.
1070
     0
  0
LAYOUT
  5
1C
102
{ACAD_REACTORS
330
16
102
}
330
16
100
AcDbPlotSettings
  1

  2
C:\Documents and Settings\basas\Application Data\Autodesk\AutoCAD 2005\R16.1\enu\plotters\Default Windows System Printer.pc3
  4

  6

 40
0.0
 41
0.0
 42
0.0
 43
0.0
 44
0.0
 45
0.0
 46
0.0
 47
0.0
 48
0.0
 49
0.0
140
0.0
141
0.0
142
1.0
143
1.0
 70
   688
 72
     0
 73
     0
 74
     5
  7

 75
    16
147
1.0
 76
     0
 77
     2
 78
   300
148
0.0
149
0.0
100
AcDbLayout
  1
布局1
 70
     1
 71
     1
 10
0.0
 20
0.0
 11
12.0
 21
9.0
 12
0.0
 22
0.0
 32
0.0
 14
0.0
 24
0.0
 34
0.0
 15
0.0
 25
0.0
 35
0.0
146
0.0
 13
0.0
 23
0.0
 33
0.0
 16
1.0
 26
0.0
 36
0.0
 17
0.0
 27
1.0
 37
0.0
 76
     0
330
19
  0
MATERIAL
  5
3B
102
{ACAD_XDICTIONARY
360
3C
102
}
102
{ACAD_REACTORS
330
B
102
}
330
B
100
AcDbMaterial
  1
ByBlock
 94
       63
  0
MATERIAL
  5
38
102
{ACAD_XDICTIONARY
360
39
102
}
102
{ACAD_REACTORS
330
B
102
}
330
B
100
AcDbMaterial
  1
ByLayer
 94
       63
  0
MATERIAL
  5
A
102
{ACAD_XDICTIONARY
360
C
102
}
102
{ACAD_REACTORS
330
B
102
}
330
B
100
AcDbMaterial
  1
Global
 43
0.0007999999797903
 43
0.0
 43
0.0
 43
0.0
 43
0.0
 43
0.0007999999797903
 43
0.0
 43
0.0
 43
0.0
 43
0.0
 43
1.0
 43
0.0
 43
0.0
 43
0.0
 43
0.0
 43
1.0
 49
0.0007999999797903
 49
0.0
 49
0.0
 49
0.0
 49
0.0
 49
0.0007999999797903
 49
0.0
 49
0.0
 49
0.0
 49
0.0
 49
1.0
 49
0.0
 49
0.0
 49
0.0
 49
0.0
 49
1.0
142
0.0007999999797903
142
0.0
142
0.0
142
0.0
142
0.0
142
0.0007999999797903
142
0.0
142
0.0
142
0.0
142
0.0
142
1.0
142
0.0
142
0.0
142
0.0
142
0.0
142
1.0
144
0.0007999999797903
144
0.0
144
0.0
144
0.0
144
0.0
144
0.0007999999797903
144
0.0
144
0.0
144
0.0
144
0.0
144
1.0
144
0.0
144
0.0
144
0.0
144
0.0
144
1.0
 94
       63
1001
ACAD
1070
    -1
1070
     3
1070
     0
1000

1071
        0
1070
     0
  0
MLINESTYLE
  5
4E
102
{ACAD_REACTORS
330
36
102
}
330
36
100
AcDbMlineStyle
  2
STANDARD
 70
     0
  3

 62
   256
 51
90.0
 52
90.0
 71
     2
 49
0.5
 62
   256
  6
BYLAYER
 49
-0.5
 62
   256
  6
BYLAYER
  0
ACDBPLACEHOLDER
  5
7
102
{ACAD_REACTORS
330
8
102
}
330
8
  0
SCALE
  5
53
102
{ACAD_REACTORS
330
3F
102
}
330
3F
100
AcDbScale
 70
     0
300
1:1
140
1.0
141
1.0
290
     1
  0
SCALE
  5
54
102
{ACAD_REACTORS
330
3F
102
}
330
3F
100
AcDbScale
 70
     0
300
1:2
140
1.0
141
2.0
290
     0
  0
SCALE
  5
55
102
{ACAD_REACTORS
330
3F
102
}
330
3F
100
AcDbScale
 70
     0
300
1:4
140
1.0
141
4.0
290
     0
  0
SCALE
  5
56
102
{ACAD_REACTORS
330
3F
102
}
330
3F
100
AcDbScale
 70
     0
300
1:5
140
1.0
141
5.0
290
     0
  0
SCALE
  5
57
102
{ACAD_REACTORS
330
3F
102
}
330
3F
100
AcDbScale
 70
     0
300
1:8
140
1.0
141
8.0
290
     0
  0
SCALE
  5
58
102
{ACAD_REACTORS
330
3F
102
}
330
3F
100
AcDbScale
 70
     0
300
1:10
140
1.0
141
10.0
290
     0
  0
SCALE
  5
59
102
{ACAD_REACTORS
330
3F
102
}
330
3F
100
AcDbScale
 70
     0
300
1:16
140
1.0
141
16.0
290
     0
  0
SCALE
  5
5A
102
{ACAD_REACTORS
330
3F
102
}
330
3F
100
AcDbScale
 70
     0
300
1:20
140
1.0
141
20.0
290
     0
  0
SCALE
  5
5B
102
{ACAD_REACTORS
330
3F
102
}
330
3F
100
AcDbScale
 70
     0
300
1:30
140
1.0
141
30.0
290
     0
  0
SCALE
  5
5C
102
{ACAD_REACTORS
330
3F
102
}
330
3F
100
AcDbScale
 70
     0
300
1:40
140
1.0
141
40.0
290
     0
  0
SCALE
  5
5D
102
{ACAD_REACTORS
330
3F
102
}
330
3F
100
AcDbScale
 70
     0
300
1:50
140
1.0
141
50.0
290
     0
  0
SCALE
  5
5E
102
{ACAD_REACTORS
330
3F
102
}
330
3F
100
AcDbScale
 70
     0
300
1:100
140
1.0
141
100.0
290
     0
  0
SCALE
  5
5F
102
{ACAD_REACTORS
330
3F
102
}
330
3F
100
AcDbScale
 70
     0
300
2:1
140
2.0
141
1.0
290
     0
  0
SCALE
  5
60
102
{ACAD_REACTORS
330
3F
102
}
330
3F
100
AcDbScale
 70
     0
300
4:1
140
4.0
141
1.0
290
     0
  0
SCALE
  5
61
102
{ACAD_REACTORS
330
3F
102
}
330
3F
100
AcDbScale
 70
     0
300
8:1
140
8.0
141
1.0
290
     0
  0
SCALE
  5
62
102
{ACAD_REACTORS
330
3F
102
}
330
3F
100
AcDbScale
 70
     0
300
10:1
140
10.0
141
1.0
290
     0
  0
SCALE
  5
63
102
{ACAD_REACTORS
330
3F
102
}
330
3F
100
AcDbScale
 70
     0
300
100:1
140
100.0
141
1.0
290
     0
  0
TABLESTYLE
  5
4F
102
{ACAD_XDICTIONARY
360
50
102
}
102
{ACAD_REACTORS
330
40
102
}
330
40
100
AcDbTableStyle
280
     0
  3
Standard
 70
     0
 71
     0
 40
1.5
 41
1.5
280
     0
281
     0
  7
Standard
140
4.5
170
     2
 62
     0
 63
     7
283
     0
 90
      512
 91
        0
  1

274
    -2
284
     1
 64
     0
275
    -2
285
     1
 65
     0
276
    -2
286
     1
 66
     0
277
    -2
287
     1
 67
     0
278
    -2
288
     1
 68
     0
279
    -2
289
     1
 69
     0
  7
Standard
140
6.0
170
     5
 62
     0
 63
     7
283
     0
 90
      512
 91
        0
  1

274
    -2
284
     1
 64
     0
275
    -2
285
     1
 65
     0
276
    -2
286
     1
 66
     0
277
    -2
287
     1
 67
     0
278
    -2
288
     1
 68
     0
279
    -2
289
     1
 69
     0
  7
Standard
140
4.5
170
     5
 62
     0
 63
     7
283
     0
 90
      512
 91
        0
  1

274
    -2
284
     1
 64
     0
275
    -2
285
     1
 65
     0
276
    -2
286
     1
 66
     0
277
    -2
287
     1
 67
     0
278
    -2
288
     1
 68
     0
279
    -2
289
     1
 69
     0
  0
VISUALSTYLE
  5
2A
102
{ACAD_REACTORS
330
2B
102
}
330
2B
100
AcDbVisualStyle
  2
2dWireframe
 70
     4
177
     3
291
     0
 70
    58
 90
        0
176
     1
 90
        2
176
     1
 90
        1
176
     1
 90
        0
176
     1
 40
0.6
176
     1
 40
30.0
176
     1
 62
     7
420
 16777215
176
     1
 90
        1
176
     1
 90
        4
176
     1
 62
     7
176
     1
 62
   257
176
     1
 90
        1
176
     1
 90
        1
176
     1
 40
1.0
176
     1
 90
        0
176
     1
 62
   257
176
     1
 40
1.0
176
     1
 90
        1
176
     1
 90
        6
176
     1
 90
        2
176
     1
 62
     7
176
     1
 90
        5
176
     1
 90
        0
176
     1
 90
        0
176
     1
290
     0
176
     1
 90
        1
176
     1
 40
0.0
176
     1
 90
        0
176
     1
290
     1
176
     1
290
     1
176
     1
290
     0
176
     1
290
     0
176
     1
290
     0
176
     1
290
     0
176
     1
290
     0
176
     1
290
     0
176
     1
290
     0
176
     1
 90
       50
176
     1
 40
0.0
176
     1
 40
1.0
176
     1
 90
        0
176
     1
 62
    18
420
        0
176
     1
 90
       50
176
     1
 90
        3
176
     1
 62
     5
420
      255
176
     1
290
     0
176
     1
 90
       50
176
     1
 90
       50
176
     1
 90
       50
176
     1
290
     0
176
     1
 90
       50
176
     1
 62
   256
176
     0
 40
1.0
176
     0
 90
        2
176
     1
  1
strokes_ogs.tif
176
     1
290
     0
176
     1
 40
1.0
176
     1
 40
1.0
176
     1
  0
VISUALSTYLE
  5
51
102
{ACAD_REACTORS
330
2B
102
}
330
2B
100
AcDbVisualStyle
  2
Realistic
 70
     8
177
     3
291
     0
 70
    58
 90
        2
176
     1
 90
        3
176
     1
 90
        0
176
     1
 90
        2
176
     1
 40
0.6
176
     1
 40
30.0
176
     1
 62
     7
420
 16777215
176
     1
 90
        0
176
     1
 90
        0
176
     1
 62
     7
176
     1
 62
   257
176
     1
 90
        1
176
     1
 90
        1
176
     1
 40
1.0
176
     1
 90
        8
176
     1
 62
   257
176
     1
 40
1.0
176
     1
 90
        1
176
     1
 90
        6
176
     1
 90
        2
176
     1
 62
     7
176
     1
 90
        3
176
     1
 90
        0
176
     1
 90
        0
176
     1
290
     0
176
     1
 90
       13
176
     1
 40
0.0
176
     1
 90
        0
176
     1
290
     0
176
     1
290
     1
176
     1
290
     1
176
     1
290
     0
176
     1
290
     0
176
     1
290
     0
176
     1
290
     0
176
     1
290
     0
176
     1
290
     0
176
     1
 90
       50
176
     1
 40
0.0
176
     1
 40
1.0
176
     1
 90
        0
176
     1
 62
    18
420
        0
176
     1
 90
       50
176
     1
 90
        3
176
     1
 62
     5
420
      255
176
     1
290
     0
176
     1
 90
       50
176
     1
 90
       50
176
     1
 90
       50
176
     1
290
     0
176
     1
 90
       50
176
     1
 62
   256
176
     0
 40
1.0
176
     0
 90
        2
176
     1
  1
strokes_ogs.tif
176
     1
290
     0
176
     1
 40
1.0
176
     1
 40
1.0
176
     1
  0
VISUALSTYLE
  5
52
102
{ACAD_REACTORS
330
2B
102
}
330
2B
100
AcDbVisualStyle
  2
Wireframe
 70
     5
177
     3
291
     0
 70
    58
 90
        0
176
     1
 90
        2
176
     1
 90
        0
176
     1
 90
        0
176
     1
 40
0.6
176
     1
 40
30.0
176
     1
 62
     7
420
 16777215
176
     1
 90
        1
176
     1
 90
        4
176
     1
 62
     7
176
     1
 62
   257
176
     1
 90
        1
176
     1
 90
        1
176
     1
 40
1.0
176
     1
 90
        0
176
     1
 62
   257
176
     1
 40
1.0
176
     1
 90
        1
176
     1
 90
        6
176
     1
 90
        2
176
     1
 62
     7
176
     1
 90
        3
176
     1
 90
        0
176
     1
 90
        0
176
     1
290
     0
176
     1
 90
        1
176
     1
 40
0.0
176
     1
 90
        0
176
     1
290
     0
176
     1
290
     1
176
     1
290
     1
176
     1
290
     0
176
     1
290
     0
176
     1
290
     0
176
     1
290
     0
176
     1
290
     0
176
     1
290
     0
176
     1
 90
       50
176
     1
 40
0.0
176
     1
 40
1.0
176
     1
 90
        0
176
     1
 62
    18
420
        0
176
     1
 90
       50
176
     1
 90
        3
176
     1
 62
     5
420
      255
176
     1
290
     0
176
     1
 90
       50
176
     1
 90
       50
176
     1
 90
       50
176
     1
290
     0
176
     1
 90
       50
176
     1
 62
   256
176
     0
 40
1.0
176
     0
 90
        2
176
     1
  1
strokes_ogs.tif
176
     1
290
     0
176
     1
 40
1.0
176
     1
 40
1.0
176
     1
  0
DICTIONARYVAR
  5
43
102
{ACAD_REACTORS
330
42
102
}
330
42
100
DictionaryVariables
280
     0
  1
1:1
  0
DICTIONARYVAR
  5
44
102
{ACAD_REACTORS
330
42
102
}
330
42
100
DictionaryVariables
280
     0
  1
3.500000
  0
DICTIONARYVAR
  5
45
102
{ACAD_REACTORS
330
42
102
}
330
42
100
DictionaryVariables
280
     0
  1
acadiso.lin
  0
DICTIONARYVAR
  5
46
102
{ACAD_REACTORS
330
42
102
}
330
42
100
DictionaryVariables
280
     0
  1
STANDARD
  0
DICTIONARYVAR
  5
47
102
{ACAD_REACTORS
330
42
102
}
330
42
100
DictionaryVariables
280
     0
  1
STANDARD
  0
DICTIONARYVAR
  5
48
102
{ACAD_REACTORS
330
42
102
}
330
42
100
DictionaryVariables
280
     0
  1

  0
DICTIONARYVAR
  5
49
102
{ACAD_REACTORS
330
42
102
}
330
42
100
DictionaryVariables
280
     0
  1

  0
DICTIONARYVAR
  5
4A
102
{ACAD_REACTORS
330
42
102
}
330
42
100
DictionaryVariables
280
     0
  1
2
  0
DICTIONARYVAR
  5
4B
102
{ACAD_REACTORS
330
42
102
}
330
42
100
DictionaryVariables
280
     0
  1
1
  0
DICTIONARYVAR
  5
4C
102
{ACAD_REACTORS
330
42
102
}
330
42
100
DictionaryVariables
280
     0
  1
0
  0
DICTIONARYVAR
  5
4D
102
{ACAD_REACTORS
330
42
102
}
330
42
100
DictionaryVariables
280
     0
  1
0
  0
DICTIONARY
  5
17
330
15
100
AcDbDictionary
280
     1
281
     1
  0
DICTIONARY
  5
3C
330
3B
100
AcDbDictionary
280
     1
281
     1
  3
FBXASSET
360
3D
  0
DICTIONARY
  5
39
330
38
100
AcDbDictionary
280
     1
281
     1
  3
FBXASSET
360
3A
  0
DICTIONARY
  5
C
330
A
100
AcDbDictionary
280
     1
281
     1
  3
BUMPTILE
360
D
  3
DIFFUSETILE
360
E
  3
FBXASSET
360
F
  3
OPACITYTILE
360
10
  3
REFLECTIONTILE
360
11
  0
DICTIONARY
  5
50
330
4F
100
AcDbDictionary
280
     1
281
     1
  3
ACAD_ROUNDTRIP_2008_TABLESTYLE_CELLSTYLEMAP
360
278
  0
XRECORD
  5
3D
102
{ACAD_REACTORS
330
3C
102
}
330
3C
100
AcDbXrecord
280
     1
 70
     1
 90
429727718
  1
D62C5603-E3A1-4AEA-B7FB-FE5D8D0755AF
310
504B03040A0000080000CC70623B3DEE336E79000000790000001B0000006175746F6465736B2D64657369676E2D7061636B6167652E786D6C3C3F786D6C2076657273696F6E3D22312E302220656E636F64696E673D227574662D3822203F3E3C666F726D6174733E3C666F726D61743E687474703A2F2F736368656D612E
310
6175746F6465736B2E636F6D2F64657369676E2D7061636B6167652F323030393C2F666F726D61743E3C2F666F726D6174733E504B0304140006080800CC70623BD486FD9CA0000000F4000000130000005B436F6E74656E745F54797065735D2E786D6C7D8EC10E82300C865F65E91D8A1E8C310C0EEA1BF002731658846E
310
D98AC1B77784ABF1D8FE5FBFBF75BBCE937A534CCEB38643598122B6FEE978D0B0485F9C41B54DDD7D022595594E1A469170414C76A4D9A4D207E29CF43ECE46F218070CC6BECC4078ACAA135ACF422C856C0E68EA1BF5669944DDD7BCDE7B1F8E415D77AECB980613C2E4AC91FC167A2B244592486606FC29C8FD7F045B9A
310
EF7053A7E60B504B0304140006080800CC70623B853B8169EB0000007C01000008000000636F72652E786D6C8D90416EC3201045AF62CDB6C206821CC7C244919D9CA01740401C94182C03558F5F9C3852BBEB6A467FFE9B197D7EFC9E1EC5975982F5AE035262288C535E5B377690E21535501C055FBC8FBF6C503839990E
310
5619041F179FE64D52DE45E362569DD7661365082642A11EB9E920A89B99642953CC8E702F67A9EE7234257977194EC9EAE275C4EABCCF5EAD5940D4AC6F0E35A568B8F43562CD7046CD199FD07E60174276A7BE677B5EADB0E0D14EEFFB6A31321A0D82627C4084204C3F096B71DD52F6819B16635EADF63F509AF53FA164
310
5DDCD1EDDD17164090FCC8732078B56691CB33A85CD7DCC40F504B0304140006080800CC70623B55019EA25F0000007C00000007000000636E782E786D6C4DCB3B0E80201045D1AD90E915ED2CF8AC45050C11660C8261F98AB1B07AC9C97D42D718D865D3E909258CFD00CCE24AC6E326A164D74DC0B4128928FF32603847
310
2BA13128B1252AC747C6BAB984FC68F0B87FE8960A5C09FE86CFB69FBA01504B0304140006080800CC70623BDBABAAF470010000D40300000C0000006662782F636F72652E786D6CC553D16E823014FD95A6AF4B694182CC941A83FA05FB810A9511A125A5257EFE2E82712ECEB8A7F100CD39F7F69E734AF9FADC366850B6
310
AF8DCE7018308C942E4C59EB2AC3DE1D498AD15A706B8CFB56869196ADCAF00863C12B6B7C374385D14E6907A836A59A41D9F7CA615434B0C8705F7CAA5606D23BA8E84F41278B93AC54100640439DE0BDB320004D43C63716C7C399D30917DCFBBA9CD9BA8469F5B156168B24CED3F7248AC8769F27244EB73B92EED8862C
310
B7F13E0C179B3C8F979C8ECD82BBBABDAA2BAC924E9558448CBD9330242CFA08E3154B5651FCC6D215639C8EE5774DBE2B5F6CF2B5768B68963BB5F5588420E442FC700B1139D4CB01F450C1E918227C2E09DF070D8140C84E1E9AAB8F1340832A9CB13130A5F1376A908D57309505ECF2A0DF179C4E9D30F5B239B87E3823
310
7A79C6F31DE1A8A5AEC08474B03C7837EAE4938639B44E5932B833D2C6B6B279CDC613877FA26EE21F4A2A4C63EC7F29A2F301D1F9F7A0E37D145F504B0304140006080800CC70623B9C113CC27E0000009D0000000B0000006662782F636E782E786D6C4DCCDF0A83201C86E15B91DFB94BFB330DD428C8FB886521330DA7
310
6397BF1A1DECE883878F57749FCDA1B7892F1BBC047A23808C7F84D9FA55424E0BE6803A256208E9EF06C84F9B91703228B1C690F78B66B34CD9A5439DF5CF0BFBF65E35BCA1B8D6A5C6F540381E886698B5741C695F9503EBA150A2F8958E3DC3EA0B504B0304140006080800CC70623B7DF2F77C2A010000120200003100
310
00006662782F41393633353835312D344632462D344230382D423046372D3739314545314133324237412F636F72652E786D6C8D51DB8EC22014FC15C2939B0D2DB4B45643319AE817EC0F6041255A68B86CFCFC856D4D76DF7CE190393373060EDB3DC707F856CE6B6B7A480A0C81328395DA5C7B18C3057510EC3873D686
310
3F34088C18550F330C39BB3A1BA7051AAC09CA84841A2BD5020AEF55806078A44B0FFD7053A328440C89E1EFC52486BBB8AA8214A99D789CF9E05200300FC927E4FB4D5B375D43103D5527440FB843077C5AA3F5861C8F645F5787F59E95B390B318B55CE45AA638FAA2957BD7248B390B7A7CC51F9C124149C82B8C378810
310
84AB2F42B7B8DD56F413775B8C5999E9FF4471926F8AA236A1AE96B8B3CC434E5839373893369E1FAF30EA395917409EB7F26AF8801C171837A4A6AC9C89E9F9C9B1A58BA30FD6A5EF5DDDCF894B9AD9B6A59C957943A9FCAE2FD5BC4DFE03504B0304140006080800CC70623BAD7543B64E01000033030000300000006662
310
782F41393633353835312D344632462D344230382D423046372D3739314545314133324237412F636E782E786D6CD593CD6EC32010845F0571AD6CE3D48AD20813A9873E410FBD12D82434182C7EAAE6EDBB2424CD25871E7B41D6EC30B3FA84F9E67BB2E40B4234DE8DB46F1925E094D7C6ED479AD3AE5951B2113C789FEE
310
6C943839C1488B4C05DF079FE72A69D8C96C13AAD6B8631503449F83828872B949AC57D26200B826A308D316B4064D6E46FCDA41C05550DC9E483A00797BFD207EFB092A45DE9514C1BBD22178396BD39D891265658C238DEA00936C654E5E433CB65A26D9F6EDB5EBC14EBF49A45CB856E66048291F6939A9A81BB5C89177
310
38143CA680F4AA299D66A042CEB3354A2684DC9D8D178FE0D9B8B41CAAD720F880EE7EF93C0C18769E099ECC04D5A102C8049A8A05632F4DDF376CF1DE0F6BB65C2F8627B65A33C6BB62177CEBBDAD973006829F89F22E814B54F4BC2BE347F8AA8F681390B50FA73F804400B5F542E796F19FF974E7F78DB802FE05E20750
310
4B0304140006080800CC70623BE75B7789680500003C100000340000006662782F41393633353835312D344632462D344230382D423046372D3739314545314133324237412F6F626A656374732E786D6CAD575B8F9B3818FD2B887D06C22499CB8AA1CA655245D5B455A356FB305264C061D8018C6C3393D95FBFC7600890
310
A4CD5EF210B0B1BFEBF98E3F7B1FF6596ABC522E1296DF9BAE3D320D9A872C4AF2F8DE2CE5CEBA358D0FBEC719939D65A691938CDE9B6ADAF4BD98B3B2D05311DD91329583D9D5FC0F438434A7A611A644887B5384CF34233629258BA878B12322891DEFF6B66BD70BFB62634E8AE781D082709A4B588AF91C528CDA28B73F
310
1C998EEF39EABBEFA97FBD6A7C7E9553F9D3D79FE442923C3C523610337627CB87ABE99D359D4CC6D6E4FACAB5E6ABF9D2726FC6A3C5F56271377BB88362213924694B38DD99FE47C48627A1E7D49F5A8BB5E1A74C0A599ED3B0F21F1E56366B89112D681E218F0915D0D6F17AD41FBA2A369DCF6335D62ABBD39779D5DDD1
310
11D4D8DE3CBB96B2E04FB8202E41051754A1AA8E8F76B4C6DFE810B580B1547F4B84911149794252234D024EF8BBE963A95AE27B3D310A9D5C215C7960FAEE415ED75694C6AFB17BCACA5D99A60A9AA65F217B0BFC53292ACB92BF283FAD0D3621576592CB5BED907C2FA8E9DF794E35E97BEA31BED21FEB401ABB94C44839
310
DCACBF0E1C5DA8DA5B2F4DFFD32AD86F543D9E565E7056502E157C00AD2671CD534549AB752FCA9CDA00677A313F04E51B22FF19E57B300579E3C97EB29F682D92935CEC18CF901B7B54FD8C51F362B56FC72FE0B3C1EAE335EDCCBF5AEC39ADB17DC238973F804BA5E6F6BFE7AF1FB32E523BE9F3BD571418E3631DCA4D48
310
5250CF639223210A9446CA30052EDF057BD35F8329C1ECD84552BF0DC8D18BE7BCE23BFE6BD960AB4A7DE79923A103BEBD80F911CBAA2C60DB19B01CF164A5583B772EE6D3FFA56666CBCDA74DC97724A48F9A58967497E489C4D979006FD7A05E227A1EBDD0F737C623387A9C844D3709995625106D157315F8B8392CD4E0
310
A0B9A720C4BE9829CEF37EA1E13111214D53925356365ADA634861B52519DD27A00AEB808EAF0628E6F435519D446F45CF2C9CF5214F0A15B2F6D06B79DA3EE3CBF7F56780D2F4E7EF73A0F5E5B02A38D07DC852C6B7C1FBB6664213E0C39E3EBA7FF4E1AD23EA2829407C85E586727488B751B2DB9502BC7B228A3FD68B6E
310
A65A22397E690AA8D158D7E404EC8CDA235CC3B7D1898680131CEC2CDF2638C65196279577750F15884AEE19F94199155B92B13297978469D4F8D358DF0AEF7631E28DC8F0D9F437D5D39A83B2231A1D52D543813A824EF8D44BCFF2FA6A31BD1E8DAD87F1CCB526B3879935BF59CDADD5C37479BB1CDD4CA7B3556B516589
310
EF352754B706114D9C885EC9131DE6EFEB43D99AFE2391C2F958179413D7CFEF6B1B6DB1E7600F00DE6E5C67454A339A4BA2E0FBA85ED26F045D454F463DBFCE484C2F90F2E5E3666003662ED8F755951A7D1BECD5B30B550B2785C8E7320B7292A4838DDA71BBC863ED7613CAF659337A3354231D4FF4A182A54904C2898C
310
98B28C4AD0CE056CCF332A80986E571EE9DBC305BB5FEB7E509220A58D25CF042D712A806AC0AD0C657FDEF80D2D9CEAA2EE4D1C76F60BFE74219A06527D6F82DF6412526107381E55E353090704D085B52408A8913C4ED159D79BDA71BB4BC506F4831350EB6F975CD22D69BF7AC49B91A2C0A9DDA3D5CA36AD20FC478E37
310
E61844E2352865EBCB61A275A65283CAAA9DD27703B4102F5AF51EF5F573B75CBB5AD38BC845F7A49F82A0966A49C2E3EA5EA0ECD326CD965F1DB402C6FA8B51A4658C5C5E2EC9E214602E55810345408596591009A82E7E7FFACA19EEA299B14A0081A705CB3296EBC14CDF658DCD336EA6D1136881AAEB87B81AB9EE53D5
310
F5EB8BC8362082DA24122F98680A4E7930C01A0079749CEA14382A0783E5EBA5A10F8C098456A03D6A4AEB6BB881E2513747552A5DB22C7EDAF83BD5528081A365F7FF06504B0304140006080000CC70623B000000000000000000000000350000006662782F41393633353835312D344632462D344230382D423046372D37
310
39314545314133324237412F76657274696365732E62696E504B0304140006080800CC70623BF270F1330600000004000000360000006662782F41393633353835312D344632462D344230382D423046372D3739314545314133324237412F747269616E676C65732E62696E636660600000504B0304140006080000CC7062
310
3B000000000000000000000000370000006662782F41393633353835312D344632462D344230382D423046372D3739314545314133324237412F617474726962757465732E62696E504B0304140006080800CC70623B08DA0BD19000000041010000360000006662782F41393633353835312D344632462D344230382D4230
310
46372D3739314545314133324237412F6469726563746F72792E786D6C858F410AC3201045AF22B36F53E9A60B35CBEEBAE80D244E44489C6234F4F835464A48035D0DF398FF9F8AF63D0E6CC63039F212F8F9020C7D47C6792B21C5FE7403D62A1188E2E60C98D7234A5830286103A55745067B9D86B8A3CF9C7F90C11DE6
310
07FB144396D7B6A82D282E9A152AD114D5EF2CB866EEE831B8EEA07A7BB5A8D7D61A2BAAEB7FD5F70921FF497D00504B0304140006080800CC70623BEDD1DC58FD000000A00100003B0000006662782F41393633353835312D344632462D344230382D423046372D3739314545314133324237412F7265736F75726365732F
310
636F72652E786D6C8D504B6E833010BD0A9A6D65B00922041947112427E8052C33A156828DFCA97AFC9A40A576D7CDCCE87D344F8F9FBFE667F689CE6B6B3A6039850C8DB2A336530731DC4903D95970676DF82583CCC8193B5861107C72362E3BA4AC096842428D1D7107A5F7182053CF7474E0D507CE32973124857FE48B
310
540F3961CEF244279DE03EB81420DB9EAC1384436FA353E879B1B182C7A8C75DA3C7F453DF353A1075D537A7BA6464B8F535A99AE14A9A2BBD90E350DD183B5CFABE3AF262350B1EF4FC9351399401471025A527C218A1E53BAB5A5AB765F5469B96525EACF23FA6B88CFF34456DC2A1DCE36E360F82A5202F42F062ED2BAD
310
579969AFDD8A6F504B010214000A0000080000CC70623B3DEE336E79000000790000001B00000000000000000000000000000000006175746F6465736B2D64657369676E2D7061636B6167652E786D6C504B01021400140006080800CC70623BD486FD9CA0000000F40000001300000000000000000000000000B20000005B
310
436F6E74656E745F54797065735D2E786D6C504B01021400140006080800CC70623B853B8169EB0000007C010000080000000000000000000000000083010000636F72652E786D6C504B01021400140006080800CC70623B55019EA25F0000007C000000070000000000000000000000000094020000636E782E786D6C504B
310
01021400140006080800CC70623BDBABAAF470010000D40300000C00000000000000000000000000180300006662782F636F72652E786D6C504B01021400140006080800CC70623B9C113CC27E0000009D0000000B00000000000000000000000000B20400006662782F636E782E786D6C504B01021400140006080800CC70
310
623B7DF2F77C2A010000120200003100000000000000000000000000590500006662782F41393633353835312D344632462D344230382D423046372D3739314545314133324237412F636F72652E786D6C504B01021400140006080800CC70623BAD7543B64E010000330300003000000000000000000000000000D2060000
310
6662782F41393633353835312D344632462D344230382D423046372D3739314545314133324237412F636E782E786D6C504B01021400140006080800CC70623BE75B7789680500003C10000034000000000000000000000000006E0800006662782F41393633353835312D344632462D344230382D423046372D3739314545
310
314133324237412F6F626A656374732E786D6C504B01021400140006080000CC70623B0000000000000000000000003500000000000000000000000000280E00006662782F41393633353835312D344632462D344230382D423046372D3739314545314133324237412F76657274696365732E62696E504B01021400140006
310
080800CC70623BF270F133060000000400000036000000000000000000000000007B0E00006662782F41393633353835312D344632462D344230382D423046372D3739314545314133324237412F747269616E676C65732E62696E504B01021400140006080000CC70623B0000000000000000000000003700000000000000
310
000000000000D50E00006662782F41393633353835312D344632462D344230382D423046372D3739314545314133324237412F617474726962757465732E62696E504B01021400140006080800CC70623B08DA0BD1900000004101000036000000000000000000000000002A0F00006662782F41393633353835312D344632
310
462D344230382D423046372D3739314545314133324237412F6469726563746F72792E786D6C504B01021400140006080800CC70623BEDD1DC58FD000000A00100003B000000000000000000000000000E1000006662782F41393633353835312D344632462D344230382D423046372D3739314545314133324237412F7265
310
736F75726365732F636F72652E786D6C504B0506000000000E000E0080040000641100000000
  0
XRECORD
  5
3A
102
{ACAD_REACTORS
330
39
102
}
330
39
100
AcDbXrecord
280
     1
 70
     1
 90
429727718
  1
30362254-06B7-45E0-A893-8CFA70E3D6BC
310
504B03040A0000080000CC70623B3DEE336E79000000790000001B0000006175746F6465736B2D64657369676E2D7061636B6167652E786D6C3C3F786D6C2076657273696F6E3D22312E302220656E636F64696E673D227574662D3822203F3E3C666F726D6174733E3C666F726D61743E687474703A2F2F736368656D612E
310
6175746F6465736B2E636F6D2F64657369676E2D7061636B6167652F323030393C2F666F726D61743E3C2F666F726D6174733E504B0304140006080800CC70623BD486FD9CA0000000F4000000130000005B436F6E74656E745F54797065735D2E786D6C7D8EC10E82300C865F65E91D8A1E8C310C0EEA1BF002731658846E
310
D98AC1B77784ABF1D8FE5FBFBF75BBCE937A534CCEB38643598122B6FEE978D0B0485F9C41B54DDD7D022595594E1A469170414C76A4D9A4D207E29CF43ECE46F218070CC6BECC4078ACAA135ACF422C856C0E68EA1BF5669944DDD7BCDE7B1F8E415D77AECB980613C2E4AC91FC167A2B244592486606FC29C8FD7F045B9A
310
EF7053A7E60B504B0304140006080800CC70623B1EC5D7A3EB0000007C01000008000000636F72652E786D6C8D90416EC3201045AF82665B6103C6756C6122AB4D4ED00B204C5C94182C03558F5F9C3852BBEB6A467FFE9B197D71FC9E6FE8CBACC17AD7032D0820E3B41FAD9B7A48F1820F808E52ACDEC75F36404ECDA687
310
4D0629A6D5A76597B477D1B89855E747B38B2A041301E95B6E7A08FAD3CCAA50296647B8168BD2573599823EBB0CA76447F43862C7BCCF5EAC59410E4DDD9C7973C2755553CCCFA4C603E3040F1565ED3B1FDE4E432BCA0D9622DAF9795FAF464533826484B498524CD807E51D79ED187F21878E10516EF63F505AC67F42C9
310
BA58B1FDDD071640D2FCC87D2045B96591CB3DA85CB7DCE40F504B0304140006080800CC70623B55019EA25F0000007C00000007000000636E782E786D6C4DCB3B0E80201045D1AD90E915ED2CF8AC45050C11660C8261F98AB1B07AC9C97D42D718D865D3E909258CFD00CCE24AC6E326A164D74DC0B4128928FF32603847
310
2BA13128B1252AC747C6BAB984FC68F0B87FE8960A5C09FE86CFB69FBA01504B0304140006080800CC70623B8C9102E971010000D40300000C0000006662782F636F72652E786D6CC5535B6E833010BC8AE5DF0A6C08340F1947A84D4ED00B38C6A128602363A31CBFCB234A53A551FA553EC09AD9F5CE8C31DB9E9B1AF5CA
310
7695D1198E428A91D2D214952E33ECDD315861B4E5CC1AE3BE9561A445A3323CC098B3D21ADFCE9034DA29ED00D5A6503328BA4E398C640D8B0C77F253352214DE4145770A5B214FA2546114020D759C75CE8200340D19DE981F0F6746269C33EFAB6266AB02A655C74A59CCF365BADC27CB5D902ED22848F6340DF238A141
310
BE88E2F57B92BFEDF23523433367AE6A2EEAA455C2A902F398D2751045018D3FA264435F3771F242571B4A1919CA6F9A7C5B3CD9E42BED16F12C776AEB308F40C848FC700B1139D4891EF410CEC810227CC6846F8386402064270EF5C5C709A05E49676C024C61FC95EA45ED154CA5211D1FF4FB8291A913A68E9B83EBBB33
310
E2A7673CDE118E5AE8124C0807CB8377834E366998436B950D7A7746DAD846D4CFD978E0F04FD455FC5D49D2D4C6FE9722321F10997F0F32DC47FE05504B0304140006080800CC70623BFFEA85907E0000009D0000000B0000006662782F636E782E786D6C4DCCD10A83201886E15B91FFDC95D95A811AB6F23E625948A6C3
310
E9D8E5AF46073BFAE0E1E365ED67B3E8ADC3CB78C7815C7240DA3DFC64DCC221C519D7805AC182F7F1EF06C88D9BE6703008B6049F9E274D7A1E938DBB5AE3D6131B2589BA0D3D965551E0B2EA732C9B9A624AAEB41E3A557677029960D9AFB4EF11165F504B0304140006080800CC70623B4FEEA4082C0100001202000031
310
0000006662782F39464131463745442D413632322D343644302D413938332D3331353338454246344243312F636F72652E786D6C8D515B6EC32010BC0AE2AB55850DD871ED0813254D72825EC00192A2C460F1A872FC42ED48ED5F7E00CDCECCCEB26C731F6FE05B39AFADE921293004CA082BB5B9F43086336A21D870E6AC
310
0D7F68109861543DCC30E4ECE26C9C164858139409093556AA051CBC570102714B8F1E7AF1A5C6A11862480C7F2DA6415C878B2A4891CA89C7990F2E050073937C42DE1DB7E4F87ED8A36D4329AA9B3D46DBAEAD504556557BD81DEBDD0761E52CE42C462D17B996298E3E6BE59E35C962CE821E1FF18553435012728A7187
310
0841987E927A8D9B35ADDF70BBC6989599FE4F1427F9A4286A132ABAC49D651EF234CD5CE04CDA78BA3DC2A8FB645D00B9DF8B57E215725C60BCA2A463E54C4CE327C7A65E1C7DB02E7DEFCBF594B864C5CA6CDBD49C957943E9FA5D5FBAF336F90F504B0304140006080800CC70623BAD7543B64E01000033030000300000
310
006662782F39464131463745442D413632322D343644302D413938332D3331353338454246344243312F636E782E786D6CD593CD6EC32010845F0571AD6CE3D48AD20813A9873E410FBD12D82434182C7EAAE6EDBB2424CD25871E7B41D6EC30B3FA84F9E67BB2E40B4234DE8DB46F1925E094D7C6ED479AD3AE5951B2113C
310
789FEE6C943839C1488B4C05DF079FE72A69D8C96C13AAD6B8631503449F83828872B949AC57D26200B826A308D316B4064D6E46FCDA41C05550DC9E483A00797BFD207EFB092A45DE9514C1BBD22178396BD39D891265658C238DEA00936C654E5E433CB65A26D9F6EDB5EBC14EBF49A45CB856E66048291F6939A9A81BB5
310
C8917738143CA680F4AA299D66A042CEB3354A2684DC9D8D178FE0D9B8B41CAAD720F880EE7EF93C0C18769E099ECC04D5A102C8049A8A05632F4DDF376CF1DE0F6BB65C2F8627B65A33C6BB62177CEBBDAD973006829F89F22E814B54F4BC2BE347F8AA8F681390B50FA73F804400B5F542E796F19FF974E7F78DB802FE05
310
E207504B0304140006080800CC70623B16AB87BA640500003C100000340000006662782F39464131463745442D413632322D343644302D413938332D3331353338454246344243312F6F626A656374732E786D6CAD575B6FA33818FD2B887DE6924B3BED8A326A92B68A663B534DD4D13E548A0C38942D60649B369D5FBFC7
310
600890A493BDE42160637FD7F31D7FF63E6FB3D478A55C242CBF3247B66B1A340F5994E4F19559CA8D75611A9F7D8F33263BCB4C232719BD32D5B4E97B316765A1A722BA21652A07B3B7B33F0D11D29C9A46981221AE4C113ED38CD8A4942CA2E2C58E882476BCD9DA23BB5ED8171B73523C0F841684D35CC252CCE79062D4
310
468DFA43D7747CCF51DF7D4FFDEB5593E3AB9CCA9FBEFE241792E4E19EB28198C968BAB8199F5D5A67D3E9C49A9E8F47D6EC76B6B0469F26EEFC7C3EBFBCBEB98462213924694B38DD98FE1D62C393D073EA4FADC5DAF04326852CCF6958F90F0F2B9BB5C48816348F90C7840A68EB78EDF68723159BCEE7891A6B95DDE9D3
310
BCEAEEE8086A6C6F9E5D4B59F0175C10A7A0820BAA5055C7473B5AE3CFDD452D602CD5DF12616444529E90D448938013FE6EFA58AA96F85E4F8C42275708571E98FE6827AF6B2B4AE3D7D83D64E5A64C53054DD3AF90BD06FEA9149565C94FCA0F6B834DC85599E4F2423B24DF0B6AFA979E534DFA9E7A4CC6FA631D486393
310
921829879BF5D781A373557BCB85E97FB90DB62B558F8795179C15944B051F40AB495CF35451D26A4727654E6D8033BD98EF82F21D91FF8AF2DD9982BCF1643BDD4EB516C9492E368C67C88DED563FC36D5EACF66DFF057C3658BDBFA69DF9578B3DA735B64F18C7F20770A9D45CFCF7FCF563D6456A277DBEF78A02637CA2
310
43B90A490AEAB94F72244481D24819A6C0E59B606BFA4B3025981DBB48EAB701D97BF19C577CC77F2D1B6C55A9EF3C732474C0B727303F625995056C3B02963D9EAC146BE78EC5FCEC7FA999EBC5EACBAAE41B12D27B4D2C0BBA49F244E2ECDC81B76B502F113D8F5EE8FB1BE3111CDD4FC2AA9B844CAB1288B68AB90A7CDC
310
1C166AB0D3DC5310625FCC14E779BFD0709F8890A629C9292B1B2DED31A4B0DA928CEE135085754027E3018A397D4D5427D15BD1330B677DC8934285AC3DF45A9EB68FF8F2B8FC0A509AFEECFD0FF2DE25CC6047F7214B195F07EFEB9A094D800F7BFAE8FED187B78EA8A3A400F115961BCAD1215E47C966530AF0EE8128FE
310
58CEBB996A8964FFA529A046635D9353B0336A8F700DDF46271A024E70B0B37C9DE01847591E54DED53D54202AB947E4076556AC49C6CA5C9E1226B7F1A7B1BE15DEED62C41B91E1B3E9AFAAA735036547343A925075041DF0A9979E893B391F8FCFA6967B3EFB644DCF6E5CEBFAE272625DCC6FAF3FB93793C5F90CE1EF57
310
407342756B10D1C489E8953CD1617E5CEECAD6F4EF8914CE5D5D504E5C3F1F9736DA62CFC11E00BCDDB8CC8A9466349744C1F75EBDA4DF09BA8A9E8C7A7E9991989E20E5DBDD6A6003664ED8F7A04A8DBE0DF6EAD9B9AA858342E47399053949D2C146EDB85DE4B176BB0965FBAC19BD19AA918E27FA50C1D22402E144464C
310
59462568E704B6E71915404CB72B8FF4EDE184DDAF753F284990D2C6926782963815403548A70C657FDEF80D2D9CEAA2AE4C1C76F60BFE74219A06527D6582DF6412526107381E55E353090704D085B52408D0933C4ED159D79BDA71BB4BC506F4831350EB6F979CD22D69BF7AC49B91A2C0A9DDA3D5CA36AD20FC478E37E6
310
1844E2352865EBCB6EA275A652E3836BE04EFB400BF1A2556F515F1FBB35B2AB35BD889C744FFA1004B5544B121E57F70215746DD2F5E2C1412B602CBF19455AC6C8E5E9922C4E01E65215385004546899059180EAFCF7A707CE7017CD8CDB0410789AB32C63B91E5CEBBBACB17AC6CD347A022D5075FD106377347AAABA7E
310
7D11590744509B44E205134DC1290F06580320F78E537D3D73540E06CB970B431F185308AD40BBD794D6D77003C5A36E8EAA54BA64597CD8F83BD552A080A365F7FF06504B0304140006080000CC70623B000000000000000000000000350000006662782F39464131463745442D413632322D343644302D413938332D3331
310
353338454246344243312F76657274696365732E62696E504B0304140006080800CC70623BF270F1330600000004000000360000006662782F39464131463745442D413632322D343644302D413938332D3331353338454246344243312F747269616E676C65732E62696E636660600000504B0304140006080000CC70623B
310
000000000000000000000000370000006662782F39464131463745442D413632322D343644302D413938332D3331353338454246344243312F617474726962757465732E62696E504B0304140006080800CC70623B08DA0BD19000000041010000360000006662782F39464131463745442D413632322D343644302D413938
310
332D3331353338454246344243312F6469726563746F72792E786D6C858F410AC3201045AF22B36F53E9A60B35CBEEBAE80D244E44489C6234F4F835464A48035D0DF398FF9F8AF63D0E6CC63039F212F8F9020C7D47C6792B21C5FE7403D62A1188E2E60C98D7234A5830286103A55745067B9D86B8A3CF9C7F90C11DE607
310
FB144396D7B6A82D282E9A152AD114D5EF2CB866EEE831B8EEA07A7BB5A8D7D61A2BAAEB7FD5F70921FF497D00504B0304140006080800CC70623B0D6EF93BFE000000A00100003B0000006662782F39464131463745442D413632322D343644302D413938332D3331353338454246344243312F7265736F75726365732F63
310
6F72652E786D6C8D50596E833010BD0A9ADFCA60B334011947A8694ED00B586642AC041B79A97AFC9A40A5F6AF3F33A3B7689E1E3F7DCD8FEC139DD7D6F4C0720A191A65476DA61E62B892236427C19DB5E1970C322367EC618541F0C9D9B8EC90B226A009093576C41D94DE63804C3DD2D18357379C652E63480A7FCF17A9
310
EE72C29CE5894E3AC17D702940B63D59270887DE46A7D0F36263058F518FBB468FE9A7BE6A7420864373B8D4873369AA8691FA421B3294352543C5CAF65C0F6FEF43CB8BD52C78D0F34F46E550061C419494B6843142CB0F5677F4B52BEB177AEC28E5C52AFF638ACBF84F53D42654E51E77B379102C05791282176B5F693D
310
CB4C7BED567C03504B010214000A0000080000CC70623B3DEE336E79000000790000001B00000000000000000000000000000000006175746F6465736B2D64657369676E2D7061636B6167652E786D6C504B01021400140006080800CC70623BD486FD9CA0000000F40000001300000000000000000000000000B20000005B
310
436F6E74656E745F54797065735D2E786D6C504B01021400140006080800CC70623B1EC5D7A3EB0000007C010000080000000000000000000000000083010000636F72652E786D6C504B01021400140006080800CC70623B55019EA25F0000007C000000070000000000000000000000000094020000636E782E786D6C504B
310
01021400140006080800CC70623B8C9102E971010000D40300000C00000000000000000000000000180300006662782F636F72652E786D6C504B01021400140006080800CC70623BFFEA85907E0000009D0000000B00000000000000000000000000B30400006662782F636E782E786D6C504B01021400140006080800CC70
310
623B4FEEA4082C0100001202000031000000000000000000000000005A0500006662782F39464131463745442D413632322D343644302D413938332D3331353338454246344243312F636F72652E786D6C504B01021400140006080800CC70623BAD7543B64E010000330300003000000000000000000000000000D5060000
310
6662782F39464131463745442D413632322D343644302D413938332D3331353338454246344243312F636E782E786D6C504B01021400140006080800CC70623B16AB87BA640500003C1000003400000000000000000000000000710800006662782F39464131463745442D413632322D343644302D413938332D3331353338
310
454246344243312F6F626A656374732E786D6C504B01021400140006080000CC70623B0000000000000000000000003500000000000000000000000000270E00006662782F39464131463745442D413632322D343644302D413938332D3331353338454246344243312F76657274696365732E62696E504B01021400140006
310
080800CC70623BF270F133060000000400000036000000000000000000000000007A0E00006662782F39464131463745442D413632322D343644302D413938332D3331353338454246344243312F747269616E676C65732E62696E504B01021400140006080000CC70623B0000000000000000000000003700000000000000
310
000000000000D40E00006662782F39464131463745442D413632322D343644302D413938332D3331353338454246344243312F617474726962757465732E62696E504B01021400140006080800CC70623B08DA0BD190000000410100003600000000000000000000000000290F00006662782F39464131463745442D413632
310
322D343644302D413938332D3331353338454246344243312F6469726563746F72792E786D6C504B01021400140006080800CC70623B0D6EF93BFE000000A00100003B000000000000000000000000000D1000006662782F39464131463745442D413632322D343644302D413938332D3331353338454246344243312F7265
310
736F75726365732F636F72652E786D6C504B0506000000000E000E0080040000641100000000
  0
XRECORD
  5
D
102
{ACAD_REACTORS
330
C
102
}
330
C
100
AcDbXrecord
280
     1
270
     1
271
     1
  0
XRECORD
  5
E
102
{ACAD_REACTORS
330
C
102
}
330
C
100
AcDbXrecord
280
     1
270
     1
271
     1
  0
XRECORD
  5
F
102
{ACAD_REACTORS
330
C
102
}
330
C
100
AcDbXrecord
280
     1
 70
     0
 90
1673772943
  1
ECE7A1D2-D628-4531-984C-D00F80459256
310
504B03040A0000080000CC70623B3DEE336E79000000790000001B0000006175746F6465736B2D64657369676E2D7061636B6167652E786D6C3C3F786D6C2076657273696F6E3D22312E302220656E636F64696E673D227574662D3822203F3E3C666F726D6174733E3C666F726D61743E687474703A2F2F736368656D612E
310
6175746F6465736B2E636F6D2F64657369676E2D7061636B6167652F323030393C2F666F726D61743E3C2F666F726D6174733E504B0304140006080800CC70623BD486FD9CA0000000F4000000130000005B436F6E74656E745F54797065735D2E786D6C7D8EC10E82300C865F65E91D8A1E8C310C0EEA1BF002731658846E
310
D98AC1B77784ABF1D8FE5FBFBF75BBCE937A534CCEB38643598122B6FEE978D0B0485F9C41B54DDD7D022595594E1A469170414C76A4D9A4D207E29CF43ECE46F218070CC6BECC4078ACAA135ACF422C856C0E68EA1BF5669944DDD7BCDE7B1F8E415D77AECB980613C2E4AC91FC167A2B244592486606FC29C8FD7F045B9A
310
EF7053A7E60B504B0304140006080800CC70623BD9DDAED0EC0000007C01000008000000636F72652E786D6C8D90416EC3201045AF82665B61836D9CD8C2444DD39CA01740405C94182C03558F5F9C3852BBEB6A467FFE9B197D7EF89E6EE8CB2CC17A37002D0820E394D7D68D03A478C17B4007C117EFE32F1B20272733C0
310
2A83E0E3E2D3BC49CABB685CCCAAF3DA6CA20CC14440EA969B0182FA34932C648AD911AEC52CD5558EA6A0CF2EC329598D1E47ACCEFBECC59A050463A7EA5833865FEBDD0E37353BE3EE8DBDE3F6786A48D375FBF6CC78B9C282473B3DEFABC5C86834888A900E538A49F5419B9EB47DD5BC907D4F082F57FB1F28CDFA9F50
310
B22ED6D5F6EE030B20687EE43E10BC5CB3C8E51E54AE6B6EE207504B0304140006080800CC70623B55019EA25F0000007C00000007000000636E782E786D6C4DCB3B0E80201045D1AD90E915ED2CF8AC45050C11660C8261F98AB1B07AC9C97D42D718D865D3E909258CFD00CCE24AC6E326A164D74DC0B4128928FF326038
310
472BA13128B1252AC747C6BAB984FC68F0B87FE8960A5C09FE86CFB69FBA01504B0304140006080800CC70623BA24EB22D72010000D40300000C0000006662782F636F72652E786D6CC5535B6E833010BC8AE5DF0A6C5E49888CA3A6694ED00B38E05014B091B1518EDFE511A5A9D228FD2A1F60CDEC7A67C6986DCE4D8D7A
310
69BA4AAB0C073EC548AA5C17952A33ECECD15B61B4E1CC686DBF9561A44423333CC098B3D268D7CE50AE9595CA02AA74216750749DB418E5352C32DCE59FB211BE70162ABA93DF8AFC244AE9073ED050C759670D0840D390E18DF9F1706664C23973AE2A66B62A605A75ACA4C13C4976E1364A12EF355A2EBD384AF65EFA96
310
BC7B8BED2EA6719AAE16FB8491A199335B351775B991C2CA02F390D2D40B028F861F41BCA68B7518BFD0D59A524686F29B26D7164F36B94AD9289CE54E6D1DE6010819891F6E21228B3AD1831EC219194284CF98F06DD01008846CC5A1BEF83801D4CBDC6A1303536877A57A513B0953A94FC707FDBE6064EA84A9E3E6E0FA
310
EE8CF0E9198F7784A316AA0413C2C2F2E0ECA0934D1AE6D05A69BCDE9E91D2A611F573361E38FC1375157F5752AE6B6DFE4B11990F88CCBF0719EE23FF02504B0304140006080800CC70623B408A7D3B7C0000009D0000000B0000006662782F636E782E786D6C4DCCD10A83201886E15B91FFDC552A92A0064DBC8F581632
310
D3703A76F9ABD1C18E3E78F878E5F0D9027ABBFCF2292AE86E2D20171F69F6715550CB827B40839639A5F2770314A7CD293819B45C73AAFB45B35BA61ACAA1C1C7E7855C58C15BC331339661262CC762340413D68D77DA5B42298546CBE6573AF60CEB2F504B0304140006080800CC70623B449FB9BD290100001202000031
310
0000006662782F36394639363044362D344446342D343946362D394244322D3234314243333846323333332F636F72652E786D6C8D515B6EC32010BC0AE22B55850D98B871848994463E412FE002495162B07854397EA176A4F62F3F2C9A9D991D587EB84F37F0AD7D30CEF6905418026DA553C65E7A98E219ED203808EE9D
310
8B7F6810D871D23D2C3014FCE25D9A57483A1BB58D19B54EE9151C43D0110279CB971E06F9A5A7B11A53CC8C70ADE6515EC78BAE4895DB992778883E0700CB907242D17643D7E2538BD869608875438BBAE38922CAC8F1BDD90DB4691A5E2F42C153326A951B95E398B3D1FE599322163C9AE9115F7A3D46ADA0A018778810
310
84E907617BDCEE297BC5BB3DC6BC2EF47FA234AB2745C9D8D8D035EE220B50105E2F0DC1954B9FB747187D9F9D8FA0CCDB042D5FA0C015C65B42DF78BD10F3F3B363CB56C7109DCFDFBBB97E662ED92EB62D13BC2E1BCAE5777DB9966D8A1F504B0304140006080800CC70623BAD7543B64E01000033030000300000006662
310
782F36394639363044362D344446342D343946362D394244322D3234314243333846323333332F636E782E786D6CD593CD6EC32010845F0571AD6CE3D48AD20813A9873E410FBD12D82434182C7EAAE6EDBB2424CD25871E7B41D6EC30B3FA84F9E67BB2E40B4234DE8DB46F1925E094D7C6ED479AD3AE5951B2113C789FEE
310
6C943839C1488B4C05DF079FE72A69D8C96C13AAD6B8631503449F83828872B949AC57D26200B826A308D316B4064D6E46FCDA41C05550DC9E483A00797BFD207EFB092A45DE9514C1BBD22178396BD39D891265658C238DEA00936C654E5E433CB65A26D9F6EDB5EBC14EBF49A45CB856E66048291F6939A9A81BB5C89177
310
38143CA680F4AA299D66A042CEB3354A2684DC9D8D178FE0D9B8B41CAAD720F880EE7EF93C0C18769E099ECC04D5A102C8049A8A05632F4DDF376CF1DE0F6BB65C2F8627B65A33C6BB62177CEBBDAD973006829F89F22E814B54F4BC2BE347F8AA8F681390B50FA73F804400B5F542E796F19FF974E7F78DB802FE05E20750
310
4B0304140006080800CC70623B8D05915C650500003B100000340000006662782F36394639363044362D344446342D343946362D394244322D3234314243333846323333332F6F626A656374732E786D6CAD575B6FA33814FE2B887D06429276DA1565D4266D158D3A339A6846FB502932E050B66023DB74D2FDF5FB190C01
310
9276B2973C046C8ECFF53B17071F77456EBD502133CEAE6CDF9DD81665314F32965ED995DA3A17B6F5310C04E7AA47665B8C14F4CAD6DB7618A48257A5D94AE89654B91AEDDEDDFC61C998326A5B714EA4BCB265FC440BE2924AF184CA6737218AB8E976E7FA6E4338649B0A523E8D98964450A6A029F619B8588D52FE7039
310
B1BD30F0F4F730D0FF866AF6369557DB33949F31A9088B0F848DD8CCFCF9F2767A76E99CCDE733677E3EF59D9BBB9BA5E37F984D16E78BC5E5F5ED25044B25C0C96822E8D60EEFE11B91C581D77CEA34368A1F5329E68CD1B8B61F16D63A1B8E092D294B10C78C4A48EB593D192E7DED9BDEE7995E1B91FDEDD3ACEA9FE831
310
6A756F9F7D4D79F4274C90A7A04248AA51D5F8C718DAE06FB2F75AC4796EBE65D22A88A22223B995679120E2D50E41AA49C260C046A35368846B0BECD0DFF3EBEB8AD4F835768F69B9ADF25C43D30E6B646F807FAA64AD59F61715C7A54127C4AACA98BA3006A9D792DAE165E0D59B61A01FB3A9F9D838D2DAE62445C86166
310
F37564E842E7DE6A69879FEEA2DD5AE7E371E1A5E025154AC307D06A03D73EB5978C58FFA4C8E9033066E0F3BD53BEC1F39F91BE7B55103791EDE6BBB991A2046172CB4581D8B893FA674DDA17A77B3B7C413D1B511FD2743BFF8A38F03A658705E3ADF8015C3A3417FF3D7E439FF591DA0B5F18BC20C1B8981957AE6392A3
310
F43C640C01D1A0B4728E2DD4F26DB4B3C3152A252A3B4E913CEC1C72F012782FF88EFF8637AA552DBEF76408E8A8DE9E50F9E1CB3A2DA0DB1B6039A893B56063DC5B3E3FFB5F72E67AB9FEB4AEC496C4F4C1149625DD662C53E89D7BF0F6151A046260D1337DFDC94502430F83B0EE07A130A224BCAD7DAE1D9FB6CD422FF6
310
920702629C4BB9AE79C12F243C6432A6794E18E5552BA56B431AAB5D91317302B2B071E86C3A42B1A02F999E24061403B5D0EB639195DA655DD3EBEAB4FB862DDF579F014AD0E73C22F99E28DA57FB98E75C6CA2D74D53086D600F4786E0FE3144B771A8A7B900F03594DB8A633CBC49B2EDB69228BB479CF863B5E807AAAB
310
23872F6DFEB4129B949CA33823F58830E86D65621E10047D9DB34D862E8EAC3C2ABC2F7B2C40D67CDFE01F5545B92105AF983AC54D93D69E56FB8E797F88913F898A9FEC705D3F9D1B54EC8426FB500D40A03BD0119B06E1B95DDC7EB8F6975367793EBD70E66733DFB9BC982F9CE564727731999F5D4ECFCE3B8D6A4DC2A0
310
6D50FD148437D110834A64C6CDDF57FBACB5C307A2A477DFE4939736CFEF2B175371E0E10CF0DD1D5C15654E0BCA14D1E87DD02FF93782A162C0A3D95F1524A52770F972BF1EE9809D13CE7DD599467F8ECE9ADD85CE85A34CD45355448C64F9E8A031DC2D596ACC6E5DD93D9B82DE2EF5CAF81363A8E47996A0DE24564A79
310
4115AACE09C55E14540231FDA13C319787134EBF34E3A022514E5B4D9E0826E25C02D5805B15ABE1BEF51B26383D445DD9E875EE33FE4C22DA16427D65A3BCA92CA6D28DD01DF5DC53330704308475351050232CCD31583787BA75774AFB06E5070DD0C8EF484E19968C5D83BA5B90B244D31E54D55A372320FE4786B7EA58
310
44E135AA5467CB7EA333A61683CC6A8C3257034C10CF46F40EF9F5BE59BE5BD30C3C72D235E95D10345C1D45445A5F0BB47E46A5EBE5570F9380B5FA629579952296A773720405982B9DE04011506178964401AA8BDF1FBF0A8EAB6861DD6580C0E38217056766716DAEB2D6FA0917D3E4116581EADB879C4E7CFFB11EFACD
310
3D641311495D92C8676CB409A72D18610D803CE8A626049E8EC1887CB5B44CC39883690DDA8399B4B9855B481E7D71D4A9D22F96E5BB73BF5793020C02137BF837504B0304140006080000CC70623B000000000000000000000000350000006662782F36394639363044362D344446342D343946362D394244322D32343142
310
43333846323333332F76657274696365732E62696E504B0304140006080800CC70623BF270F1330600000004000000360000006662782F36394639363044362D344446342D343946362D394244322D3234314243333846323333332F747269616E676C65732E62696E636660600000504B0304140006080000CC70623B0000
310
00000000000000000000370000006662782F36394639363044362D344446342D343946362D394244322D3234314243333846323333332F617474726962757465732E62696E504B0304140006080800CC70623B08DA0BD19000000041010000360000006662782F36394639363044362D344446342D343946362D394244322D
310
3234314243333846323333332F6469726563746F72792E786D6C858F410AC3201045AF22B36F53E9A60B35CBEEBAE80D244E44489C6234F4F835464A48035D0DF398FF9F8AF63D0E6CC63039F212F8F9020C7D47C6792B21C5FE7403D62A1188E2E60C98D7234A5830286103A55745067B9D86B8A3CF9C7F90C11DE607FB14
310
4396D7B6A82D282E9A152AD114D5EF2CB866EEE831B8EEA07A7BB5A8D7D61A2BAAEB7FD5F70921FF497D00504B0304140006080800CC70623BCA768048FE000000A00100003B0000006662782F36394639363044362D344446342D343946362D394244322D3234314243333846323333332F7265736F75726365732F636F72
310
652E786D6C8D50596E833010BD0A9ADFCA60D600328E9AA639412F609909B1126CE4A5EAF16B0295DABFFECC8CDEA2797AECF8353F924FB44E193D409E5248504B332A3D0D10FC95B4901C39B3C6F85F3248B49871801506CE266BC2B243D2688FDA47549B11775038871E12F988C7004EDE7016A9083E2ADC3D5D84BC8B09
310
D33C8D74D471E6BC8D0192EDC93A815B742658898E651BCB59086ADC356A8C3FD555A1055ED7E7E254D615792D0F075295F585746FF53B694EE78A565DD736979A65AB9933AFE69F8CD2A2F038022F28ED489E135A7CE4554F9BBEA85E68DB53CAB255FEC71496F19FA6A0B42F8B3DEE6673C0F318E4497096AD7DC5F52C33
310
EEB55BFE0D504B010214000A0000080000CC70623B3DEE336E79000000790000001B00000000000000000000000000000000006175746F6465736B2D64657369676E2D7061636B6167652E786D6C504B01021400140006080800CC70623BD486FD9CA0000000F40000001300000000000000000000000000B20000005B436F
310
6E74656E745F54797065735D2E786D6C504B01021400140006080800CC70623BD9DDAED0EC0000007C010000080000000000000000000000000083010000636F72652E786D6C504B01021400140006080800CC70623B55019EA25F0000007C000000070000000000000000000000000095020000636E782E786D6C504B0102
310
1400140006080800CC70623BA24EB22D72010000D40300000C00000000000000000000000000190300006662782F636F72652E786D6C504B01021400140006080800CC70623B408A7D3B7C0000009D0000000B00000000000000000000000000B50400006662782F636E782E786D6C504B01021400140006080800CC70623B
310
449FB9BD290100001202000031000000000000000000000000005A0500006662782F36394639363044362D344446342D343946362D394244322D3234314243333846323333332F636F72652E786D6C504B01021400140006080800CC70623BAD7543B64E010000330300003000000000000000000000000000D20600006662
310
782F36394639363044362D344446342D343946362D394244322D3234314243333846323333332F636E782E786D6C504B01021400140006080800CC70623B8D05915C650500003B10000034000000000000000000000000006E0800006662782F36394639363044362D344446342D343946362D394244322D32343142433338
310
46323333332F6F626A656374732E786D6C504B01021400140006080000CC70623B0000000000000000000000003500000000000000000000000000250E00006662782F36394639363044362D344446342D343946362D394244322D3234314243333846323333332F76657274696365732E62696E504B010214001400060808
310
00CC70623BF270F13306000000040000003600000000000000000000000000780E00006662782F36394639363044362D344446342D343946362D394244322D3234314243333846323333332F747269616E676C65732E62696E504B01021400140006080000CC70623B00000000000000000000000037000000000000000000
310
00000000D20E00006662782F36394639363044362D344446342D343946362D394244322D3234314243333846323333332F617474726962757465732E62696E504B01021400140006080800CC70623B08DA0BD190000000410100003600000000000000000000000000270F00006662782F36394639363044362D344446342D
310
343946362D394244322D3234314243333846323333332F6469726563746F72792E786D6C504B01021400140006080800CC70623BCA768048FE000000A00100003B000000000000000000000000000B1000006662782F36394639363044362D344446342D343946362D394244322D3234314243333846323333332F7265736F
310
75726365732F636F72652E786D6C504B0506000000000E000E0080040000621100000000
  0
XRECORD
  5
10
102
{ACAD_REACTORS
330
C
102
}
330
C
100
AcDbXrecord
280
     1
270
     1
271
     1
  0
XRECORD
  5
11
102
{ACAD_REACTORS
330
C
102
}
330
C
100
AcDbXrecord
280
     1
270
     1
271
     1
  0
CELLSTYLEMAP
  5
278
102
{ACAD_REACTORS
330
50
102
}
330
50
100
AcDbCellStyleMap
 90
        3
300
CELLSTYLE
  1
TABLEFORMAT_BEGIN
 90
        5
170
     1
 91
        0
 92
    32768
 62
   257
 93
        1
300
CONTENTFORMAT
  1
CONTENTFORMAT_BEGIN
 90
        0
 91
        0
 92
      512
 93
        0
300

 40
0.0
140
1.0
 94
        5
 62
     0
340
21
144
6.0
309
CONTENTFORMAT_END
171
     1
301
MARGIN
  1
CELLMARGIN_BEGIN
 40
1.5
 40
1.5
 40
1.5
 40
1.5
 40
4.5
 40
4.5
309
CELLMARGIN_END
 94
        6
 95
        1
302
GRIDFORMAT
  1
GRIDFORMAT_BEGIN
 90
        0
 91
        1
 62
     0
 92
       -2
340
24
 93
        0
 40
1.125
309
GRIDFORMAT_END
 95
        2
302
GRIDFORMAT
  1
GRIDFORMAT_BEGIN
 90
        0
 91
        1
 62
     0
 92
       -2
340
24
 93
        0
 40
1.125
309
GRIDFORMAT_END
 95
        4
302
GRIDFORMAT
  1
GRIDFORMAT_BEGIN
 90
        0
 91
        1
 62
     0
 92
       -2
340
24
 93
        0
 40
1.125
309
GRIDFORMAT_END
 95
        8
302
GRIDFORMAT
  1
GRIDFORMAT_BEGIN
 90
        0
 91
        1
 62
     0
 92
       -2
340
24
 93
        0
 40
1.125
309
GRIDFORMAT_END
 95
       16
302
GRIDFORMAT
  1
GRIDFORMAT_BEGIN
 90
        0
 91
        1
 62
     0
 92
       -2
340
24
 93
        0
 40
1.125
309
GRIDFORMAT_END
 95
       32
302
GRIDFORMAT
  1
GRIDFORMAT_BEGIN
 90
        0
 91
        1
 62
     0
 92
       -2
340
24
 93
        0
 40
1.125
309
GRIDFORMAT_END
309
TABLEFORMAT_END
  1
CELLSTYLE_BEGIN
 90
        1
 91
        1
300
_TITLE
309
CELLSTYLE_END
300
CELLSTYLE
  1
TABLEFORMAT_BEGIN
 90
        5
170
     1
 91
        0
 92
        0
 62
   257
 93
        1
300
CONTENTFORMAT
  1
CONTENTFORMAT_BEGIN
 90
        0
 91
        0
 92
      512
 93
        0
300

 40
0.0
140
1.0
 94
        5
 62
     0
340
21
144
4.5
309
CONTENTFORMAT_END
171
     1
301
MARGIN
  1
CELLMARGIN_BEGIN
 40
1.5
 40
1.5
 40
1.5
 40
1.5
 40
4.5
 40
4.5
309
CELLMARGIN_END
 94
        6
 95
        1
302
GRIDFORMAT
  1
GRIDFORMAT_BEGIN
 90
        0
 91
        1
 62
     0
 92
       -2
340
24
 93
        0
 40
1.125
309
GRIDFORMAT_END
 95
        2
302
GRIDFORMAT
  1
GRIDFORMAT_BEGIN
 90
        0
 91
        1
 62
     0
 92
       -2
340
24
 93
        0
 40
1.125
309
GRIDFORMAT_END
 95
        4
302
GRIDFORMAT
  1
GRIDFORMAT_BEGIN
 90
        0
 91
        1
 62
     0
 92
       -2
340
24
 93
        0
 40
1.125
309
GRIDFORMAT_END
 95
        8
302
GRIDFORMAT
  1
GRIDFORMAT_BEGIN
 90
        0
 91
        1
 62
     0
 92
       -2
340
24
 93
        0
 40
1.125
309
GRIDFORMAT_END
 95
       16
302
GRIDFORMAT
  1
GRIDFORMAT_BEGIN
 90
        0
 91
        1
 62
     0
 92
       -2
340
24
 93
        0
 40
1.125
309
GRIDFORMAT_END
 95
       32
302
GRIDFORMAT
  1
GRIDFORMAT_BEGIN
 90
        0
 91
        1
 62
     0
 92
       -2
340
24
 93
        0
 40
1.125
309
GRIDFORMAT_END
309
TABLEFORMAT_END
  1
CELLSTYLE_BEGIN
 90
        2
 91
        1
300
_HEADER
309
CELLSTYLE_END
300
CELLSTYLE
  1
TABLEFORMAT_BEGIN
 90
        5
170
     1
 91
        0
 92
        0
 62
   257
 93
        1
300
CONTENTFORMAT
  1
CONTENTFORMAT_BEGIN
 90
        0
 91
        0
 92
      512
 93
        0
300

 40
0.0
140
1.0
 94
        2
 62
     0
340
21
144
4.5
309
CONTENTFORMAT_END
171
     1
301
MARGIN
  1
CELLMARGIN_BEGIN
 40
1.5
 40
1.5
 40
1.5
 40
1.5
 40
4.5
 40
4.5
309
CELLMARGIN_END
 94
        6
 95
        1
302
GRIDFORMAT
  1
GRIDFORMAT_BEGIN
 90
        0
 91
        1
 62
     0
 92
       -2
340
24
 93
        0
 40
1.125
309
GRIDFORMAT_END
 95
        2
302
GRIDFORMAT
  1
GRIDFORMAT_BEGIN
 90
        0
 91
        1
 62
     0
 92
       -2
340
24
 93
        0
 40
1.125
309
GRIDFORMAT_END
 95
        4
302
GRIDFORMAT
  1
GRIDFORMAT_BEGIN
 90
        0
 91
        1
 62
     0
 92
       -2
340
24
 93
        0
 40
1.125
309
GRIDFORMAT_END
 95
        8
302
GRIDFORMAT
  1
GRIDFORMAT_BEGIN
 90
        0
 91
        1
 62
     0
 92
       -2
340
24
 93
        0
 40
1.125
309
GRIDFORMAT_END
 95
       16
302
GRIDFORMAT
  1
GRIDFORMAT_BEGIN
 90
        0
 91
        1
 62
     0
 92
       -2
340
24
 93
        0
 40
1.125
309
GRIDFORMAT_END
 95
       32
302
GRIDFORMAT
  1
GRIDFORMAT_BEGIN
 90
        0
 91
        1
 62
     0
 92
       -2
340
24
 93
        0
 40
1.125
309
GRIDFORMAT_END
309
TABLEFORMAT_END
  1
CELLSTYLE_BEGIN
 90
        3
 91
        2
300
_DATA
309
CELLSTYLE_END
  0
ENDSEC
  0
SECTION
  2
ACDSDATA
 70
     2
 71
     8
  0
ACDSSCHEMA
 90
        0
  1
AcDb_Thumbnail_Schema
  2
AcDbDs::ID
280
    10
 91
        8
  2
Thumbnail_Data
280
    15
 91
        0
101
ACDSRECORD
 95
        0
 90
        1
  2
AcDbDs::TreatedAsObjectData
280
     1
291
     1
101
ACDSRECORD
 95
        0
 90
        2
  2
AcDbDs::Legacy
280
     1
291
     1
101
ACDSRECORD
  1
AcDbDs::ID
 90
        3
  2
AcDs:Indexable
280
     1
291
     1
101
ACDSRECORD
  1
AcDbDs::ID
 90
        4
  2
AcDbDs::HandleAttribute
280
     7
282
     1
  0
ACDSSCHEMA
 90
        1
  1
AcDbDs::TreatedAsObjectDataSchema
  2
AcDbDs::TreatedAsObjectData
280
     1
 91
        0
  0
ACDSSCHEMA
 90
        2
  1
AcDbDs::LegacySchema
  2
AcDbDs::Legacy
280
     1
 91
        0
  0
ACDSSCHEMA
 90
        3
  1
AcDbDs::IndexedPropertySchema
  2
AcDs:Indexable
280
     1
 91
        0
  0
ACDSSCHEMA
 90
        4
  1
AcDbDs::HandleAttributeSchema
  2
AcDbDs::HandleAttribute
280
     7
 91
        1
284
     1
  0
ACDSRECORD
 90
        0
  2
AcDbDs::ID
280
    10
320
15
  2
Thumbnail_Data
280
    15
 94
      896
310
89504E470D0A1A0A0000000D49484452000001000000009108030000001BE1960600000300504C5445212830FFFFFF2128300000000000000000000000000000000000000000000000000000330000660000990000CC0000FF0033000033330033660033990033CC0033FF0066000066330066660066990066CC0066FF0099
310
000099330099660099990099CC0099FF00CC0000CC3300CC6600CC9900CCCC00CCFF00FF0000FF3300FF6600FF9900FFCC00FFFF3300003300333300663300993300CC3300FF3333003333333333663333993333CC3333FF3366003366333366663366993366CC3366FF3399003399333399663399993399CC3399FF33CC00
310
33CC3333CC6633CC9933CCCC33CCFF33FF0033FF3333FF6633FF9933FFCC33FFFF6600006600336600666600996600CC6600FF6633006633336633666633996633CC6633FF6666006666336666666666996666CC6666FF6699006699336699666699996699CC6699FF66CC0066CC3366CC6666CC9966CCCC66CCFF66FF0066
310
FF3366FF6666FF9966FFCC66FFFF9900009900339900669900999900CC9900FF9933009933339933669933999933CC9933FF9966009966339966669966999966CC9966FF9999009999339999669999999999CC9999FF99CC0099CC3399CC6699CC9999CCCC99CCFF99FF0099FF3399FF6699FF9999FFCC99FFFFCC0000CC00
310
33CC0066CC0099CC00CCCC00FFCC3300CC3333CC3366CC3399CC33CCCC33FFCC6600CC6633CC6666CC6699CC66CCCC66FFCC9900CC9933CC9966CC9999CC99CCCC99FFCCCC00CCCC33CCCC66CCCC99CCCCCCCCCCFFCCFF00CCFF33CCFF66CCFF99CCFFCCCCFFFFFF0000FF0033FF0066FF0099FF00CCFF00FFFF3300FF3333
310
FF3366FF3399FF33CCFF33FFFF6600FF6633FF6666FF6699FF66CCFF66FFFF9900FF9933FF9966FF9999FF99CCFF99FFFFCC00FFCC33FFCC66FFCC99FFCCCCFFCCFFFFFF00FFFF33FFFF66FFFF99FFFFCCFFFFFF0000000D0D0D1A1A1A2828283535354343435050505D5D5D6B6B6B787878868686939393A1A1A1AEAEAEBB
310
BBBBC9C9C9D6D6D6E4E4E4F1F1F1FFFFFF0000000000000000000000000000000000000000000000000000000000002E4550F10000003B4944415478DAEDC13101000000C2A0F54F6D0B2FA0000000000000000000000000000000000000000000000000000000000000000000000000CE06919100016C9A5B1B0000000049
310
454E44AE426082
  0
ENDSEC
  0
EOF
