  0
SECTION
  2
HEADER
  9
$ACADVER
  1
AC1018
  9
$ACADMAINTVER
 70
   104
  9
$DWGCODEPAGE
  3
ANSI_932
  9
$INSBASE
 10
0.0
 20
0.0
 30
0.0
  9
$EXTMIN
 10
-0.0019704867689967
 20
-0.0007973650235797
 30
-0.0015258207003583
  9
$EXTMAX
 10
50.00256523726898
 20
23.56923442309534
 30
0.0000000349246037
  9
$LIMMIN
 10
-2.545755363903481
 20
-2.305900971018218
  9
$LIMMAX
 10
53.1540364886514
 20
25.34690253019289
  9
$ORTHOMODE
 70
     0
  9
$REGENMODE
 70
     1
  9
$FILLMODE
 70
     1
  9
$QTEXTMODE
 70
     0
  9
$MIRRTEXT
 70
     1
  9
$LTSCALE
 40
1.0
  9
$ATTMODE
 70
     1
  9
$TEXTSIZE
 40
3.5
  9
$TRACEWID
 40
1.0
  9
$TEXTSTYLE
  7
Standard
  9
$CLAYER
  8
0
  9
$CELTYPE
  6
ByLayer
  9
$CECOLOR
 62
   256
  9
$CELTSCALE
 40
1.0
  9
$DISPSILH
 70
     0
  9
$DIMSCALE
 40
1.0
  9
$DIMASZ
 40
3.302
  9
$DIMEXO
 40
1.0
  9
$DIMDLI
 40
3.75
  9
$DIMRND
 40
0.0
  9
$DIMDLE
 40
0.0
  9
$DIMEXE
 40
1.0
  9
$DIMTP
 40
0.0
  9
$DIMTM
 40
0.0
  9
$DIMTXT
 40
3.5
  9
$DIMCEN
 40
2.5
  9
$DIMTSZ
 40
0.0
  9
$DIMTOL
 70
     0
  9
$DIMLIM
 70
     0
  9
$DIMTIH
 70
     1
  9
$DIMTOH
 70
     1
  9
$DIMSE1
 70
     0
  9
$DIMSE2
 70
     0
  9
$DIMTAD
 70
     1
  9
$DIMZIN
 70
     0
  9
$DIMBLK
  1

  9
$DIMASO
 70
     1
  9
$DIMSHO
 70
     1
  9
$DIMPOST
  1

  9
$DIMAPOST
  1

  9
$DIMALT
 70
     0
  9
$DIMALTD
 70
     3
  9
$DIMALTF
 40
0.0393700787
  9
$DIMLFAC
 40
1.0
  9
$DIMTOFL
 70
     1
  9
$DIMTVP
 40
0.0
  9
$DIMTIX
 70
     0
  9
$DIMSOXD
 70
     0
  9
$DIMSAH
 70
     0
  9
$DIMBLK1
  1

  9
$DIMBLK2
  1

  9
$DIMSTYLE
  2
ISO-25
  9
$DIMCLRD
 70
     0
  9
$DIMCLRE
 70
     0
  9
$DIMCLRT
 70
     0
  9
$DIMTFAC
 40
1.0
  9
$DIMGAP
 40
1.524
  9
$DIMJUST
 70
     0
  9
$DIMSD1
 70
     0
  9
$DIMSD2
 70
     0
  9
$DIMTOLJ
 70
     0
  9
$DIMTZIN
 70
     0
  9
$DIMALTZ
 70
     0
  9
$DIMALTTZ
 70
     0
  9
$DIMUPT
 70
     0
  9
$DIMDEC
 70
     2
  9
$DIMTDEC
 70
     2
  9
$DIMALTU
 70
     2
  9
$DIMALTTD
 70
     3
  9
$DIMTXSTY
  7
Standard
  9
$DIMAUNIT
 70
     0
  9
$DIMADEC
 70
     2
  9
$DIMALTRND
 40
0.0
  9
$DIMAZIN
 70
     0
  9
$DIMDSEP
 70
    44
  9
$DIMATFIT
 70
     3
  9
$DIMFRAC
 70
     0
  9
$DIMLDRBLK
  1

  9
$DIMLUNIT
 70
     2
  9
$DIMLWD
 70
    -2
  9
$DIMLWE
 70
    -2
  9
$DIMTMOVE
 70
     0
  9
$LUNITS
 70
     2
  9
$LUPREC
 70
     2
  9
$SKETCHINC
 40
1.0
  9
$FILLETRAD
 40
10.0
  9
$AUNITS
 70
     0
  9
$AUPREC
 70
     2
  9
$MENU
  1
.
  9
$ELEVATION
 40
0.0
  9
$PELEVATION
 40
0.0
  9
$THICKNESS
 40
0.0
  9
$LIMCHECK
 70
     0
  9
$CHAMFERA
 40
0.0
  9
$CHAMFERB
 40
0.0
  9
$CHAMFERC
 40
0.0
  9
$CHAMFERD
 40
0.0
  9
$SKPOLY
 70
     0
  9
$TDCREATE
 40
2458379.683449074
  9
$TDUCREATE
 40
2458379.350126540
  9
$TDUPDATE
 40
2458380.735219908
  9
$TDUUPDATE
 40
2458380.401886574
  9
$TDINDWG
 40
0.0171412153
  9
$TDUSRTIMER
 40
0.0171412153
  9
$USRTIMER
 70
     1
  9
$ANGBASE
 50
0.0
  9
$ANGDIR
 70
     0
  9
$PDMODE
 70
     0
  9
$PDSIZE
 40
-1.0
  9
$PLINEWID
 40
0.0
  9
$SPLFRAME
 70
     0
  9
$SPLINETYPE
 70
     6
  9
$SPLINESEGS
 70
     8
  9
$HANDSEED
  5
507
  9
$SURFTAB1
 70
     6
  9
$SURFTAB2
 70
     6
  9
$SURFTYPE
 70
     6
  9
$SURFU
 70
     6
  9
$SURFV
 70
     6
  9
$UCSBASE
  2

  9
$UCSNAME
  2

  9
$UCSORG
 10
0.0
 20
0.0
 30
0.0
  9
$UCSXDIR
 10
1.0
 20
0.0
 30
0.0
  9
$UCSYDIR
 10
0.0
 20
1.0
 30
0.0
  9
$UCSORTHOREF
  2

  9
$UCSORTHOVIEW
 70
     0
  9
$UCSORGTOP
 10
0.0
 20
0.0
 30
0.0
  9
$UCSORGBOTTOM
 10
0.0
 20
0.0
 30
0.0
  9
$UCSORGLEFT
 10
0.0
 20
0.0
 30
0.0
  9
$UCSORGRIGHT
 10
0.0
 20
0.0
 30
0.0
  9
$UCSORGFRONT
 10
0.0
 20
0.0
 30
0.0
  9
$UCSORGBACK
 10
0.0
 20
0.0
 30
0.0
  9
$PUCSBASE
  2

  9
$PUCSNAME
  2

  9
$PUCSORG
 10
0.0
 20
0.0
 30
0.0
  9
$PUCSXDIR
 10
1.0
 20
0.0
 30
0.0
  9
$PUCSYDIR
 10
0.0
 20
1.0
 30
0.0
  9
$PUCSORTHOREF
  2

  9
$PUCSORTHOVIEW
 70
     0
  9
$PUCSORGTOP
 10
0.0
 20
0.0
 30
0.0
  9
$PUCSORGBOTTOM
 10
0.0
 20
0.0
 30
0.0
  9
$PUCSORGLEFT
 10
0.0
 20
0.0
 30
0.0
  9
$PUCSORGRIGHT
 10
0.0
 20
0.0
 30
0.0
  9
$PUCSORGFRONT
 10
0.0
 20
0.0
 30
0.0
  9
$PUCSORGBACK
 10
0.0
 20
0.0
 30
0.0
  9
$USERI1
 70
     0
  9
$USERI2
 70
     0
  9
$USERI3
 70
     0
  9
$USERI4
 70
     0
  9
$USERI5
 70
     0
  9
$USERR1
 40
0.0
  9
$USERR2
 40
0.0
  9
$USERR3
 40
0.0
  9
$USERR4
 40
0.0
  9
$USERR5
 40
0.0
  9
$WORLDVIEW
 70
     1
  9
$SHADEDGE
 70
     3
  9
$SHADEDIF
 70
    70
  9
$TILEMODE
 70
     1
  9
$MAXACTVP
 70
    64
  9
$PINSBASE
 10
0.0
 20
0.0
 30
0.0
  9
$PLIMCHECK
 70
     0
  9
$PEXTMIN
 10
1.000000000000000E+20
 20
1.000000000000000E+20
 30
1.000000000000000E+20
  9
$PEXTMAX
 10
-1.000000000000000E+20
 20
-1.000000000000000E+20
 30
-1.000000000000000E+20
  9
$PLIMMIN
 10
0.0
 20
0.0
  9
$PLIMMAX
 10
420.0
 20
297.0
  9
$UNITMODE
 70
     0
  9
$VISRETAIN
 70
     1
  9
$PLINEGEN
 70
     0
  9
$PSLTSCALE
 70
     1
  9
$TREEDEPTH
 70
  3020
  9
$CMLSTYLE
  2
Standard
  9
$CMLJUST
 70
     0
  9
$CMLSCALE
 40
20.0
  9
$PROXYGRAPHICS
 70
     1
  9
$MEASUREMENT
 70
     1
  9
$CELWEIGHT
370
    -1
  9
$ENDCAPS
280
     0
  9
$JOINSTYLE
280
     0
  9
$LWDISPLAY
290
     0
  9
$INSUNITS
 70
     4
  9
$HYPERLINKBASE
  1

  9
$STYLESHEET
  1

  9
$XEDIT
290
     1
  9
$CEPSNTYPE
380
     0
  9
$PSTYLEMODE
290
     1
  9
$FINGERPRINTGUID
  2
{E9E7031D-8B61-BD48-A9D0-8A4554AB4EC3}
  9
$VERSIONGUID
  2
{25BB6692-FCBA-0A4C-8DA2-C939F8098858}
  9
$EXTNAMES
290
     1
  9
$PSVPSCALE
 40
0.0
  9
$OLESTARTUP
290
     0
  9
$SORTENTS
280
   127
  9
$INDEXCTL
280
     0
  9
$HIDETEXT
280
     1
  9
$XCLIPFRAME
290
     0
  9
$HALOGAP
280
     0
  9
$OBSCOLOR
 70
   257
  9
$OBSLTYPE
280
     0
  9
$INTERSECTIONDISPLAY
280
     0
  9
$INTERSECTIONCOLOR
 70
   257
  9
$DIMASSOC
280
     1
  9
$PROJECTNAME
  1

  0
ENDSEC
  0
SECTION
  2
CLASSES
  0
CLASS
  1
ACDBDICTIONARYWDFLT
  2
AcDbDictionaryWithDefault
  3
ObjectDBX Classes
 90
        0
 91
        1
280
     0
281
     0
  0
CLASS
  1
VISUALSTYLE
  2
AcDbVisualStyle
  3
ObjectDBX Classes
 90
     4095
 91
        3
280
     0
281
     0
  0
CLASS
  1
MATERIAL
  2
AcDbMaterial
  3
ObjectDBX Classes
 90
     1153
 91
        3
280
     0
281
     0
  0
CLASS
  1
SCALE
  2
AcDbScale
  3
ObjectDBX Classes
 90
     1153
 91
       33
280
     0
281
     0
  0
CLASS
  1
TABLESTYLE
  2
AcDbTableStyle
  3
ObjectDBX Classes
 90
     4095
 91
        1
280
     0
281
     0
  0
CLASS
  1
MLEADERSTYLE
  2
AcDbMLeaderStyle
  3
ACDB_MLEADERSTYLE_CLASS
 90
     4095
 91
        0
280
     0
281
     0
  0
CLASS
  1
SUN
  2
AcDbSun
  3
SCENEOE
 90
     1153
 91
        0
280
     0
281
     0
  0
CLASS
  1
ACDBSECTIONVIEWSTYLE
  2
AcDbSectionViewStyle
  3
ObjectDBX Classes
 90
     1025
 91
        0
280
     0
281
     0
  0
CLASS
  1
ACDBDETAILVIEWSTYLE
  2
AcDbDetailViewStyle
  3
ObjectDBX Classes
 90
     1025
 91
        0
280
     0
281
     0
  0
CLASS
  1
DICTIONARYVAR
  2
AcDbDictionaryVar
  3
ObjectDBX Classes
 90
        0
 91
        6
280
     0
281
     0
  0
CLASS
  1
CELLSTYLEMAP
  2
AcDbCellStyleMap
  3
ObjectDBX Classes
 90
     1152
 91
        1
280
     0
281
     0
  0
ENDSEC
  0
SECTION
  2
TABLES
  0
TABLE
  2
VPORT
  5
26
330
0
100
AcDbSymbolTable
 70
     1
  0
VPORT
  5
27
330
26
100
AcDbSymbolTableRecord
100
AcDbViewportTableRecord
  2
*Active
 70
     0
 10
0.0
 20
0.0
 11
1.0
 21
1.0
 12
29.66783497121913
 22
5.487633245841195
 13
0.0
 23
0.0
 14
10.0
 24
10.0
 15
10.0
 25
10.0
 16
0.0
 26
0.0
 36
1.0
 17
0.0
 27
0.0
 37
0.0
 40
44.62150874181899
 41
2.326023391812865
 42
50.0
 43
0.0
 44
0.0
 50
0.0
 51
0.0
 71
     0
 72
  2000
 73
     1
 74
     3
 75
     0
 76
     0
 77
     0
 78
     0
281
     0
 65
     1
110
0.0
120
0.0
130
0.0
111
1.0
121
0.0
131
0.0
112
0.0
122
1.0
132
0.0
 79
     0
146
0.0
1001
ACAD_NAV_VCDISPLAY
1070
     3
  0
ENDTAB
  0
TABLE
  2
LTYPE
  5
21
330
0
100
AcDbSymbolTable
 70
     1
  0
LTYPE
  5
22
330
21
100
AcDbSymbolTableRecord
100
AcDbLinetypeTableRecord
  2
ByBlock
 70
     0
  3

 72
    65
 73
     0
 40
0.0
  0
LTYPE
  5
23
330
21
100
AcDbSymbolTableRecord
100
AcDbLinetypeTableRecord
  2
ByLayer
 70
     0
  3

 72
    65
 73
     0
 40
0.0
  0
LTYPE
  5
13
330
21
100
AcDbSymbolTableRecord
100
AcDbLinetypeTableRecord
  2
Continuous
 70
     0
  3
Solid line
 72
    65
 73
     0
 40
0.0
  0
ENDTAB
  0
TABLE
  2
LAYER
  5
1B
102
{ACAD_XDICTIONARY
360
1C
102
}
330
0
100
AcDbSymbolTable
 70
     1
  0
LAYER
  5
4
102
{ACAD_XDICTIONARY
360
5
102
}
330
1B
100
AcDbSymbolTableRecord
100
AcDbLayerTableRecord
  2
0
 70
     0
 62
     7
  6
Continuous
370
    -3
390
7
  0
ENDTAB
  0
TABLE
  2
STYLE
  5
1E
330
0
100
AcDbSymbolTable
 70
     1
  0
STYLE
  5
1F
330
1E
100
AcDbSymbolTableRecord
100
AcDbTextStyleTableRecord
  2
Standard
 70
     0
 40
0.0
 41
1.0
 50
0.0
 71
     0
 42
3.5
  3
txt
  4
bigfont
  0
ENDTAB
  0
TABLE
  2
VIEW
  5
24
330
0
100
AcDbSymbolTable
 70
     0
  0
ENDTAB
  0
TABLE
  2
UCS
  5
25
330
0
100
AcDbSymbolTable
 70
     0
  0
ENDTAB
  0
TABLE
  2
APPID
  5
2B
330
0
100
AcDbSymbolTable
 70
     2
  0
APPID
  5
2C
330
2B
100
AcDbSymbolTableRecord
100
AcDbRegAppTableRecord
  2
ACAD
 70
     0
  0
APPID
  5
2A
330
2B
100
AcDbSymbolTableRecord
100
AcDbRegAppTableRecord
  2
ACAD_NAV_VCDISPLAY
 70
     0
  0
ENDTAB
  0
TABLE
  2
DIMSTYLE
  5
2D
330
0
100
AcDbSymbolTable
 70
     1
100
AcDbDimStyleTable
 71
     1
340
2E
  0
DIMSTYLE
105
2E
330
2D
100
AcDbSymbolTableRecord
100
AcDbDimStyleTableRecord
  2
ISO-25
 70
     0
 41
2.5
 42
0.625
 43
3.75
 44
1.25
 73
     0
 74
     0
 77
     1
 78
     8
140
2.5
141
2.5
143
0.0393700787
147
0.625
171
     3
172
     1
271
     2
272
     2
274
     3
278
    44
283
     0
284
     8
340
1F
  0
ENDTAB
  0
TABLE
  2
BLOCK_RECORD
  5
1
330
0
100
AcDbSymbolTable
 70
     0
  0
BLOCK_RECORD
  5
2
330
1
100
AcDbSymbolTableRecord
100
AcDbBlockTableRecord
  2
*Model_Space
340
15
  0
BLOCK_RECORD
  5
17
330
1
100
AcDbSymbolTableRecord
100
AcDbBlockTableRecord
  2
*Paper_Space
340
1A
  0
ENDTAB
  0
ENDSEC
  0
SECTION
  2
BLOCKS
  0
BLOCK
  5
3
330
2
100
AcDbEntity
  8
0
100
AcDbBlockBegin
  2
*Model_Space
 70
     0
 10
0.0
 20
0.0
 30
0.0
  3
*Model_Space
  1

  0
ENDBLK
  5
14
330
2
100
AcDbEntity
  8
0
100
AcDbBlockEnd
  0
BLOCK
  5
18
330
17
100
AcDbEntity
 67
     1
  8
0
100
AcDbBlockBegin
  2
*Paper_Space
 70
     0
 10
0.0
 20
0.0
 30
0.0
  3
*Paper_Space
  1

  0
ENDBLK
  5
19
330
17
100
AcDbEntity
 67
     1
  8
0
100
AcDbBlockEnd
  0
ENDSEC
  0
SECTION
  2
ENTITIES
  0
SPLINE
  5
6C
330
2
100
AcDbEntity
  8
0
100
AcDbSpline
210
0.0
220
0.0
230
1.0
 70
     8
 71
     3
 72
    13
 73
     9
 74
     0
 42
0.000000001
 43
0.0000000001
 40
0.0
 40
0.0
 40
0.0
 40
0.0
 40
0.1453513605980237
 40
0.3898717993338982
 40
0.6039076517207592
 40
0.7646455045106825
 40
0.9403772479092136
 40
1.0
 40
1.0
 40
1.0
 40
1.0
 10
44.04735934180272
 20
22.59512494080501
 30
0.0
 10
44.04066274818371
 20
22.61718858401881
 30
0.0
 10
44.02270066655676
 20
22.67636926347194
 30
0.0
 10
43.95444037370912
 20
22.74517046048184
 30
0.0
 10
43.87461590941137
 20
22.79755406989298
 30
0.0
 10
43.79364320551875
 20
22.82909947609281
 30
0.0
 10
43.73194252082746
 20
22.84705415587772
 30
0.0
 10
43.6928550814813
 20
22.84975816992192
 30
0.0
 10
43.68295299441408
 20
22.85044318236951
 30
0.0
  0
LINE
  5
6D
330
2
100
AcDbEntity
  8
0
100
AcDbLine
 10
40.40612033313219
 20
17.5891813021948
 30
0.0
 11
40.40609960974858
 21
17.41891139484812
 31
0.0
  0
LINE
  5
6E
330
2
100
AcDbEntity
  8
0
100
AcDbLine
 10
39.77121385593463
 20
17.72022608656603
 30
0.0
 11
38.86882139377579
 21
17.45972782109799
 31
0.0
  0
LINE
  5
6F
330
2
100
AcDbEntity
  8
0
100
AcDbLine
 10
37.18867318942729
 20
19.69464364981506
 30
0.0
 11
37.20519544246099
 21
19.148995147495
 31
0.0
  0
LINE
  5
70
330
2
100
AcDbEntity
  8
0
100
AcDbLine
 10
44.57452490037765
 20
19.54309824729825
 30
0.0
 11
44.57910771565638
 21
19.69464365802944
 31
0.0
  0
LINE
  5
71
330
2
100
AcDbEntity
  8
0
100
AcDbLine
 10
40.397156972269
 20
19.03132926348406
 30
0.0
 11
40.41333331644928
 21
18.10684174951496
 31
0.0
  0
LINE
  5
72
330
2
100
AcDbEntity
  8
0
100
AcDbLine
 10
43.68006590686817
 20
16.67316850005588
 30
0.0
 11
43.70418545149611
 21
17.86978687670843
 31
0.0
  0
LINE
  5
73
330
2
100
AcDbEntity
  8
0
100
AcDbLine
 10
38.07017303725178
 20
17.54344659430248
 30
0.0
 11
38.08569976744833
 21
16.77313896272527
 31
0.0
  0
LWPOLYLINE
  5
74
330
2
100
AcDbEntity
  8
0
100
AcDbPolyline
 90
        3
 70
   128
 43
0.0
 10
38.98995090671859
 20
20.04199308515975
 10
39.06753905931779
 20
19.60984156490358
 10
39.16144214280578
 20
19.08691365476052
  0
LINE
  5
75
330
2
100
AcDbEntity
  8
0
100
AcDbLine
 10
40.159594622848
 20
20.28043826743219
 30
0.0
 11
40.16026361224103
 21
20.26810168253477
 31
0.0
  0
SPLINE
  5
76
330
2
100
AcDbEntity
  8
0
100
AcDbSpline
210
0.0
220
0.0
230
1.0
 70
     8
 71
     3
 72
    11
 73
     7
 74
     0
 42
0.000000001
 43
0.0000000001
 40
0.0
 40
0.0
 40
0.0
 40
0.0
 40
0.2754851462198562
 40
0.5321957737325979
 40
0.7729279714353145
 40
1.0
 40
1.0
 40
1.0
 40
1.0
 10
39.16134385797608
 20
19.08472606058963
 30
0.0
 10
39.16291885924458
 20
19.07786887570942
 30
0.0
 10
39.16596152426743
 20
19.06462182822598
 30
0.0
 10
39.17436058571817
 20
19.04610627774995
 30
0.0
 10
39.18407130582823
 20
19.03076051223696
 30
0.0
 10
39.19179791701476
 20
19.02318895101497
 30
0.0
 10
39.19554841172504
 20
19.01951371751016
 30
0.0
  0
LINE
  5
77
330
2
100
AcDbEntity
  8
0
100
AcDbLine
 10
39.19559429332347
 20
19.01947401602387
 30
0.0
 11
39.38454701514437
 21
18.8558701198877
 31
0.0
  0
LINE
  5
78
330
2
100
AcDbEntity
  8
0
100
AcDbLine
 10
42.38400611246173
 20
19.32272596712398
 30
0.0
 11
42.60334499135423
 21
20.65816462610028
 31
0.0
  0
LWPOLYLINE
  5
79
330
2
100
AcDbEntity
  8
0
100
AcDbPolyline
 90
        3
 70
   128
 43
0.0
 10
38.96047991252629
 20
20.73862520737871
 10
38.97304046242061
 20
20.43104734353607
 10
38.98825482683999
 20
20.05885120025401
  0
LINE
  5
7A
330
2
100
AcDbEntity
  8
0
100
AcDbLine
 10
38.98806863266722
 20
20.05539207500717
 30
0.0
 11
38.9898581458573
 21
20.03982025216183
 31
0.0
  0
LWPOLYLINE
  5
7B
330
2
100
AcDbEntity
  8
0
100
AcDbPolyline
 90
        3
 70
   128
 43
0.0
 10
38.04205898712636
 20
19.62731413421841
 10
38.15314155927259
 20
19.21179719502795
 10
38.28758315166254
 20
18.70900291580381
  0
SPLINE
  5
7C
330
2
100
AcDbEntity
  8
0
100
AcDbSpline
210
0.0
220
0.0
230
1.0
 70
     8
 71
     3
 72
    11
 73
     7
 74
     0
 42
0.000000001
 43
0.0000000001
 40
0.0
 40
0.0
 40
0.0
 40
0.0
 40
0.2432653534407269
 40
0.490758741040961
 40
0.7429215480496734
 40
1.0
 40
1.0
 40
1.0
 40
1.0
 10
38.28760986065654
 20
18.70889959741236
 30
0.0
 10
38.28992297852469
 20
18.70215126840759
 30
0.0
 10
38.29458941703227
 20
18.68853732215649
 30
0.0
 10
38.30784382037403
 20
18.66922096945297
 30
0.0
 10
38.3245541830129
 20
18.65265674287307
 30
0.0
 10
38.33724124890257
 20
18.6460853068222
 30
0.0
 10
38.3436460152119
 20
18.6427678721538
 30
0.0
  0
LINE
  5
7D
330
2
100
AcDbEntity
  8
0
100
AcDbLine
 10
38.3435904400743
 20
18.64279095514025
 30
0.0
 11
38.63033582854159
 21
18.52248700705862
 31
0.0
  0
LINE
  5
7E
330
2
100
AcDbEntity
  8
0
100
AcDbLine
 10
38.63039101596698
 20
18.52246409229417
 30
0.0
 11
38.64362933805746
 21
18.51551458351977
 31
0.0
  0
LINE
  5
7F
330
2
100
AcDbEntity
  8
0
100
AcDbLine
 10
43.10504927406913
 20
18.89340103999195
 30
0.0
 11
43.44186683182342
 21
20.28624623362089
 31
0.0
  0
LINE
  5
80
330
2
100
AcDbEntity
  8
0
100
AcDbLine
 10
38.03900196328217
 20
19.6471016461834
 30
0.0
 11
38.04208044841471
 21
19.62723217899875
 31
0.0
  0
LINE
  5
81
330
2
100
AcDbEntity
  8
0
100
AcDbLine
 10
42.60334499135423
 20
20.65816462610028
 30
0.0
 11
42.61654339377042
 21
20.86529300695096
 31
0.0
  0
LWPOLYLINE
  5
82
330
2
100
AcDbEntity
  8
0
100
AcDbPolyline
 90
        3
 70
   128
 43
0.0
 10
38.01050902011748
 20
20.32103066241443
 10
38.02341988314405
 20
20.0156992334784
 10
38.03904715999133
 20
19.64666983184523
  0
LWPOLYLINE
  5
83
330
2
100
AcDbEntity
  8
0
100
AcDbPolyline
 90
        3
 70
   128
 43
0.0
 10
37.43226704608162
 20
19.07561474993302
 10
37.56344338259678
 20
18.68146031618573
 10
37.72220476582789
 20
18.20452061377342
  0
SPLINE
  5
84
330
2
100
AcDbEntity
  8
0
100
AcDbSpline
210
0.0
220
0.0
230
1.0
 70
     8
 71
     3
 72
     9
 73
     5
 74
     0
 42
0.000000001
 43
0.0000000001
 40
0.0
 40
0.0
 40
0.0
 40
0.0
 40
0.4765354145520404
 40
1.0
 40
1.0
 40
1.0
 40
1.0
 10
38.00574597667984
 20
20.34825606433896
 30
0.0
 10
38.00675722097158
 20
20.34699395473048
 30
0.0
 10
38.00887929681497
 20
20.34434544305655
 30
0.0
 10
38.00990483472384
 20
20.32963877079496
 30
0.0
 10
38.01044166750017
 20
20.32194034869621
 30
0.0
  0
LINE
  5
85
330
2
100
AcDbEntity
  8
0
100
AcDbLine
 10
37.79243011403187
 20
18.14565987010817
 30
0.0
 11
38.1441756930934
 21
18.08164743997173
 31
0.0
  0
LINE
  5
86
330
2
100
AcDbEntity
  8
0
100
AcDbLine
 10
38.14435128846016
 20
18.08161894389306
 30
0.0
 11
38.16620666740195
 21
18.07612399750583
 31
0.0
  0
LINE
  5
87
330
2
100
AcDbEntity
  8
0
100
AcDbLine
 10
43.4594706201396
 20
20.39810772768486
 30
0.0
 11
43.46382939444279
 21
20.5002385542381
 31
0.0
  0
SPLINE
  5
88
330
2
100
AcDbEntity
  8
0
100
AcDbSpline
210
0.0
220
0.0
230
1.0
 70
     8
 71
     3
 72
     9
 73
     5
 74
     0
 42
0.000000001
 43
0.0000000001
 40
0.0
 40
0.0
 40
0.0
 40
0.0
 40
0.5346248372670099
 40
1.0
 40
1.0
 40
1.0
 40
1.0
 10
43.44189191049774
 20
20.28635439346497
 30
0.0
 10
43.44614918745056
 20
20.3055335436898
 30
0.0
 10
43.45411229850722
 20
20.3414075788784
 30
0.0
 10
43.45782482468234
 20
20.38202540948336
 30
0.0
 10
43.45955254215522
 20
20.40092793901097
 30
0.0
  0
LINE
  5
89
330
2
100
AcDbEntity
  8
0
100
AcDbLine
 10
43.54566105968593
 20
18.36434243993371
 30
0.0
 11
43.97802635080831
 21
19.79416569674825
 31
0.0
  0
LWPOLYLINE
  5
8A
330
2
100
AcDbEntity
  8
0
100
AcDbPolyline
 90
        3
 70
   128
 43
0.0
 10
37.40204615770986
 20
19.7658493986715
 10
37.41374724782044
 20
19.46269298192293
 10
37.42763873815033
 20
19.10351178836802
  0
LINE
  5
8B
330
2
100
AcDbEntity
  8
0
100
AcDbLine
 10
44.00733415482164
 20
19.93386597171088
 30
0.0
 11
44.01041888234352
 21
20.01274385758477
 31
0.0
  0
SPLINE
  5
8C
330
2
100
AcDbEntity
  8
0
100
AcDbSpline
210
0.0
220
0.0
230
1.0
 70
     8
 71
     3
 72
    10
 73
     6
 74
     0
 42
0.000000001
 43
0.0000000001
 40
0.0
 40
0.0
 40
0.0
 40
0.0
 40
0.5547953718902252
 40
0.7940899695379668
 40
1.0
 40
1.0
 40
1.0
 40
1.0
 10
43.97802635080831
 20
19.79416569674825
 30
0.0
 10
43.98242421352614
 20
19.81436457244917
 30
0.0
 10
43.99047980815189
 20
19.84700119307892
 30
0.0
 10
44.0017340590905
 20
19.89442296236828
 30
0.0
 10
44.00505182778466
 20
19.91563398482337
 30
0.0
 10
44.00658631734236
 20
19.92544422039617
 30
0.0
  0
LINE
  5
8D
330
2
100
AcDbEntity
  8
0
100
AcDbLine
 10
43.70450274145458
 20
17.87403639409782
 30
0.0
 11
44.14735664647691
 21
19.24125763431688
 31
0.0
  0
LINE
  5
8E
330
2
100
AcDbEntity
  8
0
100
AcDbLine
 10
43.92224421226113
 20
16.56117675475895
 30
0.0
 11
43.96014993091449
 21
18.4417607044747
 31
0.0
  0
LINE
  5
8F
330
2
100
AcDbEntity
  8
0
100
AcDbLine
 10
37.83551720310591
 20
17.05826065629337
 30
0.0
 11
37.84099442387273
 21
16.78651851684936
 31
0.0
  0
LINE
  5
90
330
2
100
AcDbEntity
  8
0
100
AcDbLine
 10
44.23323002686623
 20
18.59701362997518
 30
0.0
 11
44.24047585349174
 21
18.77667304170181
 31
0.0
  0
SPLINE
  5
91
330
2
100
AcDbEntity
  8
0
100
AcDbSpline
210
0.0
220
0.0
230
1.0
 70
     8
 71
     3
 72
     9
 73
     5
 74
     0
 42
0.000000001
 43
0.0000000001
 40
0.0
 40
0.0
 40
0.0
 40
0.0
 40
0.5355510536874734
 40
1.0
 40
1.0
 40
1.0
 40
1.0
 10
44.24041604456056
 20
18.77536638767081
 30
0.0
 10
44.24140392790238
 20
18.78149793274863
 30
0.0
 10
44.24324853885965
 20
18.79294697208039
 30
0.0
 10
44.25460513867117
 20
18.82214722512477
 30
0.0
 10
44.26949713756232
 20
18.83588674387234
 30
0.0
  0
LINE
  5
92
330
2
100
AcDbEntity
  8
0
100
AcDbLine
 10
40.52956913187377
 20
23.56809722430284
 30
0.0
 11
40.15314948377739
 21
23.4594342317318
 31
0.0
  0
LINE
  5
93
330
2
100
AcDbEntity
  8
0
100
AcDbLine
 10
40.05759541017677
 20
23.43185014667121
 30
0.0
 11
39.67274464029291
 21
23.32075329887284
 31
0.0
  0
LINE
  5
94
330
2
100
AcDbEntity
  8
0
100
AcDbLine
 10
39.3836336239589
 20
23.23729413731705
 30
0.0
 11
39.07142656880063
 21
23.14716772366275
 31
0.0
  0
LINE
  5
95
330
2
100
AcDbEntity
  8
0
100
AcDbLine
 10
42.73964854888204
 20
22.82470883460511
 30
0.0
 11
42.73657200746598
 21
22.90098950105984
 31
0.0
  0
LINE
  5
96
330
2
100
AcDbEntity
  8
0
100
AcDbLine
 10
41.71070316648561
 20
21.53316314253064
 30
0.0
 11
41.71070316648561
 21
23.42818687886916
 31
0.0
  0
LINE
  5
97
330
2
100
AcDbEntity
  8
0
100
AcDbLine
 10
40.05707767241415
 20
23.42818680566914
 30
0.0
 11
40.05707767241415
 21
21.53316306933064
 31
0.0
  0
LINE
  5
98
330
2
100
AcDbEntity
  8
0
100
AcDbLine
 10
42.38414716461259
 20
21.42427871704058
 30
0.0
 11
42.38414716461259
 21
23.31930245339646
 31
0.0
  0
LINE
  5
99
330
2
100
AcDbEntity
  8
0
100
AcDbLine
 10
39.38363350643944
 20
23.31930251061925
 30
0.0
 11
39.38363350643944
 21
21.42427877428074
 31
0.0
  0
LINE
  5
9A
330
2
100
AcDbEntity
  8
0
100
AcDbLine
 10
43.20794457542803
 20
21.17547864445619
 30
0.0
 11
43.20794457542803
 21
23.07050238079469
 31
0.0
  0
LINE
  5
9B
330
2
100
AcDbEntity
  8
0
100
AcDbLine
 10
38.5598363230911
 20
23.07050231544437
 30
0.0
 11
38.5598363230911
 21
21.17547857910586
 31
0.0
  0
LINE
  5
9C
330
2
100
AcDbEntity
  8
0
100
AcDbLine
 10
43.72764808714696
 20
20.91999736107804
 30
0.0
 11
43.72764808714696
 21
22.81502109741655
 31
0.0
  0
LINE
  5
9D
330
2
100
AcDbEntity
  8
0
100
AcDbLine
 10
38.04013274445884
 20
22.81502110608247
 30
0.0
 11
38.04013274445884
 21
20.91999736974396
 31
0.0
  0
LINE
  5
9E
330
2
100
AcDbEntity
  8
0
100
AcDbLine
 10
44.13940296293659
 20
20.61343939975767
 30
0.0
 11
44.13940296293659
 21
22.50846313609617
 31
0.0
  0
LINE
  5
9F
330
2
100
AcDbEntity
  8
0
100
AcDbLine
 10
37.62837783780887
 20
22.50846312550258
 30
0.0
 11
37.62837783780887
 21
20.61343938916408
 31
0.0
  0
LINE
  5
A0
330
2
100
AcDbEntity
  8
0
100
AcDbLine
 10
37.37353665923797
 20
22.20623445100244
 30
0.0
 11
37.37353665923797
 21
20.31121071466392
 31
0.0
  0
LINE
  5
A1
330
2
100
AcDbEntity
  8
0
100
AcDbLine
 10
44.39424401830917
 20
20.31121072701154
 30
0.0
 11
44.39424401830917
 21
22.20623446335005
 31
0.0
  0
LINE
  5
A2
330
2
100
AcDbEntity
  8
0
100
AcDbLine
 10
37.22540801725702
 20
21.86018243307546
 30
0.0
 11
37.22540801725702
 21
19.98395045356984
 31
0.0
  0
LINE
  5
A3
330
2
100
AcDbEntity
  8
0
100
AcDbLine
 10
44.54237278600658
 20
19.9839504633993
 30
0.0
 11
44.54237278600658
 21
21.86018244288756
 31
0.0
  0
LINE
  5
A4
330
2
100
AcDbEntity
  8
0
100
AcDbLine
 10
41.36168339496845
 20
17.927428734829
 30
0.0
 11
41.35117533570678
 21
18.12645853138714
 31
0.0
  0
LINE
  5
A5
330
2
100
AcDbEntity
  8
0
100
AcDbLine
 10
40.41333331644928
 20
18.10684174951496
 30
0.0
 11
40.40609736128389
 21
17.92742872201249
 31
0.0
  0
SPLINE
  5
A6
330
2
100
AcDbEntity
  8
0
100
AcDbSpline
210
0.0
220
0.0
230
1.0
 70
     8
 71
     3
 72
    12
 73
     8
 74
     0
 42
0.000000001
 43
0.0000000001
 40
0.0
 40
0.0
 40
0.0
 40
0.0
 40
0.3406957208246037
 40
0.509223557231846
 40
0.6410552922052255
 40
0.7844454924726766
 40
1.0
 40
1.0
 40
1.0
 40
1.0
 10
37.64793186195038
 20
19.95407596001965
 30
0.0
 10
37.65886334783775
 20
19.88249858159961
 30
0.0
 10
37.71119682591871
 20
19.81758434350232
 30
0.0
 10
37.77756442801926
 20
19.77084338101209
 30
0.0
 10
37.84367103367504
 20
19.7424407783213
 30
0.0
 10
37.9239906297916
 20
19.72032744983118
 30
0.0
 10
37.98792198265653
 20
19.71697851302354
 30
0.0
 10
38.02631422241684
 20
19.71496739986702
 30
0.0
  0
LINE
  5
A7
330
2
100
AcDbEntity
  8
0
100
AcDbLine
 10
37.64101478326471
 20
20.02245954875511
 30
0.0
 11
37.64793186195038
 21
19.95407596001965
 31
0.0
  0
SPLINE
  5
A8
330
2
100
AcDbEntity
  8
0
100
AcDbSpline
210
0.0
220
0.0
230
1.0
 70
     8
 71
     3
 72
    12
 73
     8
 74
     0
 42
0.000000001
 43
0.0000000001
 40
0.0
 40
0.0
 40
0.0
 40
0.0
 40
0.1825292045465183
 40
0.4216296456573759
 40
0.6845652359924049
 40
0.8357957973331048
 40
1.0
 40
1.0
 40
1.0
 40
1.0
 10
38.01342100188142
 20
20.25216697175395
 30
0.0
 10
37.97701845737287
 20
20.25076291174099
 30
0.0
 10
37.89293113567385
 20
20.24751963170141
 30
0.0
 10
37.77230200637464
 20
20.209696828203
 30
0.0
 10
37.68818886014229
 20
20.15311004609552
 30
0.0
 10
37.64359065269211
 20
20.08573465743415
 30
0.0
 10
37.64189387767373
 20
20.04414945613545
 30
0.0
 10
37.64101059649871
 20
20.02250166837981
 30
0.0
  0
SPLINE
  5
A9
330
2
100
AcDbEntity
  8
0
100
AcDbSpline
210
0.0
220
0.0
230
1.0
 70
     8
 71
     3
 72
    12
 73
     8
 74
     0
 42
0.000000001
 43
0.0000000001
 40
0.0
 40
0.0
 40
0.0
 40
0.0
 40
0.1825771142600309
 40
0.4442583120191559
 40
0.648959375978392
 40
0.8716082826858169
 40
1.0
 40
1.0
 40
1.0
 40
1.0
 10
43.40426664721823
 20
20.13075730830223
 30
0.0
 10
43.41369053034994
 20
20.11503178275042
 30
0.0
 10
43.436621325536
 20
20.07676742817582
 30
0.0
 10
43.49345987245714
 20
20.04190897084189
 30
0.0
 10
43.55874214925235
 20
20.01335585720576
 30
0.0
 10
43.61698914917298
 20
19.99596761269282
 30
0.0
 10
43.65699312832958
 20
19.99324936103389
 30
0.0
 10
43.6716244251991
 20
19.99225517126008
 30
0.0
  0
SPLINE
  5
AA
330
2
100
AcDbEntity
  8
0
100
AcDbSpline
210
0.0
220
0.0
230
1.0
 70
     8
 71
     3
 72
    12
 73
     8
 74
     0
 42
0.000000001
 43
0.0000000001
 40
0.0
 40
0.0
 40
0.0
 40
0.0
 40
0.0324353439113845
 40
0.269844827462324
 40
0.5114508885016558
 40
0.76733826513931
 40
1.0
 40
1.0
 40
1.0
 40
1.0
 10
43.91039776359772
 20
20.01074079546621
 30
0.0
 10
43.91392155825232
 20
20.01171537871614
 30
0.0
 10
43.94323765747992
 20
20.01982339352998
 30
0.0
 10
43.99326715045114
 20
20.04344722683044
 30
0.0
 10
44.05493858454209
 20
20.08810266237
 30
0.0
 10
44.10375245836025
 20
20.14870931746698
 30
0.0
 10
44.11338172579291
 20
20.19969949152615
 30
0.0
 10
44.11796747165468
 20
20.22398254123031
 30
0.0
  0
SPLINE
  5
AB
330
2
100
AcDbEntity
  8
0
100
AcDbSpline
210
0.0
220
0.0
230
1.0
 70
     8
 71
     3
 72
     9
 73
     5
 74
     0
 42
0.000000001
 43
0.0000000001
 40
0.0
 40
0.0
 40
0.0
 40
0.0
 40
0.7730201149417986
 40
1.0
 40
1.0
 40
1.0
 40
1.0
 10
43.6716244251991
 20
19.99225517126009
 30
0.0
 10
43.78699570319493
 20
19.98803372697228
 30
0.0
 10
43.84589340273123
 20
19.99107176917795
 30
0.0
 10
43.89846505582187
 20
20.00710220824855
 30
0.0
 10
43.91039776359772
 20
20.01074079546621
 30
0.0
  0
LINE
  5
AC
330
2
100
AcDbEntity
  8
0
100
AcDbLine
 10
44.11796747165468
 20
20.22398254123031
 30
0.0
 11
44.11820050649933
 21
20.342377452343
 31
0.0
  0
SPLINE
  5
AD
330
2
100
AcDbEntity
  8
0
100
AcDbSpline
210
0.0
220
0.0
230
1.0
 70
     8
 71
     3
 72
    11
 73
     7
 74
     0
 42
0.000000001
 43
0.0000000001
 40
0.0
 40
0.0
 40
0.0
 40
0.0
 40
0.0895833030221024
 40
0.3992914827731482
 40
0.7658929305237463
 40
1.0
 40
1.0
 40
1.0
 40
1.0
 10
43.77628947331505
 20
20.52269401325119
 30
0.0
 10
43.76635727057108
 20
20.52367350506345
 30
0.0
 10
43.72208736951745
 20
20.52803930454719
 30
0.0
 10
43.63534584525335
 20
20.51952709375336
 30
0.0
 10
43.53874541499251
 20
20.49794779066852
 30
0.0
 10
43.48692541389833
 20
20.47178958887007
 30
0.0
 10
43.46673021398269
 20
20.46159526035602
 30
0.0
  0
SPLINE
  5
AE
330
2
100
AcDbEntity
  8
0
100
AcDbSpline
210
0.0
220
0.0
230
1.0
 70
     8
 71
     3
 72
    13
 73
     9
 74
     0
 42
0.000000001
 43
0.0000000001
 40
0.0
 40
0.0
 40
0.0
 40
0.0
 40
0.0721641840875998
 40
0.2770695839635069
 40
0.4534895689776172
 40
0.6023737850213337
 40
0.8400675594600771
 40
1.0
 40
1.0
 40
1.0
 40
1.0
 10
44.11820063929376
 20
20.34237747900497
 30
0.0
 10
44.11735439273893
 20
20.34984202426751
 30
0.0
 10
44.1141052853895
 20
20.37850164921185
 30
0.0
 10
44.07745229325995
 20
20.42020435619367
 30
0.0
 10
44.02302318934123
 20
20.46139089522528
 30
0.0
 10
43.94975900514857
 20
20.49492674931455
 30
0.0
 10
43.86834835781519
 20
20.51748534073514
 30
0.0
 10
43.80269602610687
 20
20.52119993599273
 30
0.0
 10
43.77628947331505
 20
20.52269401325119
 30
0.0
  0
SPLINE
  5
AF
330
2
100
AcDbEntity
  8
0
100
AcDbSpline
210
0.0
220
0.0
230
1.0
 70
     8
 71
     3
 72
    14
 73
    10
 74
     0
 42
0.000000001
 43
0.0000000001
 40
0.0
 40
0.0
 40
0.0
 40
0.0
 40
0.2168917616393575
 40
0.3023350356890058
 40
0.4427732284122329
 40
0.586827920644251
 40
0.7416416406206983
 40
0.9071737548965119
 40
1.0
 40
1.0
 40
1.0
 40
1.0
 10
41.64913831731158
 20
14.35237500270782
 30
0.0
 10
41.61881922575392
 20
14.31173957654628
 30
0.0
 10
41.57655610077919
 20
14.25509605571391
 30
0.0
 10
41.53909883549647
 20
14.16195354901221
 30
0.0
 10
41.51953876335766
 20
14.08240401395981
 30
0.0
 10
41.51657508251781
 20
13.98823200702141
 30
0.0
 10
41.53796902330748
 20
13.89549505035356
 30
0.0
 10
41.57595587368701
 20
13.81941127408284
 30
0.0
 10
41.61667823452364
 20
13.78835007626628
 30
0.0
 10
41.63130947717939
 20
13.77719001793235
 30
0.0
  0
SPLINE
  5
B0
330
2
100
AcDbEntity
  8
0
100
AcDbSpline
210
0.0
220
0.0
230
1.0
 70
     8
 71
     3
 72
    11
 73
     7
 74
     0
 42
0.000000001
 43
0.0000000001
 40
0.0
 40
0.0
 40
0.0
 40
0.0
 40
0.0496794360989897
 40
0.3332052785559436
 40
0.6518532945653869
 40
1.0
 40
1.0
 40
1.0
 40
1.0
 10
41.87540925117157
 20
14.50741262141613
 30
0.0
 10
41.87118018366359
 20
14.50638967841866
 30
0.0
 10
41.84281537665937
 20
14.49952869058972
 30
0.0
 10
41.78965301885977
 20
14.47053269583415
 30
0.0
 10
41.71561510636212
 20
14.42221777399666
 30
0.0
 10
41.67194128355467
 20
14.37633257314359
 30
0.0
 10
41.64913831731158
 20
14.35237500270782
 30
0.0
  0
LINE
  5
B1
330
2
100
AcDbEntity
  8
0
100
AcDbLine
 10
41.61313173264868
 20
13.68256755318633
 30
0.0
 11
41.78679751253009
 21
13.53216857605201
 31
0.0
  0
LINE
  5
B2
330
2
100
AcDbEntity
  8
0
100
AcDbLine
 10
31.79197556047895
 20
7.429120567337573
 30
0.0
 11
31.82637781015182
 21
7.389699467802254
 31
0.0
  0
LINE
  5
B3
330
2
100
AcDbEntity
  8
0
100
AcDbLine
 10
48.97766862166829
 20
12.68785950507324
 30
0.0
 11
49.67233068989242
 21
12.08626450694268
 31
0.0
  0
LINE
  5
B4
330
2
100
AcDbEntity
  8
0
100
AcDbLine
 10
49.96528915706786
 20
11.97547362057167
 30
0.0
 11
49.99969140674072
 21
12.03475686822823
 31
0.0
  0
LINE
  5
B5
330
2
100
AcDbEntity
  8
0
100
AcDbLine
 10
47.77353963772658
 20
15.51880242328714
 30
0.0
 11
47.07887756950246
 21
16.1203974214177
 31
0.0
  0
LINE
  5
B6
330
2
100
AcDbEntity
  8
0
100
AcDbLine
 10
43.40776246215765
 20
16.62807141199102
 30
0.0
 11
43.40762241460963
 21
16.62798387361629
 31
0.0
  0
LINE
  5
B7
330
2
100
AcDbEntity
  8
0
100
AcDbLine
 10
43.22151613485069
 20
16.78915676721102
 30
0.0
 11
43.20214648686458
 21
17.28915556329878
 31
0.0
  0
LINE
  5
B8
330
2
100
AcDbEntity
  8
0
100
AcDbLine
 10
33.54907657671585
 20
14.39074999611985
 30
0.0
 11
33.56006536296314
 21
14.18977582197763
 31
0.0
  0
SPLINE
  5
B9
330
2
100
AcDbEntity
  8
0
100
AcDbSpline
210
0.0
220
0.0
230
1.0
 70
     8
 71
     3
 72
    10
 73
     6
 74
     0
 42
0.000000001
 43
0.0000000001
 40
0.0
 40
0.0
 40
0.0
 40
0.0
 40
0.4825458333148242
 40
0.7394471847706821
 40
1.0
 40
1.0
 40
1.0
 40
1.0
 10
33.55998921119489
 20
14.19191555636561
 30
0.0
 10
33.56137087638788
 20
14.18374631559588
 30
0.0
 10
33.56348812280621
 20
14.17122787346702
 30
0.0
 10
33.57272643913772
 20
14.15647030466413
 30
0.0
 10
33.5792076362298
 20
14.15012841161058
 30
0.0
 10
33.58247110236289
 20
14.14693508900275
 30
0.0
  0
LINE
  5
BA
330
2
100
AcDbEntity
  8
0
100
AcDbLine
 10
33.58251872607068
 20
14.14689386481256
 30
0.0
 11
38.88051916902861
 21
9.558690891952
 31
0.0
  0
LINE
  5
BB
330
2
100
AcDbEntity
  8
0
100
AcDbLine
 10
35.25392040207569
 20
15.88277967049386
 30
0.0
 11
35.22421769384467
 21
14.90055833913078
 31
0.0
  0
LINE
  5
BC
330
2
100
AcDbEntity
  8
0
100
AcDbLine
 10
46.52885496035088
 20
13.92491722595505
 30
0.0
 11
46.51386055153015
 21
14.4207618474519
 31
0.0
  0
SPLINE
  5
BD
330
2
100
AcDbEntity
  8
0
100
AcDbSpline
210
0.0
220
0.0
230
1.0
 70
     8
 71
     3
 72
     9
 73
     5
 74
     0
 42
0.000000001
 43
0.0000000001
 40
0.0
 40
0.0
 40
0.0
 40
0.0
 40
0.5037233632456326
 40
1.0
 40
1.0
 40
1.0
 40
1.0
 10
48.20058436216381
 20
12.2267201079315
 30
0.0
 10
48.20248031735831
 20
12.23080047219231
 30
0.0
 10
48.20624419914905
 20
12.23890087919851
 30
0.0
 10
48.20725129542755
 20
12.24757600575923
 30
0.0
 10
48.20775109378156
 20
12.2518812683922
 30
0.0
  0
LINE
  5
BE
330
2
100
AcDbEntity
  8
0
100
AcDbLine
 10
48.20771446112222
 20
12.25057830202636
 30
0.0
 11
48.2187032473695
 21
12.44860648106053
 31
0.0
  0
SPLINE
  5
BF
330
2
100
AcDbEntity
  8
0
100
AcDbSpline
210
0.0
220
0.0
230
1.0
 70
     8
 71
     3
 72
    11
 73
     7
 74
     0
 42
0.000000001
 43
0.0000000001
 40
0.0
 40
0.0
 40
0.0
 40
0.0
 40
0.2608391510455529
 40
0.5168219784332737
 40
0.7646093175401275
 40
1.0
 40
1.0
 40
1.0
 40
1.0
 10
48.15285306414303
 20
12.1906529697827
 30
0.0
 10
48.15813200867225
 20
12.19246440492907
 30
0.0
 10
48.16859161392979
 20
12.196053549781
 30
0.0
 10
48.18200781646144
 20
12.20458171816519
 30
0.0
 10
48.19307789534599
 20
12.21464996577014
 30
0.0
 10
48.19812537343079
 20
12.22276642283117
 30
0.0
 10
48.20058436216381
 20
12.22672053142361
 30
0.0
  0
LINE
  5
C0
330
2
100
AcDbEntity
  8
0
100
AcDbLine
 10
38.97649337566958
 20
9.54166608995847
 30
0.0
 11
48.15289932139069
 21
12.19066631142007
 31
0.0
  0
SPLINE
  5
C1
330
2
100
AcDbEntity
  8
0
100
AcDbSpline
210
0.0
220
0.0
230
1.0
 70
     8
 71
     3
 72
    10
 73
     6
 74
     0
 42
0.000000001
 43
0.0000000001
 40
0.0
 40
0.0
 40
0.0
 40
0.0
 40
0.2441620573646301
 40
0.5457589966076623
 40
1.0
 40
1.0
 40
1.0
 40
1.0
 10
38.88484983986412
 20
9.555718866033718
 30
0.0
 10
38.88779155624986
 20
9.553533010737606
 30
0.0
 10
38.89436697669115
 20
9.548647115664463
 30
0.0
 10
38.90927841078611
 20
9.542154427922897
 30
0.0
 10
38.92155531953351
 20
9.539767099494868
 30
0.0
 10
38.92893345581565
 20
9.538332370699986
 30
0.0
  0
SPLINE
  5
C2
330
2
100
AcDbEntity
  8
0
100
AcDbSpline
210
0.0
220
0.0
230
1.0
 70
     8
 71
     3
 72
     9
 73
     5
 74
     0
 42
0.000000001
 43
0.0000000001
 40
0.0
 40
0.0
 40
0.0
 40
0.0
 40
0.5547229847340015
 40
1.0
 40
1.0
 40
1.0
 40
1.0
 10
38.92893333741478
 20
9.538332275057699
 30
0.0
 10
38.93792634577144
 20
9.537669391667355
 30
0.0
 10
38.95413805612806
 20
9.536474410733527
 30
0.0
 10
38.96957389442751
 20
9.540057393532453
 30
0.0
 10
38.9764471184336
 20
9.541652813418892
 30
0.0
  0
LWPOLYLINE
  5
C3
330
2
100
AcDbEntity
  8
0
100
AcDbPolyline
 90
       10
 70
   128
 43
0.0
 10
40.40612033313219
 20
17.5891813021948
 10
40.41768406653762
 20
17.64140641977895
 10
40.47686871660882
 20
17.71426452726698
 10
40.58016052598638
 20
17.77356623831104
 10
40.71636616595088
 20
17.81288541975909
 10
40.87072564713369
 20
17.82796122968495
 10
41.02651191606625
 20
17.81715988119441
 10
41.16684270640877
 20
17.78165198656904
 10
41.27651133112933
 20
17.72528544180707
 10
41.3227975705814
 20
17.68353948882619
  0
LINE
  5
C4
330
2
100
AcDbEntity
  8
0
100
AcDbLine
 10
38.82628818312379
 20
17.3589094012583
 30
0.0
 11
38.82628818312379
 21
16.96285939877447
 31
0.0
  0
LINE
  5
C5
330
2
100
AcDbEntity
  8
0
100
AcDbLine
 10
39.7286806453
 20
17.22335766424252
 30
0.0
 11
39.7286806453
 21
17.6194076667437
 31
0.0
  0
ARC
  5
C6
330
2
100
AcDbEntity
  8
0
100
AcDbCircle
 10
39.78528652331021
 20
15.18674999762402
 30
0.0
 40
2.160368117001812
100
AcDbArc
 50
116.3533050688007
 51
130.1793022023004
  0
LINE
  5
C7
330
2
100
AcDbEntity
  8
0
100
AcDbLine
 10
39.88168164920999
 20
17.50194475922828
 30
0.0
 11
39.82419667462281
 21
17.55172820755761
 31
0.0
  0
ARC
  5
C8
330
2
100
AcDbEntity
  8
0
100
AcDbCircle
 10
39.95619067149192
 20
17.61447142253034
 30
0.0
 40
0.134958676466694
100
AcDbArc
 50
236.4896454028993
 51
281.8855770492998
  0
ARC
  5
C9
330
2
100
AcDbEntity
  8
0
100
AcDbCircle
 10
40.83453323127105
 20
12.30184834157741
 30
0.0
 40
5.249915135745212
100
AcDbArc
 50
97.52728945540027
 51
99.32367167490026
  0
LWPOLYLINE
  5
CA
330
2
100
AcDbEntity
  8
0
100
AcDbPolyline
 90
        9
 70
   128
 43
0.0
 10
40.27606440996283
 20
17.59017991561808
 10
40.27365093816887
 20
17.57604005933214
 10
40.26666334394056
 20
17.56228563037184
 10
40.25528816626359
 20
17.54928404734895
 10
40.23982944346293
 20
17.53738248774339
 10
40.22070001691992
 20
17.52689884086804
 10
40.19841074373498
 20
17.51811317781837
 10
40.17355706330109
 20
17.51126013841063
 10
40.14680278241567
 20
17.50652275619219
  0
LWPOLYLINE
  5
CB
330
2
100
AcDbEntity
  8
0
100
AcDbPolyline
 90
       10
 70
   128
 43
0.0
 10
41.43604521921609
 20
17.71623126904376
 10
41.37587273437563
 20
17.76763941525709
 10
41.24165504474085
 20
17.83486013526502
 10
41.07249062019517
 20
17.87808134178431
 10
40.88490334056658
 20
17.89308105738883
 10
40.69721732077324
 20
17.87839408834048
 10
40.52776565847756
 20
17.8354550365554
 10
40.39310068865323
 20
17.76845833887135
 10
40.30637650237144
 20
17.68394830210553
 10
40.27606440996283
 20
17.59017991561808
  0
LWPOLYLINE
  5
CC
330
2
100
AcDbEntity
  8
0
100
AcDbPolyline
 90
        9
 70
   128
 43
0.0
 10
39.81551341392666
 20
17.54420828321813
 10
39.81568032817144
 20
17.54699763210669
 10
39.81617443962728
 20
17.54939128395978
 10
39.81697682486673
 20
17.5512966526757
 10
39.81805675355225
 20
17.55264034173998
 10
39.81937249714435
 20
17.55337136573787
 10
39.82087375490456
 20
17.55346101036264
 10
39.82250262444249
 20
17.55290619411082
 10
39.82419667462281
 20
17.55172820755761
  0
LWPOLYLINE
  5
CD
330
2
100
AcDbEntity
  8
0
100
AcDbPolyline
 90
        9
 70
   128
 43
0.0
 10
39.7286806453
 20
17.6194076667437
 10
39.73051605503651
 20
17.65009358596926
 10
39.73595144271592
 20
17.67642137519066
 10
39.74477800381926
 20
17.69737959076791
 10
39.75665673419063
 20
17.71216227141083
 10
39.77113088404234
 20
17.72020185451396
 10
39.78764423425266
 20
17.72118892598858
 10
39.80556244602179
 20
17.71508566704416
 10
39.82419667462281
 20
17.70212697460876
  0
LINE
  5
CE
330
2
100
AcDbEntity
  8
0
100
AcDbLine
 10
39.81551341392666
 20
17.54420828321813
 30
0.0
 11
39.81551341392666
 21
17.24842384528367
 31
0.0
  0
LINE
  5
CF
330
2
100
AcDbEntity
  8
0
100
AcDbLine
 10
39.88168164920999
 20
17.65234352626205
 30
0.0
 11
39.82419667462281
 21
17.70212697460876
 31
0.0
  0
LINE
  5
D0
330
2
100
AcDbEntity
  8
0
100
AcDbLine
 10
41.49171958205999
 20
17.73230297984181
 30
0.0
 11
41.49171958205999
 21
17.73956559608401
 31
0.0
  0
LWPOLYLINE
  5
D1
330
2
100
AcDbEntity
  8
0
100
AcDbPolyline
 90
       11
 70
   128
 43
0.0
 10
41.49171958205999
 20
17.73956559608401
 10
41.46203302548543
 20
17.83338400681709
 10
41.37587273437563
 20
17.91803818230824
 10
41.24165504474085
 20
17.98525890229879
 10
41.07249062019517
 20
18.02848010881809
 10
40.88490334056658
 20
18.04347982442262
 10
40.69721732077324
 20
18.02879285537425
 10
40.52776565847756
 20
17.98585380358918
 10
40.39310068865323
 20
17.91885710590512
 10
40.30637650237144
 20
17.83434706913931
 10
40.27606440996283
 20
17.74057868266922
  0
LWPOLYLINE
  5
D2
330
2
100
AcDbEntity
  8
0
100
AcDbPolyline
 90
        7
 70
   128
 43
0.0
 10
38.86882139377579
 20
17.45972782109799
 10
38.86873842186616
 20
17.45970358902857
 10
38.85426427203178
 20
17.45166400594279
 10
38.84238554164307
 20
17.43688132529987
 10
38.83355898053972
 20
17.41592310970526
 10
38.82812359286031
 20
17.38959532050123
 10
38.82628818312379
 20
17.3589094012583
  0
LWPOLYLINE
  5
D3
330
2
100
AcDbEntity
  8
0
100
AcDbPolyline
 90
        9
 70
   128
 43
0.0
 10
40.14680278241567
 20
17.65692152324335
 10
40.17355706330109
 20
17.66165890546179
 10
40.19841074373498
 20
17.66851194486952
 10
40.22070001691992
 20
17.67729760790183
 10
40.23982944346293
 20
17.68778125477718
 10
40.25528816626359
 20
17.69968281438273
 10
40.26666334394056
 20
17.71268439740562
 10
40.27365093816887
 20
17.7264388263833
 10
40.27606440996283
 20
17.74057868266922
  0
ARC
  5
D4
330
2
100
AcDbEntity
  8
0
100
AcDbCircle
 10
40.83453323127105
 20
12.45224710862857
 30
0.0
 40
5.249915135722874
100
AcDbArc
 50
97.52728945540027
 51
99.32367167490026
  0
ARC
  5
D5
330
2
100
AcDbEntity
  8
0
100
AcDbCircle
 10
39.95619067149192
 20
17.76487018956413
 30
0.0
 40
0.1349586764666034
100
AcDbArc
 50
236.4896454028993
 51
281.8855770492998
  0
ARC
  5
D6
330
2
100
AcDbEntity
  8
0
100
AcDbCircle
 10
39.61101687465936
 20
15.60781112062099
 30
0.0
 40
1.840827733069885
100
AcDbArc
 50
115.2324193048
 51
139.7685436324004
  0
LINE
  5
D7
330
2
100
AcDbEntity
  8
0
100
AcDbLine
 10
38.10250873657555
 20
16.77088705011329
 30
0.0
 11
37.91971097806645
 21
16.79537736520153
 31
0.0
  0
ARC
  5
D8
330
2
100
AcDbEntity
  8
0
100
AcDbCircle
 10
37.89405802810863
 20
16.68198027477417
 30
0.0
 40
0.1162625217257588
100
AcDbArc
 50
77.25297622879948
 51
133.0232379260005
  0
ARC
  5
D9
330
2
100
AcDbEntity
  8
0
100
AcDbCircle
 10
38.12754492957765
 20
16.88961192065969
 30
0.0
 40
0.121335921496714
100
AcDbArc
 50
258.0921733508994
 51
310.0705228518997
  0
ARC
  5
DA
330
2
100
AcDbEntity
  8
0
100
AcDbCircle
 10
38.73176103337668
 20
16.16302257234408
 30
0.0
 40
1.098044661432844
100
AcDbArc
 50
146.6311127420994
 51
153.5728751847003
  0
LWPOLYLINE
  5
DB
330
2
100
AcDbEntity
  8
0
100
AcDbPolyline
 90
       11
 70
   128
 43
0.0
 10
38.09543434634047
 20
16.77183477830944
 10
38.10442373865619
 20
16.82110448610043
 10
38.17277351885032
 20
17.01125794546028
 10
38.29290334114007
 20
17.1948838024193
 10
38.46251847705419
 20
17.36847508959217
 10
38.67837978759649
 20
17.52871630948135
 10
38.93636428462868
 20
17.67254695331425
 10
39.23154484552723
 20
17.79721999705704
 10
39.55828364533124
 20
17.90035436559123
 10
39.91034025006268
 20
17.97998033037113
 10
40.28099086340108
 20
18.03457692103833
  0
SPLINE
  5
DC
330
2
100
AcDbEntity
  8
0
100
AcDbSpline
210
0.0
220
0.0
230
1.0
 70
     8
 71
     3
 72
    11
 73
     7
 74
     0
 42
0.000000001
 43
0.0000000001
 40
0.0
 40
0.0
 40
0.0
 40
0.0
 40
0.2801308748948979
 40
0.5992430211633302
 40
0.918346099969516
 40
1.0
 40
1.0
 40
1.0
 40
1.0
 10
40.41333331644928
 20
18.10684174951496
 30
0.0
 10
40.40259500953142
 20
18.08610267209764
 30
0.0
 10
40.38970641412478
 20
18.06885307392152
 30
0.0
 10
40.34901664727544
 20
18.04851768655437
 30
0.0
 10
40.30951837156571
 20
18.03812533461602
 30
0.0
 10
40.28581949061352
 20
18.03517753313209
 30
0.0
 10
40.28099086339478
 20
18.03457692103951
 30
0.0
  0
LWPOLYLINE
  5
DD
330
2
100
AcDbEntity
  8
0
100
AcDbPolyline
 90
       10
 70
   128
 43
0.0
 10
41.35117533570678
 20
18.12645853138714
 10
41.33378906102643
 20
18.21163176166802
 10
41.25639567688296
 20
18.28800343435457
 10
41.12931835610129
 20
18.34538722356663
 10
40.96950616999182
 20
18.37612911075722
 10
40.79827452033709
 20
18.3761292171447
 10
40.63846241590251
 20
18.3453872336566
 10
40.51138503555357
 20
18.28800346024809
 10
40.43399178584458
 20
18.21163182394447
 10
40.41333331644928
 20
18.10684174951496
  0
SPLINE
  5
DE
330
2
100
AcDbEntity
  8
0
100
AcDbSpline
210
0.0
220
0.0
230
1.0
 70
     8
 71
     3
 72
    11
 73
     7
 74
     0
 42
0.000000001
 43
0.0000000001
 40
0.0
 40
0.0
 40
0.0
 40
0.0
 40
0.3040213850942219
 40
0.6080436587684412
 40
0.9120271864480059
 40
1.0
 40
1.0
 40
1.0
 40
1.0
 10
41.48678996375436
 20
18.03457689940062
 30
0.0
 10
41.46806186771351
 20
18.03761136176733
 30
0.0
 10
41.43060562089417
 20
18.04368029536975
 30
0.0
 10
41.38743307904464
 20
18.06401810312553
 30
0.0
 10
41.36198888326812
 20
18.08334391866333
 30
0.0
 10
41.35849515681088
 20
18.09580404183084
 30
0.0
 10
41.35117533570678
 20
18.12645853138714
 30
0.0
  0
ARC
  5
DF
330
2
100
AcDbEntity
  8
0
100
AcDbCircle
 10
41.67546266594664
 20
15.29950580311755
 30
0.0
 40
2.639681193771526
100
AcDbArc
 50
57.15777926870034
 51
66.43931742889946
  0
ARC
  5
E0
330
2
100
AcDbEntity
  8
0
100
AcDbCircle
 10
40.96177812799783
 20
13.18631772255991
 30
0.0
 40
4.876602759457747
100
AcDbArc
 50
76.04107864789954
 51
83.81959570490073
  0
ARC
  5
E1
330
2
100
AcDbEntity
  8
0
100
AcDbCircle
 10
42.83598604801595
 20
16.64353345015308
 30
0.0
 40
0.8444807749208923
100
AcDbArc
 50
2.257326988899698
 51
41.96680797370063
  0
ARC
  5
E2
330
2
100
AcDbEntity
  8
0
100
AcDbCircle
 10
43.446828634025
 20
19.61009891923064
 30
0.0
 40
1.129684893758149
100
AcDbArc
 50
316.7380706450992
 51
356.5998395692008
  0
LINE
  5
E3
330
2
100
AcDbEntity
  8
0
100
AcDbLine
 10
37.20519544246099
 20
19.148995147495
 30
0.0
 11
37.22531678275926
 21
18.48316906896878
 31
0.0
  0
LWPOLYLINE
  5
E4
330
2
100
AcDbEntity
  8
0
100
AcDbPolyline
 90
       29
 70
   128
 43
0.0
 10
37.18867318942729
 20
19.69464364981506
 10
37.19113603383917
 20
19.79558095678993
 10
37.23432311385296
 20
20.01344542508162
 10
37.32874229618742
 20
20.22722679698394
 10
37.47306786610632
 20
20.43392409462824
 10
37.66527402503577
 20
20.63063557996369
 10
37.90266246821282
 20
20.8146000525194
 10
38.18190086517634
 20
20.98323485101269
 10
38.49906913217765
 20
21.13417292961532
 10
38.84971522078392
 20
21.2652952107437
 10
39.2289165839541
 20
21.37476121529562
 10
39.63135008118215
 20
21.46103428496052
 10
40.05136663561468
 20
21.52290313391791
 10
40.48306987300612
 20
21.55949950740698
 10
40.92039990784177
 20
21.57030948231486
 10
41.35721727433256
 20
21.55518144783614
 10
41.78739028060021
 20
21.5143276039978
 10
42.2048800696265
 20
21.44832162330526
 10
42.60382593788777
 20
21.35808994336215
 10
42.97862797799453
 20
21.24489939254292
 10
43.32402425915185
 20
21.11033870969023
 10
43.63516648980016
 20
20.9562970110681
 10
43.90768689373673
 20
20.78493660448528
 10
44.13775971448497
 20
20.59866301514937
 10
44.3221552613554
 20
20.40009111957282
 10
44.45828523369471
 20
20.19200848141486
 10
44.54423868932247
 20
19.97733611497263
 10
44.57880873947258
 20
19.75908757547454
 10
44.57910771565638
 20
19.69464365802944
  0
LINE
  5
E5
330
2
100
AcDbEntity
  8
0
100
AcDbLine
 10
43.70433752314033
 20
17.88443706215162
 30
0.0
 11
43.70418767345945
 21
17.89802613879737
 31
0.0
  0
LINE
  5
E6
330
2
100
AcDbEntity
  8
0
100
AcDbLine
 10
43.70418761668822
 20
17.86989143350416
 30
0.0
 11
43.70433752314033
 21
17.88443706215162
 31
0.0
  0
SPLINE
  5
E7
330
2
100
AcDbEntity
  8
0
100
AcDbSpline
210
0.0
220
0.0
230
1.0
 70
     8
 71
     3
 72
    11
 73
     7
 74
     0
 42
0.000000001
 43
0.0000000001
 40
0.0
 40
0.0
 40
0.0
 40
0.0
 40
0.0458963349906403
 40
0.6029888866812466
 40
0.8126980122798267
 40
1.0
 40
1.0
 40
1.0
 40
1.0
 10
43.70403263940765
 20
17.87833566893359
 30
0.0
 10
43.70402914426381
 20
17.87782178981762
 30
0.0
 10
43.70398322484783
 20
17.87107041422111
 30
0.0
 10
43.70399713794397
 20
17.8659228249342
 30
0.0
 10
43.70407773586634
 20
17.86503993980163
 30
0.0
 10
43.70415239431
 20
17.86833628367904
 30
0.0
 10
43.70418761668648
 20
17.86989143349661
 30
0.0
  0
SPLINE
  5
E8
330
2
100
AcDbEntity
  8
0
100
AcDbSpline
210
0.0
220
0.0
230
1.0
 70
     8
 71
     3
 72
    12
 73
     8
 74
     0
 42
0.000000001
 43
0.0000000001
 40
0.0
 40
0.0
 40
0.0
 40
0.0
 40
0.2404089849327339
 40
0.4807867807805602
 40
0.7219526074606764
 40
0.9644987393079633
 40
1.0
 40
1.0
 40
1.0
 40
1.0
 10
43.43059141847328
 20
17.31013913833303
 30
0.0
 10
43.43154371566519
 20
17.30071962443949
 30
0.0
 10
43.43344818650415
 20
17.28188181867826
 30
0.0
 10
43.44098754846078
 20
17.25309325868587
 30
0.0
 10
43.45085296770801
 20
17.22797254652893
 30
0.0
 10
43.45900082663368
 20
17.21425151457471
 30
0.0
 10
43.46333182576509
 20
17.20891863508819
 30
0.0
 10
43.46388481037616
 20
17.20823772978224
 30
0.0
  0
ELLIPSE
  5
E9
330
2
100
AcDbEntity
  8
0
100
AcDbEllipse
 10
40.74272593126463
 20
19.57319404808573
 30
0.0
 11
-1.346541266668874
 21
15.25749273714697
 31
0.0
210
0.0
220
0.0
230
1.0
 40
0.1639989172
 41
4.549058590659537
 42
4.562578134740637
  0
ARC
  5
EA
330
2
100
AcDbEntity
  8
0
100
AcDbCircle
 10
42.24492466968819
 20
16.39581938287982
 30
0.0
 40
1.62078841324205
100
AcDbArc
 50
43.63943384109924
 51
54.57377686060033
  0
ELLIPSE
  5
EB
330
2
100
AcDbEntity
  8
0
100
AcDbEllipse
 10
41.02505485148905
 20
19.32869003095754
 30
0.0
 11
1.614519325079626
 21
12.788948993486
 31
0.0
210
0.0
220
0.0
230
1.0
 40
0.1828362075
 41
4.595586643447633
 42
4.609106187528733
  0
SPLINE
  5
EC
330
2
100
AcDbEntity
  8
0
100
AcDbSpline
210
0.0
220
0.0
230
1.0
 70
     8
 71
     3
 72
    11
 73
     7
 74
     0
 42
0.000000001
 43
0.0000000001
 40
0.0
 40
0.0
 40
0.0
 40
0.0
 40
0.2438722517792353
 40
0.487781338188326
 40
0.7307383567449212
 40
1.0
 40
1.0
 40
1.0
 40
1.0
 10
43.10703428653313
 20
17.5172793487841
 30
0.0
 10
43.11303001052519
 20
17.51417428999703
 30
0.0
 10
43.12502236410753
 20
17.50796370343274
 30
0.0
 10
43.14075249846727
 20
17.51065493847382
 30
0.0
 10
43.15356450825024
 20
17.52208146476615
 30
0.0
 10
43.15729396981659
 20
17.5371845096646
 30
0.0
 10
43.1592544625215
 20
17.54512383517284
 30
0.0
  0
LINE
  5
ED
330
2
100
AcDbEntity
  8
0
100
AcDbLine
 10
41.5278513781533
 20
20.09378577458498
 30
0.0
 11
41.48678996375889
 21
18.03457689939961
 31
0.0
  0
LINE
  5
EE
330
2
100
AcDbEntity
  8
0
100
AcDbLine
 10
41.55019602731313
 20
20.68313841311037
 30
0.0
 11
41.5278513781533
 21
20.09378577458498
 31
0.0
  0
ARC
  5
EF
330
2
100
AcDbEntity
  8
0
100
AcDbCircle
 10
40.98076004373496
 20
15.98204022350474
 30
0.0
 40
4.890764132534248
100
AcDbArc
 50
76.11476056859928
 51
82.1604435045006
  0
LINE
  5
F0
330
2
100
AcDbEntity
  8
0
100
AcDbLine
 10
40.23240725416433
 20
19.35310041456768
 30
0.0
 11
40.16074044781674
 21
20.26526518554454
 31
0.0
  0
LWPOLYLINE
  5
F1
330
2
100
AcDbEntity
  8
0
100
AcDbPolyline
 90
        3
 70
   128
 43
0.0
 10
40.16026464805158
 20
20.268104782933
 10
40.16011404214427
 20
20.26751242012872
 10
40.16074044781674
 20
20.26526518554454
  0
LINE
  5
F2
330
2
100
AcDbEntity
  8
0
100
AcDbLine
 10
38.83724457130628
 20
20.17170219146559
 30
0.0
 11
38.72763376346322
 21
18.59952178017552
 31
0.0
  0
LINE
  5
F3
330
2
100
AcDbEntity
  8
0
100
AcDbLine
 10
40.35505965315242
 20
20.28239720099929
 30
0.0
 11
40.397156972269
 21
19.03132926348406
 31
0.0
  0
LINE
  5
F4
330
2
100
AcDbEntity
  8
0
100
AcDbLine
 10
40.35503189272083
 20
20.2913590668977
 30
0.0
 11
40.35505965315242
 21
20.28239720099929
 31
0.0
  0
LINE
  5
F5
330
2
100
AcDbEntity
  8
0
100
AcDbLine
 10
40.35503189272083
 20
20.2913590668977
 30
0.0
 11
40.37167240165028
 21
20.97923846063663
 31
0.0
  0
LINE
  5
F6
330
2
100
AcDbEntity
  8
0
100
AcDbLine
 10
39.16686386021363
 20
20.08439444598779
 30
0.0
 11
39.29478996899878
 21
19.11672773440447
 31
0.0
  0
LINE
  5
F7
330
2
100
AcDbEntity
  8
0
100
AcDbLine
 10
39.16629713075105
 20
20.0933040030187
 30
0.0
 11
39.17394082833952
 21
20.78332433358408
 31
0.0
  0
LINE
  5
F8
330
2
100
AcDbEntity
  8
0
100
AcDbLine
 10
39.51008307396649
 20
18.91074460419918
 30
0.0
 11
39.52416395095211
 21
20.48002221241143
 31
0.0
  0
LINE
  5
F9
330
2
100
AcDbEntity
  8
0
100
AcDbLine
 10
39.31081348926797
 20
19.08109149230217
 30
0.0
 11
39.49797336387354
 21
18.91900628632688
 31
0.0
  0
SPLINE
  5
FA
330
2
100
AcDbEntity
  8
0
100
AcDbSpline
210
0.0
220
0.0
230
1.0
 70
     8
 71
     3
 72
    11
 73
     7
 74
     0
 42
0.000000001
 43
0.0000000001
 40
0.0
 40
0.0
 40
0.0
 40
0.0
 40
0.2461677151256042
 40
0.4999341151281626
 40
0.7523429713393348
 40
1.0
 40
1.0
 40
1.0
 40
1.0
 10
39.29478996900703
 20
19.11672773441157
 30
0.0
 10
39.29541111425559
 20
19.11319882620186
 30
0.0
 10
39.29667257821341
 20
19.10603207973265
 30
0.0
 10
39.30058120038287
 20
19.09579211928159
 30
0.0
 10
39.3053400381522
 20
19.08671194079004
 30
0.0
 10
39.30900060026952
 20
19.0829530690307
 30
0.0
 10
39.31081348926002
 20
19.08109149230813
 30
0.0
  0
LINE
  5
FB
330
2
100
AcDbEntity
  8
0
100
AcDbLine
 10
39.16629713075105
 20
20.0933040030187
 30
0.0
 11
39.16686386021363
 21
20.08439444598779
 31
0.0
  0
LWPOLYLINE
  5
FC
330
2
100
AcDbEntity
  8
0
100
AcDbPolyline
 90
        3
 70
   128
 43
0.0
 10
39.16134526008047
 20
19.0847205824195
 10
39.16142384210814
 20
19.08685383798576
 10
39.16144186006097
 20
19.08691245259576
  0
LWPOLYLINE
  5
FD
330
2
100
AcDbEntity
  8
0
100
AcDbPolyline
 90
        3
 70
   128
 43
0.0
 10
40.16022602788157
 20
20.27418424023794
 10
40.15945183649072
 20
20.27902772673336
 10
40.15959547021412
 20
20.28044448835649
  0
LINE
  5
FE
330
2
100
AcDbEntity
  8
0
100
AcDbLine
 10
40.13659569649116
 20
20.95851318434301
 30
0.0
 11
40.15995482907911
 21
20.28203800812379
 31
0.0
  0
LINE
  5
FF
330
2
100
AcDbEntity
  8
0
100
AcDbLine
 10
40.16022602788157
 20
20.27418424023794
 30
0.0
 11
40.16074044781674
 21
20.26526518554454
 31
0.0
  0
LINE
  5
100
330
2
100
AcDbEntity
  8
0
100
AcDbLine
 10
40.45745029343154
 20
21.05917313020321
 30
0.0
 11
41.00526741585006
 21
21.07072348077087
 31
0.0
  0
LINE
  5
101
330
2
100
AcDbEntity
  8
0
100
AcDbLine
 10
39.45091446007144
 20
18.84295109876337
 30
0.0
 11
39.47224857179438
 21
18.84904884269907
 31
0.0
  0
LINE
  5
102
330
2
100
AcDbEntity
  8
0
100
AcDbLine
 10
39.4296858019182
 20
18.8367620293813
 30
0.0
 11
39.45091446007144
 21
18.84295109876337
 31
0.0
  0
SPLINE
  5
103
330
2
100
AcDbEntity
  8
0
100
AcDbSpline
210
0.0
220
0.0
230
1.0
 70
     8
 71
     3
 72
    11
 73
     7
 74
     0
 42
0.000000001
 43
0.0000000001
 40
0.0
 40
0.0
 40
0.0
 40
0.0
 40
0.11653832537858
 40
0.250662951906977
 40
0.500322863272709
 40
1.0
 40
1.0
 40
1.0
 40
1.0
 10
41.21386067905944
 20
21.13836025090336
 30
0.0
 10
41.2086492989888
 20
21.13148372862227
 30
0.0
 10
41.19744011172985
 20
21.11669297744035
 30
0.0
 10
41.16455741178049
 20
21.09617242075642
 30
0.0
 10
41.10055063946166
 20
21.07415890480646
 30
0.0
 10
41.0433861569547
 20
21.0720978469455
 30
0.0
 10
41.00526741584313
 20
21.07072348077311
 30
0.0
  0
LINE
  5
104
330
2
100
AcDbEntity
  8
0
100
AcDbLine
 10
41.22665472665595
 20
21.16072916666139
 30
0.0
 11
41.21386067905658
 21
21.13836025090828
 31
0.0
  0
ARC
  5
105
330
2
100
AcDbEntity
  8
0
100
AcDbCircle
 10
41.14260314983154
 20
20.54531668391666
 30
0.0
 40
0.6211257453096146
100
AcDbArc
 50
41.95327923430069
 51
82.22279736630026
  0
LINE
  5
106
330
2
100
AcDbEntity
  8
0
100
AcDbLine
 10
42.31978982223703
 20
19.11005744529562
 30
0.0
 11
42.29505065347051
 21
19.11776540302983
 31
0.0
  0
LINE
  5
107
330
2
100
AcDbEntity
  8
0
100
AcDbLine
 10
42.29505065347051
 20
19.11776540302983
 30
0.0
 11
42.27015881129146
 21
19.12438474097076
 31
0.0
  0
SPLINE
  5
108
330
2
100
AcDbEntity
  8
0
100
AcDbSpline
210
0.0
220
0.0
230
1.0
 70
     8
 71
     3
 72
    14
 73
    10
 74
     0
 42
0.000000001
 43
0.0000000001
 40
0.0
 40
0.0
 40
0.0
 40
0.0
 40
0.5001069025583293
 40
0.7502893802333192
 40
0.9257807276173
 40
0.9733815238510825
 40
0.9884952619276093
 40
0.9945105791534775
 40
1.0
 40
1.0
 40
1.0
 40
1.0
 10
42.24343103426734
 20
19.5001919145866
 30
0.0
 10
42.24112699101932
 20
19.43766058658448
 30
0.0
 10
42.23767033170961
 20
19.34384746164684
 30
0.0
 10
42.24336963473951
 20
19.22626984129948
 30
0.0
 10
42.25055209233494
 20
19.16569585852865
 30
0.0
 10
42.26010736040143
 20
19.13511637524967
 30
0.0
 10
42.26539535109514
 20
19.1273217063969
 30
0.0
 10
42.26816075799251
 20
19.1250559402076
 30
0.0
 10
42.26951340392233
 20
19.12460155046436
 30
0.0
 10
42.27015881129434
 20
19.12438474096265
 30
0.0
  0
LINE
  5
109
330
2
100
AcDbEntity
  8
0
100
AcDbLine
 10
42.24343103426348
 20
19.50019191458129
 30
0.0
 11
42.38464417888741
 21
20.71371998423745
 31
0.0
  0
LINE
  5
10A
330
2
100
AcDbEntity
  8
0
100
AcDbLine
 10
39.51008307395639
 20
18.9107446041933
 30
0.0
 11
39.49797336387354
 21
18.91900628632688
 31
0.0
  0
SPLINE
  5
10B
330
2
100
AcDbEntity
  8
0
100
AcDbSpline
210
0.0
220
0.0
230
1.0
 70
     8
 71
     3
 72
    12
 73
     8
 74
     0
 42
0.000000001
 43
0.0000000001
 40
0.0
 40
0.0
 40
0.0
 40
0.0
 40
0.1429226332775821
 40
0.2742005224803745
 40
0.500958371043123
 40
0.7521293507078818
 40
1.0
 40
1.0
 40
1.0
 40
1.0
 10
40.37167240165216
 20
20.97923846063839
 30
0.0
 10
40.3721937016349
 20
20.98491806268707
 30
0.0
 10
40.37319382823731
 20
20.99581451633837
 30
0.0
 10
40.3808465838195
 20
21.01508725085807
 30
0.0
 10
40.39660823662646
 20
21.03600582495538
 30
0.0
 10
40.42414721146471
 20
21.05433672791892
 30
0.0
 10
40.44639831745643
 20
21.05756811953707
 30
0.0
 10
40.45745029342318
 20
21.0591731302056
 30
0.0
  0
LINE
  5
10C
330
2
100
AcDbEntity
  8
0
100
AcDbLine
 10
39.2499598379737
 20
20.87752364196004
 30
0.0
 11
40.05140492432669
 21
21.02337486801069
 31
0.0
  0
SPLINE
  5
10D
330
2
100
AcDbEntity
  8
0
100
AcDbSpline
210
0.0
220
0.0
230
1.0
 70
     8
 71
     3
 72
    12
 73
     8
 74
     0
 42
0.000000001
 43
0.0000000001
 40
0.0
 40
0.0
 40
0.0
 40
0.0
 40
0.0284932956554623
 40
0.0584053184697749
 40
0.1272972628637921
 40
0.3222832455766033
 40
1.0
 40
1.0
 40
1.0
 40
1.0
 10
42.31978982223224
 20
19.11005744530014
 30
0.0
 10
42.32025949146968
 20
19.10992859744053
 30
0.0
 10
42.32122221553355
 20
19.10966448617853
 30
0.0
 10
42.32328478683407
 20
19.1097646038909
 30
0.0
 10
42.32752162587041
 20
19.11157506547141
 30
0.0
 10
42.33707558805599
 20
19.12320554892486
 30
0.0
 10
42.34203359428819
 20
19.13677095311334
 30
0.0
 10
42.34588384449266
 20
19.14730546997442
 30
0.0
  0
ARC
  5
10E
330
2
100
AcDbEntity
  8
0
100
AcDbCircle
 10
39.43612883781266
 20
18.91364777668652
 30
0.0
 40
0.0740111981769501
100
AcDbArc
 50
299.2112246386008
 51
357.7519318448007
  0
SPLINE
  5
10F
330
2
100
AcDbEntity
  8
0
100
AcDbSpline
210
0.0
220
0.0
230
1.0
 70
     8
 71
     3
 72
     9
 73
     5
 74
     0
 42
0.000000001
 43
0.0000000001
 40
0.0
 40
0.0
 40
0.0
 40
0.0
 40
0.4787391786376058
 40
1.0
 40
1.0
 40
1.0
 40
1.0
 10
40.12796922854334
 20
20.98898022774587
 30
0.0
 10
40.13023337430142
 20
20.98441054458814
 30
0.0
 10
40.13496276738033
 20
20.97486529873895
 30
0.0
 10
40.13603617246965
 20
20.96411624494826
 30
0.0
 10
40.13659569648818
 20
20.95851318434045
 30
0.0
  0
SPLINE
  5
110
330
2
100
AcDbEntity
  8
0
100
AcDbSpline
210
0.0
220
0.0
230
1.0
 70
     8
 71
     3
 72
     9
 73
     5
 74
     0
 42
0.000000001
 43
0.0000000001
 40
0.0
 40
0.0
 40
0.0
 40
0.0
 40
0.203926020271496
 40
1.0
 40
1.0
 40
1.0
 40
1.0
 10
41.64028097705004
 20
20.83463460960865
 30
0.0
 10
41.64103122401498
 20
20.82893327755686
 30
0.0
 10
41.64471023939477
 20
20.80097543262754
 30
0.0
 10
41.6272073087858
 20
20.76847429468741
 30
0.0
 10
41.61327368115901
 20
20.74260098446171
 30
0.0
  0
LINE
  5
111
330
2
100
AcDbEntity
  8
0
100
AcDbLine
 10
41.60552274259841
 20
20.95912692863632
 30
0.0
 11
41.63633568616075
 21
20.88443141097615
 31
0.0
  0
LINE
  5
112
330
2
100
AcDbEntity
  8
0
100
AcDbLine
 10
41.60452828476501
 20
20.96055440041978
 30
0.0
 11
41.60552274259841
 21
20.95912692863632
 31
0.0
  0
LINE
  5
113
330
2
100
AcDbEntity
  8
0
100
AcDbLine
 10
39.59933755287774
 20
20.57495366532725
 30
0.0
 11
40.14640249925617
 21
20.67451121032403
 31
0.0
  0
LINE
  5
114
330
2
100
AcDbEntity
  8
0
100
AcDbLine
 10
39.2499598379737
 20
20.87752364196004
 30
0.0
 11
39.59933755287774
 21
20.57495366532725
 31
0.0
  0
LINE
  5
115
330
2
100
AcDbEntity
  8
0
100
AcDbLine
 10
38.18472942223159
 20
19.7039074917258
 30
0.0
 11
38.1824544041357
 21
20.39440118375788
 31
0.0
  0
LINE
  5
116
330
2
100
AcDbEntity
  8
0
100
AcDbLine
 10
38.42395028207222
 20
18.72552651521408
 30
0.0
 11
38.7106956705395
 21
18.60522256711509
 31
0.0
  0
SPLINE
  5
117
330
2
100
AcDbEntity
  8
0
100
AcDbSpline
210
0.0
220
0.0
230
1.0
 70
     8
 71
     3
 72
    11
 73
     7
 74
     0
 42
0.000000001
 43
0.0000000001
 40
0.0
 40
0.0
 40
0.0
 40
0.0
 40
0.2461630922962529
 40
0.4999300249247826
 40
0.7523397136139574
 40
1.0
 40
1.0
 40
1.0
 40
1.0
 10
38.39896378228104
 20
18.7575472560615
 30
0.0
 10
38.39997541731774
 20
18.75416234374101
 30
0.0
 10
38.40202993623199
 20
18.74728796105037
 30
0.0
 10
38.40815607661203
 20
18.73793271498078
 30
0.0
 10
38.41554667574968
 20
18.7299235913513
 30
0.0
 10
38.42116687253007
 20
18.72698289753174
 30
0.0
 10
38.42395028207985
 20
18.7255265152056
 30
0.0
  0
LINE
  5
118
330
2
100
AcDbEntity
  8
0
100
AcDbLine
 10
38.18576672251241
 20
19.69513937957294
 30
0.0
 11
38.39896378227454
 21
18.7575472560562
 31
0.0
  0
LINE
  5
119
330
2
100
AcDbEntity
  8
0
100
AcDbLine
 10
38.18472942223159
 20
19.7039074917258
 30
0.0
 11
38.18576672251241
 21
19.69513937957294
 31
0.0
  0
LINE
  5
11A
330
2
100
AcDbEntity
  8
0
100
AcDbLine
 10
42.38252217177509
 20
20.90939900502553
 30
0.0
 11
42.23934123421178
 21
20.78540061413377
 31
0.0
  0
LINE
  5
11B
330
2
100
AcDbEntity
  8
0
100
AcDbLine
 10
42.38252217177509
 20
20.90939900502553
 30
0.0
 11
42.38464417888741
 21
20.71371998423745
 31
0.0
  0
LINE
  5
11C
330
2
100
AcDbEntity
  8
0
100
AcDbLine
 10
42.22274568987018
 20
20.74058010805062
 30
0.0
 11
42.24343103426348
 21
19.50019191458129
 31
0.0
  0
SPLINE
  5
11D
330
2
100
AcDbEntity
  8
0
100
AcDbSpline
210
0.0
220
0.0
230
1.0
 70
     8
 71
     3
 72
    11
 73
     7
 74
     0
 42
0.000000001
 43
0.0000000001
 40
0.0
 40
0.0
 40
0.0
 40
0.0
 40
0.2496394057207625
 40
0.5006398349756636
 40
0.7496290488554984
 40
1.0
 40
1.0
 40
1.0
 40
1.0
 10
42.23934123421868
 20
20.78540061413687
 30
0.0
 10
42.23709676878597
 20
20.78304235783656
 30
0.0
 10
42.23259560118953
 20
20.77831298812188
 30
0.0
 10
42.22710525055898
 20
20.76642579143806
 30
0.0
 10
42.2233331844098
 20
20.75311445689289
 30
0.0
 10
42.22294188229768
 20
20.7447659245006
 30
0.0
 10
42.22274568987212
 20
20.74058010804563
 30
0.0
  0
SPLINE
  5
11E
330
2
100
AcDbEntity
  8
0
100
AcDbSpline
210
0.0
220
0.0
230
1.0
 70
     8
 71
     3
 72
    12
 73
     8
 74
     0
 42
0.000000001
 43
0.0000000001
 40
0.0
 40
0.0
 40
0.0
 40
0.0
 40
0.1429226669332563
 40
0.2742007919409565
 40
0.5009580581484025
 40
0.7521293318600712
 40
1.0
 40
1.0
 40
1.0
 40
1.0
 10
39.17394082833434
 20
20.78332433358173
 30
0.0
 10
39.17431307985778
 20
20.78908273222495
 30
0.0
 10
39.1750272539263
 20
20.80013036730037
 30
0.0
 10
39.18154254243505
 20
20.82065225120283
 30
0.0
 10
39.1952871257277
 20
20.84417206839021
 30
0.0
 10
39.21976741118755
 20
20.86708925062312
 30
0.0
 10
39.23994016914049
 20
20.87406088136322
 30
0.0
 10
39.24995983797532
 20
20.87752364195438
 30
0.0
  0
ARC
  5
11F
330
2
100
AcDbEntity
  8
0
100
AcDbCircle
 10
39.63124235490404
 20
20.4724594531616
 30
0.0
 40
0.1073451439061863
100
AcDbArc
 50
107.2905263377009
 51
175.9600086315006
  0
LINE
  5
120
330
2
100
AcDbEntity
  8
0
100
AcDbLine
 10
38.67272895213667
 20
18.51361064113604
 30
0.0
 11
38.70432022111046
 21
18.53243512723122
 31
0.0
  0
ARC
  5
121
330
2
100
AcDbEntity
  8
0
100
AcDbCircle
 10
42.17618117335685
 20
20.81451691163321
 30
0.0
 40
0.0873779441404901
100
AcDbArc
 50
255.5894868353996
 51
302.2022341160997
  0
LINE
  5
122
330
2
100
AcDbEntity
  8
0
100
AcDbLine
 10
38.34077001754621
 20
18.64431742809033
 30
0.0
 11
38.34362267659545
 21
18.64277756973222
 31
0.0
  0
LINE
  5
123
330
2
100
AcDbEntity
  8
0
100
AcDbLine
 10
38.72763376346322
 20
18.59952178017552
 30
0.0
 11
38.7106956705395
 21
18.60522256711509
 31
0.0
  0
ARC
  5
124
330
2
100
AcDbEntity
  8
0
100
AcDbCircle
 10
41.55080761313433
 20
20.74567719035205
 30
0.0
 40
0.0625417676125411
100
AcDbArc
 50
269.4397049171998
 51
357.1806879248001
  0
SPLINE
  5
125
330
2
100
AcDbEntity
  8
0
100
AcDbSpline
210
0.0
220
0.0
230
1.0
 70
     8
 71
     3
 72
    14
 73
    10
 74
     0
 42
0.000000001
 43
0.0000000001
 40
0.0
 40
0.0
 40
0.0
 40
0.0
 40
0.5001068768223873
 40
0.7502894220894945
 40
0.9257806586060095
 40
0.9733815390821456
 40
0.988495249157456
 40
0.9945107272160893
 40
1.0
 40
1.0
 40
1.0
 40
1.0
 10
43.02880085371799
 20
19.19122727805489
 30
0.0
 10
43.02338076722017
 20
19.12937693687797
 30
0.0
 10
43.01524923823188
 20
19.03658545791946
 30
0.0
 10
43.01279736436275
 20
18.9187215721497
 30
0.0
 10
43.01481897886652
 20
18.85733587167713
 30
0.0
 10
43.02034458869656
 20
18.825427146819
 30
0.0
 10
43.02391999653635
 20
18.81685087304616
 30
0.0
 10
43.02589435075941
 20
18.81416724442449
 30
0.0
 10
43.02689847420917
 20
18.81350505647776
 30
0.0
 10
43.02737757259207
 20
18.81318910610879
 30
0.0
  0
LINE
  5
126
330
2
100
AcDbEntity
  8
0
100
AcDbLine
 10
43.02880085372189
 20
19.19122727805766
 30
0.0
 11
43.2670595401472
 21
20.37129972174184
 31
0.0
  0
LINE
  5
127
330
2
100
AcDbEntity
  8
0
100
AcDbLine
 10
43.06421522575431
 20
18.79123853926385
 30
0.0
 11
43.04591327151022
 21
18.80274106155152
 31
0.0
  0
LINE
  5
128
330
2
100
AcDbEntity
  8
0
100
AcDbLine
 10
43.04591327151022
 20
18.80274106155152
 30
0.0
 11
43.02737757259136
 21
18.81318910611187
 31
0.0
  0
ARC
  5
129
330
2
100
AcDbEntity
  8
0
100
AcDbCircle
 10
38.61963049580341
 20
18.59946019751777
 30
0.0
 40
0.1080032852133959
100
AcDbArc
 50
321.6412335829008
 51
0.0326696245006663
  0
LINE
  5
12A
330
2
100
AcDbEntity
  8
0
100
AcDbLine
 10
38.23954535736851
 20
20.50033606365276
 30
0.0
 11
38.89288963441699
 21
20.77444635288488
 31
0.0
  0
LINE
  5
12B
330
2
100
AcDbEntity
  8
0
100
AcDbLine
 10
38.23954535736851
 20
20.50033606365276
 30
0.0
 11
38.77482335719471
 21
20.27576024429306
 31
0.0
  0
SPLINE
  5
12C
330
2
100
AcDbEntity
  8
0
100
AcDbSpline
210
0.0
220
0.0
230
1.0
 70
     8
 71
     3
 72
    10
 73
     6
 74
     0
 42
0.000000001
 43
0.0000000001
 40
0.0
 40
0.0
 40
0.0
 40
0.0
 40
0.2094478761833217
 40
0.4367837643581391
 40
1.0
 40
1.0
 40
1.0
 40
1.0
 10
43.06421522575078
 20
18.79123853925601
 30
0.0
 10
43.06468987716538
 20
18.7909826590201
 30
0.0
 10
43.06567971786178
 20
18.79044904495481
 30
0.0
 10
43.06791972585777
 20
18.79051786845402
 30
0.0
 10
43.06935897356747
 20
18.79161836878706
 30
0.0
 10
43.07038434261375
 20
18.79240240267454
 30
0.0
  0
LINE
  5
12D
330
2
100
AcDbEntity
  8
0
100
AcDbLine
 10
42.57318515219187
 20
20.90447499591197
 30
0.0
 11
42.50109735093675
 21
20.92528499039139
 31
0.0
  0
ARC
  5
12E
330
2
100
AcDbEntity
  8
0
100
AcDbCircle
 10
42.4598879017529
 20
20.7824042719533
 30
0.0
 40
0.1487048028951487
100
AcDbArc
 50
73.9114576990002
 51
121.3499502162004
  0
LINE
  5
12F
330
2
100
AcDbEntity
  8
0
100
AcDbLine
 10
43.26777411307195
 20
20.56710289341454
 30
0.0
 11
43.048408011972
 21
20.47506786619112
 31
0.0
  0
LINE
  5
130
330
2
100
AcDbEntity
  8
0
100
AcDbLine
 10
43.26777411307195
 20
20.56710289341454
 30
0.0
 11
43.2670595401472
 21
20.37129972174184
 31
0.0
  0
LINE
  5
131
330
2
100
AcDbEntity
  8
0
100
AcDbLine
 10
43.0223708388852
 20
20.43400599861659
 30
0.0
 11
43.02880085372189
 21
19.19122727805766
 31
0.0
  0
SPLINE
  5
132
330
2
100
AcDbEntity
  8
0
100
AcDbSpline
210
0.0
220
0.0
230
1.0
 70
     8
 71
     3
 72
    11
 73
     7
 74
     0
 42
0.000000001
 43
0.0000000001
 40
0.0
 40
0.0
 40
0.0
 40
0.0
 40
0.24963672815759
 40
0.500640238663352
 40
0.749628067051342
 40
1.0
 40
1.0
 40
1.0
 40
1.0
 10
43.04840801198031
 20
20.47506786619923
 30
0.0
 10
43.04496100542762
 20
20.4732113990625
 30
0.0
 10
43.03804811966769
 20
20.46948830047331
 30
0.0
 10
43.02949316096168
 20
20.45883950654252
 30
0.0
 10
43.02351252506475
 20
20.44638791944809
 30
0.0
 10
43.02275210350956
 20
20.43814092512416
 30
0.0
 10
43.02237083887958
 20
20.43400599862472
 30
0.0
  0
LINE
  5
133
330
2
100
AcDbEntity
  8
0
100
AcDbLine
 10
38.03906653916918
 20
19.64621991932074
 30
0.0
 11
38.03900286762794
 21
19.64707781524655
 31
0.0
  0
LINE
  5
134
330
2
100
AcDbEntity
  8
0
100
AcDbLine
 10
38.01044264344072
 20
20.32191411054542
 30
0.0
 11
38.01051044019772
 21
20.32101762567465
 31
0.0
  0
ARC
  5
135
330
2
100
AcDbEntity
  8
0
100
AcDbCircle
 10
42.98877335210626
 20
20.52413715212361
 30
0.0
 40
0.0961894793980087
100
AcDbArc
 50
246.9657103225
 51
290.4435534558006
  0
SPLINE
  5
136
330
2
100
AcDbEntity
  8
0
100
AcDbSpline
210
0.0
220
0.0
230
1.0
 70
     8
 71
     3
 72
    12
 73
     8
 74
     0
 42
0.000000001
 43
0.0000000001
 40
0.0
 40
0.0
 40
0.0
 40
0.0
 40
0.1429225937961207
 40
0.2742007061956674
 40
0.5009576754291323
 40
0.7521290468641057
 40
1.0
 40
1.0
 40
1.0
 40
1.0
 10
38.18245440413951
 20
20.39440118375441
 30
0.0
 10
38.18263272221551
 20
20.40020812029073
 30
0.0
 10
38.18297483007317
 20
20.41134887877262
 30
0.0
 10
38.18756688841225
 20
20.43284993368096
 30
0.0
 10
38.19763643191008
 20
20.45846943172688
 30
0.0
 10
38.21610551195849
 20
20.48517308373042
 30
0.0
 10
38.23176660044878
 20
20.49530407078698
 30
0.0
 10
38.23954535735997
 20
20.50033606365465
 30
0.0
  0
LINE
  5
137
330
2
100
AcDbEntity
  8
0
100
AcDbLine
 10
37.52872022209167
 20
19.17013662413878
 30
0.0
 11
37.51680091571198
 21
19.85937879972803
 31
0.0
  0
LINE
  5
138
330
2
100
AcDbEntity
  8
0
100
AcDbLine
 10
37.8337919377847
 20
18.23974231403115
 30
0.0
 11
38.18553729590894
 21
18.17572991352206
 31
0.0
  0
SPLINE
  5
139
330
2
100
AcDbEntity
  8
0
100
AcDbSpline
210
0.0
220
0.0
230
1.0
 70
     8
 71
     3
 72
    11
 73
     7
 74
     0
 42
0.000000001
 43
0.0000000001
 40
0.0
 40
0.0
 40
0.0
 40
0.0
 40
0.2461667005205688
 40
0.4999313967060617
 40
0.7523426706894779
 40
1.0
 40
1.0
 40
1.0
 40
1.0
 10
37.80285645054066
 20
18.26683281035786
 30
0.0
 10
37.80413667086552
 20
18.26364992513725
 30
0.0
 10
37.80673662583004
 20
18.25718591416197
 30
0.0
 10
37.81434104509621
 20
18.24904106977182
 30
0.0
 10
37.8234719388733
 20
18.24248865536843
 30
0.0
 10
37.83037380921597
 20
18.2406519408547
 30
0.0
 10
37.83379193777884
 20
18.23974231403915
 30
0.0
  0
LINE
  5
13A
330
2
100
AcDbEntity
  8
0
100
AcDbLine
 10
37.53010299628063
 20
19.16158179158718
 30
0.0
 11
37.80285645054254
 21
18.26683281035173
 31
0.0
  0
LINE
  5
13B
330
2
100
AcDbEntity
  8
0
100
AcDbLine
 10
37.52872022209167
 20
19.17013662413878
 30
0.0
 11
37.53010299628063
 21
19.16158179158718
 31
0.0
  0
ARC
  5
13C
330
2
100
AcDbEntity
  8
0
100
AcDbCircle
 10
38.7130519512944
 20
20.1679541782296
 30
0.0
 40
0.1242491628383571
100
AcDbArc
 50
1.72860657890071
 51
60.18787932939964
  0
ARC
  5
13D
330
2
100
AcDbEntity
  8
0
100
AcDbCircle
 10
37.81186301770681
 20
18.2401639928413
 30
0.0
 40
0.0964814332335357
100
AcDbArc
 50
201.6847108733914
 51
258.3802253339024
  0
LINE
  5
13E
330
2
100
AcDbEntity
  8
0
100
AcDbLine
 10
38.18247077858762
 20
18.08050033663382
 30
0.0
 11
38.19928015824273
 21
18.10359201497763
 31
0.0
  0
LINE
  5
13F
330
2
100
AcDbEntity
  8
0
100
AcDbLine
 10
38.20526069824411
 20
18.17326133184433
 30
0.0
 11
38.18553729590894
 21
18.17572991352206
 31
0.0
  0
ARC
  5
140
330
2
100
AcDbEntity
  8
0
100
AcDbCircle
 10
37.8180286118467
 20
18.17141068497394
 30
0.0
 40
0.3872365086493365
100
AcDbArc
 50
349.9134850239995
 51
0.2738240225993925
  0
ARC
  5
141
330
2
100
AcDbEntity
  8
0
100
AcDbCircle
 10
43.31047033787555
 20
20.45663804283176
 30
0.0
 40
0.1184290961991799
100
AcDbArc
 50
104.8223329710007
 51
111.1322210796994
  0
ARC
  5
142
330
2
100
AcDbEntity
  8
0
100
AcDbCircle
 10
43.32233692920151
 20
20.41657564101344
 30
0.0
 40
0.1601987807727389
100
AcDbArc
 50
64.9900954325002
 51
105.2596941096994
  0
SPLINE
  5
143
330
2
100
AcDbEntity
  8
0
100
AcDbSpline
210
0.0
220
0.0
230
1.0
 70
     8
 71
     3
 72
    14
 73
    10
 74
     0
 42
0.000000001
 43
0.0000000001
 40
0.0
 40
0.0
 40
0.0
 40
0.0
 40
0.5001068601577107
 40
0.7502892593593405
 40
0.925780555093288
 40
0.9733814867565515
 40
0.9884951215638499
 40
0.9945107106054047
 40
1.0
 40
1.0
 40
1.0
 40
1.0
 10
43.55546273749228
 20
18.76658933645421
 30
0.0
 10
43.54758035151908
 20
18.70591177678064
 30
0.0
 10
43.53575473982489
 20
18.61487978955122
 30
0.0
 10
43.52544729128141
 20
18.49814084498942
 30
0.0
 10
43.52206568966692
 20
18.43687514708616
 30
0.0
 10
43.52289329188231
 20
18.40440612100052
 30
0.0
 10
43.52432561907371
 20
18.39538841392261
 30
0.0
 10
43.52527058312412
 20
18.39244737165731
 30
0.0
 10
43.52580527380122
 20
18.39164955502279
 30
0.0
 10
43.52606038921854
 20
18.39126889507797
 30
0.0
  0
LINE
  5
144
330
2
100
AcDbEntity
  8
0
100
AcDbLine
 10
43.55546273749495
 20
18.7665893364554
 30
0.0
 11
43.8620294718411
 21
19.89862803949376
 31
0.0
  0
LINE
  5
145
330
2
100
AcDbEntity
  8
0
100
AcDbLine
 10
43.44357036655447
 20
20.52987054974666
 30
0.0
 11
43.39006495695155
 21
20.56175333770732
 31
0.0
  0
LINE
  5
146
330
2
100
AcDbEntity
  8
0
100
AcDbLine
 10
43.54566105968593
 20
18.36434243993371
 30
0.0
 11
43.53600410170439
 21
18.3783099524269
 31
0.0
  0
LINE
  5
147
330
2
100
AcDbEntity
  8
0
100
AcDbLine
 10
43.53600410170439
 20
18.3783099524269
 30
0.0
 11
43.52606038921453
 21
18.39126889507956
 31
0.0
  0
LINE
  5
148
330
2
100
AcDbEntity
  8
0
100
AcDbLine
 10
43.56406378938507
 20
20.00917664306418
 30
0.0
 11
43.55546273749495
 21
18.7665893364554
 31
0.0
  0
SPLINE
  5
149
330
2
100
AcDbEntity
  8
0
100
AcDbSpline
210
0.0
220
0.0
230
1.0
 70
     8
 71
     3
 72
    12
 73
     8
 74
     0
 42
0.000000001
 43
0.0000000001
 40
0.0
 40
0.0
 40
0.0
 40
0.0
 40
0.142922618867492
 40
0.2742007911080012
 40
0.5009577583337816
 40
0.7521292594637893
 40
1.0
 40
1.0
 40
1.0
 40
1.0
 10
37.5168009157155
 20
19.85937879972041
 30
0.0
 10
37.51676376503539
 20
19.86519819267859
 30
0.0
 10
37.51669249048171
 20
19.87636285062809
 30
0.0
 10
37.51880766832585
 20
19.89845516182088
 30
0.0
 10
37.52398731298807
 20
19.92541923038132
 30
0.0
 10
37.5342178326168
 20
19.95465300823187
 30
0.0
 10
37.54347844816229
 20
19.96698116394526
 30
0.0
 10
37.54807813019607
 20
19.97310447141504
 30
0.0
  0
LINE
  5
14A
330
2
100
AcDbEntity
  8
0
100
AcDbLine
 10
37.27739415918759
 20
18.55637179645162
 30
0.0
 11
37.25726835644986
 21
19.24278880012582
 31
0.0
  0
LINE
  5
14B
330
2
100
AcDbEntity
  8
0
100
AcDbLine
 10
37.61152058843717
 20
17.68233146338466
 30
0.0
 11
37.98584021255707
 21
17.6823314272796
 31
0.0
  0
SPLINE
  5
14C
330
2
100
AcDbEntity
  8
0
100
AcDbSpline
210
0.0
220
0.0
230
1.0
 70
     8
 71
     3
 72
    11
 73
     7
 74
     0
 42
0.000000001
 43
0.0000000001
 40
0.0
 40
0.0
 40
0.0
 40
0.0
 40
0.2461648683586682
 40
0.4999313425172426
 40
0.7523441294813792
 40
1.0
 40
1.0
 40
1.0
 40
1.0
 10
37.57836731727694
 20
17.7037716326546
 30
0.0
 10
37.57976157317548
 20
17.70082452299046
 30
0.0
 10
37.58259313979102
 20
17.69483929650072
 30
0.0
 10
37.59075899823178
 20
17.68808491524274
 30
0.0
 10
37.60052887375
 20
17.6831989472213
 30
0.0
 10
37.60787999278349
 20
17.68261878506582
 30
0.0
 10
37.61152058844226
 20
17.68233146339204
 30
0.0
  0
LINE
  5
14D
330
2
100
AcDbEntity
  8
0
100
AcDbLine
 10
37.2789557553269
 20
18.54807663561962
 30
0.0
 11
37.57836731727673
 21
17.70377163265119
 31
0.0
  0
LINE
  5
14E
330
2
100
AcDbEntity
  8
0
100
AcDbLine
 10
37.27739415918759
 20
18.55637179645162
 30
0.0
 11
37.2789557553269
 21
18.54807663561962
 31
0.0
  0
LINE
  5
14F
330
2
100
AcDbEntity
  8
0
100
AcDbLine
 10
38.0059699843158
 20
17.68337647210434
 30
0.0
 11
37.98584021255707
 21
17.6823314272796
 31
0.0
  0
SPLINE
  5
150
330
2
100
AcDbEntity
  8
0
100
AcDbSpline
210
0.0
220
0.0
230
1.0
 70
     8
 71
     3
 72
    12
 73
     8
 74
     0
 42
0.000000001
 43
0.0000000001
 40
0.0
 40
0.0
 40
0.0
 40
0.0
 40
0.2710890003370774
 40
0.5345062004108926
 40
0.7800155100872237
 40
0.8931726913397007
 40
1.0
 40
1.0
 40
1.0
 40
1.0
 10
38.07415625022134
 20
17.63378763253928
 30
0.0
 10
38.07287015690607
 20
17.63980772235668
 30
0.0
 10
38.07033436662883
 20
17.65167753385929
 30
0.0
 10
38.05782671141969
 20
17.66813155331687
 30
0.0
 10
38.0408141173225
 20
17.6790778196124
 30
0.0
 10
38.02212459966712
 20
17.68401460663325
 30
0.0
 10
38.01125055890418
 20
17.68358506370471
 30
0.0
 10
38.0059699843081
 20
17.68337647211251
 30
0.0
  0
SPLINE
  5
151
330
2
100
AcDbEntity
  8
0
100
AcDbSpline
210
0.0
220
0.0
230
1.0
 70
     8
 71
     3
 72
    11
 73
     7
 74
     0
 42
0.000000001
 43
0.0000000001
 40
0.0
 40
0.0
 40
0.0
 40
0.0
 40
0.4997952893551031
 40
0.7610891520017501
 40
0.8935954474084574
 40
1.0
 40
1.0
 40
1.0
 40
1.0
 10
38.07415618921225
 20
17.48146274883779
 30
0.0
 10
38.07129090544361
 20
17.5022725483495
 30
0.0
 10
38.06692764624497
 20
17.53396174790989
 30
0.0
 10
38.0485436656348
 20
17.56761319589502
 30
0.0
 10
38.03313228901695
 20
17.58379034795313
 30
0.0
 10
38.02269312858722
 20
17.58785878329325
 30
0.0
 10
38.01804380351778
 20
17.5896707564445
 30
0.0
  0
LINE
  5
152
330
2
100
AcDbEntity
  8
0
100
AcDbLine
 10
37.98584023497728
 20
17.59156297135355
 30
0.0
 11
38.01804380352102
 21
17.58967075644533
 31
0.0
  0
LINE
  5
153
330
2
100
AcDbEntity
  8
0
100
AcDbLine
 10
37.98584023497728
 20
17.59156297135355
 30
0.0
 11
37.61152047077878
 21
17.59156296702929
 31
0.0
  0
LINE
  5
154
330
2
100
AcDbEntity
  8
0
100
AcDbLine
 10
37.52863299362304
 20
17.64388452628043
 30
0.0
 11
37.22922461810533
 21
18.46288050002167
 31
0.0
  0
SPLINE
  5
155
330
2
100
AcDbEntity
  8
0
100
AcDbSpline
210
0.0
220
0.0
230
1.0
 70
     8
 71
     3
 72
    14
 73
    10
 74
     0
 42
0.000000001
 43
0.0000000001
 40
0.0
 40
0.0
 40
0.0
 40
0.0
 40
0.5001068332917928
 40
0.7502893279732458
 40
0.9257805392787098
 40
0.9733813432151546
 40
0.9884952554467741
 40
0.9945108537316059
 40
1.0
 40
1.0
 40
1.0
 40
1.0
 10
43.75989349600547
 20
18.27749575097787
 30
0.0
 10
43.75049967591377
 20
18.21834132581708
 30
0.0
 10
43.73640652122256
 20
18.12959442026415
 30
0.0
 10
43.71948639247877
 20
18.01525590005771
 30
0.0
 10
43.7111084861264
 20
17.95502701896904
 30
0.0
 10
43.70714006088079
 20
17.92283484390968
 30
0.0
 10
43.70625547979662
 20
17.91376886446881
 30
0.0
 10
43.70605767568602
 20
17.91076195896224
 30
0.0
 10
43.70605805172529
 20
17.90991695513452
 30
0.0
 10
43.70605823114122
 20
17.90951378672114
 30
0.0
  0
LINE
  5
156
330
2
100
AcDbEntity
  8
0
100
AcDbLine
 10
43.75989349600131
 20
18.27749575097452
 30
0.0
 11
44.09779201135713
 21
19.35271612537634
 31
0.0
  0
SPLINE
  5
157
330
2
100
AcDbEntity
  8
0
100
AcDbSpline
210
0.0
220
0.0
230
1.0
 70
     8
 71
     3
 72
    11
 73
     7
 74
     0
 42
0.000000001
 43
0.0000000001
 40
0.0
 40
0.0
 40
0.0
 40
0.0
 40
0.2324551522999971
 40
0.476615088049163
 40
0.7324676675878096
 40
1.0
 40
1.0
 40
1.0
 40
1.0
 10
37.61152047078347
 20
17.59156296703403
 30
0.0
 10
37.60298490707049
 20
17.59217504600163
 30
0.0
 10
37.5854839895371
 20
17.59343002386789
 30
0.0
 10
37.56110314180636
 20
17.60398487298902
 30
0.0
 10
37.5400206524465
 20
17.62074474524792
 30
0.0
 10
37.53248493508407
 20
17.63605736151003
 30
0.0
 10
37.5286329936231
 20
17.64388452627994
 30
0.0
  0
LINE
  5
158
330
2
100
AcDbEntity
  8
0
100
AcDbLine
 10
43.70605832968772
 20
17.88085928074474
 30
0.0
 11
43.70621095773886
 21
17.89566473070728
 31
0.0
  0
LINE
  5
159
330
2
100
AcDbEntity
  8
0
100
AcDbLine
 10
43.70621095773886
 20
17.89566473070728
 30
0.0
 11
43.70605823113255
 21
17.90951378672104
 31
0.0
  0
SPLINE
  5
15A
330
2
100
AcDbEntity
  8
0
100
AcDbSpline
210
0.0
220
0.0
230
1.0
 70
     8
 71
     3
 72
    10
 73
     6
 74
     0
 42
0.000000001
 43
0.0000000001
 40
0.0
 40
0.0
 40
0.0
 40
0.0
 40
0.0652123707918284
 40
0.3799075936227388
 40
1.0
 40
1.0
 40
1.0
 40
1.0
 10
44.18523633250208
 20
19.37339845568363
 30
0.0
 10
44.1845657824238
 20
19.37036857603271
 30
0.0
 10
44.18065936001435
 20
19.35271741148877
 30
0.0
 10
44.16760646332157
 20
19.30763876883721
 30
0.0
 10
44.15582542165156
 20
19.27015913778413
 30
0.0
 10
44.14801045464673
 20
19.24529698312604
 30
0.0
  0
LINE
  5
15B
330
2
100
AcDbEntity
  8
0
100
AcDbLine
 10
44.14735664647691
 20
19.24125763431688
 30
0.0
 11
44.14801045463899
 21
19.24529698313156
 31
0.0
  0
LINE
  5
15C
330
2
100
AcDbEntity
  8
0
100
AcDbLine
 10
44.10358918175104
 20
19.5473342959549
 30
0.0
 11
44.09779201135713
 21
19.35271612537634
 31
0.0
  0
ARC
  5
15D
330
2
100
AcDbEntity
  8
0
100
AcDbCircle
 10
43.74189416870262
 20
17.86910353802907
 30
0.0
 40
0.0377147828390655
100
AcDbArc
 50
161.8382179152993
 51
178.8029529566991
  0
LINE
  5
15E
330
2
100
AcDbEntity
  8
0
100
AcDbLine
 10
37.22531678275926
 20
18.48316906896878
 30
0.0
 11
37.22922461810533
 21
18.46288050002167
 31
0.0
  0
SPLINE
  5
15F
330
2
100
AcDbEntity
  8
0
100
AcDbSpline
210
0.0
220
0.0
230
1.0
 70
     8
 71
     3
 72
    12
 73
     8
 74
     0
 42
0.000000001
 43
0.0000000001
 40
0.0
 40
0.0
 40
0.0
 40
0.0
 40
0.1429226879534126
 40
0.2742008616238439
 40
0.5009574698475862
 40
0.7521291561053022
 40
1.0
 40
1.0
 40
1.0
 40
1.0
 10
37.25726835645247
 20
19.24278880013005
 30
0.0
 10
37.25702012593719
 20
19.24858303684736
 30
0.0
 10
37.25654388929383
 20
19.25969942937451
 30
0.0
 10
37.25592706812419
 20
19.28192380624243
 30
0.0
 10
37.25559249128838
 20
19.30931503046022
 30
0.0
 10
37.25634991231097
 20
19.33951754777737
 30
0.0
 10
37.25809315248144
 20
19.3528158356936
 30
0.0
 10
37.25895900736567
 20
19.35942099988099
 30
0.0
  0
LINE
  5
160
330
2
100
AcDbEntity
  8
0
100
AcDbLine
 10
37.80175844183613
 20
17.05211706852169
 30
0.0
 11
38.07905934507243
 21
17.10258167012793
 31
0.0
  0
LWPOLYLINE
  5
161
330
2
100
AcDbEntity
  8
0
100
AcDbPolyline
 90
        9
 70
   128
 43
0.0
 10
44.10358918175104
 20
19.5473342959549
 10
44.12051628176961
 20
19.54614954584213
 10
44.13679350164467
 20
19.54341907525729
 10
44.1517956844456
 20
19.53924853274429
 10
44.164947099887
 20
19.53379761487046
 10
44.17574252183365
 20
19.52727522538723
 10
44.18376760107078
 20
19.51993209639107
 10
44.1887140772912
 20
19.51205061237571
 10
44.19039203366308
 20
19.50393275339985
  0
LINE
  5
162
330
2
100
AcDbEntity
  8
0
100
AcDbLine
 10
37.5286329936164
 20
17.64388452627615
 30
0.0
 11
37.72354078745576
 21
17.09119604445177
 31
0.0
  0
SPLINE
  5
163
330
2
100
AcDbEntity
  8
0
100
AcDbSpline
210
0.0
220
0.0
230
1.0
 70
     8
 71
     3
 72
    11
 73
     7
 74
     0
 42
0.000000001
 43
0.0000000001
 40
0.0
 40
0.0
 40
0.0
 40
0.0
 40
0.2675315887464932
 40
0.5233840728757178
 40
0.7675437588656716
 40
1.0
 40
1.0
 40
1.0
 40
1.0
 10
37.72354078744959
 20
17.09119604446033
 30
0.0
 10
37.72719808182436
 20
17.08392077669632
 30
0.0
 10
37.73435301120877
 20
17.06968784333913
 30
0.0
 10
37.75426055885029
 20
17.05625978746414
 30
0.0
 10
37.77724893437972
 20
17.04965383609123
 30
0.0
 10
37.79372345156741
 20
17.05130954316915
 30
0.0
 10
37.80175844184366
 20
17.05211706851993
 30
0.0
  0
LINE
  5
164
330
2
100
AcDbEntity
  8
0
100
AcDbLine
 10
44.19039210076743
 20
19.46231282256687
 30
0.0
 11
44.19039203366308
 21
19.50393275339985
 31
0.0
  0
LINE
  5
165
330
2
100
AcDbEntity
  8
0
100
AcDbLine
 10
44.18523633249683
 20
19.37339845568316
 30
0.0
 11
44.1883418442721
 21
19.39553184740205
 31
0.0
  0
LINE
  5
166
330
2
100
AcDbEntity
  8
0
100
AcDbLine
 10
44.1883418442721
 20
19.39553184740205
 30
0.0
 11
44.19039210076743
 21
19.46231282256687
 31
0.0
  0
LINE
  5
167
330
2
100
AcDbEntity
  8
0
100
AcDbLine
 10
44.23323002686623
 20
18.59701362997518
 30
0.0
 11
44.2216508320379
 21
18.53353756916654
 31
0.0
  0
SPLINE
  5
168
330
2
100
AcDbEntity
  8
0
100
AcDbSpline
210
0.0
220
0.0
230
1.0
 70
     8
 71
     3
 72
    11
 73
     7
 74
     0
 42
0.000000001
 43
0.0000000001
 40
0.0
 40
0.0
 40
0.0
 40
0.0
 40
0.0085040479707107
 40
0.503257263181974
 40
0.7690264468805741
 40
1.0
 40
1.0
 40
1.0
 40
1.0
 10
44.15435356124951
 20
18.45203235697914
 30
0.0
 10
44.15454736912457
 20
18.45217727156489
 30
0.0
 10
44.16601663895041
 20
18.46075310722199
 30
0.0
 10
44.18649413148826
 20
18.47959114672866
 30
0.0
 10
44.20956633918477
 20
18.50803658657468
 30
0.0
 10
44.2178152737412
 20
18.5254436833556
 30
0.0
 10
44.22165083203473
 20
18.53353756917409
 30
0.0
  0
SPLINE
  5
169
330
2
100
AcDbEntity
  8
0
100
AcDbSpline
210
0.0
220
0.0
230
1.0
 70
     8
 71
     3
 72
    11
 73
     7
 74
     0
 42
0.000000001
 43
0.0000000001
 40
0.0
 40
0.0
 40
0.0
 40
0.0
 40
0.2446990400769244
 40
0.4999999501976275
 40
0.7553014075742951
 40
1.0
 40
1.0
 40
1.0
 40
1.0
 10
44.08717687411139
 20
18.40171159774926
 30
0.0
 10
44.10749696738204
 20
18.42800358338834
 30
0.0
 10
44.14901754555893
 20
18.4817266854733
 30
0.0
 10
44.1493742674896
 20
18.56972122680389
 30
0.0
 10
44.10454388107074
 20
18.6548130860474
 30
0.0
 10
44.03721202706991
 20
18.70154389131034
 30
0.0
 10
44.00426001055325
 20
18.72441381357392
 30
0.0
  0
LINE
  5
16A
330
2
100
AcDbEntity
  8
0
100
AcDbLine
 10
44.00389653216079
 20
18.72515621497051
 30
0.0
 11
44.00426001054532
 21
18.72441381357202
 31
0.0
  0
LINE
  5
16B
330
2
100
AcDbEntity
  8
0
100
AcDbLine
 10
44.00426001054532
 20
18.72441381357202
 30
0.0
 11
43.96501130195292
 21
18.67049650885641
 31
0.0
  0
LINE
  5
16C
330
2
100
AcDbEntity
  8
0
100
AcDbLine
 10
44.08717687411071
 20
18.40171159774095
 30
0.0
 11
43.95728093396992
 21
18.29942787796671
 31
0.0
  0
LINE
  5
16D
330
2
100
AcDbEntity
  8
0
100
AcDbLine
 10
44.22187773753918
 20
18.53397024063083
 30
0.0
 11
44.2216508320379
 21
18.53353756916654
 31
0.0
  0
SPLINE
  5
16E
330
2
100
AcDbEntity
  8
0
100
AcDbSpline
210
0.0
220
0.0
230
1.0
 70
     8
 71
     3
 72
    12
 73
     8
 74
     0
 42
0.000000001
 43
0.0000000001
 40
0.0
 40
0.0
 40
0.0
 40
0.0
 40
0.1983258331023614
 40
0.4309083982583559
 40
0.6975990229374958
 40
0.84869853754317
 40
1.0
 40
1.0
 40
1.0
 40
1.0
 10
40.55981500767346
 20
23.55908526182691
 30
0.0
 10
40.55199930921836
 20
23.56286995551593
 30
0.0
 10
40.53501791022521
 20
23.57109307133459
 30
0.0
 10
40.51195707169769
 20
23.56371485164566
 30
0.0
 10
40.49736028857688
 20
23.54013342064468
 30
0.0
 10
40.49068530909919
 20
23.50934197718486
 30
0.0
 10
40.49047533336461
 20
23.4890522803993
 30
0.0
 10
40.49037027538485
 20
23.47890065712652
 30
0.0
  0
LINE
  5
16F
330
2
100
AcDbEntity
  8
0
100
AcDbLine
 10
40.5598166800025
 20
23.55904577801856
 30
0.0
 11
40.6991286073845
 21
23.46827199127341
 31
0.0
  0
LINE
  5
170
330
2
100
AcDbEntity
  8
0
100
AcDbLine
 10
40.49218672564586
 20
23.40715781095977
 30
0.0
 11
40.49037027538973
 21
23.47890065713245
 31
0.0
  0
LINE
  5
171
330
2
100
AcDbEntity
  8
0
100
AcDbLine
 10
41.71070317417899
 20
23.23637924893865
 30
0.0
 11
41.84127140101298
 21
23.24226480566387
 31
0.0
  0
LINE
  5
172
330
2
100
AcDbEntity
  8
0
100
AcDbLine
 10
39.31084588502301
 20
22.96502091153389
 30
0.0
 11
39.31082299901757
 21
22.96277328238169
 31
0.0
  0
LINE
  5
173
330
2
100
AcDbEntity
  8
0
100
AcDbLine
 10
39.02540437205534
 20
22.88262104435306
 30
0.0
 11
39.31084588502301
 21
22.96502091153389
 31
0.0
  0
LINE
  5
174
330
2
100
AcDbEntity
  8
0
100
AcDbLine
 10
39.02540437205534
 20
22.88262104435306
 30
0.0
 11
39.03329798523454
 21
23.05828011766143
 31
0.0
  0
SPLINE
  5
175
330
2
100
AcDbEntity
  8
0
100
AcDbSpline
210
0.0
220
0.0
230
1.0
 70
     8
 71
     3
 72
    10
 73
     6
 74
     0
 42
0.000000001
 43
0.0000000001
 40
0.0
 40
0.0
 40
0.0
 40
0.0
 40
0.3236639211499718
 40
0.6618319091488644
 40
1.0
 40
1.0
 40
1.0
 40
1.0
 10
39.38363354698733
 20
22.8594285270493
 30
0.0
 10
39.3495311138342
 20
22.87060153850555
 30
0.0
 10
39.27979804516172
 20
22.89344824776112
 30
0.0
 10
39.14952170612788
 20
22.90094875822072
 30
0.0
 10
39.0694336470248
 20
22.88642940405117
 30
0.0
 10
39.02938961138366
 20
22.87916972586238
 30
0.0
  0
LINE
  5
176
330
2
100
AcDbEntity
  8
0
100
AcDbLine
 10
39.02540437205534
 20
22.88262104435306
 30
0.0
 11
39.02938961138646
 21
22.87916972585712
 31
0.0
  0
LINE
  5
177
330
2
100
AcDbEntity
  8
0
100
AcDbLine
 10
40.05707760477142
 20
23.17079060928342
 30
0.0
 11
39.94675307161287
 21
23.13894265982213
 31
0.0
  0
LINE
  5
178
330
2
100
AcDbEntity
  8
0
100
AcDbLine
 10
39.38363355133199
 20
22.97638405651824
 30
0.0
 11
39.31920202938413
 21
22.95778427823942
 31
0.0
  0
SPLINE
  5
179
330
2
100
AcDbEntity
  8
0
100
AcDbSpline
210
0.0
220
0.0
230
1.0
 70
     8
 71
     3
 72
    11
 73
     7
 74
     0
 42
0.000000001
 43
0.0000000001
 40
0.0
 40
0.0
 40
0.0
 40
0.0
 40
0.167948206501155
 40
0.5579003993944736
 40
0.7726525411888298
 40
1.0
 40
1.0
 40
1.0
 40
1.0
 10
39.07673517858558
 20
23.14626736260569
 30
0.0
 10
39.07254472755786
 20
23.14552925816159
 30
0.0
 10
39.05862463665176
 20
23.14307737866407
 30
0.0
 10
39.04529372434407
 20
23.1206744652306
 30
0.0
 10
39.0359011847781
 20
23.08966174080765
 30
0.0
 10
39.03418204439246
 20
23.06893746863836
 30
0.0
 10
39.03329798524044
 20
23.0582801176547
 30
0.0
  0
LINE
  5
17A
330
2
100
AcDbEntity
  8
0
100
AcDbLine
 10
39.31082299901757
 20
22.96277328238169
 30
0.0
 11
39.31920202938413
 21
22.95778427823942
 31
0.0
  0
LINE
  5
17B
330
2
100
AcDbEntity
  8
0
100
AcDbLine
 10
41.84127140101298
 20
23.24226480566387
 30
0.0
 11
41.98590946334594
 21
23.24834562890013
 31
0.0
  0
SPLINE
  5
17C
330
2
100
AcDbEntity
  8
0
100
AcDbSpline
210
0.0
220
0.0
230
1.0
 70
     8
 71
     3
 72
    10
 73
     6
 74
     0
 42
0.000000001
 43
0.0000000001
 40
0.0
 40
0.0
 40
0.0
 40
0.0
 40
0.1742632702171423
 40
0.4904026820749698
 40
1.0
 40
1.0
 40
1.0
 40
1.0
 10
42.38414727061022
 20
23.20005403741491
 30
0.0
 10
42.42112634488409
 20
23.19004411472537
 30
0.0
 10
42.52519094313228
 20
23.16187470800995
 30
0.0
 10
42.64446501664771
 20
23.08134252411305
 30
0.0
 10
42.72769516866153
 20
22.98570361297864
 30
0.0
 10
42.73657200746598
 20
22.90098950105984
 30
0.0
  0
LINE
  5
17D
330
2
100
AcDbEntity
  8
0
100
AcDbLine
 10
39.02776273973127
 20
22.82514404834143
 30
0.0
 11
39.02938961138646
 21
22.87916972585712
 31
0.0
  0
ARC
  5
17E
330
2
100
AcDbEntity
  8
0
100
AcDbCircle
 10
40.73202696616336
 20
15.39220263913411
 30
0.0
 40
6.197530658961638
100
AcDbArc
 50
100.9987364615993
 51
102.2698970439994
  0
ARC
  5
17F
330
2
100
AcDbEntity
  8
0
100
AcDbCircle
 10
39.56837207976735
 20
21.39079646594055
 30
0.0
 40
0.0871391911067219
100
AcDbArc
 50
61.38383672749957
 51
102.4294128213993
  0
LINE
  5
180
330
2
100
AcDbEntity
  8
0
100
AcDbLine
 10
39.61010648211629
 20
21.46729142189621
 30
0.0
 11
39.62206720539273
 21
21.45935520778619
 31
0.0
  0
LWPOLYLINE
  5
181
330
2
100
AcDbEntity
  8
0
100
AcDbPolyline
 90
        8
 70
   128
 43
0.0
 10
40.09805705852781
 20
21.55861262076838
 10
40.08580152252448
 20
21.55644370055856
 10
40.07500164197639
 20
21.55282515417792
 10
40.06632961302757
 20
21.54798240357272
 10
40.06032561298677
 20
21.54221687025872
 10
40.05736333784874
 20
21.53588762273217
 10
40.05762751525048
 20
21.52938863688179
 10
40.06044707641502
 20
21.52394705931213
  0
ARC
  5
182
330
2
100
AcDbEntity
  8
0
100
AcDbCircle
 10
40.86463805050842
 20
14.53859378894622
 30
0.0
 40
7.061749840959591
100
AcDbArc
 50
94.89502081750016
 51
96.23196508190083
  0
ARC
  5
183
330
2
100
AcDbEntity
  8
0
100
AcDbCircle
 10
40.27099253453273
 20
21.47960892013799
 30
0.0
 40
0.0953979397787335
100
AcDbArc
 50
71.83118688420001
 51
95.37480812799994
  0
LINE
  5
184
330
2
100
AcDbEntity
  8
0
100
AcDbLine
 10
40.30073930922304
 20
21.5702505017048
 30
0.0
 11
40.3547029349236
 21
21.55135766814195
 31
0.0
  0
LINE
  5
185
330
2
100
AcDbEntity
  8
0
100
AcDbLine
 10
40.69299118666313
 20
21.56793286303651
 30
0.0
 11
40.71495350717539
 21
21.58695288588364
 31
0.0
  0
ARC
  5
186
330
2
100
AcDbEntity
  8
0
100
AcDbCircle
 10
40.75590847810672
 20
21.52921342776449
 30
0.0
 40
0.0707895095863382
100
AcDbArc
 50
88.06727372759999
 51
125.3483243196995
  0
ARC
  5
187
330
2
100
AcDbEntity
  8
0
100
AcDbCircle
 10
40.88388803981562
 20
14.2389982332698
 30
0.0
 40
7.362035775692516
100
AcDbArc
 50
89.02248345569955
 51
90.97748058350083
  0
ARC
  5
188
330
2
100
AcDbEntity
  8
0
100
AcDbCircle
 10
41.01187340054581
 20
21.52921717430261
 30
0.0
 40
0.070785726170627
100
AcDbArc
 50
54.65066883179926
 51
91.93378448289939
  0
LINE
  5
189
330
2
100
AcDbEntity
  8
0
100
AcDbLine
 10
41.05282719716831
 20
21.58695282682002
 30
0.0
 11
41.07478952111918
 21
21.56793289634557
 31
0.0
  0
LINE
  5
18A
330
2
100
AcDbEntity
  8
0
100
AcDbLine
 10
41.41307795630158
 20
21.55135774450267
 30
0.0
 11
41.46704137511442
 21
21.5702506256325
 31
0.0
  0
ARC
  5
18B
330
2
100
AcDbEntity
  8
0
100
AcDbCircle
 10
41.49678841612078
 20
21.47960414525693
 30
0.0
 40
0.0954026773933533
100
AcDbArc
 50
84.62555744200006
 51
108.1680476915998
  0
ARC
  5
18C
330
2
100
AcDbEntity
  8
0
100
AcDbCircle
 10
40.90309044402662
 20
14.53804041738304
 30
0.0
 40
7.062305655388626
100
AcDbArc
 50
83.76810102400071
 51
85.10493956039933
  0
LWPOLYLINE
  5
18D
330
2
100
AcDbEntity
  8
0
100
AcDbPolyline
 90
        8
 70
   128
 43
0.0
 10
41.70733363534423
 20
21.52394696471653
 10
41.71015333387817
 20
21.52938865914571
 10
41.71041740332944
 20
21.5358876474795
 10
41.70745526472723
 20
21.54221691565488
 10
41.70145110008625
 20
21.54798243643024
 10
41.69277930261618
 20
21.55282520191857
 10
41.68197923989299
 20
21.55644372648683
 10
41.66972367176154
 20
21.5586126635943
  0
LINE
  5
18E
330
2
100
AcDbEntity
  8
0
100
AcDbLine
 10
42.14571374963717
 20
21.45935526959375
 30
0.0
 11
42.15767426045123
 21
21.46729141741563
 31
0.0
  0
ARC
  5
18F
330
2
100
AcDbEntity
  8
0
100
AcDbCircle
 10
42.19940873263105
 20
21.39079580000279
 30
0.0
 40
0.087139805202538
100
AcDbArc
 50
77.57064982520083
 51
118.6159952760999
  0
ARC
  5
190
330
2
100
AcDbEntity
  8
0
100
AcDbCircle
 10
41.0361726297207
 20
15.39424421867543
 30
0.0
 40
6.195446644434754
100
AcDbArc
 50
77.72987469639963
 51
79.00146270750006
  0
LWPOLYLINE
  5
191
330
2
100
AcDbEntity
  8
0
100
AcDbPolyline
 90
        9
 70
   128
 43
0.0
 10
42.37854920205111
 20
21.41253166663096
 10
42.37961912982624
 20
21.41365657449223
 10
42.38316760524797
 20
21.41925075321224
 10
42.38412131319911
 20
21.42510009374961
 10
42.38243190077358
 20
21.43090779033997
 10
42.37818540858525
 20
21.43637904161413
 10
42.37159720159346
 20
21.44123611550794
 10
42.3630012911402
 20
21.44523244866122
 10
42.35283461467881
 20
21.44816529029153
  0
LWPOLYLINE
  5
192
330
2
100
AcDbEntity
  8
0
100
AcDbPolyline
 90
        9
 70
   128
 43
0.0
 10
39.41494621076188
 20
21.44816536627019
 10
39.40477939522913
 20
21.44523251378577
 10
39.39618365552381
 20
21.44123614312075
 10
39.38959540245856
 20
21.43637899343932
 10
39.38534873266252
 20
21.43090785166127
 10
39.38365946345893
 20
21.42510016601182
 10
39.38461328997151
 20
21.41925072900327
 10
39.38816157562894
 20
21.41365664206547
 10
39.38923167915358
 20
21.41253161368033
  0
ARC
  5
193
330
2
100
AcDbEntity
  8
0
100
AcDbCircle
 10
40.88388803981562
 20
16.13402196957358
 30
0.0
 40
7.362035775745273
100
AcDbArc
 50
89.02248345569955
 51
90.97748058350083
  0
ARC
  5
194
330
2
100
AcDbEntity
  8
0
100
AcDbCircle
 10
40.90309044402662
 20
16.43306415370419
 30
0.0
 40
7.062305655404854
100
AcDbArc
 50
83.76810102400071
 51
85.10493956039933
  0
LINE
  5
195
330
2
100
AcDbEntity
  8
0
100
AcDbLine
 10
41.05282719716831
 20
23.48197656315852
 30
0.0
 11
41.05282719716831
 21
21.58695282682002
 31
0.0
  0
ARC
  5
196
330
2
100
AcDbEntity
  8
0
100
AcDbCircle
 10
41.01187340054581
 20
23.42424091065848
 30
0.0
 40
0.0707857261705839
100
AcDbArc
 50
54.65066883179926
 51
91.93378448289939
  0
LINE
  5
197
330
2
100
AcDbEntity
  8
0
100
AcDbLine
 10
40.71495350717539
 20
21.58695288588364
 30
0.0
 11
40.71495350717539
 21
23.48197662222215
 31
0.0
  0
ARC
  5
198
330
2
100
AcDbEntity
  8
0
100
AcDbCircle
 10
40.75590847810672
 20
23.424237164103
 30
0.0
 40
0.0707895095865628
100
AcDbArc
 50
88.06727372759999
 51
125.3483243196995
  0
ARC
  5
199
330
2
100
AcDbEntity
  8
0
100
AcDbCircle
 10
41.24397493822999
 20
23.68694491891203
 30
0.0
 40
0.282954060702467
100
AcDbArc
 50
237.2840299085
 51
290.0654283969997
  0
ARC
  5
19A
330
2
100
AcDbEntity
  8
0
100
AcDbCircle
 10
40.86463805052577
 20
16.43361752516315
 30
0.0
 40
7.06174984108789
100
AcDbArc
 50
94.89502081750016
 51
96.23196508190083
  0
ARC
  5
19B
330
2
100
AcDbEntity
  8
0
100
AcDbCircle
 10
40.52380593898038
 20
23.68694356774227
 30
0.0
 40
0.2829528090062031
100
AcDbArc
 50
249.9344443139998
 51
302.7161141505006
  0
LINE
  5
19C
330
2
100
AcDbEntity
  8
0
100
AcDbLine
 10
41.09104538347104
 20
23.44887864294691
 30
0.0
 11
41.05282719716831
 21
23.48197656315852
 31
0.0
  0
LINE
  5
19D
330
2
100
AcDbEntity
  8
0
100
AcDbLine
 10
40.71495350717539
 20
23.48197662222215
 30
0.0
 11
40.67673541579825
 21
23.44887872939759
 31
0.0
  0
LINE
  5
19E
330
2
100
AcDbEntity
  8
0
100
AcDbLine
 10
40.30073930922304
 20
21.5702505017048
 30
0.0
 11
40.30073930922304
 21
23.46527423806068
 31
0.0
  0
LINE
  5
19F
330
2
100
AcDbEntity
  8
0
100
AcDbLine
 10
40.42672622225555
 20
23.4211658020697
 30
0.0
 11
40.30073930922304
 21
23.46527423806068
 31
0.0
  0
ARC
  5
1A0
330
2
100
AcDbEntity
  8
0
100
AcDbCircle
 10
40.27099253453273
 20
23.37463265649387
 30
0.0
 40
0.0953979397790769
100
AcDbArc
 50
71.83118688420001
 51
95.37480812790013
  0
LINE
  5
1A1
330
2
100
AcDbEntity
  8
0
100
AcDbLine
 10
41.46704137511442
 20
23.46527436197102
 30
0.0
 11
41.46704137511442
 21
21.5702506256325
 31
0.0
  0
ARC
  5
1A2
330
2
100
AcDbEntity
  8
0
100
AcDbCircle
 10
41.49678841612078
 20
23.37462788159544
 30
0.0
 40
0.0954026773937213
100
AcDbArc
 50
84.62555744209987
 51
108.1680476915998
  0
LINE
  5
1A3
330
2
100
AcDbEntity
  8
0
100
AcDbLine
 10
41.46704137511442
 20
23.46527436197102
 30
0.0
 11
41.34105449394953
 21
23.42116576184876
 31
0.0
  0
LWPOLYLINE
  5
1A4
330
2
100
AcDbEntity
  8
0
100
AcDbPolyline
 90
        7
 70
   128
 43
0.0
 10
41.71070316648561
 20
23.42818687886916
 10
41.71041740332944
 20
23.43091138381802
 10
41.70745526472723
 20
23.4372406519934
 10
41.70145110008625
 20
23.44300617276874
 10
41.69277930261618
 20
23.44784893825707
 10
41.68197923989299
 20
23.45146746282534
 10
41.66972367176154
 20
23.45363639993281
  0
LWPOLYLINE
  5
1A5
330
2
100
AcDbEntity
  8
0
100
AcDbPolyline
 90
        7
 70
   128
 43
0.0
 10
40.09805705852781
 20
23.45363635710689
 10
40.08580152252448
 20
23.45146743689707
 10
40.07500164197639
 20
23.44784889051643
 10
40.06632961302757
 20
23.44300613991123
 10
40.06032561298677
 20
23.4372406066146
 10
40.05736333784874
 20
23.43091135907068
 10
40.05707767241415
 20
23.42818680566914
  0
LINE
  5
1A6
330
2
100
AcDbEntity
  8
0
100
AcDbLine
 10
39.61010648211629
 20
23.36231515823472
 30
0.0
 11
39.61010648211629
 21
21.46729142189621
 31
0.0
  0
LINE
  5
1A7
330
2
100
AcDbEntity
  8
0
100
AcDbLine
 10
39.61010648211629
 20
23.36231515823472
 30
0.0
 11
40.05707767250097
 21
23.06573972154408
 31
0.0
  0
ARC
  5
1A8
330
2
100
AcDbEntity
  8
0
100
AcDbCircle
 10
41.03617262966859
 20
17.28926795475344
 30
0.0
 40
6.195446644705306
100
AcDbArc
 50
77.72987469649961
 51
79.00146270750006
  0
ARC
  5
1A9
330
2
100
AcDbEntity
  8
0
100
AcDbCircle
 10
39.56837207976735
 20
23.28582020227905
 30
0.0
 40
0.0871391911065419
100
AcDbArc
 50
61.38383672749957
 51
102.4294128213993
  0
LINE
  5
1AA
330
2
100
AcDbEntity
  8
0
100
AcDbLine
 10
42.15767426045123
 20
21.46729141741563
 30
0.0
 11
42.15767426045123
 21
23.36231515377151
 31
0.0
  0
ARC
  5
1AB
330
2
100
AcDbEntity
  8
0
100
AcDbCircle
 10
42.19940873263105
 20
23.28581953635866
 30
0.0
 40
0.0871398052026591
100
AcDbArc
 50
77.57064982520083
 51
118.6159952759993
  0
ARC
  5
1AC
330
2
100
AcDbEntity
  8
0
100
AcDbCircle
 10
40.73202696616336
 20
17.28722637552472
 30
0.0
 40
6.197530658909159
100
AcDbArc
 50
100.9987364615993
 51
102.2698970439994
  0
LINE
  5
1AD
330
2
100
AcDbEntity
  8
0
100
AcDbLine
 10
41.71070309653315
 20
23.06573977452943
 30
0.0
 11
42.15767426045123
 21
23.36231515377151
 31
0.0
  0
LWPOLYLINE
  5
1AE
330
2
100
AcDbEntity
  8
0
100
AcDbPolyline
 90
        7
 70
   128
 43
0.0
 10
42.38414716461259
 20
23.31930245339646
 10
42.38412131319911
 20
23.32012383008812
 10
42.38243190077358
 20
23.32593152667847
 10
42.37818540858525
 20
23.33140277797002
 10
42.37159720159346
 20
23.33625985184645
 10
42.3630012911402
 20
23.34025618499973
 10
42.35283461467881
 20
23.3431890266474
  0
LWPOLYLINE
  5
1AF
330
2
100
AcDbEntity
  8
0
100
AcDbPolyline
 90
        7
 70
   128
 43
0.0
 10
39.41494621076188
 20
23.34318910262606
 10
39.40477939522913
 20
23.34025625014166
 10
39.39618365552381
 20
23.33625987945925
 10
39.38959540245856
 20
23.33140272979521
 10
39.38534873266252
 20
23.32593158801713
 10
39.38365946345893
 20
23.32012390236771
 10
39.38363350643944
 20
23.31930251061925
  0
LINE
  5
1B0
330
2
100
AcDbEntity
  8
0
100
AcDbLine
 10
42.42155670753505
 20
22.45001978501218
 30
0.0
 11
42.99415808049739
 21
23.1245018124157
 31
0.0
  0
LINE
  5
1B1
330
2
100
AcDbEntity
  8
0
100
AcDbLine
 10
38.77362284577348
 20
23.12450175364729
 30
0.0
 11
39.38363353655304
 21
22.40595412860171
 31
0.0
  0
ARC
  5
1B2
330
2
100
AcDbEntity
  8
0
100
AcDbCircle
 10
41.51185228034305
 20
17.01641158450488
 30
0.0
 40
4.503136568842075
100
AcDbArc
 50
68.14127817270049
 51
69.71432121249977
  0
LWPOLYLINE
  5
1B3
330
2
100
AcDbEntity
  8
0
100
AcDbPolyline
 90
        9
 70
   128
 43
0.0
 10
43.20380290414595
 20
21.16530018748183
 10
43.20645819461943
 20
21.169300680775
 10
43.20778827320519
 20
21.1734628826546
 10
43.20775860064689
 20
21.17767793329302
 10
43.20636939862855
 20
21.18183533495377
 10
43.20365770592207
 20
21.1858263470306
 10
43.19969414655891
 20
21.18954646137148
 10
43.19458262348417
 20
21.19289825542925
 10
43.18845664485376
 20
21.19579392673605
  0
LINE
  5
1B4
330
2
100
AcDbEntity
  8
0
100
AcDbLine
 10
43.20380290414595
 20
21.16530018748183
 30
0.0
 11
43.20105764950315
 21
21.16206661192963
 31
0.0
  0
ARC
  5
1B5
330
2
100
AcDbEntity
  8
0
100
AcDbCircle
 10
43.56711066122987
 20
20.91747185479885
 30
0.0
 40
0.090914468435124
100
AcDbArc
 50
64.70875519339966
 51
104.8025489947008
  0
ARC
  5
1B6
330
2
100
AcDbEntity
  8
0
100
AcDbCircle
 10
42.0692105349835
 20
18.19874904268277
 30
0.0
 40
3.194799036130551
100
AcDbArc
 50
58.9797798759006
 51
61.24840191310026
  0
ARC
  5
1B7
330
2
100
AcDbEntity
  8
0
100
AcDbCircle
 10
43.70792545654658
 20
20.91867629852821
 30
0.0
 40
0.0195472880815957
100
AcDbArc
 50
357.2161942214992
 51
66.81895711629974
  0
LINE
  5
1B8
330
2
100
AcDbEntity
  8
0
100
AcDbLine
 10
43.72744967696021
 20
20.91772693634803
 30
0.0
 11
43.72509086777448
 21
20.90424540639288
 31
0.0
  0
LINE
  5
1B9
330
2
100
AcDbEntity
  8
0
100
AcDbLine
 10
43.95997831323462
 20
20.74671797750632
 30
0.0
 11
43.9634860296914
 21
20.74671798049337
 31
0.0
  0
ARC
  5
1BA
330
2
100
AcDbEntity
  8
0
100
AcDbCircle
 10
43.96686453107313
 20
20.67309155034513
 30
0.0
 40
0.0737039041518156
100
AcDbArc
 50
56.36347156789985
 51
92.62729262820073
  0
ARC
  5
1BB
330
2
100
AcDbEntity
  8
0
100
AcDbCircle
 10
42.67658795242911
 20
19.07053397296465
 30
0.0
 40
2.13083743879422
100
AcDbArc
 50
46.87230379780031
 51
51.34090690390038
  0
ARC
  5
1BC
330
2
100
AcDbEntity
  8
0
100
AcDbCircle
 10
44.12382409785065
 20
20.61350085282622
 30
0.0
 40
0.0154278192775208
100
AcDbArc
 50
311.9267188644008
 51
52.17513826920012
  0
ARC
  5
1BD
330
2
100
AcDbEntity
  8
0
100
AcDbCircle
 10
44.30370448018138
 20
20.36757653722053
 30
0.0
 40
0.0455194113509844
100
AcDbArc
 50
42.14686905069955
 51
78.88659444260056
  0
ARC
  5
1BE
330
2
100
AcDbEntity
  8
0
100
AcDbCircle
 10
43.21854723303626
 20
19.57044530613533
 30
0.0
 40
1.391761451981093
100
AcDbArc
 50
32.54306775799975
 51
36.49103051320062
  0
ARC
  5
1BF
330
2
100
AcDbEntity
  8
0
100
AcDbCircle
 10
44.38015403669075
 20
20.31122143665086
 30
0.0
 40
0.0140591533512267
100
AcDbArc
 50
327.600291478701
 51
34.18245897490075
  0
ARC
  5
1C0
330
2
100
AcDbEntity
  8
0
100
AcDbCircle
 10
43.04239426424249
 20
21.15696127558445
 30
0.0
 40
0.0887611652103553
100
AcDbArc
 50
69.76432788179974
 51
116.3976978744997
  0
ARC
  5
1C1
330
2
100
AcDbEntity
  8
0
100
AcDbCircle
 10
37.38762553391243
 20
20.31122156736891
 30
0.0
 40
0.0140580641298927
100
AcDbArc
 50
145.8149181311002
 51
212.403203265499
  0
ARC
  5
1C2
330
2
100
AcDbEntity
  8
0
100
AcDbCircle
 10
38.54923528699771
 20
19.57044439307155
 30
0.0
 40
1.391763392571735
100
AcDbArc
 50
143.5089828219
 51
147.4569361359998
  0
ARC
  5
1C3
330
2
100
AcDbEntity
  8
0
100
AcDbCircle
 10
37.46407680347574
 20
20.36757576845541
 30
0.0
 40
0.0455202970693599
100
AcDbArc
 50
101.1137620820997
 51
137.8528677995002
  0
ARC
  5
1C4
330
2
100
AcDbEntity
  8
0
100
AcDbCircle
 10
37.64395664829436
 20
20.61350081258793
 30
0.0
 40
0.0154278252774968
100
AcDbArc
 50
127.8245347318001
 51
228.0727716526999
  0
ARC
  5
1C5
330
2
100
AcDbEntity
  8
0
100
AcDbCircle
 10
39.09123191162862
 20
19.07049116679594
 30
0.0
 40
2.130895390632096
100
AcDbArc
 50
128.6591961216007
 51
133.1276753728004
  0
ARC
  5
1C6
330
2
100
AcDbEntity
  8
0
100
AcDbCircle
 10
37.80091722552728
 20
20.67308788372788
 30
0.0
 40
0.0737076030962963
100
AcDbArc
 50
87.37363643680053
 51
123.6356296031004
  0
LINE
  5
1C7
330
2
100
AcDbEntity
  8
0
100
AcDbLine
 10
37.80429470254299
 20
20.74671806369653
 30
0.0
 11
37.80780243921443
 21
20.74671804917809
 31
0.0
  0
LINE
  5
1C8
330
2
100
AcDbEntity
  8
0
100
AcDbLine
 10
38.04269015092118
 20
20.90424531183201
 30
0.0
 11
38.04033117951448
 21
20.91772688061876
 31
0.0
  0
ARC
  5
1C9
330
2
100
AcDbEntity
  8
0
100
AcDbCircle
 10
38.05985526630988
 20
20.91867641444993
 30
0.0
 40
0.0195471629700916
100
AcDbArc
 50
113.1809415384007
 51
182.7843272892011
  0
ARC
  5
1CA
330
2
100
AcDbEntity
  8
0
100
AcDbCircle
 10
39.69844822100578
 20
18.19895834167954
 30
0.0
 40
3.194556786135243
100
AcDbArc
 50
118.7514847842005
 51
121.0202785846995
  0
ARC
  5
1CB
330
2
100
AcDbEntity
  8
0
100
AcDbCircle
 10
38.20067005914319
 20
20.91747348036012
 30
0.0
 40
0.0909129144803641
100
AcDbArc
 50
75.1970808890005
 51
115.2916382067
  0
LINE
  5
1CC
330
2
100
AcDbEntity
  8
0
100
AcDbLine
 10
38.5667230553963
 20
21.16206659279169
 30
0.0
 11
38.56397795041845
 21
21.16530012720253
 31
0.0
  0
LWPOLYLINE
  5
1CD
330
2
100
AcDbEntity
  8
0
100
AcDbPolyline
 90
        9
 70
   128
 43
0.0
 10
38.57932406892
 20
21.19579397445932
 10
38.57319835358386
 20
21.19289816470639
 10
38.56808657367521
 20
21.18954652019198
 10
38.5641230249751
 20
21.18582636625537
 10
38.56141123211573
 20
21.18183538166979
 10
38.56002225105201
 20
21.17767793360562
 10
38.55999242603277
 20
21.17346293607412
 10
38.56132265089698
 20
21.16930064854268
 10
38.56397795041845
 20
21.16530012720253
  0
ARC
  5
1CE
330
2
100
AcDbEntity
  8
0
100
AcDbCircle
 10
40.25667777243631
 20
17.01447318455708
 30
0.0
 40
4.505214644703652
100
AcDbArc
 50
110.2860720300001
 51
111.8583879089995
  0
ARC
  5
1CF
330
2
100
AcDbEntity
  8
0
100
AcDbCircle
 10
38.72527301709081
 20
21.15485594673449
 30
0.0
 40
0.0907012605813216
100
AcDbArc
 50
64.12928135240004
 51
109.7084987503997
  0
LINE
  5
1D0
330
2
100
AcDbEntity
  8
0
100
AcDbLine
 10
38.69468538616971
 20
23.13526771212891
 30
0.0
 11
38.69468538616971
 21
21.2402439757904
 31
0.0
  0
ARC
  5
1D1
330
2
100
AcDbEntity
  8
0
100
AcDbCircle
 10
38.72471484065453
 20
23.06067469325872
 30
0.0
 40
0.0804107368569442
100
AcDbArc
 50
52.53856493000095
 51
111.9285955135007
  0
LINE
  5
1D2
330
2
100
AcDbEntity
  8
0
100
AcDbLine
 10
43.07309519211022
 20
21.24024391169045
 30
0.0
 11
43.07309519211022
 21
23.13526764802897
 31
0.0
  0
ARC
  5
1D3
330
2
100
AcDbEntity
  8
0
100
AcDbCircle
 10
41.51185228029094
 20
18.91143532070447
 30
0.0
 40
4.503136569005397
100
AcDbArc
 50
68.14127817270049
 51
69.71432121249977
  0
ARC
  5
1D4
330
2
100
AcDbEntity
  8
0
100
AcDbCircle
 10
43.04306578456718
 20
23.06067513732143
 30
0.0
 40
0.0804102479247281
100
AcDbArc
 50
68.07130029739941
 51
127.4614317778999
  0
ARC
  5
1D5
330
2
100
AcDbEntity
  8
0
100
AcDbCircle
 10
40.25667777243631
 20
18.90949692093034
 30
0.0
 40
4.505214644671337
100
AcDbArc
 50
110.2860720300001
 51
111.8583879089995
  0
ARC
  5
1D6
330
2
100
AcDbEntity
  8
0
100
AcDbCircle
 10
43.1828783201275
 20
23.06596174110521
 30
0.0
 40
0.0254741940824495
100
AcDbArc
 50
10.26753430049977
 51
77.35090236699964
  0
ARC
  5
1D7
330
2
100
AcDbEntity
  8
0
100
AcDbCircle
 10
38.58490289543537
 20
23.06596156073622
 30
0.0
 40
0.0254745265323592
100
AcDbArc
 50
102.6500864575996
 51
169.7323381997005
  0
LINE
  5
1D8
330
2
100
AcDbEntity
  8
0
100
AcDbLine
 10
38.16182970596099
 20
22.89469566549351
 30
0.0
 11
38.16182970596099
 21
20.99967192915502
 31
0.0
  0
ARC
  5
1D9
330
2
100
AcDbEntity
  8
0
100
AcDbCircle
 10
38.19927763927662
 20
22.82298723312121
 30
0.0
 40
0.0808977563546094
100
AcDbArc
 50
52.69404010780045
 51
117.5746872770007
  0
LINE
  5
1DA
330
2
100
AcDbEntity
  8
0
100
AcDbLine
 10
43.6059511139224
 20
20.99967197528058
 30
0.0
 11
43.6059511139224
 21
22.89469571161909
 31
0.0
  0
ARC
  5
1DB
330
2
100
AcDbEntity
  8
0
100
AcDbCircle
 10
43.56850317463266
 20
22.82298703491676
 30
0.0
 40
0.0808979756907393
100
AcDbArc
 50
62.42538909279987
 51
127.3058783525995
  0
ARC
  5
1DC
330
2
100
AcDbEntity
  8
0
100
AcDbCircle
 10
42.06921053501824
 20
20.09377277907338
 30
0.0
 40
3.194799036072561
100
AcDbArc
 50
58.97977987579977
 51
61.24840191310026
  0
ARC
  5
1DD
330
2
100
AcDbEntity
  8
0
100
AcDbCircle
 10
39.69844822102313
 20
20.09398207801805
 30
0.0
 40
3.194556786154391
100
AcDbArc
 50
118.7514847842005
 51
121.0202785846995
  0
LINE
  5
1DE
330
2
100
AcDbEntity
  8
0
100
AcDbLine
 10
43.20921194838276
 20
22.52186915045292
 30
0.0
 11
43.5194733377062
 21
22.88733419927787
 31
0.0
  0
LINE
  5
1DF
330
2
100
AcDbEntity
  8
0
100
AcDbLine
 10
38.24830743485334
 20
22.88733415325651
 30
0.0
 11
38.55983622538689
 21
22.52037622002333
 31
0.0
  0
ARC
  5
1E0
330
2
100
AcDbEntity
  8
0
100
AcDbCircle
 10
43.70727600290821
 20
22.81297159525473
 30
0.0
 40
0.0204749182077988
100
AcDbArc
 50
5.74482445149947
 51
65.95065761099968
  0
ARC
  5
1E1
330
2
100
AcDbEntity
  8
0
100
AcDbCircle
 10
38.06050465900903
 20
22.81297174698629
 30
0.0
 40
0.0204747350521423
100
AcDbArc
 50
114.0491360119995
 51
174.2555263080995
  0
ARC
  5
1E2
330
2
100
AcDbEntity
  8
0
100
AcDbCircle
 10
43.86929078095511
 20
22.8564637714596
 30
0.0
 40
0.2154551598491462
100
AcDbArc
 50
228.8972422392004
 51
274.7279870245994
  0
ARC
  5
1E3
330
2
100
AcDbEntity
  8
0
100
AcDbCircle
 10
37.89848968873177
 20
22.85646516581997
 30
0.0
 40
0.2154565090865392
100
AcDbArc
 50
265.2721100087002
 51
311.1025872481004
  0
LINE
  5
1E4
330
2
100
AcDbEntity
  8
0
100
AcDbLine
 10
43.9634860296914
 20
20.74671798049337
 30
0.0
 11
43.9634860296914
 21
22.64174171683189
 31
0.0
  0
LINE
  5
1E5
330
2
100
AcDbEntity
  8
0
100
AcDbLine
 10
43.9634860296914
 20
22.64174171683189
 30
0.0
 11
43.88704974188683
 21
22.64174175298904
 31
0.0
  0
LINE
  5
1E6
330
2
100
AcDbEntity
  8
0
100
AcDbLine
 10
37.80429470254299
 20
22.64174180003502
 30
0.0
 11
37.80429470254299
 21
20.74671806369653
 31
0.0
  0
LINE
  5
1E7
330
2
100
AcDbEntity
  8
0
100
AcDbLine
 10
37.88073098022286
 20
22.64174177264798
 30
0.0
 11
37.80429470254299
 21
22.64174180003502
 31
0.0
  0
ARC
  5
1E8
330
2
100
AcDbEntity
  8
0
100
AcDbCircle
 10
43.96686453107313
 20
22.56811528670101
 30
0.0
 40
0.0737039041518401
100
AcDbArc
 50
56.36347156789985
 51
92.62729262820073
  0
ARC
  5
1E9
330
2
100
AcDbEntity
  8
0
100
AcDbCircle
 10
37.80091722552728
 20
22.56811162006638
 30
0.0
 40
0.0737076030964962
100
AcDbArc
 50
87.37363643680053
 51
123.6356296031004
  0
ARC
  5
1EA
330
2
100
AcDbEntity
  8
0
100
AcDbCircle
 10
42.67658795242911
 20
20.96555770932053
 30
0.0
 40
2.13083743879655
100
AcDbArc
 50
46.87230379780031
 51
51.34090690390038
  0
ARC
  5
1EB
330
2
100
AcDbEntity
  8
0
100
AcDbCircle
 10
39.09123191162862
 20
20.96551490313446
 30
0.0
 40
2.130895390629562
100
AcDbArc
 50
128.6591961216007
 51
133.1276753728004
  0
LINE
  5
1EC
330
2
100
AcDbEntity
  8
0
100
AcDbLine
 10
42.38414716044463
 20
22.43922057898092
 30
0.0
 11
42.42155670753505
 21
22.45001978501218
 31
0.0
  0
ARC
  5
1ED
330
2
100
AcDbEntity
  8
0
100
AcDbCircle
 10
44.12240812793385
 20
22.50762595943809
 30
0.0
 40
0.0170154424494858
100
AcDbArc
 50
2.820147817199441
 51
50.26427459589965
  0
ARC
  5
1EE
330
2
100
AcDbEntity
  8
0
100
AcDbCircle
 10
37.6453727329867
 20
22.507625939866
 30
0.0
 40
0.0170155029835477
100
AcDbArc
 50
129.7357700634
 51
177.1798319455001
  0
LWPOLYLINE
  5
1EF
330
2
100
AcDbEntity
  8
0
100
AcDbPolyline
 90
        3
 70
   128
 43
0.0
 10
44.13940272411177
 20
22.34983593802123
 10
44.14039176813133
 20
22.349462352252
 10
44.17120908994006
 20
22.34022665848109
  0
LWPOLYLINE
  5
1F0
330
2
100
AcDbEntity
  8
0
100
AcDbPolyline
 90
        3
 70
   128
 43
0.0
 10
37.59657170898189
 20
22.34022668991454
 10
37.62738914098139
 20
22.34946225854207
 10
37.62837786901657
 20
22.34983601705639
  0
LINE
  5
1F1
330
2
100
AcDbEntity
  8
0
100
AcDbLine
 10
44.31060081875946
 20
22.30772696964809
 30
0.0
 11
44.17120908994006
 21
22.34022665848109
 31
0.0
  0
LINE
  5
1F2
330
2
100
AcDbEntity
  8
0
100
AcDbLine
 10
37.59657170898189
 20
22.34022668991454
 30
0.0
 11
37.45717993193559
 21
22.30772707016569
 31
0.0
  0
LINE
  5
1F3
330
2
100
AcDbEntity
  8
0
100
AcDbLine
 10
44.33745380856719
 20
22.29314531641794
 30
0.0
 11
44.33745380856719
 21
20.39812158007943
 31
0.0
  0
ARC
  5
1F4
330
2
100
AcDbEntity
  8
0
100
AcDbCircle
 10
44.30304266412903
 20
22.26179165114021
 30
0.0
 40
0.0465529718509016
100
AcDbArc
 50
42.33817215670028
 51
80.65632615860065
  0
LINE
  5
1F5
330
2
100
AcDbEntity
  8
0
100
AcDbLine
 10
37.43032695869554
 20
20.398121560681
 30
0.0
 11
37.43032695869554
 21
22.2931452970195
 31
0.0
  0
ARC
  5
1F6
330
2
100
AcDbEntity
  8
0
100
AcDbCircle
 10
37.46473904031962
 20
22.2617902922076
 30
0.0
 40
0.046554566778383
100
AcDbArc
 50
99.34454044340009
 51
137.6613860672994
  0
ARC
  5
1F7
330
2
100
AcDbEntity
  8
0
100
AcDbCircle
 10
43.21854723303626
 20
21.46546904247384
 30
0.0
 40
1.391761451973926
100
AcDbArc
 50
32.54306775799975
 51
36.49103051320062
  0
ARC
  5
1F8
330
2
100
AcDbEntity
  8
0
100
AcDbCircle
 10
38.54923528699771
 20
21.46546812942743
 30
0.0
 40
1.391763392570527
100
AcDbArc
 50
143.5089828219
 51
147.4569361359998
  0
LINE
  5
1F9
330
2
100
AcDbEntity
  8
0
100
AcDbLine
 10
37.29019406898778
 20
21.95719465435295
 30
0.0
 11
37.3735365799423
 21
21.96231118640986
 31
0.0
  0
LINE
  5
1FA
330
2
100
AcDbEntity
  8
0
100
AcDbLine
 10
44.39424407907472
 20
21.96231123916945
 30
0.0
 11
44.47758688192624
 21
21.95719464012976
 31
0.0
  0
LWPOLYLINE
  5
1FB
330
2
100
AcDbEntity
  8
0
100
AcDbPolyline
 90
        3
 70
   128
 43
0.0
 10
37.37599632515422
 20
22.21414408024006
 10
37.37362525035564
 20
22.20775279501739
 10
37.37353665923797
 20
22.20623445100244
  0
LWPOLYLINE
  5
1FC
330
2
100
AcDbEntity
  8
0
100
AcDbPolyline
 90
        3
 70
   128
 43
0.0
 10
44.39424401830917
 20
22.20623446335005
 10
44.39415558779734
 20
22.20775278437169
 10
44.39178450808404
 20
22.21414402913029
  0
ARC
  5
1FD
330
2
100
AcDbEntity
  8
0
100
AcDbCircle
 10
44.48168133570993
 20
21.9081464528373
 30
0.0
 40
0.049218789395717
100
AcDbArc
 50
33.48677007070018
 51
94.77188389480067
  0
ARC
  5
1FE
330
2
100
AcDbEntity
  8
0
100
AcDbCircle
 10
37.28609946295154
 20
21.90814640551344
 30
0.0
 40
0.0492188633863267
100
AcDbArc
 50
85.22794543950082
 51
146.5132859491003
  0
ARC
  5
1FF
330
2
100
AcDbEntity
  8
0
100
AcDbCircle
 10
43.5724497579492
 20
21.64241372135771
 30
0.0
 40
0.9943929457864882
100
AcDbArc
 50
12.82391336940003
 51
17.12998148240029
  0
ARC
  5
200
330
2
100
AcDbEntity
  8
0
100
AcDbCircle
 10
38.19545269352273
 20
21.64238055228751
 30
0.0
 40
0.9945190422127231
100
AcDbArc
 50
162.8702607490993
 51
167.1757804916
  0
LINE
  5
201
330
2
100
AcDbEntity
  8
0
100
AcDbLine
 10
37.22574131580629
 20
21.86312467850204
 30
0.0
 11
37.22540801725702
 21
21.86018243307546
 31
0.0
  0
LINE
  5
202
330
2
100
AcDbEntity
  8
0
100
AcDbLine
 10
44.54237278600658
 20
21.86018244288756
 30
0.0
 11
44.54203936392903
 21
21.86312467850204
 31
0.0
  0
SPLINE
  5
203
330
2
100
AcDbEntity
  8
0
100
AcDbSpline
210
0.0
220
0.0
230
1.0
 70
     8
 71
     3
 72
    19
 73
    15
 74
     0
 42
0.000000001
 43
0.0000000001
 40
0.0
 40
0.0
 40
0.0
 40
0.0
 40
0.1197214644958725
 40
0.1848199885052801
 40
0.2500000177051748
 40
0.3150984536400753
 40
0.3802785877584485
 40
0.5000000274149099
 40
0.6197214670713715
 40
0.6848200214023982
 40
0.7499999621209592
 40
0.8150984691909812
 40
0.8802785089566572
 40
1.0
 40
1.0
 40
1.0
 40
1.0
 10
41.87812543861314
 20
14.46990365685369
 30
0.0
 10
41.83841064821392
 20
14.45419706771636
 30
0.0
 10
41.77710094793609
 20
14.42995002366252
 30
0.0
 10
41.70347368596146
 20
14.3693755492607
 30
0.0
 10
41.65329576777799
 20
14.31408637381709
 30
0.0
 10
41.61220672150045
 20
14.25196317806483
 30
0.0
 10
41.57412744908599
 20
14.1673680244729
 30
0.0
 10
41.55462226603268
 20
14.06067908488312
 30
0.0
 10
41.57412219314391
 20
13.96527633966327
 30
0.0
 10
41.61219181239845
 20
13.90266053802003
 30
0.0
 10
41.65325783433593
 20
13.86426759191395
 30
0.0
 10
41.70345000467286
 20
13.83792977660009
 30
0.0
 10
41.77707429454416
 20
13.81985216833226
 30
0.0
 10
41.83841079864268
 20
13.83100655905975
 30
0.0
 10
41.87812543861314
 20
13.83822889131267
 30
0.0
  0
LINE
  5
204
330
2
100
AcDbEntity
  8
0
100
AcDbLine
 10
42.04597395547067
 20
13.59624960451597
 30
0.0
 11
42.38437111566415
 21
13.88931021141057
 31
0.0
  0
ARC
  5
205
330
2
100
AcDbEntity
  8
0
100
AcDbCircle
 10
42.31761414016959
 20
13.9696391932386
 30
0.0
 40
0.104447302972268
100
AcDbArc
 50
309.7280966851005
 51
357.6129026671988
  0
ARC
  5
206
330
2
100
AcDbEntity
  8
0
100
AcDbCircle
 10
41.98790695103806
 20
13.65629637576008
 30
0.0
 40
0.0835307831993029
100
AcDbArc
 50
258.1645021292997
 51
314.0397253747004
  0
LINE
  5
207
330
2
100
AcDbEntity
  8
0
100
AcDbLine
 10
41.63237742052173
 20
13.67222833024718
 30
0.0
 11
41.97077458071521
 21
13.57454141489047
 31
0.0
  0
ARC
  5
208
330
2
100
AcDbEntity
  8
0
100
AcDbCircle
 10
41.646099025381
 20
13.72085188190839
 30
0.0
 40
0.0505225911410557
100
AcDbArc
 50
229.2676940188004
 51
254.2408915327998
  0
LINE
  5
209
330
2
100
AcDbEntity
  8
0
100
AcDbLine
 10
41.59477772876762
 20
13.8083859747439
 30
0.0
 11
41.59477772876762
 21
13.76943328354753
 31
0.0
  0
LINE
  5
20A
330
2
100
AcDbEntity
  8
0
100
AcDbLine
 10
43.13650949499788
 20
12.73761204445006
 30
0.0
 11
43.12614949014987
 21
12.74658407182997
 31
0.0
  0
ARC
  5
20B
330
2
100
AcDbEntity
  8
0
100
AcDbCircle
 10
42.03878334372706
 20
14.80539451869029
 30
0.0
 40
2.328713975302382
100
AcDbArc
 50
296.4119154327998
 51
310.9050005205002
  0
ARC
  5
20C
330
2
100
AcDbEntity
  8
0
100
AcDbCircle
 10
40.88362109173697
 20
18.00032827411427
 30
0.0
 40
5.742568205521267
100
AcDbArc
 50
254.0347262003011
 51
277.7109395277
  0
ARC
  5
20D
330
2
100
AcDbEntity
  8
0
100
AcDbCircle
 10
40.86158589346644
 20
17.39379005989904
 30
0.0
 40
5.041668384813483
100
AcDbArc
 50
249.2050246061003
 51
277.1314403322991
  0
LINE
  5
20E
330
2
100
AcDbEntity
  8
0
100
AcDbLine
 10
43.01691313049894
 20
12.83263098051497
 30
0.0
 11
41.48748879459993
 21
12.39112420450595
 31
0.0
  0
LWPOLYLINE
  5
20F
330
2
100
AcDbEntity
  8
0
100
AcDbPolyline
 90
        3
 70
   128
 43
0.0
 10
43.44769596926168
 20
13.1457724349895
 10
43.2649122755227
 20
12.99071448695119
 10
43.01691313049894
 20
12.83263098051497
  0
LINE
  5
210
330
2
100
AcDbEntity
  8
0
100
AcDbLine
 10
43.01691313049894
 20
12.83263098051497
 30
0.0
 11
43.01050301795534
 21
13.27275236179198
 31
0.0
  0
ARC
  5
211
330
2
100
AcDbEntity
  8
0
100
AcDbCircle
 10
41.88519746963749
 20
15.31327288237716
 30
0.0
 40
2.330243886813053
100
AcDbArc
 50
298.875841642999
 51
303.7889533248996
  0
LWPOLYLINE
  5
212
330
2
100
AcDbEntity
  8
0
100
AcDbPolyline
 90
       10
 70
   128
 43
0.0
 10
40.80272421990922
 20
12.80086004245047
 10
40.41555085030661
 20
12.81955124954138
 10
40.03700759970233
 20
12.86428807229411
 10
39.67406935718185
 20
12.93424598799688
 10
39.33342419688665
 20
13.02813608090538
 10
39.02134879114234
 20
13.14422818654098
 10
38.74359383338894
 20
13.28038315874232
 10
38.50527699274088
 20
13.43409203811461
 10
38.31079013674918
 20
13.60252259610534
 10
38.23677826194351
 20
13.68444170759366
  0
ARC
  5
213
330
2
100
AcDbEntity
  8
0
100
AcDbCircle
 10
40.88493426146729
 20
18.45993921269036
 30
0.0
 40
5.659676275717265
100
AcDbArc
 50
269.1677166962001
 51
276.0742590452006
  0
LINE
  5
214
330
2
100
AcDbEntity
  8
0
100
AcDbLine
 10
41.48382615006602
 20
12.83203871147271
 30
0.0
 11
41.48748879459993
 21
12.39112420450595
 31
0.0
  0
ARC
  5
215
330
2
100
AcDbEntity
  8
0
100
AcDbCircle
 10
40.88314673485433
 20
20.0898694090496
 30
0.0
 40
5.756082076935416
100
AcDbArc
 50
266.4311750255003
 51
269.2788551569995
  0
LINE
  5
216
330
2
100
AcDbEntity
  8
0
100
AcDbLine
 10
40.81070057310252
 20
14.33424325457907
 30
0.0
 11
40.80272421990922
 21
12.80086004245047
 31
0.0
  0
LINE
  5
217
330
2
100
AcDbEntity
  8
0
100
AcDbLine
 10
40.80272421990922
 20
12.80086004245047
 30
0.0
 11
43.08515586565266
 21
13.45974130499169
 31
0.0
  0
LINE
  5
218
330
2
100
AcDbEntity
  8
0
100
AcDbLine
 10
40.81070057310252
 20
14.33424325457907
 30
0.0
 11
41.6951856787848
 21
14.58957211151436
 31
0.0
  0
LINE
  5
219
330
2
100
AcDbEntity
  8
0
100
AcDbLine
 10
41.68441612164126
 20
13.56124232685639
 30
0.0
 11
41.68503458854232
 21
13.62029782574407
 31
0.0
  0
LINE
  5
21A
330
2
100
AcDbEntity
  8
0
100
AcDbLine
 10
41.6931489730097
 20
14.39510317399991
 30
0.0
 11
41.6951856787848
 21
14.58957211151436
 31
0.0
  0
LINE
  5
21B
330
2
100
AcDbEntity
  8
0
100
AcDbLine
 10
42.10657693744852
 20
13.44071565024158
 30
0.0
 11
41.68441612164126
 21
13.56124232685639
 31
0.0
  0
LINE
  5
21C
330
2
100
AcDbEntity
  8
0
100
AcDbLine
 10
42.53368097034774
 20
13.80640397136379
 30
0.0
 11
42.10657693744852
 21
13.44071565024158
 31
0.0
  0
LINE
  5
21D
330
2
100
AcDbEntity
  8
0
100
AcDbLine
 10
42.53496091838722
 20
13.93622414370913
 30
0.0
 11
42.53368097034774
 21
13.80640397136379
 31
0.0
  0
LINE
  5
21E
330
2
100
AcDbEntity
  8
0
100
AcDbLine
 10
43.01050301795534
 20
13.27275236179198
 30
0.0
 11
41.48382615006602
 21
12.83203871147271
 31
0.0
  0
LINE
  5
21F
330
2
100
AcDbEntity
  8
0
100
AcDbLine
 10
41.80434340033149
 20
14.49873763275504
 30
0.0
 11
41.86515566017102
 21
14.51629262003862
 31
0.0
  0
LINE
  5
220
330
2
100
AcDbEntity
  8
0
100
AcDbLine
 10
41.80434340033149
 20
14.49873763275504
 30
0.0
 11
41.6951856787848
 21
14.58957211151436
 31
0.0
  0
LINE
  5
221
330
2
100
AcDbEntity
  8
0
100
AcDbLine
 10
34.72983181479432
 20
13.08730744792701
 30
0.0
 11
34.78489379142654
 21
13.10560662852451
 31
0.0
  0
LINE
  5
222
330
2
100
AcDbEntity
  8
0
100
AcDbLine
 10
34.83611169400425
 20
13.06125017538468
 30
0.0
 11
34.73319516948715
 21
13.02821295684307
 31
0.0
  0
ARC
  5
223
330
2
100
AcDbEntity
  8
0
100
AcDbCircle
 10
34.80094291151999
 20
12.83650741102404
 30
0.0
 40
0.2033243046201121
100
AcDbArc
 50
109.4631430170008
 51
129.6702721055002
  0
ARC
  5
224
330
2
100
AcDbEntity
  8
0
100
AcDbCircle
 10
36.75550711714428
 20
10.44259582899684
 30
0.0
 40
3.293809573285991
100
AcDbArc
 50
129.2578438597001
 51
157.2370184844009
  0
LINE
  5
225
330
2
100
AcDbEntity
  8
0
100
AcDbLine
 10
33.71824140041433
 20
11.71703628310136
 30
0.0
 11
32.12021146418999
 21
7.847454619269376
 31
0.0
  0
ARC
  5
226
330
2
100
AcDbEntity
  8
0
100
AcDbCircle
 10
31.93264402490797
 20
7.925980125686686
 30
0.0
 40
0.2033415831389285
100
AcDbArc
 50
314.4574439226007
 51
337.2832733624009
  0
LINE
  5
227
330
2
100
AcDbEntity
  8
0
100
AcDbLine
 10
31.8703914730019
 20
7.579087201964791
 30
0.0
 11
32.07506026235201
 21
7.780840831403635
 31
0.0
  0
LINE
  5
228
330
2
100
AcDbEntity
  8
0
100
AcDbLine
 10
32.04065801267913
 20
7.820261930938944
 30
0.0
 11
31.83598866304936
 21
7.618508139765419
 31
0.0
  0
ARC
  5
229
330
2
100
AcDbEntity
  8
0
100
AcDbCircle
 10
31.96153880732725
 20
7.900893510345543
 30
0.0
 40
0.1129659251799405
100
AcDbArc
 50
314.4575922569006
 51
337.2836114571999
  0
LINE
  5
22A
330
2
100
AcDbEntity
  8
0
100
AcDbLine
 10
33.66377219893776
 20
11.72685140050203
 30
0.0
 11
32.06574170243375
 21
7.857269469885107
 31
0.0
  0
ARC
  5
22B
330
2
100
AcDbEntity
  8
0
100
AcDbCircle
 10
36.78482423249434
 20
10.41725484026239
 30
0.0
 40
3.384672649861501
100
AcDbArc
 50
129.2578552948998
 51
157.2370299748995
  0
ARC
  5
22C
330
2
100
AcDbEntity
  8
0
100
AcDbCircle
 10
34.82468236028396
 20
12.81891252728525
 30
0.0
 40
0.2846620090800889
100
AcDbArc
 50
109.4633664916
 51
129.6699088455999
  0
LINE
  5
22D
330
2
100
AcDbEntity
  8
0
100
AcDbLine
 10
34.41290342820914
 20
11.11544131998175
 30
0.0
 11
32.81487349196742
 21
7.245859656167155
 31
0.0
  0
ARC
  5
22E
330
2
100
AcDbEntity
  8
0
100
AcDbCircle
 10
32.432206596283
 20
7.079891822081789
 30
0.0
 40
0.1677318535089093
100
AcDbArc
 50
242.5321179818002
 51
322.3746426558988
  0
LINE
  5
22F
330
2
100
AcDbEntity
  8
0
100
AcDbLine
 10
31.83384352752927
 20
7.38226468971669
 30
0.0
 11
32.35484005846533
 21
6.931068458619906
 31
0.0
  0
LWPOLYLINE
  5
230
330
2
100
AcDbEntity
  8
0
100
AcDbPolyline
 90
        9
 70
   128
 43
0.0
 10
31.83384352752927
 20
7.38226468971669
 10
31.81927438908721
 20
7.399272667864044
 10
31.81000602398885
 20
7.420300330367936
 10
31.80639546717676
 20
7.444540524453891
 10
31.80858092161076
 20
7.471061365343288
 10
31.81647866978309
 20
7.498843793833586
 10
31.82978539465372
 20
7.526819925046497
 10
31.84798926313944
 20
7.553914673740711
 10
31.8703914730019
 20
7.579087201964791
  0
LINE
  5
231
330
2
100
AcDbEntity
  8
0
100
AcDbLine
 10
32.76972229014681
 20
7.179245868301403
 30
0.0
 11
32.56505350079671
 21
6.977492238862559
 31
0.0
  0
LWPOLYLINE
  5
232
330
2
100
AcDbEntity
  8
0
100
AcDbPolyline
 90
        9
 70
   128
 43
0.0
 10
31.83598866304936
 20
7.618508139765419
 10
31.81358701344919
 20
7.593335773276029
 10
31.79538314498086
 20
7.566241024581806
 10
31.78207642011023
 20
7.538264893368895
 10
31.77417867193789
 20
7.510482464878597
 10
31.77199265722422
 20
7.48396146225451
 10
31.77560377431599
 20
7.459721429903256
 10
31.78487157913469
 20
7.4386936056473
 10
31.79197556047895
 20
7.429120567337573
  0
ARC
  5
233
330
2
100
AcDbEntity
  8
0
100
AcDbCircle
 10
32.62730605270277
 20
7.324385162584457
 30
0.0
 40
0.2033415831386548
100
AcDbArc
 50
314.4574439226007
 51
337.2832733624009
  0
LINE
  5
234
330
2
100
AcDbEntity
  8
0
100
AcDbLine
 10
35.53077372179905
 20
12.45965521228245
 30
0.0
 11
35.42785719726459
 21
12.42661799372347
 31
0.0
  0
ARC
  5
235
330
2
100
AcDbEntity
  8
0
100
AcDbCircle
 10
37.45016914493909
 20
9.841000865877242
 30
0.0
 40
3.293809573285631
100
AcDbArc
 50
129.2578438597001
 51
157.2370184844009
  0
ARC
  5
236
330
2
100
AcDbEntity
  8
0
100
AcDbCircle
 10
35.49560493929742
 20
12.23491244790444
 30
0.0
 40
0.2033243046200046
100
AcDbArc
 50
109.4631430170008
 51
129.6702721055996
  0
ARC
  5
237
330
2
100
AcDbEntity
  8
0
100
AcDbCircle
 10
48.86475175860823
 20
11.77702168288235
 30
0.0
 40
0.8812903850048186
100
AcDbArc
 50
51.15866207240062
 51
67.13030029979977
  0
ARC
  5
238
330
2
100
AcDbEntity
  8
0
100
AcDbCircle
 10
48.89914069744504
 20
11.8362852243142
 30
0.0
 40
0.8813140820108483
100
AcDbArc
 50
51.15879153990031
 51
67.12997138529947
  0
LINE
  5
239
330
2
100
AcDbEntity
  8
0
100
AcDbLine
 10
49.90191564558585
 20
11.9874397676998
 30
0.0
 11
49.69724685623575
 21
12.07102781650229
 31
0.0
  0
LINE
  5
23A
330
2
100
AcDbEntity
  8
0
100
AcDbLine
 10
49.00258478801161
 20
12.67262281463285
 30
0.0
 11
49.20725357736174
 21
12.58903476581301
 31
0.0
  0
LINE
  5
23B
330
2
100
AcDbEntity
  8
0
100
AcDbLine
 10
49.93846359107585
 20
12.01224991098951
 30
0.0
 11
49.41746706012239
 21
12.46344614208628
 31
0.0
  0
LWPOLYLINE
  5
23C
330
2
100
AcDbEntity
  8
0
100
AcDbPolyline
 90
        9
 70
   128
 43
0.0
 10
49.93846359107585
 20
12.01224991098951
 10
49.95303270928586
 20
11.99854759632185
 10
49.9623010945989
 20
11.9873079900165
 10
49.965911651411
 20
11.97896347075507
 10
49.96372617676232
 20
11.97383465894896
 10
49.95582844880466
 20
11.97211863202369
 10
49.94252170371936
 20
11.97388100579269
 10
49.92431785544834
 20
11.97905438664609
 10
49.90191564558585
 20
11.9874397676998
  0
ARC
  5
23D
330
2
100
AcDbEntity
  8
0
100
AcDbCircle
 10
49.03611753538011
 20
12.75537721309012
 30
0.0
 40
0.0892901764433812
100
AcDbArc
 50
208.2105783769004
 51
247.9418132485008
  0
LINE
  5
23E
330
2
100
AcDbEntity
  8
0
100
AcDbLine
 10
47.35940364994929
 20
15.66012719393502
 30
0.0
 11
48.95743358617364
 21
12.71316854397358
 31
0.0
  0
ARC
  5
23F
330
2
100
AcDbEntity
  8
0
100
AcDbCircle
 10
46.08104687421205
 20
14.97023513063045
 30
0.0
 40
1.45263453940304
100
AcDbArc
 50
28.35444918020099
 51
77.05345112440054
  0
ARC
  5
240
330
2
100
AcDbEntity
  8
0
100
AcDbCircle
 10
46.37678928512811
 20
16.25461375446437
 30
0.0
 40
0.1346475735827045
100
AcDbArc
 50
77.25335200830087
 51
103.8970547685997
  0
ARC
  5
241
330
2
100
AcDbEntity
  8
0
100
AcDbCircle
 10
47.09406086670795
 20
13.47802362445705
 30
0.0
 40
3.00238056449445
100
AcDbArc
 50
104.4581160185999
 51
139.7209941823996
  0
ARC
  5
242
330
2
100
AcDbEntity
  8
0
100
AcDbCircle
 10
47.11812356045543
 20
13.45880926323682
 30
0.0
 40
3.085257794147302
100
AcDbArc
 50
104.4582540652995
 51
139.7272987623005
  0
ARC
  5
243
330
2
100
AcDbEntity
  8
0
100
AcDbCircle
 10
46.39308875631328
 20
16.26336175780113
 30
0.0
 40
0.1885123271298887
100
AcDbArc
 50
77.2538561300997
 51
103.8967354019999
  0
ARC
  5
244
330
2
100
AcDbEntity
  8
0
100
AcDbCircle
 10
46.10025105932812
 20
14.99246715482411
 30
0.0
 40
1.492706931219115
100
AcDbArc
 50
28.35442874879959
 51
77.05343103349965
  0
LINE
  5
245
330
2
100
AcDbEntity
  8
0
100
AcDbLine
 10
49.01190334794723
 20
12.75443152619308
 30
0.0
 11
47.41387285142585
 21
15.70139011948747
 31
0.0
  0
ARC
  5
246
330
2
100
AcDbEntity
  8
0
100
AcDbCircle
 10
49.0556163327089
 20
12.77788005280647
 30
0.0
 40
0.0496050243078341
100
AcDbArc
 50
208.2100061706986
 51
247.9415300435005
  0
LINE
  5
247
330
2
100
AcDbEntity
  8
0
100
AcDbLine
 10
49.24165638731426
 20
12.64831817520426
 30
0.0
 11
49.03698703768448
 21
12.73190606228941
 31
0.0
  0
LINE
  5
248
330
2
100
AcDbEntity
  8
0
100
AcDbLine
 10
49.97286584074871
 20
12.07153315864607
 30
0.0
 11
49.45186930979527
 21
12.52272938972549
 31
0.0
  0
ARC
  5
249
330
2
100
AcDbEntity
  8
0
100
AcDbCircle
 10
49.73097134901237
 20
12.15416733538349
 30
0.0
 40
0.0897191228917777
100
AcDbArc
 50
229.1862175648993
 51
247.9206885700009
  0
LINE
  5
24A
330
2
100
AcDbEntity
  8
0
100
AcDbLine
 10
48.10853491964999
 20
15.0997951213569
 30
0.0
 11
49.55390116107542
 21
12.4343672380358
 31
0.0
  0
LWPOLYLINE
  5
24B
330
2
100
AcDbEntity
  8
0
100
AcDbPolyline
 90
        5
 70
   128
 43
0.0
 10
49.99969140674072
 20
12.03475686822823
 10
50.00031446136354
 20
12.03824688014633
 10
49.99670334427179
 20
12.0465912376557
 10
49.98743551923841
 20
12.05783100571311
 10
49.97286584074871
 20
12.07153315864607
  0
ARC
  5
24C
330
2
100
AcDbEntity
  8
0
100
AcDbCircle
 10
46.79596268761075
 20
14.39381452253978
 30
0.0
 40
1.490387355771833
100
AcDbArc
 50
28.27404716440025
 51
49.01044819340007
  0
LWPOLYLINE
  5
24D
330
2
100
AcDbEntity
  8
0
100
AcDbPolyline
 90
        3
 70
   128
 43
0.0
 10
47.10116004429057
 20
15.78434797149941
 10
47.25296931366045
 20
15.73966188175595
 10
47.33120106707517
 20
15.70989486713209
  0
ARC
  5
24E
330
2
100
AcDbEntity
  8
0
100
AcDbCircle
 10
47.78872293493207
 20
12.87642862632648
 30
0.0
 40
3.002380564494428
100
AcDbArc
 50
104.4581160185999
 51
139.7209941823996
  0
ARC
  5
24F
330
2
100
AcDbEntity
  8
0
100
AcDbCircle
 10
43.23410229785467
 20
16.72601939598057
 30
0.0
 40
0.1090951196986667
100
AcDbArc
 50
65.76085212289914
 51
97.54775515739956
  0
LINE
  5
250
330
2
100
AcDbEntity
  8
0
100
AcDbLine
 10
43.99765648847857
 20
16.53019380367388
 30
0.0
 11
43.27889087952832
 21
16.8254966702263
 31
0.0
  0
ARC
  5
251
330
2
100
AcDbEntity
  8
0
100
AcDbCircle
 10
47.07145135335224
 20
15.65301875633381
 30
0.0
 40
0.1346475735827835
100
AcDbArc
 50
77.25335200830087
 51
103.8970547685997
  0
ARC
  5
252
330
2
100
AcDbEntity
  8
0
100
AcDbCircle
 10
43.96676533295243
 20
16.45133056942061
 30
0.0
 40
0.0846975395625378
100
AcDbArc
 50
50.25684417059945
 51
68.60945259779952
  0
LINE
  5
253
330
2
100
AcDbEntity
  8
0
100
AcDbLine
 10
44.02091646405246
 20
16.51645604990209
 30
0.0
 11
44.87087088707206
 21
15.78037392751533
 31
0.0
  0
ARC
  5
254
330
2
100
AcDbEntity
  8
0
100
AcDbCircle
 10
44.84492524341915
 20
15.74858460482063
 30
0.0
 40
0.0410333700925544
100
AcDbArc
 50
20.93784428470052
 51
50.77954373420068
  0
LINE
  5
255
330
2
100
AcDbEntity
  8
0
100
AcDbLine
 10
44.92965890517951
 20
15.62991499948438
 30
0.0
 11
44.88324912437401
 21
15.76324808357703
 31
0.0
  0
LINE
  5
256
330
2
100
AcDbEntity
  8
0
100
AcDbLine
 10
40.0384627665323
 20
11.84328299980451
 30
0.0
 11
37.99355139670119
 21
13.61422819455518
 31
0.0
  0
LINE
  5
257
330
2
100
AcDbEntity
  8
0
100
AcDbLine
 10
43.72337655070771
 20
12.90702598242925
 30
0.0
 11
40.0384627665323
 21
11.84328299980451
 31
0.0
  0
ELLIPSE
  5
258
330
2
100
AcDbEntity
  8
0
100
AcDbEllipse
 10
42.30514354461509
 20
15.84736879844662
 30
0.0
 11
0.0347338105995226
 21
0.0000035280341552
 31
0.0
210
0.0
220
0.0
230
1.0
 40
0.5001318975000001
 41
0.5236241120386321
 42
2.094115852337731
  0
LINE
  5
259
330
2
100
AcDbEntity
  8
0
100
AcDbLine
 10
43.84928414545766
 20
12.79798687847149
 30
0.0
 11
40.08931552973646
 21
11.71257743224259
 31
0.0
  0
LINE
  5
25A
330
2
100
AcDbEntity
  8
0
100
AcDbLine
 10
41.67846525301724
 20
14.67797118633208
 30
0.0
 11
43.84928414545766
 21
12.79798687847149
 31
0.0
  0
LINE
  5
25B
330
2
100
AcDbEntity
  8
0
100
AcDbLine
 10
37.91849663729604
 20
13.59256174012056
 30
0.0
 11
41.67846525301724
 21
14.67797118633208
 31
0.0
  0
LINE
  5
25C
330
2
100
AcDbEntity
  8
0
100
AcDbLine
 10
40.08931552973646
 20
11.71257743224259
 30
0.0
 11
37.91849663729604
 21
13.59256174012056
 31
0.0
  0
LINE
  5
25D
330
2
100
AcDbEntity
  8
0
100
AcDbLine
 10
46.21816908975009
 20
12.49332775616547
 30
0.0
 11
42.33522264635245
 21
15.85605801767585
 31
0.0
  0
ELLIPSE
  5
25E
330
2
100
AcDbEntity
  8
0
100
AcDbEllipse
 10
46.1880793697041
 20
12.48464773266387
 30
0.0
 11
0.0347429738803636
 21
-0.000003525863379
 31
0.0
210
0.0
220
0.0
230
1.0
 40
0.4998681179
 41
5.236266914535653
 42
6.806758654835883
  0
LINE
  5
25F
330
2
100
AcDbEntity
  8
0
100
AcDbLine
 10
39.47999728512442
 20
10.52813496010506
 30
0.0
 11
46.20545780816253
 21
12.46960818180388
 31
0.0
  0
ELLIPSE
  5
260
330
2
100
AcDbEntity
  8
0
100
AcDbEllipse
 10
39.4626372381386
 20
10.54317982012805
 30
0.0
 11
0.0347338105995226
 21
0.000003528034165
 31
0.0
210
0.0
220
0.0
230
1.0
 40
0.5001318975000001
 41
3.665216765627739
 42
5.235708505927003
  0
LINE
  5
261
330
2
100
AcDbEntity
  8
0
100
AcDbLine
 10
35.5496116930036
 20
13.89722086242658
 30
0.0
 11
39.43255813640124
 21
10.53449060089884
 31
0.0
  0
ELLIPSE
  5
262
330
2
100
AcDbEntity
  8
0
100
AcDbEllipse
 10
35.5797014130496
 20
13.90590088591081
 30
0.0
 11
0.0347429738803538
 21
-0.000003525863379
 31
0.0
210
0.0
220
0.0
230
1.0
 40
0.4998681178999999
 41
2.09467426094597
 42
3.665166001246236
  0
LINE
  5
263
330
2
100
AcDbEntity
  8
0
100
AcDbLine
 10
42.28778349762928
 20
15.86241365846961
 30
0.0
 11
35.56232297459117
 21
13.9209404367708
 31
0.0
  0
LINE
  5
264
330
2
100
AcDbEntity
  8
0
100
AcDbLine
 10
40.08931552973646
 20
11.71257743224259
 30
0.0
 11
40.089089680052
 21
11.74277011137901
 31
0.0
  0
LINE
  5
265
330
2
100
AcDbEntity
  8
0
100
AcDbLine
 10
43.82307998056705
 20
12.82068026394936
 30
0.0
 11
40.089089680052
 21
11.74277011137901
 31
0.0
  0
SPLINE
  5
266
330
2
100
AcDbEntity
  8
0
100
AcDbSpline
210
0.0
220
0.0
230
1.0
 70
     8
 71
     3
 72
     8
 73
     4
 74
     0
 42
0.000000001
 43
0.0000000001
 40
0.0
 40
0.0
 40
0.0
 40
0.0
 40
1.0
 40
1.0
 40
1.0
 40
1.0
 10
42.83207815040396
 20
16.81560228473575
 30
0.0
 10
42.82324922107167
 20
16.81678513683002
 30
0.0
 10
42.81365777284149
 20
16.81615315804238
 30
0.0
 10
42.80573712855055
 20
16.8138666651503
 30
0.0
  0
ELLIPSE
  5
267
330
2
100
AcDbEntity
  8
0
100
AcDbEllipse
 10
42.82596331158919
 20
17.04482982796913
 30
0.0
 11
0.0868398455380225
 21
0.0000353183334908
 31
0.0
210
0.0
220
0.0
230
0.9999999999999998
 40
0.5005275222
 41
0.5236995408723159
 42
2.09327789249604
  0
SPLINE
  5
268
330
2
100
AcDbEntity
  8
0
100
AcDbSpline
210
0.0
220
0.0
230
1.0
 70
     8
 71
     3
 72
     8
 73
     4
 74
     0
 42
0.000000001
 43
0.0000000001
 40
0.0
 40
0.0
 40
0.0
 40
0.0
 40
1.0
 40
1.0
 40
1.0
 40
1.0
 10
42.85315452490523
 20
16.8075139386201
 30
0.0
 10
42.84858153862701
 20
16.81147426062294
 30
0.0
 10
42.84090707958823
 20
16.81441943236522
 30
0.0
 10
42.83207815040396
 20
16.81560228473575
 30
0.0
  0
LINE
  5
269
330
2
100
AcDbEntity
  8
0
100
AcDbLine
 10
33.62933135042101
 20
14.16486641519953
 30
0.0
 11
42.80573729612477
 21
16.8138666366785
 31
0.0
  0
LINE
  5
26A
330
2
100
AcDbEntity
  8
0
100
AcDbLine
 10
42.78261207550358
 20
17.08247884289854
 30
0.0
 11
33.59244119591711
 21
14.42950502728126
 31
0.0
  0
SPLINE
  5
26B
330
2
100
AcDbEntity
  8
0
100
AcDbSpline
210
0.0
220
0.0
230
1.0
 70
     8
 71
     3
 72
    10
 73
     6
 74
     0
 42
0.000000001
 43
0.0000000001
 40
0.0
 40
0.0
 40
0.0
 40
0.0
 40
0.5
 40
0.5
 40
1.0
 40
1.0
 40
1.0
 40
1.0
 10
46.26099107839611
 20
12.49160317434748
 30
0.0
 10
46.27238747526615
 20
12.48173360510097
 30
0.0
 10
46.27554828201969
 20
12.4696474576117
 30
0.0
 10
46.26379007062685
 20
12.44770633644972
 30
0.0
 10
46.24896658419264
 20
12.43802962737851
 30
0.0
 10
46.22922744574505
 20
12.43233142890413
 30
0.0
  0
LINE
  5
26C
330
2
100
AcDbEntity
  8
0
100
AcDbLine
 10
46.26099122574667
 20
12.49160316299795
 30
0.0
 11
42.37969645701638
 21
15.8529030322962
 31
0.0
  0
SPLINE
  5
26D
330
2
100
AcDbEntity
  8
0
100
AcDbSpline
210
0.0
220
0.0
230
1.0
 70
     8
 71
     3
 72
    10
 73
     6
 74
     0
 42
0.000000001
 43
0.0000000001
 40
0.0
 40
0.0
 40
0.0
 40
0.0
 40
0.5
 40
0.5
 40
1.0
 40
1.0
 40
1.0
 40
1.0
 10
42.26115291278275
 20
15.86878477855956
 30
0.0
 10
42.28089205127576
 20
15.87448297699458
 30
0.0
 10
42.30506434625429
 20
15.87606338037135
 30
0.0
 10
42.34894658857825
 20
15.87018427467491
 30
0.0
 10
42.36830000672068
 20
15.86277253145783
 30
0.0
 10
42.3796964036694
 20
15.85290296223404
 30
0.0
  0
LINE
  5
26E
330
2
100
AcDbEntity
  8
0
100
AcDbLine
 10
42.26115293626073
 20
15.86878485262479
 30
0.0
 11
35.53855319766422
 21
13.92813746825097
 31
0.0
  0
SPLINE
  5
26F
330
2
100
AcDbEntity
  8
0
100
AcDbSpline
210
0.0
220
0.0
230
1.0
 70
     8
 71
     3
 72
    10
 73
     6
 74
     0
 42
0.000000001
 43
0.0000000001
 40
0.0
 40
0.0
 40
0.0
 40
0.0
 40
0.5
 40
0.5
 40
1.0
 40
1.0
 40
1.0
 40
1.0
 10
35.50678970435859
 20
13.86886569575288
 30
0.0
 10
35.49539330748853
 20
13.87873526499937
 30
0.0
 10
35.49223250073501
 20
13.89082141248865
 30
0.0
 10
35.50399071212784
 20
13.91276253365064
 30
0.0
 10
35.51881419856207
 20
13.92243924272184
 30
0.0
 10
35.53855333700967
 20
13.9281374411962
 30
0.0
  0
LINE
  5
270
330
2
100
AcDbEntity
  8
0
100
AcDbLine
 10
35.50678955700703
 20
13.86886570787315
 30
0.0
 11
39.38808432573732
 21
10.50756583857489
 31
0.0
  0
SPLINE
  5
271
330
2
100
AcDbEntity
  8
0
100
AcDbSpline
210
0.0
220
0.0
230
1.0
 70
     8
 71
     3
 72
    10
 73
     6
 74
     0
 42
0.000000001
 43
0.0000000001
 40
0.0
 40
0.0
 40
0.0
 40
0.0
 40
0.5
 40
0.5
 40
1.0
 40
1.0
 40
1.0
 40
1.0
 10
39.50662786997196
 20
10.4916840915408
 30
0.0
 10
39.48688873147895
 20
10.48598589310576
 30
0.0
 10
39.46271643650042
 20
10.48440548972899
 30
0.0
 10
39.41883419417644
 20
10.49028459542541
 30
0.0
 10
39.399480776034
 20
10.49769633864251
 30
0.0
 10
39.38808437908529
 20
10.5075659078663
 30
0.0
  0
LINE
  5
272
330
2
100
AcDbEntity
  8
0
100
AcDbLine
 10
39.50662784651032
 20
10.4916840182463
 30
0.0
 11
46.22922758508948
 21
12.43233140260276
 31
0.0
  0
LINE
  5
273
330
2
100
AcDbEntity
  8
0
100
AcDbLine
 10
42.85315435093088
 20
16.80751395590912
 30
0.0
 11
48.15115479388881
 21
12.21931098304856
 31
0.0
  0
SPLINE
  5
274
330
2
100
AcDbEntity
  8
0
100
AcDbSpline
210
0.0
220
0.0
230
1.0
 70
     8
 71
     3
 72
     8
 73
     4
 74
     0
 42
0.000000001
 43
0.0000000001
 40
0.0
 40
0.0
 40
0.0
 40
0.0
 40
1.0
 40
1.0
 40
1.0
 40
1.0
 10
48.15462609074844
 20
12.20614055553687
 30
0.0
 10
48.156991794937
 20
12.21055502020302
 30
0.0
 10
48.15572783736173
 20
12.21535074431809
 30
0.0
 10
48.15115485157759
 20
12.21931106646356
 30
0.0
  0
SPLINE
  5
275
330
2
100
AcDbEntity
  8
0
100
AcDbSpline
210
0.0
220
0.0
230
1.0
 70
     8
 71
     3
 72
     8
 73
     4
 74
     0
 42
0.000000001
 43
0.0000000001
 40
0.0
 40
0.0
 40
0.0
 40
0.0
 40
1.0
 40
1.0
 40
1.0
 40
1.0
 10
48.13844939851716
 20
12.19560236828624
 30
0.0
 10
48.14637004252286
 20
12.19788886142535
 30
0.0
 10
48.15226038600744
 20
12.20172609094472
 30
0.0
 10
48.15462609074844
 20
12.20614055553687
 30
0.0
  0
LINE
  5
276
330
2
100
AcDbEntity
  8
0
100
AcDbLine
 10
48.13844943233268
 20
12.19560245565419
 30
0.0
 11
38.96204348662893
 21
9.546602234175225
 31
0.0
  0
SPLINE
  5
277
330
2
100
AcDbEntity
  8
0
100
AcDbSpline
210
0.0
220
0.0
230
1.0
 70
     8
 71
     3
 72
     8
 73
     4
 74
     0
 42
0.000000001
 43
0.0000000001
 40
0.0
 40
0.0
 40
0.0
 40
0.0
 40
1.0
 40
1.0
 40
1.0
 40
1.0
 10
38.93570263235074
 20
9.544866585364614
 30
0.0
 10
38.94453156168304
 20
9.543683733270341
 30
0.0
 10
38.95412300991321
 20
9.544315712057974
 30
0.0
 10
38.96204365420415
 20
9.546602204950044
 30
0.0
  0
SPLINE
  5
278
330
2
100
AcDbEntity
  8
0
100
AcDbSpline
210
0.0
220
0.0
230
1.0
 70
     8
 71
     3
 72
     8
 73
     4
 74
     0
 42
0.000000001
 43
0.0000000001
 40
0.0
 40
0.0
 40
0.0
 40
0.0
 40
1.0
 40
1.0
 40
1.0
 40
1.0
 10
38.91462625784948
 20
9.552954931480256
 30
0.0
 10
38.91919924412768
 20
9.548994609477418
 30
0.0
 10
38.92687370316647
 20
9.546049437735115
 30
0.0
 10
38.93570263235074
 20
9.544866585364614
 30
0.0
  0
LINE
  5
279
330
2
100
AcDbEntity
  8
0
100
AcDbLine
 10
38.91462643182282
 20
9.552954914944605
 30
0.0
 11
33.61662598888226
 21
14.14115788780517
 31
0.0
  0
SPLINE
  5
27A
330
2
100
AcDbEntity
  8
0
100
AcDbSpline
210
0.0
220
0.0
230
1.0
 70
     8
 71
     3
 72
     8
 73
     4
 74
     0
 42
0.000000001
 43
0.0000000001
 40
0.0
 40
0.0
 40
0.0
 40
0.0
 40
1.0
 40
1.0
 40
1.0
 40
1.0
 10
33.61315469200625
 20
14.15432831456348
 30
0.0
 10
33.61078898781767
 20
14.14991384989733
 30
0.0
 10
33.61205294539295
 20
14.14511812578224
 30
0.0
 10
33.6166259311771
 20
14.14115780363677
 30
0.0
  0
SPLINE
  5
27B
330
2
100
AcDbEntity
  8
0
100
AcDbSpline
210
0.0
220
0.0
230
1.0
 70
     8
 71
     3
 72
     8
 73
     4
 74
     0
 42
0.000000001
 43
0.0000000001
 40
0.0
 40
0.0
 40
0.0
 40
0.0
 40
1.0
 40
1.0
 40
1.0
 40
1.0
 10
33.62933138423753
 20
14.1648665018141
 30
0.0
 10
33.62141074023185
 20
14.162580008675
 30
0.0
 10
33.61552039674727
 20
14.15874277915561
 30
0.0
 10
33.61315469200625
 20
14.15432831456348
 30
0.0
  0
LINE
  5
27C
330
2
100
AcDbEntity
  8
0
100
AcDbLine
 10
48.20710322749381
 20
12.47151158276802
 30
0.0
 11
42.9011555962766
 21
17.06659702256995
 31
0.0
  0
ARC
  5
27D
330
2
100
AcDbEntity
  8
0
100
AcDbCircle
 10
42.34397022321883
 20
17.68623192484114
 30
0.0
 40
0.2807317312278927
100
AcDbArc
 50
57.13636745009974
 51
107.6021521251001
  0
LINE
  5
27E
330
2
100
AcDbEntity
  8
0
100
AcDbLine
 10
42.25907534922542
 20
17.9538196025934
 30
0.0
 11
35.34073318593553
 21
15.95666624744105
 31
0.0
  0
LINE
  5
27F
330
2
100
AcDbEntity
  8
0
100
AcDbLine
 10
43.17891546417913
 20
17.33088023291159
 30
0.0
 11
42.49630688490324
 21
17.92203660338984
 31
0.0
  0
ELLIPSE
  5
280
330
2
100
AcDbEntity
  8
0
100
AcDbEllipse
 10
43.02841521426385
 20
17.28749215599805
 30
0.0
 11
0.1737638849072342
 21
-0.0000231135734424
 31
0.0
210
0.0
220
0.0
230
1.0
 40
0.4997257118000001
 41
0.0194230261055097
 42
0.5234775705705174
  0
LINE
  5
281
330
2
100
AcDbEntity
  8
0
100
AcDbLine
 10
43.22493123137574
 20
16.83479778883069
 30
0.0
 11
43.21966243874391
 21
16.83700837077086
 31
0.0
  0
ELLIPSE
  5
282
330
2
100
AcDbEntity
  8
0
100
AcDbEllipse
 10
33.63597558117655
 20
14.39190888297513
 30
0.0
 11
0.0869314923421136
 21
-0.0000352315150605
 31
0.0
210
0.0
220
0.0
230
1.0
 40
0.4994727251
 41
2.095510849137526
 42
3.169099307063311
  0
LWPOLYLINE
  5
283
330
2
100
AcDbEntity
  8
0
100
AcDbPolyline
 90
        7
 70
   128
 43
0.0
 10
35.34073318593553
 20
15.95666624744105
 10
35.31306043172934
 20
15.94675119875599
 10
35.28978773958541
 20
15.93432725687745
 10
35.27181020857583
 20
15.9198720705178
 10
35.25981798209823
 20
15.90394083078582
 10
35.25427231515355
 20
15.8871459158525
 10
35.25392040207569
 20
15.88277967049386
  0
LINE
  5
284
330
2
100
AcDbEntity
  8
0
100
AcDbLine
 10
46.49061359522529
 20
14.46286552175356
 30
0.0
 11
45.80800501594941
 21
15.05402189223181
 31
0.0
  0
ELLIPSE
  5
285
330
2
100
AcDbEntity
  8
0
100
AcDbEllipse
 10
45.65760460722084
 20
15.0105473503353
 30
0.0
 11
0.1736773760555521
 21
0.0000434898070819
 31
0.0
210
0.0
220
0.0
230
1.0
 40
0.5002236409
 41
0.5235733142705358
 42
0.9668157235489324
  0
ARC
  5
286
330
2
100
AcDbEntity
  8
0
100
AcDbCircle
 10
46.45584557019842
 20
14.41619926338872
 30
0.0
 40
0.0581941168253453
100
AcDbArc
 50
4.496766849899222
 51
53.31257664919956
  0
ELLIPSE
  5
287
330
2
100
AcDbEntity
  8
0
100
AcDbEllipse
 10
48.13180520157716
 20
12.44983596277148
 30
0.0
 11
0.0869314923421235
 21
-0.0000352315150704
 31
0.0
210
0.0
220
0.0
230
1.0
 40
0.4994727251000001
 41
6.255678653705818
 42
6.806681854351342
  0
LINE
  5
288
330
2
100
AcDbEntity
  8
0
100
AcDbLine
 10
39.82419667462281
 20
17.55172820755761
 30
0.0
 11
39.81618132358912
 21
17.54941437502945
 31
0.0
  0
LINE
  5
289
330
2
100
AcDbEntity
  8
0
100
AcDbLine
 10
38.20565250388707
 20
16.79675928104871
 30
0.0
 11
38.20565250388707
 21
16.78369721715414
 31
0.0
  0
LINE
  5
28A
330
2
100
AcDbEntity
  8
0
100
AcDbLine
 10
38.10250873657555
 20
16.75392208285153
 30
0.0
 11
38.10250873657555
 21
16.77088705011329
 31
0.0
  0
LINE
  5
28B
330
2
100
AcDbEntity
  8
0
100
AcDbLine
 10
37.91971097806645
 20
16.7011530087019
 30
0.0
 11
37.91971097806645
 21
16.79537736520153
 31
0.0
  0
LINE
  5
28C
330
2
100
AcDbEntity
  8
0
100
AcDbLine
 10
37.81473269954638
 20
16.76697713475803
 30
0.0
 11
37.81473269954638
 21
16.67084839002322
 31
0.0
  0
ARC
  5
28D
330
2
100
AcDbEntity
  8
0
100
AcDbCircle
 10
41.50848323089768
 20
17.67232210983039
 30
0.0
 40
3.117217486019806
100
AcDbArc
 50
62.43196884809983
 51
69.6415084368003
  0
SPLINE
  5
28E
330
2
100
AcDbEntity
  8
0
100
AcDbSpline
210
0.0
220
0.0
230
1.0
 70
     8
 71
     3
 72
    10
 73
     6
 74
     0
 42
0.000000001
 43
0.0000000001
 40
0.0
 40
0.0
 40
0.0
 40
0.0
 40
0.3269723345849941
 40
0.6635731119413303
 40
1.0
 40
1.0
 40
1.0
 40
1.0
 10
40.39764888427169
 20
19.00321620534288
 30
0.0
 10
40.38234265811727
 20
18.9797505169394
 30
0.0
 10
40.36675599391688
 20
18.961278470672
 30
0.0
 10
40.32078319700237
 20
18.93994828837251
 30
0.0
 10
40.28221288154862
 20
18.93322868379789
 30
0.0
 10
40.24597444744506
 20
18.9279237237776
 30
0.0
  0
ARC
  5
28F
330
2
100
AcDbEntity
  8
0
100
AcDbCircle
 10
38.77559023778864
 20
17.55760248265877
 30
0.0
 40
0.7055592221680249
100
AcDbArc
 50
173.8012082286006
 51
181.1496229608989
  0
LINE
  5
290
330
2
100
AcDbEntity
  8
0
100
AcDbLine
 10
38.06579302641816
 20
18.0959119756759
 30
0.0
 11
38.07415625021901
 21
17.6337876325453
 31
0.0
  0
LINE
  5
291
330
2
100
AcDbEntity
  8
0
100
AcDbLine
 10
38.2915242918505
 20
18.69902739810845
 30
0.0
 11
38.20526512049604
 21
18.17141068497394
 31
0.0
  0
ARC
  5
292
330
2
100
AcDbEntity
  8
0
100
AcDbCircle
 10
40.17004198184638
 20
17.59105296154977
 30
0.0
 40
2.904496408220798
100
AcDbArc
 50
114.3509709771001
 51
117.3144620895001
  0
LINE
  5
293
330
2
100
AcDbEntity
  8
0
100
AcDbLine
 10
40.24597444744506
 20
18.9279237237776
 30
0.0
 11
40.23240725416433
 21
19.35310041456768
 31
0.0
  0
LINE
  5
294
330
2
100
AcDbEntity
  8
0
100
AcDbLine
 10
42.34588384448499
 20
19.14730546996906
 30
0.0
 11
42.38400611246173
 21
19.32272596712398
 31
0.0
  0
SPLINE
  5
295
330
2
100
AcDbEntity
  8
0
100
AcDbSpline
210
0.0
220
0.0
230
1.0
 70
     8
 71
     3
 72
    10
 73
     6
 74
     0
 42
0.000000001
 43
0.0000000001
 40
0.0
 40
0.0
 40
0.0
 40
0.0
 40
0.3416664737474931
 40
0.6879768024568335
 40
1.0
 40
1.0
 40
1.0
 40
1.0
 10
40.05140492433204
 20
21.02337486801722
 30
0.0
 10
40.06212646148799
 20
21.02366932492404
 30
0.0
 10
40.08371526055589
 20
21.02426224093071
 30
0.0
 10
40.1115521344449
 20
21.01106831078368
 30
0.0
 10
40.12269022746123
 20
20.99608276450174
 30
0.0
 10
40.12796922854334
 20
20.98898022774587
 30
0.0
  0
LINE
  5
296
330
2
100
AcDbEntity
  8
0
100
AcDbLine
 10
41.63633568616075
 20
20.88443141097615
 30
0.0
 11
41.64028097705858
 21
20.83463460961004
 31
0.0
  0
LINE
  5
297
330
2
100
AcDbEntity
  8
0
100
AcDbLine
 10
40.14335993138103
 20
20.76262387397011
 30
0.0
 11
40.05140492432669
 21
21.02337486801069
 31
0.0
  0
ARC
  5
298
330
2
100
AcDbEntity
  8
0
100
AcDbCircle
 10
39.42096441120556
 20
18.87902902622979
 30
0.0
 40
0.0431574058400128
100
AcDbArc
 50
212.453495305999
 51
281.6588108684003
  0
SPLINE
  5
299
330
2
100
AcDbEntity
  8
0
100
AcDbSpline
210
0.0
220
0.0
230
1.0
 70
     8
 71
     3
 72
     9
 73
     5
 74
     0
 42
0.000000001
 43
0.0000000001
 40
0.0
 40
0.0
 40
0.0
 40
0.0
 40
0.4966245818585816
 40
1.0
 40
1.0
 40
1.0
 40
1.0
 10
38.89288963442538
 20
20.77444635288481
 30
0.0
 10
38.90215393430654
 20
20.77665957677907
 30
0.0
 10
38.92080846777017
 20
20.78111610989301
 30
0.0
 10
38.93607995720476
 20
20.77348344539815
 30
0.0
 10
38.96047991252629
 20
20.73862520737871
 30
0.0
  0
ARC
  5
29A
330
2
100
AcDbEntity
  8
0
100
AcDbCircle
 10
38.66000116980763
 20
18.54217999629102
 30
0.0
 40
0.0312762609188991
100
AcDbArc
 50
237.8604840971998
 51
294.0131974210012
  0
SPLINE
  5
29B
330
2
100
AcDbEntity
  8
0
100
AcDbSpline
210
0.0
220
0.0
230
1.0
 70
     8
 71
     3
 72
     9
 73
     5
 74
     0
 42
0.000000001
 43
0.0000000001
 40
0.0
 40
0.0
 40
0.0
 40
0.0
 40
0.2516703318346656
 40
1.0
 40
1.0
 40
1.0
 40
1.0
 10
43.07038434261375
 20
18.79240240267454
 30
0.0
 10
43.07454617327752
 20
18.79932437749734
 30
0.0
 10
43.09108300792724
 20
18.82682851265844
 30
0.0
 10
43.09772522015085
 20
18.86520396824592
 30
0.0
 10
43.10504927406913
 20
18.89340103999195
 30
0.0
  0
LWPOLYLINE
  5
29C
330
2
100
AcDbEntity
  8
0
100
AcDbPolyline
 90
        7
 70
   128
 43
0.0
 10
42.57318515219187
 20
20.90447499591197
 10
42.58700547453518
 20
20.89917095182157
 10
42.59862879530323
 20
20.89270257069648
 10
42.60760858992513
 20
20.88531904694669
 10
42.6136001799155
 20
20.87730345762656
 10
42.61637354789555
 20
20.86896310850816
 10
42.61646820282233
 20
20.86418351956224
  0
LINE
  5
29D
330
2
100
AcDbEntity
  8
0
100
AcDbLine
 10
41.64785803886134
 20
20.82709482226062
 30
0.0
 11
41.64318801604068
 21
20.8280158326608
 31
0.0
  0
LINE
  5
29E
330
2
100
AcDbEntity
  8
0
100
AcDbLine
 10
37.71447120137491
 20
19.82340575815348
 30
0.0
 11
37.51680091571198
 21
19.85937879972803
 31
0.0
  0
SPLINE
  5
29F
330
2
100
AcDbEntity
  8
0
100
AcDbSpline
210
0.0
220
0.0
230
1.0
 70
     8
 71
     3
 72
     9
 73
     5
 74
     0
 42
0.000000001
 43
0.0000000001
 40
0.0
 40
0.0
 40
0.0
 40
0.0
 40
0.5933149930920107
 40
1.0
 40
1.0
 40
1.0
 40
1.0
 10
37.97451826388146
 20
20.34241239238785
 30
0.0
 10
37.98107677451036
 20
20.34621888283186
 30
0.0
 10
37.99213078579482
 20
20.35263451447494
 30
0.0
 10
38.00155643155948
 20
20.34853776005141
 30
0.0
 10
38.00538970037239
 20
20.34687167145037
 30
0.0
  0
LINE
  5
2A0
330
2
100
AcDbEntity
  8
0
100
AcDbLine
 10
37.97451826387955
 20
20.34241239238628
 30
0.0
 11
37.83776406370269
 21
20.22397978168379
 31
0.0
  0
LINE
  5
2A1
330
2
100
AcDbEntity
  8
0
100
AcDbLine
 10
37.644750345361
 20
20.06068291466636
 30
0.0
 11
37.54807813020256
 21
19.97310447141108
 31
0.0
  0
ARC
  5
2A2
330
2
100
AcDbEntity
  8
0
100
AcDbCircle
 10
38.17038799046191
 20
18.09299273099557
 30
0.0
 40
0.0173796917547749
100
AcDbArc
 50
256.0971015550992
 51
314.0451124398007
  0
ARC
  5
2A3
330
2
100
AcDbEntity
  8
0
100
AcDbCircle
 10
43.42887640545487
 20
20.498231967168
 30
0.0
 40
0.0348842715432978
100
AcDbArc
 50
1.410373025100524
 51
65.08834989609991
  0
LINE
  5
2A4
330
2
100
AcDbEntity
  8
0
100
AcDbLine
 10
43.8638149616876
 20
19.99932790683438
 30
0.0
 11
43.8620294718411
 21
19.89862803949376
 31
0.0
  0
LINE
  5
2A5
330
2
100
AcDbEntity
  8
0
100
AcDbLine
 10
37.25895900737099
 20
19.35942099988442
 30
0.0
 11
37.4025824643444
 21
19.76668588981973
 31
0.0
  0
LWPOLYLINE
  5
2A6
330
2
100
AcDbEntity
  8
0
100
AcDbPolyline
 90
        3
 70
   128
 43
0.0
 10
43.97920018514393
 20
20.03818831791839
 10
44.00522061117633
 20
20.02901291387843
 10
44.01041888234352
 20
20.01274385758477
  0
LINE
  5
2A7
330
2
100
AcDbEntity
  8
0
100
AcDbLine
 10
44.10358918175104
 20
19.5473342959549
 30
0.0
 11
43.90444907060406
 21
19.54733426822052
 31
0.0
  0
LINE
  5
2A8
330
2
100
AcDbEntity
  8
0
100
AcDbLine
 10
43.77512892877346
 20
19.11350009765694
 30
0.0
 11
43.75989349600131
 21
18.27749575097452
 31
0.0
  0
ARC
  5
2A9
330
2
100
AcDbEntity
  8
0
100
AcDbCircle
 10
43.80598596361188
 20
18.44065387826677
 30
0.0
 40
0.1541679405050529
100
AcDbArc
 50
0.4113502158985279
 51
41.63439590579956
  0
SPLINE
  5
2AA
330
2
100
AcDbEntity
  8
0
100
AcDbSpline
210
0.0
220
0.0
230
1.0
 70
     8
 71
     3
 72
     9
 73
     5
 74
     0
 42
0.000000001
 43
0.0000000001
 40
0.0
 40
0.0
 40
0.0
 40
0.0
 40
0.1581073403324591
 40
1.0
 40
1.0
 40
1.0
 40
1.0
 10
43.98791211428529
 20
18.74900548366379
 30
0.0
 10
43.98940356128629
 20
18.74782868845265
 30
0.0
 10
43.99883669068986
 20
18.74038567405078
 30
0.0
 10
44.00158377882664
 20
18.73211729912759
 30
0.0
 10
44.00389653216446
 20
18.72515621497236
 30
0.0
  0
LINE
  5
2AB
330
2
100
AcDbEntity
  8
0
100
AcDbLine
 10
44.08717687411071
 20
18.40171159774095
 30
0.0
 11
44.15435356124623
 21
18.45203235697774
 31
0.0
  0
LINE
  5
2AC
330
2
100
AcDbEntity
  8
0
100
AcDbLine
 10
43.96501130195292
 20
18.67049650885641
 30
0.0
 11
43.96260651661244
 21
18.6708797235966
 31
0.0
  0
SPLINE
  5
2AD
330
2
100
AcDbEntity
  8
0
100
AcDbSpline
210
0.0
220
0.0
230
1.0
 70
     8
 71
     3
 72
    13
 73
     9
 74
     0
 42
0.000000001
 43
0.0000000001
 40
0.0
 40
0.0
 40
0.0
 40
0.0
 40
0.2451122663045959
 40
0.3783918524540984
 40
0.5118384419991806
 40
0.6451182060037432
 40
0.7785647527896141
 40
1.0
 40
1.0
 40
1.0
 40
1.0
 10
41.87812543861314
 20
13.83822889131267
 30
0.0
 10
41.91784381145537
 20
13.85393637869059
 30
0.0
 10
41.97915901572
 20
13.87818479895914
 30
0.0
 10
42.05275908942151
 20
13.93875287905399
 30
0.0
 10
42.10302455559852
 20
13.99406191643713
 30
0.0
 10
42.14378487118935
 20
14.05611075287251
 30
0.0
 10
42.1816008656278
 20
14.13713184274196
 30
0.0
 10
42.18789400853872
 20
14.19640660103126
 30
0.0
 10
42.19182073478895
 20
14.23339221420494
 30
0.0
  0
LINE
  5
2AE
330
2
100
AcDbEntity
  8
0
100
AcDbLine
 10
41.91459669131358
 20
14.47347529673009
 30
0.0
 11
41.87812543861362
 21
14.46990365684763
 31
0.0
  0
ARC
  5
2AF
330
2
100
AcDbEntity
  8
0
100
AcDbCircle
 10
41.74882161632193
 20
14.26702464608325
 30
0.0
 40
0.5684691985583133
100
AcDbArc
 50
287.6880215507011
 51
346.8451951750998
  0
ARC
  5
2B0
330
2
100
AcDbEntity
  8
0
100
AcDbCircle
 10
41.81975777575737
 20
13.99428393999931
 30
0.0
 40
0.2874761420280814
100
AcDbArc
 50
229.0403976570052
 51
290.7358970227619
  0
LINE
  5
2B1
330
2
100
AcDbEntity
  8
0
100
AcDbLine
 10
42.42197080741824
 20
13.96528889454164
 30
0.0
 11
42.42197080741824
 21
14.03407644545359
 31
0.0
  0
LINE
  5
2B2
330
2
100
AcDbEntity
  8
0
100
AcDbLine
 10
42.53428840516472
 20
13.86801900159813
 30
0.0
 11
42.42197080741824
 21
13.96528889454164
 31
0.0
  0
LINE
  5
2B3
330
2
100
AcDbEntity
  8
0
100
AcDbLine
 10
41.97077458071521
 20
13.57454141489047
 30
0.0
 11
42.11599353145966
 21
13.44877811441805
 31
0.0
  0
LWPOLYLINE
  5
2B4
330
2
100
AcDbEntity
  8
0
100
AcDbPolyline
 90
        6
 70
   128
 43
0.0
 10
41.58314437513472
 20
13.74811537015873
 10
41.58332327669336
 20
13.7509121481278
 10
41.58606579223163
 20
13.75927185912694
 10
41.5920194260447
 20
13.76720822111313
 10
41.6009562569659
 20
13.77441736701293
 10
41.62335937995385
 20
13.7832767031826
  0
LINE
  5
2B5
330
2
100
AcDbEntity
  8
0
100
AcDbLine
 10
10.41827702065805
 20
7.546831073682206
 30
0.0
 11
10.42695878246756
 21
7.539312447403681
 31
0.0
  0
LINE
  5
2B6
330
2
100
AcDbEntity
  8
0
100
AcDbLine
 10
10.99531350614225
 20
8.195591952830568
 30
0.0
 11
10.98663174433274
 21
8.203110579109104
 31
0.0
  0
LINE
  5
2B7
330
2
100
AcDbEntity
  8
0
100
AcDbLine
 10
10.93757195278738
 20
6.549237742664441
 30
0.0
 11
10.58300045370177
 21
6.571795356636929
 31
0.0
  0
LINE
  5
2B8
330
2
100
AcDbEntity
  8
0
100
AcDbLine
 10
11.15092837080115
 20
6.58219517236316
 30
0.0
 11
10.79635687173291
 21
6.604752786335648
 31
0.0
  0
LINE
  5
2B9
330
2
100
AcDbEntity
  8
0
100
AcDbLine
 10
10.75666947738182
 20
5.980927104646312
 30
0.0
 11
11.11124097646743
 21
5.958369490691186
 31
0.0
  0
LINE
  5
2BA
330
2
100
AcDbEntity
  8
0
100
AcDbLine
 10
10.93005354686933
 20
5.888882631558484
 30
0.0
 11
11.28462504595494
 21
5.866325017585996
 31
0.0
  0
LINE
  5
2BB
330
2
100
AcDbEntity
  8
0
100
AcDbLine
 10
11.26194816768603
 20
6.805311063678416
 30
0.0
 11
11.61651966675427
 21
6.782753449705928
 31
0.0
  0
LINE
  5
2BC
330
2
100
AcDbEntity
  8
0
100
AcDbLine
 10
11.38528475030637
 20
6.152291133206581
 30
0.0
 11
11.66419682524015
 21
6.134546923847402
 31
0.0
  0
LINE
  5
2BD
330
2
100
AcDbEntity
  8
0
100
AcDbLine
 10
11.68624537766707
 20
6.481116747004289
 30
0.0
 11
11.33167387858145
 21
6.503674360959404
 31
0.0
  0
LINE
  5
2BE
330
2
100
AcDbEntity
  8
0
100
AcDbLine
 10
11.80574813373961
 20
5.797375115003095
 30
0.0
 11
11.451176634654
 21
5.81993272897558
 31
0.0
  0
LINE
  5
2BF
330
2
100
AcDbEntity
  8
0
100
AcDbLine
 10
12.0191045517534
 20
5.830332544701821
 30
0.0
 11
11.66453305268514
 21
5.852890158674309
 31
0.0
  0
LINE
  5
2C0
330
2
100
AcDbEntity
  8
0
100
AcDbLine
 10
11.62484565833406
 20
5.229064476984973
 30
0.0
 11
11.97941715741967
 21
5.20650686302984
 31
0.0
  0
LINE
  5
2C1
330
2
100
AcDbEntity
  8
0
100
AcDbLine
 10
11.84337745118426
 20
6.162111933084393
 30
0.0
 11
12.19794895026987
 21
6.139554319129267
 31
0.0
  0
LINE
  5
2C2
330
2
100
AcDbEntity
  8
0
100
AcDbLine
 10
11.79822972782156
 20
5.137020003879783
 30
0.0
 11
12.15280122690717
 21
5.114462389924657
 31
0.0
  0
LINE
  5
2C3
330
2
100
AcDbEntity
  8
0
100
AcDbLine
 10
12.13012434863827
 20
6.053448436017077
 30
0.0
 11
12.48469584770652
 21
6.030890822044593
 31
0.0
  0
LINE
  5
2C4
330
2
100
AcDbEntity
  8
0
100
AcDbLine
 10
8.25742394341394
 20
8.945256137190458
 30
0.0
 11
8.187034187321273
 21
8.725132632578354
 31
0.0
  0
SPLINE
  5
2C5
330
2
100
AcDbEntity
  8
0
100
AcDbSpline
210
0.0
220
0.0
230
1.0
 70
     8
 71
     3
 72
    11
 73
     7
 74
     0
 42
0.000000001
 43
0.0000000001
 40
0.0
 40
0.0
 40
0.0
 40
0.0
 40
0.0116395959869148
 40
0.398908507228249
 40
0.770047800626395
 40
1.0
 40
1.0
 40
1.0
 40
1.0
 10
20.95388215100377
 20
11.70019371681013
 30
0.0
 10
20.95305698332979
 20
11.70122313709577
 30
0.0
 10
20.9247771009864
 20
11.7365030995547
 30
0.0
 10
20.84132302227195
 20
11.77488781759822
 30
0.0
 10
20.73211008195258
 20
11.80563698236412
 30
0.0
 10
20.66328428844165
 20
11.79517408940858
 30
0.0
 10
20.63695444883851
 20
11.79117142878892
 30
0.0
  0
SPLINE
  5
2C6
330
2
100
AcDbEntity
  8
0
100
AcDbSpline
210
0.0
220
0.0
230
1.0
 70
     8
 71
     3
 72
    15
 73
    11
 74
     0
 42
0.000000001
 43
0.0000000001
 40
0.0
 40
0.0
 40
0.0
 40
0.0
 40
0.0267342729986355
 40
0.1776738612593885
 40
0.3335676548545171
 40
0.4951705624406585
 40
0.64093250016752
 40
0.7815375818632644
 40
0.9187587513261719
 40
1.0
 40
1.0
 40
1.0
 40
1.0
 10
20.50047157220376
 20
11.75491920797129
 30
0.0
 10
20.49267535719045
 20
11.751933187226
 30
0.0
 10
20.44086232959495
 20
11.73208832981592
 30
0.0
 10
20.35505163623353
 20
11.66536474791717
 30
0.0
 10
20.25797085992516
 20
11.55031066646337
 30
0.0
 10
20.19857632399848
 20
11.41385311715723
 30
0.0
 10
20.18076452324923
 20
11.27395849725829
 30
0.0
 10
20.20484536705337
 20
11.14558329411159
 30
0.0
 10
20.25398077708215
 20
11.04354436122589
 30
0.0
 10
20.30634841299607
 20
11.00181010967736
 30
0.0
 10
20.32582275630895
 20
10.98629008230976
 30
0.0
  0
LINE
  5
2C7
330
2
100
AcDbEntity
  8
0
100
AcDbLine
 10
20.32134479323778
 20
10.98203942108693
 30
0.0
 11
20.35638449381213
 21
10.95169415026206
 31
0.0
  0
LINE
  5
2C8
330
2
100
AcDbEntity
  8
0
100
AcDbLine
 10
20.98333632837705
 20
11.67563577116816
 30
0.0
 11
20.9482966278201
 21
11.70598104201038
 31
0.0
  0
LINE
  5
2C9
330
2
100
AcDbEntity
  8
0
100
AcDbLine
 10
6.016713393996795
 20
7.249075551399432
 30
0.0
 11
5.984178696956632
 21
7.277251425545411
 31
0.0
  0
LINE
  5
2CA
330
2
100
AcDbEntity
  8
0
100
AcDbLine
 10
6.042384903499453
 20
7.256486277859835
 30
0.0
 11
5.8096428833299
 21
7.458046779852161
 31
0.0
  0
LINE
  5
2CB
330
2
100
AcDbEntity
  8
0
100
AcDbLine
 10
1.790067272345623
 20
6.285688722395295
 30
0.0
 11
1.798179652561969
 21
6.278663195027807
 31
0.0
  0
LINE
  5
2CC
330
2
100
AcDbEntity
  8
0
100
AcDbLine
 10
3.013112481291912
 20
7.829194596358558
 30
0.0
 11
2.937185361039851
 21
7.60947941403478
 31
0.0
  0
LINE
  5
2CD
330
2
100
AcDbEntity
  8
0
100
AcDbLine
 10
4.28709927758274
 20
1.109611995382341
 30
0.0
 11
12.8282587278496
 21
3.575232349286704
 31
0.0
  0
LINE
  5
2CE
330
2
100
AcDbEntity
  8
0
100
AcDbLine
 10
0.0000130790295856
 20
1.745028449954908
 30
0.0
 11
0.0000130790295856
 21
1.654804934647362
 31
0.0
  0
LINE
  5
2CF
330
2
100
AcDbEntity
  8
0
100
AcDbLine
 10
3.962187047393513
 20
1.47517059637574
 30
0.0
 11
3.962187047393513
 21
1.384947081068183
 31
0.0
  0
LINE
  5
2D0
330
2
100
AcDbEntity
  8
0
100
AcDbLine
 10
26.78678327725279
 20
12.53771002083882
 30
0.0
 11
26.87700679257773
 21
12.56375530626738
 31
0.0
  0
SPLINE
  5
2D1
330
2
100
AcDbEntity
  8
0
100
AcDbSpline
210
0.0
220
0.0
230
1.0
 70
     8
 71
     3
 72
    13
 73
     9
 74
     0
 42
0.000000001
 43
0.0000000001
 40
0.1261948451406065
 40
0.1261948451406065
 40
0.1261948451406065
 40
0.1261948451406065
 40
0.162651122208279
 40
0.3487216811767192
 40
0.5317995142120712
 40
0.7088971654353319
 40
0.878975843984497
 40
1.0
 40
1.0
 40
1.0
 40
1.0
 10
28.14628223551108
 20
10.96349943533113
 30
0.0
 10
28.14855210360551
 20
10.9544502523841
 30
0.0
 10
28.16160864435989
 20
10.89923316721483
 30
0.0
 10
28.17395536394096
 20
10.79885391847033
 30
0.0
 10
28.17111747870752
 20
10.68207114856663
 30
0.0
 10
28.14997943102196
 20
10.59960269280303
 30
0.0
 10
28.12527459615779
 20
10.56781215889306
 30
0.0
 10
28.1213843496501
 20
10.56747878944364
 30
0.0
 10
28.11976700435358
 20
10.56734019321075
 30
0.0
  0
SPLINE
  5
2D2
330
2
100
AcDbEntity
  8
0
100
AcDbSpline
210
0.0
220
0.0
230
1.0
 70
     8
 71
     3
 72
    11
 73
     7
 74
     0
 42
0.000000001
 43
0.0000000001
 40
0.0
 40
0.0
 40
0.0
 40
0.0
 40
0.0286171808746507
 40
0.2185678274717603
 40
0.3944130792574033
 40
0.5098976326560667
 40
0.5098976326560667
 40
0.5098976326560667
 40
0.5098976326560667
 10
27.8771015148827
 20
11.39926920455702
 30
0.0
 10
27.87765688489432
 20
11.39967432569274
 30
0.0
 10
27.88189860309228
 20
11.40276849652966
 30
0.0
 10
27.89095725655091
 20
11.40173193491808
 30
0.0
 10
27.93499062401401
 20
11.37730831587504
 30
0.0
 10
27.96586817838755
 20
11.34593587318899
 30
0.0
 10
27.97825390594204
 20
11.33130814254263
 30
0.0
  0
LINE
  5
2D3
330
2
100
AcDbEntity
  8
0
100
AcDbLine
 10
28.97794780760228
 20
13.2334808533229
 30
0.0
 11
28.88777447082657
 21
13.31157325371437
 31
0.0
  0
LINE
  5
2D4
330
2
100
AcDbEntity
  8
0
100
AcDbLine
 10
28.68819928566421
 20
13.48441043402927
 30
0.0
 11
27.17058674730649
 21
14.79870144534364
 31
0.0
  0
LINE
  5
2D5
330
2
100
AcDbEntity
  8
0
100
AcDbLine
 10
29.69237515776521
 20
9.821880097824415
 30
0.0
 11
29.78259867307278
 21
9.847925383252981
 31
0.0
  0
LINE
  5
2D6
330
2
100
AcDbEntity
  8
0
100
AcDbLine
 10
29.51069732225179
 20
11.41012754191342
 30
0.0
 11
29.42047380692685
 21
11.38408225648486
 31
0.0
  0
LINE
  5
2D7
330
2
100
AcDbEntity
  8
0
100
AcDbLine
 10
29.92276930241266
 20
9.869554898222244
 30
0.0
 11
29.92276930241266
 21
11.0725351024908
 31
0.0
  0
LINE
  5
2D8
330
2
100
AcDbEntity
  8
0
100
AcDbLine
 10
11.60902419714804
 20
8.028169324271424
 30
0.0
 11
11.66111476800516
 21
7.983057566617642
 31
0.0
  0
LINE
  5
2D9
330
2
100
AcDbEntity
  8
0
100
AcDbLine
 10
11.80538811057522
 20
4.757040217211102
 30
0.0
 11
10.06903574867074
 21
6.260765472533776
 31
0.0
  0
LINE
  5
2DA
330
2
100
AcDbEntity
  8
0
100
AcDbLine
 10
10.96078312136757
 20
4.611095811940838
 30
0.0
 11
11.08108114270948
 21
4.645822859439377
 31
0.0
  0
LINE
  5
2DB
330
2
100
AcDbEntity
  8
0
100
AcDbLine
 10
3.411902687439408
 20
2.336184562045314
 30
0.0
 11
3.532200707861051
 21
2.3709116092834
 31
0.0
  0
LINE
  5
2DC
330
2
100
AcDbEntity
  8
0
100
AcDbLine
 10
26.83357788671006
 20
9.470263564426662
 30
0.0
 11
29.00401833909067
 21
7.590606995264632
 31
0.0
  0
LINE
  5
2DD
330
2
100
AcDbEntity
  8
0
100
AcDbLine
 10
26.69269760555849
 20
10.73155898774547
 30
0.0
 11
26.69269760555849
 21
10.77791739031092
 31
0.0
  0
LINE
  5
2DE
330
2
100
AcDbEntity
  8
0
100
AcDbLine
 10
30.66235781431235
 20
8.316522100021618
 30
0.0
 11
30.66235781431235
 21
8.406745615346537
 31
0.0
  0
LINE
  5
2DF
330
2
100
AcDbEntity
  8
0
100
AcDbLine
 10
15.15081120141178
 20
3.998109897122414
 30
0.0
 11
28.6519103046775
 21
7.895541497937227
 31
0.0
  0
LINE
  5
2E0
330
2
100
AcDbEntity
  8
0
100
AcDbLine
 10
11.72581663687179
 20
6.727858767992405
 30
0.0
 11
14.78179679382367
 21
4.081302318611985
 31
0.0
  0
LINE
  5
2E1
330
2
100
AcDbEntity
  8
0
100
AcDbLine
 10
10.07460782787919
 20
6.875671465484231
 30
0.0
 11
10.12669839873634
 21
6.830559707813087
 31
0.0
  0
LINE
  5
2E2
330
2
100
AcDbEntity
  8
0
100
AcDbLine
 10
10.66615847254681
 20
8.759838915698818
 30
0.0
 11
9.914295844885472
 21
8.542794870460756
 31
0.0
  0
LWPOLYLINE
  5
2E3
330
2
100
AcDbEntity
  8
0
100
AcDbPolyline
 90
       17
 70
   128
 43
0.0
 10
10.58867978305474
 20
7.99669136318732
 10
10.62950641881832
 20
8.024895507302836
 10
10.67350840356371
 20
8.037142833977849
 10
10.71398683400281
 20
8.03156879876845
 10
10.74477923603247
 20
8.009021997982394
 10
10.76119774555502
 20
7.972934977673492
 10
10.76074279336775
 20
7.92880165952426
 10
10.74348364180235
 20
7.883340941197992
 10
10.71204784022178
 20
7.843473804911543
 10
10.67122120445819
 20
7.815269660813399
 10
10.62721921971281
 20
7.803022334121017
 10
10.58674078927372
 20
7.808596369347771
 10
10.55594838724406
 20
7.831143170116469
 10
10.53952987770412
 20
7.867230190442722
 10
10.53998482989141
 20
7.911363508574602
 10
10.55724398147416
 20
7.95682422690087
 10
10.58867978305474
 20
7.99669136318732
  0
LWPOLYLINE
  5
2E4
330
2
100
AcDbEntity
  8
0
100
AcDbPolyline
 90
       19
 70
   128
 43
0.0
 10
10.49684095386917
 20
8.130333423495894
 10
10.61688088416065
 20
8.216330078185254
 10
10.74724224126608
 20
8.261153769182772
 10
10.87220152162021
 20
8.259398097817225
 10
10.97668679177099
 20
8.211274823979497
 10
11.04809558615139
 20
8.122588324709358
 10
11.07781495023775
 20
8.00403550070828
 10
11.06226029011444
 20
7.869915572181227
 10
11.00330772737202
 20
7.736405381930929
 10
10.90806781110426
 20
7.619608229278039
 10
10.78802788083015
 20
7.533611574606059
 10
10.65766652372471
 20
7.488787883608537
 10
10.53270724337058
 20
7.490543554974092
 10
10.42822197320245
 20
7.538666828811802
 10
10.35681317883939
 20
7.627353328081948
 10
10.32709381475304
 20
7.745906152083026
 10
10.34264847487637
 20
7.880026080610079
 10
10.40160103761877
 20
8.013536270860381
 10
10.49684095386917
 20
8.130333423495894
  0
LWPOLYLINE
  5
2E5
330
2
100
AcDbEntity
  8
0
100
AcDbPolyline
 90
       17
 70
   128
 43
0.0
 10
10.5969043201911
 20
7.986476859302275
 10
10.63228740451724
 20
8.010920450870205
 10
10.67042245797596
 20
8.021534800657523
 10
10.70550376434842
 20
8.016703970133459
 10
10.73219051277412
 20
7.997163409451051
 10
10.74641988770177
 20
7.965887991855808
 10
10.74602559580035
 20
7.927639116141495
 10
10.73106766445525
 20
7.888239826906875
 10
10.70382330308541
 20
7.853688308796588
 10
10.66844021874192
 20
7.829244717246023
 10
10.63030516530057
 20
7.81863036744134
 10
10.59522385892811
 20
7.823461197965396
 10
10.5685371105024
 20
7.843001758647812
 10
10.55430773557475
 20
7.874277176260424
 10
10.5547020274588
 20
7.912526051974719
 10
10.56965995882126
 20
7.951925341191977
 10
10.5969043201911
 20
7.986476859302275
  0
ARC
  5
2E6
330
2
100
AcDbEntity
  8
0
100
AcDbCircle
 10
8.805922629934656
 20
8.556974950101764
 30
0.0
 40
0.0427479004062131
100
AcDbArc
 50
100.1120482231007
 51
162.5774804175984
  0
LINE
  5
2E7
330
2
100
AcDbEntity
  8
0
100
AcDbLine
 10
9.104926561558272
 20
8.636759232574469
 30
0.0
 11
8.798417220978677
 21
8.599058816674929
 31
0.0
  0
LINE
  5
2E8
330
2
100
AcDbEntity
  8
0
100
AcDbLine
 10
10.03485634583897
 20
8.577597689303022
 30
0.0
 11
9.104926561558272
 21
8.636759232574469
 31
0.0
  0
LINE
  5
2E9
330
2
100
AcDbEntity
  8
0
100
AcDbLine
 10
8.765135886936022
 20
8.569774347943983
 30
0.0
 11
8.579371855174827
 21
7.988851327599039
 31
0.0
  0
LINE
  5
2EA
330
2
100
AcDbEntity
  8
0
100
AcDbLine
 10
10.35679282045524
 20
6.367019047732529
 30
0.0
 11
10.45732107914762
 21
6.681391960069859
 31
0.0
  0
LINE
  5
2EB
330
2
100
AcDbEntity
  8
0
100
AcDbLine
 10
9.660432289753074
 20
6.411321063174931
 30
0.0
 11
10.35679282045524
 21
6.367019047732529
 31
0.0
  0
LINE
  5
2EC
330
2
100
AcDbEntity
  8
0
100
AcDbLine
 10
11.28645196581358
 20
5.97611133749989
 30
0.0
 11
11.16876436338157
 21
6.0780317909275
 31
0.0
  0
LINE
  5
2ED
330
2
100
AcDbEntity
  8
0
100
AcDbLine
 10
11.32642431433987
 20
6.10111324030381
 30
0.0
 11
11.28645196581358
 21
5.97611133749989
 31
0.0
  0
LINE
  5
2EE
330
2
100
AcDbEntity
  8
0
100
AcDbLine
 10
11.23526581533988
 20
6.180058816210941
 30
0.0
 11
11.32642431433987
 21
6.10111324030381
 31
0.0
  0
LWPOLYLINE
  5
2EF
330
2
100
AcDbEntity
  8
0
100
AcDbPolyline
 90
        9
 70
   128
 43
0.0
 10
11.02690353191134
 20
6.360505846843405
 10
11.05777898244166
 20
6.425392226502431
 10
11.09981455992701
 20
6.46666453073286
 10
11.14661072875023
 20
6.478039425340462
 10
11.1910431964324
 20
6.457785185724372
 10
11.22634752255882
 20
6.408985336285244
 10
11.2471489434787
 20
6.339069211711287
 10
11.25028063144626
 20
6.258680908197153
 10
11.23526581533988
 20
6.180058816210941
  0
LINE
  5
2F0
330
2
100
AcDbEntity
  8
0
100
AcDbLine
 10
10.93574503291137
 20
6.43945142275054
 30
0.0
 11
11.02690353191134
 21
6.360505846843405
 31
0.0
  0
LINE
  5
2F1
330
2
100
AcDbEntity
  8
0
100
AcDbLine
 10
10.89577268438508
 20
6.314449519946631
 30
0.0
 11
10.93574503291137
 21
6.43945142275054
 31
0.0
  0
LINE
  5
2F2
330
2
100
AcDbEntity
  8
0
100
AcDbLine
 10
11.0134602868171
 20
6.212529066536372
 30
0.0
 11
10.89577268438508
 21
6.314449519946631
 31
0.0
  0
LWPOLYLINE
  5
2F3
330
2
100
AcDbEntity
  8
0
100
AcDbPolyline
 90
        9
 70
   128
 43
0.0
 10
11.16876436338157
 20
6.0780317909275
 10
11.14411009118723
 20
6.065650329139909
 10
11.11888205420395
 20
6.062282830908607
 10
11.09419153806762
 20
6.068077633267339
 10
11.07112615081883
 20
6.082779477329975
 10
11.05070191419774
 20
6.10574075233551
 10
11.03381850820693
 20
6.135950022684458
 10
11.02121964060509
 20
6.172076581229891
 10
11.0134602868171
 20
6.212529066536372
  0
LWPOLYLINE
  5
2F4
330
2
100
AcDbEntity
  8
0
100
AcDbPolyline
 90
        9
 70
   128
 43
0.0
 10
11.02843671099202
 20
6.513096369334924
 10
11.07373621040796
 20
6.558076178325737
 10
11.12356523074058
 20
6.580325330308216
 10
11.17398815494505
 20
6.578086533222872
 10
11.22102245798336
 20
6.551536612697084
 10
11.260953256379
 20
6.502772545955334
 10
11.29062671868841
 20
6.435645837418281
 10
11.30769916278467
 20
6.355458317530413
 10
11.31082216556979
 20
6.268543391418571
  0
ARC
  5
2F5
330
2
100
AcDbEntity
  8
0
100
AcDbCircle
 10
11.37077864654773
 20
6.261611465875674
 30
0.0
 40
0.0603558713083664
100
AcDbArc
 50
173.4049753046987
 51
221.8056831266008
  0
LINE
  5
2F6
330
2
100
AcDbEntity
  8
0
100
AcDbLine
 10
11.32578878355585
 20
6.221377855163911
 30
0.0
 11
11.36508533756146
 21
6.187346041119546
 31
0.0
  0
ARC
  5
2F7
330
2
100
AcDbEntity
  8
0
100
AcDbCircle
 10
11.27409700909753
 20
6.113531226141788
 30
0.0
 40
0.1171644264540905
100
AcDbArc
 50
339.0437159553999
 51
39.05089474629932
  0
LINE
  5
2F8
330
2
100
AcDbEntity
  8
0
100
AcDbLine
 10
11.38351142878015
 20
6.071626720496173
 30
0.0
 11
11.33354599310493
 21
5.915374341999967
 31
0.0
  0
LWPOLYLINE
  5
2F9
330
2
100
AcDbEntity
  8
0
100
AcDbPolyline
 90
        9
 70
   128
 43
0.0
 10
11.33354599310493
 20
5.915374341999967
 10
11.32783801853934
 20
5.900855020050627
 10
11.32068122204774
 20
5.888338350466693
 10
11.31235063531559
 20
5.87830534183352
 10
11.30316639810129
 20
5.87114155704458
 10
11.29348145550244
 20
5.867122296329572
 10
11.28366799442206
 20
5.866402017624753
 10
11.27410314066127
 20
5.869008400835021
 10
11.26515446621103
 20
5.874841284127104
  0
LINE
  5
2FA
330
2
100
AcDbEntity
  8
0
100
AcDbLine
 10
11.26515446621103
 20
5.874841284127104
 30
0.0
 11
11.16816901182592
 21
5.958833151432191
 31
0.0
  0
ARC
  5
2FB
330
2
100
AcDbEntity
  8
0
100
AcDbCircle
 10
11.15536441616081
 20
5.945292109781245
 30
0.0
 40
0.0186364556475002
100
AcDbArc
 50
46.60118585699971
 51
106.6551975950991
  0
ARC
  5
2FC
330
2
100
AcDbEntity
  8
0
100
AcDbCircle
 10
11.11800190543937
 20
6.06377882668065
 30
0.0
 40
0.105603851084922
100
AcDbArc
 50
249.037888745699
 51
287.6510437476991
  0
LINE
  5
2FD
330
2
100
AcDbEntity
  8
0
100
AcDbLine
 10
11.00706824856108
 20
6.028517204699387
 30
0.0
 11
11.08022207385295
 21
5.96516413360085
 31
0.0
  0
ARC
  5
2FE
330
2
100
AcDbEntity
  8
0
100
AcDbCircle
 10
11.27632064074242
 20
6.200753210506928
 30
0.0
 40
0.3196280532025587
100
AcDbArc
 50
194.2540379190003
 51
212.6063301682005
  0
ARC
  5
2FF
330
2
100
AcDbEntity
  8
0
100
AcDbCircle
 10
10.92323999002966
 20
6.112344044092658
 30
0.0
 40
0.0443683231354476
100
AcDbArc
 50
12.64127007419883
 51
45.93480075330163
  0
LINE
  5
300
330
2
100
AcDbEntity
  8
0
100
AcDbLine
 10
10.95409711554859
 20
6.14422485184318
 30
0.0
 11
10.85711166116348
 21
6.228216719130891
 31
0.0
  0
ARC
  5
301
330
2
100
AcDbEntity
  8
0
100
AcDbCircle
 10
10.94809998962742
 20
6.302031534108639
 30
0.0
 40
0.1171644264540536
100
AcDbArc
 50
159.0437159553999
 51
219.0508947462993
  0
LINE
  5
302
330
2
100
AcDbEntity
  8
0
100
AcDbLine
 10
10.83868556996215
 20
6.343936039771616
 30
0.0
 11
10.88865100563737
 21
6.500188418267832
 31
0.0
  0
LWPOLYLINE
  5
303
330
2
100
AcDbEntity
  8
0
100
AcDbPolyline
 90
        9
 70
   128
 43
0.0
 10
10.88865100563737
 20
6.500188418267832
 10
10.89435898018561
 20
6.514707740199813
 10
10.9015157766772
 20
6.527224409783734
 10
10.90984636340933
 20
6.537257418416917
 10
10.91903060062364
 20
6.544421203205846
 10
10.92871554323987
 20
6.548440463920865
 10
10.93852900430289
 20
6.549160742625684
 10
10.94809385806368
 20
6.546554359415416
 10
10.95704253251391
 20
6.540721476123323
  0
LINE
  5
304
330
2
100
AcDbEntity
  8
0
100
AcDbLine
 10
10.95704253251391
 20
6.540721476123323
 30
0.0
 11
10.99633908650216
 21
6.506689662078958
 31
0.0
  0
ARC
  5
305
330
2
100
AcDbEntity
  8
0
100
AcDbCircle
 10
11.00977087509142
 20
6.52300431283098
 30
0.0
 40
0.0211324578242906
100
AcDbArc
 50
230.5355060673019
 51
332.0403552990997
  0
ARC
  5
306
330
2
100
AcDbEntity
  8
0
100
AcDbCircle
 10
10.59352849055918
 20
6.324589148081127
 30
0.0
 40
0.1171644264540935
100
AcDbArc
 50
159.0437159553999
 51
219.0508947462993
  0
LINE
  5
307
330
2
100
AcDbEntity
  8
0
100
AcDbLine
 10
11.52680093798859
 20
6.97508149818401
 30
0.0
 11
11.57572020891612
 21
6.932716166844084
 31
0.0
  0
LWPOLYLINE
  5
308
330
2
100
AcDbEntity
  8
0
100
AcDbPolyline
 90
        9
 70
   128
 43
0.0
 10
11.57572020891612
 20
6.932716166844084
 10
11.59361755781657
 20
6.921050400259897
 10
11.61274726532082
 20
6.915837633839366
 10
11.63237418748157
 20
6.917278191231641
 10
11.65174407267929
 20
6.925316712661665
 10
11.6701125471079
 20
6.939644282256907
 10
11.68677372058953
 20
6.959710299523255
 10
11.70108731355535
 20
6.984743638691117
 10
11.70379568840172
 20
6.990668157805469
  0
ARC
  5
309
330
2
100
AcDbEntity
  8
0
100
AcDbCircle
 10
12.49014552768645
 20
6.123573392905036
 30
0.0
 40
0.0926564843821696
100
AcDbArc
 50
226.4309912852984
 51
291.0545411908988
  0
LINE
  5
30A
330
2
100
AcDbEntity
  8
0
100
AcDbLine
 10
12.42628410850955
 20
6.05643962166793
 30
0.0
 11
12.28467222395468
 21
6.179079111183341
 31
0.0
  0
ARC
  5
30B
330
2
100
AcDbEntity
  8
0
100
AcDbCircle
 10
12.20555861015157
 20
6.240069784742097
 30
0.0
 40
0.0998940746393594
100
AcDbArc
 50
228.6303779950016
 51
322.3704670350994
  0
LINE
  5
30C
330
2
100
AcDbEntity
  8
0
100
AcDbLine
 10
12.1395372110729
 20
6.165103118735252
 30
0.0
 11
11.97458373669198
 21
6.30795701799246
 31
0.0
  0
ARC
  5
30D
330
2
100
AcDbEntity
  8
0
100
AcDbCircle
 10
12.23083607184921
 20
6.520672511278345
 30
0.0
 40
0.3330362448007044
100
AcDbArc
 50
170.6033322910016
 51
219.6961223783001
  0
ARC
  5
30E
330
2
100
AcDbEntity
  8
0
100
AcDbCircle
 10
11.6237600535232
 20
6.887573501771004
 30
0.0
 40
0.1029278053061107
100
AcDbArc
 50
230.3685851930993
 51
321.0404470612001
  0
LINE
  5
30F
330
2
100
AcDbEntity
  8
0
100
AcDbLine
 10
11.5581079275573
 20
6.808302249329269
 30
0.0
 11
11.41649604300245
 21
6.930941738844691
 31
0.0
  0
ARC
  5
310
330
2
100
AcDbEntity
  8
0
100
AcDbCircle
 10
11.33726729783826
 20
6.991802333409971
 30
0.0
 40
0.0999059859465958
100
AcDbArc
 50
239.4925458936008
 51
322.4698616640999
  0
LINE
  5
311
330
2
100
AcDbEntity
  8
0
100
AcDbLine
 10
10.53407950655177
 20
6.522746032222958
 30
0.0
 11
10.48411407087656
 21
6.366493653726738
 31
0.0
  0
LINE
  5
312
330
2
100
AcDbEntity
  8
0
100
AcDbLine
 10
10.47672830991612
 20
6.263151867053561
 30
0.0
 11
10.35679282045524
 21
6.367019047732529
 31
0.0
  0
LWPOLYLINE
  5
313
330
2
100
AcDbEntity
  8
0
100
AcDbPolyline
 90
        3
 70
   128
 43
0.0
 10
11.33167387858145
 20
6.503674360959404
 10
11.29459117428874
 20
6.494041282059608
 10
11.2742601407563
 20
6.477740177147978
  0
LINE
  5
314
330
2
100
AcDbEntity
  8
0
100
AcDbLine
 10
11.52067293042771
 20
5.299212190993163
 30
0.0
 11
11.33152403602605
 21
5.463019938650781
 31
0.0
  0
LWPOLYLINE
  5
315
330
2
100
AcDbEntity
  8
0
100
AcDbPolyline
 90
        9
 70
   128
 43
0.0
 10
11.33152403602605
 20
5.463019938650781
 10
11.32257536157583
 20
5.468852821925501
 10
11.31301050783239
 20
5.471459205153138
 10
11.30319704675202
 20
5.470738926448323
 10
11.29351210415316
 20
5.466719665733304
 10
11.28432786693884
 20
5.459555880944375
 10
11.27599728020671
 20
5.449522872311192
 10
11.26884048371514
 20
5.437006202727268
 10
11.26313250914953
 20
5.422486880777928
  0
LINE
  5
316
330
2
100
AcDbEntity
  8
0
100
AcDbLine
 10
11.24814287845217
 20
5.37561116723948
 30
0.0
 11
11.26313250914953
 21
5.422486880777928
 31
0.0
  0
LINE
  5
317
330
2
100
AcDbEntity
  8
0
100
AcDbLine
 10
10.91823592969032
 20
5.661318965736551
 30
0.0
 11
11.24814287845217
 21
5.37561116723948
 31
0.0
  0
LINE
  5
318
330
2
100
AcDbEntity
  8
0
100
AcDbLine
 10
10.91823592969032
 20
5.661318965736551
 30
0.0
 11
10.93322556038767
 21
5.708194679292358
 31
0.0
  0
ARC
  5
319
330
2
100
AcDbEntity
  8
0
100
AcDbCircle
 10
10.82381114072243
 20
5.750099184955324
 30
0.0
 40
0.1171644264540997
100
AcDbArc
 50
339.0437159553999
 51
39.05089474629932
  0
LINE
  5
31A
330
2
100
AcDbEntity
  8
0
100
AcDbLine
 10
10.91479946916898
 20
5.823913999933079
 30
0.0
 11
10.72565057478469
 21
5.987721747573335
 31
0.0
  0
ARC
  5
31B
330
2
100
AcDbEntity
  8
0
100
AcDbCircle
 10
10.76356236816092
 20
6.086595593986587
 30
0.0
 40
0.1058930667311378
100
AcDbArc
 50
249.0213774178013
 51
266.2678106305012
  0
LINE
  5
31C
330
2
100
AcDbEntity
  8
0
100
AcDbLine
 10
10.81868893289115
 20
5.976981466209071
 30
0.0
 11
10.91058296714279
 21
5.897398898099591
 31
0.0
  0
ARC
  5
31D
330
2
100
AcDbEntity
  8
0
100
AcDbCircle
 10
10.93245563617394
 20
5.920890226143669
 30
0.0
 40
0.0320976034149723
100
AcDbArc
 50
227.0435368763007
 51
265.708141502499
  0
ARC
  5
31E
330
2
100
AcDbEntity
  8
0
100
AcDbCircle
 10
10.79434742248564
 20
6.472988035456346
 30
0.0
 40
0.1317800723131004
100
AcDbArc
 50
89.12629109570113
 51
136.0852440301999
  0
ARC
  5
31F
330
2
100
AcDbEntity
  8
0
100
AcDbCircle
 10
10.59178097362522
 20
6.514116702906793
 30
0.0
 40
0.058343162637817
100
AcDbArc
 50
98.65577817069841
 51
171.4943790266989
  0
LINE
  5
320
330
2
100
AcDbEntity
  8
0
100
AcDbLine
 10
10.50254016209523
 20
6.250774333086017
 30
0.0
 11
10.59952561648035
 21
6.166782465798302
 31
0.0
  0
ARC
  5
321
330
2
100
AcDbEntity
  8
0
100
AcDbCircle
 10
10.56866849096141
 20
6.134901658047773
 30
0.0
 40
0.0443683231351626
100
AcDbArc
 50
12.64127007409919
 51
45.93480075340132
  0
ARC
  5
322
330
2
100
AcDbEntity
  8
0
100
AcDbCircle
 10
10.92174914167418
 20
6.223310824462053
 30
0.0
 40
0.3196280532025923
100
AcDbArc
 50
194.2540379190003
 51
212.6063301682005
  0
LINE
  5
323
330
2
100
AcDbEntity
  8
0
100
AcDbLine
 10
10.65249674947546
 20
6.051074818671864
 30
0.0
 11
10.50153825656988
 21
6.181808708440197
 31
0.0
  0
LINE
  5
324
330
2
100
AcDbEntity
  8
0
100
AcDbLine
 10
10.50153825656988
 20
6.181808708440197
 30
0.0
 11
10.50164548652063
 21
6.183972284379787
 31
0.0
  0
ARC
  5
325
330
2
100
AcDbEntity
  8
0
100
AcDbCircle
 10
10.4014526123957
 20
6.195952802942503
 30
0.0
 40
0.1009066145145579
100
AcDbArc
 50
353.1812578351987
 51
41.75547964539906
  0
LINE
  5
326
330
2
100
AcDbEntity
  8
0
100
AcDbLine
 10
11.15945295627588
 20
6.869037270127751
 30
0.0
 11
11.20353642848906
 21
6.830859863301753
 31
0.0
  0
ARC
  5
327
330
2
100
AcDbEntity
  8
0
100
AcDbCircle
 10
11.26915443559984
 20
6.901333847433964
 30
0.0
 40
0.0962928102118125
100
AcDbArc
 50
227.0435368693986
 51
265.7081415094002
  0
LINE
  5
328
330
2
100
AcDbEntity
  8
0
100
AcDbLine
 10
11.59869862911631
 20
6.783887212822559
 30
0.0
 11
11.56473396398503
 21
6.677672593852395
 31
0.0
  0
ARC
  5
329
330
2
100
AcDbEntity
  8
0
100
AcDbCircle
 10
11.98526246870588
 20
6.54623155770734
 30
0.0
 40
0.4405916128102692
100
AcDbArc
 50
162.6427632501008
 51
187.3464696790014
  0
LINE
  5
32A
330
2
100
AcDbEntity
  8
0
100
AcDbLine
 10
11.75505437067184
 20
6.213564714145729
 30
0.0
 11
11.7849657119873
 21
6.18766073270773
 31
0.0
  0
ARC
  5
32B
330
2
100
AcDbEntity
  8
0
100
AcDbCircle
 10
11.85111955724596
 20
6.259359793477116
 30
0.0
 40
0.0975555562592067
100
AcDbArc
 50
227.303515066101
 51
265.4481633126989
  0
LINE
  5
32C
330
2
100
AcDbEntity
  8
0
100
AcDbLine
 10
11.98623448961028
 20
6.153023458880372
 30
0.0
 11
12.0717126094413
 21
6.078997235640414
 31
0.0
  0
ARC
  5
32D
330
2
100
AcDbEntity
  8
0
100
AcDbCircle
 10
12.13733061655208
 20
6.149471219772625
 30
0.0
 40
0.096292810211303
100
AcDbArc
 50
227.0435368692996
 51
265.7081415095014
  0
LINE
  5
32E
330
2
100
AcDbEntity
  8
0
100
AcDbLine
 10
12.22784509313683
 20
6.047231504208586
 30
0.0
 11
12.13169330744718
 21
5.746544739273637
 31
0.0
  0
LINE
  5
32F
330
2
100
AcDbEntity
  8
0
100
AcDbLine
 10
11.93402068708258
 20
5.12838106914917
 30
0.0
 11
11.90214642255021
 21
5.028703570485269
 31
0.0
  0
LINE
  5
330
330
2
100
AcDbEntity
  8
0
100
AcDbLine
 10
11.90214642255021
 20
5.028703570485269
 30
0.0
 11
11.79957445670835
 21
5.117533498624556
 31
0.0
  0
ARC
  5
331
330
2
100
AcDbEntity
  8
0
100
AcDbCircle
 10
11.77716908149227
 20
5.090202694966556
 30
0.0
 40
0.0353408215456315
100
AcDbArc
 50
50.65562358210142
 51
152.5465227325988
  0
LINE
  5
332
330
2
100
AcDbEntity
  8
0
100
AcDbLine
 10
11.74580814998435
 20
5.10649581138977
 30
0.0
 11
11.74478524864253
 21
5.105125230126301
 31
0.0
  0
LINE
  5
333
330
2
100
AcDbEntity
  8
0
100
AcDbLine
 10
11.74478524864253
 20
5.105125230126301
 30
0.0
 11
11.59382675573692
 21
5.235859119911996
 31
0.0
  0
ARC
  5
334
330
2
100
AcDbEntity
  8
0
100
AcDbCircle
 10
11.63173854911315
 20
5.334732966325248
 30
0.0
 40
0.1058930667307958
100
AcDbArc
 50
249.0213774178013
 51
266.2678106305991
  0
LINE
  5
335
330
2
100
AcDbEntity
  8
0
100
AcDbLine
 10
11.68686511384338
 20
5.225118838547732
 30
0.0
 11
11.77875914809502
 21
5.14553627042089
 31
0.0
  0
ARC
  5
336
330
2
100
AcDbEntity
  8
0
100
AcDbCircle
 10
11.80063181712617
 20
5.169027598482319
 30
0.0
 40
0.0320976034149478
100
AcDbArc
 50
227.0435368763986
 51
265.7081415026003
  0
ARC
  5
337
330
2
100
AcDbEntity
  8
0
100
AcDbCircle
 10
11.66252360343787
 20
5.721125407795007
 30
0.0
 40
0.1317800723131554
100
AcDbArc
 50
89.12629109570113
 51
136.0852440301999
  0
ARC
  5
338
330
2
100
AcDbEntity
  8
0
100
AcDbCircle
 10
11.45995715457746
 20
5.762254075228096
 30
0.0
 40
0.0583431626378297
100
AcDbArc
 50
98.65577817069841
 51
171.4943790266989
  0
LINE
  5
339
330
2
100
AcDbEntity
  8
0
100
AcDbLine
 10
11.40225568750401
 20
5.770883404561608
 30
0.0
 11
11.3522902518288
 21
5.614631026065403
 31
0.0
  0
ARC
  5
33A
330
2
100
AcDbEntity
  8
0
100
AcDbCircle
 10
11.46170467151143
 20
5.572726520402426
 30
0.0
 40
0.1171644264540474
100
AcDbArc
 50
159.0437159552993
 51
219.0508947462993
  0
LINE
  5
33B
330
2
100
AcDbEntity
  8
0
100
AcDbLine
 10
11.37071634304746
 20
5.498911705424678
 30
0.0
 11
11.46770179743259
 21
5.414919838136963
 31
0.0
  0
ARC
  5
33C
330
2
100
AcDbEntity
  8
0
100
AcDbCircle
 10
11.43684467191366
 20
5.383039030386434
 30
0.0
 40
0.0443683231353009
100
AcDbArc
 50
12.64127007409919
 51
45.93480075330163
  0
ARC
  5
33D
330
2
100
AcDbEntity
  8
0
100
AcDbCircle
 10
11.78992532262643
 20
5.471448196800704
 30
0.0
 40
0.3196280532021898
100
AcDbArc
 50
194.2540379190003
 51
212.6063301682005
  0
LINE
  5
33E
330
2
100
AcDbEntity
  8
0
100
AcDbLine
 10
10.63114226990745
 20
5.841960091097181
 30
0.0
 11
10.21788105730834
 21
6.199854799621657
 31
0.0
  0
LINE
  5
33F
330
2
100
AcDbEntity
  8
0
100
AcDbLine
 10
10.21788105730834
 20
6.199854799621657
 30
0.0
 11
10.50153825656988
 21
6.181808708440197
 31
0.0
  0
LINE
  5
340
330
2
100
AcDbEntity
  8
0
100
AcDbLine
 10
10.65249674947546
 20
6.051074818671864
 30
0.0
 11
11.00706824856108
 21
6.028517204699387
 31
0.0
  0
LINE
  5
341
330
2
100
AcDbEntity
  8
0
100
AcDbLine
 10
10.9128211670271
 20
6.36776369458003
 30
0.0
 11
11.02690353191134
 21
6.360505846843405
 31
0.0
  0
LINE
  5
342
330
2
100
AcDbEntity
  8
0
100
AcDbLine
 10
11.06934565850463
 20
6.084356745887212
 30
0.0
 11
11.16876436338157
 21
6.0780317909275
 31
0.0
  0
LINE
  5
343
330
2
100
AcDbEntity
  8
0
100
AcDbLine
 10
10.21788105730834
 20
6.199854799621657
 30
0.0
 11
10.21464990425363
 21
6.13465991465064
 31
0.0
  0
LINE
  5
344
330
2
100
AcDbEntity
  8
0
100
AcDbLine
 10
11.23526581533988
 20
6.180058816210941
 30
0.0
 11
11.01630981394896
 21
6.193988658201693
 31
0.0
  0
LINE
  5
345
330
2
100
AcDbEntity
  8
0
100
AcDbLine
 10
10.74876758516092
 20
5.672100434368559
 30
0.0
 11
10.91823592969032
 21
5.661318965736551
 31
0.0
  0
LINE
  5
346
330
2
100
AcDbEntity
  8
0
100
AcDbLine
 10
11.24814287845217
 20
5.37561116723948
 30
0.0
 11
11.07867453392276
 21
5.386392635854125
 31
0.0
  0
ARC
  5
347
330
2
100
AcDbEntity
  8
0
100
AcDbCircle
 10
10.55274409377193
 20
5.772968856938298
 30
0.0
 40
0.1044321043192553
100
AcDbArc
 50
349.0192727293996
 51
41.34812284049955
  0
LINE
  5
348
330
2
100
AcDbEntity
  8
0
100
AcDbLine
 10
11.32642431433987
 20
6.10111324030381
 30
0.0
 11
11.0422293809552
 21
6.119193541776681
 31
0.0
  0
LWPOLYLINE
  5
349
330
2
100
AcDbEntity
  8
0
100
AcDbPolyline
 90
       17
 70
   128
 43
0.0
 10
11.58840348336707
 20
6.383018098193716
 10
11.6141330254641
 20
6.437090081242896
 10
11.64916267335698
 20
6.47148366808712
 10
11.68815948073282
 20
6.480962746926781
 10
11.72518653712014
 20
6.464084213922063
 10
11.75460680888639
 20
6.423417672728579
 10
11.77194132632249
 20
6.365154235577826
 10
11.77455106630125
 20
6.298163982649381
 10
11.76203871955752
 20
6.232645572657975
 10
11.73630917746049
 20
6.178573589608788
 10
11.70127952955025
 20
6.144180002747212
 10
11.66228272219177
 20
6.134700923924903
 10
11.62525566578708
 20
6.151579456929631
 10
11.59583539402084
 20
6.192245998123116
 10
11.57850087658472
 20
6.250509435256496
 10
11.57589113660597
 20
6.317499688202314
 10
11.58840348336707
 20
6.383018098193716
  0
LINE
  5
34A
330
2
100
AcDbEntity
  8
0
100
AcDbLine
 10
9.8998197637531
 20
8.826552163039099
 30
0.0
 11
10.67869812636587
 21
8.777000415449812
 31
0.0
  0
LINE
  5
34B
330
2
100
AcDbEntity
  8
0
100
AcDbLine
 10
10.86843039275939
 20
8.724831871797253
 30
0.0
 11
10.67869812636587
 21
8.777000415449812
 31
0.0
  0
LINE
  5
34C
330
2
100
AcDbEntity
  8
0
100
AcDbLine
 10
12.15462814676582
 20
5.224248709838551
 30
0.0
 11
12.0369405443338
 21
5.326169163248788
 31
0.0
  0
LINE
  5
34D
330
2
100
AcDbEntity
  8
0
100
AcDbLine
 10
12.1946004952921
 20
5.349250612642471
 30
0.0
 11
12.15462814676582
 21
5.224248709838551
 31
0.0
  0
LINE
  5
34E
330
2
100
AcDbEntity
  8
0
100
AcDbLine
 10
12.10344199629212
 20
5.428196188549595
 30
0.0
 11
12.1946004952921
 21
5.349250612642471
 31
0.0
  0
LWPOLYLINE
  5
34F
330
2
100
AcDbEntity
  8
0
100
AcDbPolyline
 90
        9
 70
   128
 43
0.0
 10
11.89507971286357
 20
5.608643219182066
 10
11.92595516339391
 20
5.673529598841085
 10
11.96799074087924
 20
5.714801903071514
 10
12.01478690970246
 20
5.726176797661754
 10
12.05921937738464
 20
5.705922558063033
 10
12.09452370351107
 20
5.657122708623905
 10
12.11532512443094
 20
5.587206584049951
 10
12.1184568123985
 20
5.506818280535807
 10
12.10344199629212
 20
5.428196188549595
  0
LINE
  5
350
330
2
100
AcDbEntity
  8
0
100
AcDbLine
 10
11.8039212138636
 20
5.687588795089201
 30
0.0
 11
11.89507971286357
 21
5.608643219182066
 31
0.0
  0
LINE
  5
351
330
2
100
AcDbEntity
  8
0
100
AcDbLine
 10
11.76394886533731
 20
5.562586892285292
 30
0.0
 11
11.8039212138636
 21
5.687588795089201
 31
0.0
  0
LINE
  5
352
330
2
100
AcDbEntity
  8
0
100
AcDbLine
 10
11.88163646776934
 20
5.460666438875033
 30
0.0
 11
11.76394886533731
 21
5.562586892285292
 31
0.0
  0
LWPOLYLINE
  5
353
330
2
100
AcDbEntity
  8
0
100
AcDbPolyline
 90
        9
 70
   128
 43
0.0
 10
12.0369405443338
 20
5.326169163248788
 10
12.01228627213948
 20
5.31378770147857
 10
11.98705823515618
 20
5.310420203247268
 10
11.96236771901985
 20
5.316215005606
 10
11.93930233177106
 20
5.330916849668636
 10
11.91887809514998
 20
5.353878124674174
 10
11.90199468915918
 20
5.384087395023119
 10
11.88939582155733
 20
5.420213953568552
 10
11.88163646776934
 20
5.460666438875033
  0
LWPOLYLINE
  5
354
330
2
100
AcDbEntity
  8
0
100
AcDbPolyline
 90
        9
 70
   128
 43
0.0
 10
11.89661289194427
 20
5.761233741673574
 10
11.94191239136019
 20
5.806213550664399
 10
11.99174141169281
 20
5.82846270264687
 10
12.04216433589728
 20
5.826223905561533
 10
12.08919863893561
 20
5.799673985035745
 10
12.12912943733123
 20
5.750909918293995
 10
12.15880289964065
 20
5.683783209739583
 10
12.1758753437369
 20
5.603595689869074
 10
12.17899834652202
 20
5.516680763757232
  0
ARC
  5
355
330
2
100
AcDbEntity
  8
0
100
AcDbCircle
 10
12.23895482749998
 20
5.509748838214335
 30
0.0
 40
0.0603558713082768
100
AcDbArc
 50
173.4049753046987
 51
221.8056831266008
  0
LINE
  5
356
330
2
100
AcDbEntity
  8
0
100
AcDbLine
 10
12.19396496450808
 20
5.469515227502572
 30
0.0
 11
12.2332615185137
 21
5.435483413458197
 31
0.0
  0
ARC
  5
357
330
2
100
AcDbEntity
  8
0
100
AcDbCircle
 10
12.14227319004976
 20
5.361668598480452
 30
0.0
 40
0.1171644264540982
100
AcDbArc
 50
339.0437159553999
 51
39.05089474629932
  0
LINE
  5
358
330
2
100
AcDbEntity
  8
0
100
AcDbLine
 10
12.25168760973238
 20
5.319764092834834
 30
0.0
 11
12.20172217405717
 21
5.163511714338621
 31
0.0
  0
LWPOLYLINE
  5
359
330
2
100
AcDbEntity
  8
0
100
AcDbPolyline
 90
        9
 70
   128
 43
0.0
 10
12.20172217405717
 20
5.163511714338621
 10
12.19601419949157
 20
5.148992392389288
 10
12.18885740299998
 20
5.136475722805354
 10
12.18052681626784
 20
5.126442714172181
 10
12.17134257905354
 20
5.119278929383241
 10
12.16165763645468
 20
5.115259668668233
 10
12.15184417537429
 20
5.114539389963407
 10
12.1422793216135
 20
5.117145773173682
 10
12.13333064716326
 20
5.122978656465765
  0
LINE
  5
35A
330
2
100
AcDbEntity
  8
0
100
AcDbLine
 10
12.13333064716326
 20
5.122978656465765
 30
0.0
 11
12.03634519277815
 21
5.206970523753479
 31
0.0
  0
ARC
  5
35B
330
2
100
AcDbEntity
  8
0
100
AcDbCircle
 10
12.02354059711304
 20
5.193429482102533
 30
0.0
 40
0.0186364556474775
100
AcDbArc
 50
46.60118585699971
 51
106.6551975952003
  0
ARC
  5
35C
330
2
100
AcDbEntity
  8
0
100
AcDbCircle
 10
11.98617808639162
 20
5.311916199019311
 30
0.0
 40
0.1056038510850766
100
AcDbArc
 50
249.0378887458001
 51
287.6510437475999
  0
LINE
  5
35D
330
2
100
AcDbEntity
  8
0
100
AcDbLine
 10
11.87524442951331
 20
5.276654577038041
 30
0.0
 11
11.94839825480518
 21
5.213301505939512
 31
0.0
  0
ARC
  5
35E
330
2
100
AcDbEntity
  8
0
100
AcDbCircle
 10
12.14449682169467
 20
5.448890582845592
 30
0.0
 40
0.319628053202144
100
AcDbArc
 50
194.2540379188994
 51
212.6063301682005
  0
ARC
  5
35F
330
2
100
AcDbEntity
  8
0
100
AcDbCircle
 10
11.7914161709819
 20
5.36048141641395
 30
0.0
 40
0.0443683231354059
100
AcDbArc
 50
12.64127007419883
 51
45.93480075340132
  0
LINE
  5
360
330
2
100
AcDbEntity
  8
0
100
AcDbLine
 10
11.82227329650084
 20
5.392362224164468
 30
0.0
 11
11.72528784211572
 21
5.476354091469545
 31
0.0
  0
ARC
  5
361
330
2
100
AcDbEntity
  8
0
100
AcDbCircle
 10
11.81627617057967
 20
5.5501689064473
 30
0.0
 40
0.1171644264540613
100
AcDbArc
 50
159.0437159553999
 51
219.0508947462993
  0
LINE
  5
362
330
2
100
AcDbEntity
  8
0
100
AcDbLine
 10
11.70686175091438
 20
5.592073412092915
 30
0.0
 11
11.75682718658962
 21
5.748325790606493
 31
0.0
  0
LWPOLYLINE
  5
363
330
2
100
AcDbEntity
  8
0
100
AcDbPolyline
 90
        9
 70
   128
 43
0.0
 10
11.75682718658962
 20
5.748325790606493
 10
11.76253516113786
 20
5.762845112538464
 10
11.76969195762943
 20
5.775361782122399
 10
11.77802254436156
 20
5.785394790755571
 10
11.78720678157587
 20
5.792558575544507
 10
11.79689172419211
 20
5.796577836259526
 10
11.80670518525512
 20
5.797298114964345
 10
11.81627003901593
 20
5.794691731754078
 10
11.82521871346614
 20
5.788858848461984
  0
LINE
  5
364
330
2
100
AcDbEntity
  8
0
100
AcDbLine
 10
11.82521871346614
 20
5.788858848461984
 30
0.0
 11
11.86451526745439
 21
5.754827034417619
 31
0.0
  0
ARC
  5
365
330
2
100
AcDbEntity
  8
0
100
AcDbCircle
 10
11.87794705604366
 20
5.771141685169641
 30
0.0
 40
0.021132457824274
100
AcDbArc
 50
230.5355060671997
 51
332.0403552990997
  0
LINE
  5
366
330
2
100
AcDbEntity
  8
0
100
AcDbLine
 10
8.532593340089164
 20
8.415888152635062
 30
0.0
 11
8.199250654517669
 21
8.704571386504351
 31
0.0
  0
ELLIPSE
  5
367
330
2
100
AcDbEntity
  8
0
100
AcDbEllipse
 10
8.268039712183139
 20
8.693413786532364
 30
0.0
 11
0.0808490771980755
 21
-0.0321555779219111
 31
0.0
210
0.0
220
0.0
230
1.0
 40
0.2776095149
 41
2.243695325383966
 42
3.814491652178651
  0
LINE
  5
368
330
2
100
AcDbEntity
  8
0
100
AcDbLine
 10
8.224630903135519
 20
8.731006917907606
 30
0.0
 11
8.790468441375139
 21
8.639227947281913
 31
0.0
  0
ELLIPSE
  5
369
330
2
100
AcDbEntity
  8
0
100
AcDbEllipse
 10
8.833877250422744
 20
8.601634815906667
 30
0.0
 11
0.0808490771980952
 21
-0.0321555779219111
 31
0.0
210
0.0
220
0.0
230
0.9999999999999998
 40
0.2776095149
 41
1.894629474984885
 42
2.243695325383501
  0
LINE
  5
36A
330
2
100
AcDbEntity
  8
0
100
AcDbLine
 10
8.893049247473044
 20
8.610698483990493
 30
0.0
 11
8.816613556247034
 21
8.63314468012135
 31
0.0
  0
LINE
  5
36B
330
2
100
AcDbEntity
  8
0
100
AcDbLine
 10
11.46112804938097
 20
5.123171321290399
 30
0.0
 11
11.74478524864253
 21
5.105125230126301
 31
0.0
  0
LINE
  5
36C
330
2
100
AcDbEntity
  8
0
100
AcDbLine
 10
11.46112804938097
 20
5.123171321290399
 30
0.0
 11
11.16341111662655
 21
5.381001748192154
 31
0.0
  0
LINE
  5
36D
330
2
100
AcDbEntity
  8
0
100
AcDbLine
 10
11.52067293042771
 20
5.299212190993163
 30
0.0
 11
11.87524442951331
 21
5.276654577038041
 31
0.0
  0
LINE
  5
36E
330
2
100
AcDbEntity
  8
0
100
AcDbLine
 10
11.78099734797934
 20
5.615901066901333
 30
0.0
 11
11.89507971286357
 21
5.608643219182066
 31
0.0
  0
LINE
  5
36F
330
2
100
AcDbEntity
  8
0
100
AcDbLine
 10
11.93752183945686
 20
5.332494118225863
 30
0.0
 11
12.0369405443338
 21
5.326169163248788
 31
0.0
  0
LINE
  5
370
330
2
100
AcDbEntity
  8
0
100
AcDbLine
 10
12.10344199629212
 20
5.428196188549595
 30
0.0
 11
11.88448599490119
 21
5.442126030522995
 31
0.0
  0
LINE
  5
371
330
2
100
AcDbEntity
  8
0
100
AcDbLine
 10
11.43030503358392
 20
5.081871690398592
 30
0.0
 11
11.46112804938097
 21
5.123171321290399
 31
0.0
  0
LINE
  5
372
330
2
100
AcDbEntity
  8
0
100
AcDbLine
 10
7.44912350736098
 20
8.272184267067967
 30
0.0
 11
7.146417795730698
 21
7.575193121629421
 31
0.0
  0
ARC
  5
373
330
2
100
AcDbEntity
  8
0
100
AcDbCircle
 10
7.505890399982888
 20
8.24957067464069
 30
0.0
 40
0.0611052752247231
100
AcDbArc
 50
91.28714461489987
 51
158.2796989518022
  0
LINE
  5
374
330
2
100
AcDbEntity
  8
0
100
AcDbLine
 10
7.764983571029688
 20
8.294089863642849
 30
0.0
 11
7.504517790850854
 21
8.310660531441872
 31
0.0
  0
LINE
  5
375
330
2
100
AcDbEntity
  8
0
100
AcDbLine
 10
8.725726520745752
 20
8.446533008782576
 30
0.0
 11
7.764983571029688
 21
8.294089863642849
 31
0.0
  0
LINE
  5
376
330
2
100
AcDbEntity
  8
0
100
AcDbLine
 10
12.1946004952921
 20
5.349250612642471
 30
0.0
 11
11.91040556190744
 21
5.367330914115335
 31
0.0
  0
ARC
  5
377
330
2
100
AcDbEntity
  8
0
100
AcDbCircle
 10
9.712062380536835
 20
9.587180301646167
 30
0.0
 40
0.7834589971232195
100
AcDbArc
 50
248.8535773512994
 51
283.8659920681995
  0
LINE
  5
378
330
2
100
AcDbEntity
  8
0
100
AcDbLine
 10
11.90214642255021
 20
5.028703570485269
 30
0.0
 11
11.45915560152471
 21
5.056886365662311
 31
0.0
  0
LINE
  5
379
330
2
100
AcDbEntity
  8
0
100
AcDbLine
 10
9.083126380515381
 20
8.878509678273918
 30
0.0
 11
9.429427514239549
 21
8.856478219715089
 31
0.0
  0
LINE
  5
37A
330
2
100
AcDbEntity
  8
0
100
AcDbLine
 10
8.906898869429042
 20
8.91548575728326
 30
0.0
 11
9.083126380515381
 21
8.878509678273918
 31
0.0
  0
ARC
  5
37B
330
2
100
AcDbEntity
  8
0
100
AcDbCircle
 10
8.866640469786972
 20
8.728220684778243
 30
0.0
 40
0.1915435880313701
100
AcDbArc
 50
77.86716998160139
 51
85.99250238050036
  0
LINE
  5
37C
330
2
100
AcDbEntity
  8
0
100
AcDbLine
 10
8.880026878928788
 20
8.919295932176805
 30
0.0
 11
8.296707755232475
 21
8.956406324986755
 31
0.0
  0
LWPOLYLINE
  5
37D
330
2
100
AcDbEntity
  8
0
100
AcDbPolyline
 90
        6
 70
   128
 43
0.0
 10
8.25742394341394
 20
8.945256137190458
 10
8.259277918750456
 20
8.948585680096112
 10
8.264625584573792
 20
8.952577207756473
 10
8.272874326410004
 20
8.955271203278581
 10
8.283707149746717
 20
8.956564137937775
 10
8.296707755232475
 20
8.956406324986755
  0
SPLINE
  5
37E
330
2
100
AcDbEntity
  8
0
100
AcDbSpline
210
0.0
220
0.0
230
1.0
 70
     8
 71
     3
 72
    11
 73
     7
 74
     0
 42
0.000000001
 43
0.0000000001
 40
0.0
 40
0.0
 40
0.0
 40
0.0
 40
0.1089984279186812
 40
0.4589446938294535
 40
0.8111985354284056
 40
1.0
 40
1.0
 40
1.0
 40
1.0
 10
20.63678288038821
 20
11.79317758384014
 30
0.0
 10
20.63292318553198
 20
11.79350087596712
 30
0.0
 10
20.61667169908486
 20
11.79486211767549
 30
0.0
 10
20.59548859709432
 20
11.7701225494281
 30
0.0
 10
20.57973847181736
 20
11.72982589399209
 30
0.0
 10
20.57648510347048
 20
11.69666881970668
 30
0.0
 10
20.57534983929011
 20
11.68509864542949
 30
0.0
  0
ARC
  5
37F
330
2
100
AcDbEntity
  8
0
100
AcDbCircle
 10
20.73426147550216
 20
11.31731908677427
 30
0.0
 40
0.4815384623355034
100
AcDbArc
 50
105.2232784569004
 51
113.9256659958017
  0
SPLINE
  5
380
330
2
100
AcDbEntity
  8
0
100
AcDbSpline
210
0.0
220
0.0
230
1.0
 70
     8
 71
     3
 72
    11
 73
     7
 74
     0
 42
0.000000001
 43
0.0000000001
 40
0.0
 40
0.0
 40
0.0
 40
0.0
 40
0.2953582438309844
 40
0.5907613611905688
 40
0.8771021526757053
 40
1.0
 40
1.0
 40
1.0
 40
1.0
 10
20.45267082447086
 20
11.64968426431413
 30
0.0
 10
20.4555186154889
 20
11.67149558839916
 30
0.0
 10
20.46121463018736
 20
11.71512155034525
 30
0.0
 10
20.48680666110874
 20
11.75326838540164
 30
0.0
 10
20.51482579026879
 20
11.76385231807171
 30
0.0
 10
20.53339618017734
 20
11.75895177028857
 30
0.0
 10
20.53897302636759
 20
11.75748009406805
 30
0.0
  0
LINE
  5
381
330
2
100
AcDbEntity
  8
0
100
AcDbLine
 10
20.26652029469574
 20
11.43535774299949
 30
0.0
 11
20.29545906700983
 21
11.44761108901777
 31
0.0
  0
SPLINE
  5
382
330
2
100
AcDbEntity
  8
0
100
AcDbSpline
210
0.0
220
0.0
230
1.0
 70
     8
 71
     3
 72
     9
 73
     5
 74
     0
 42
0.000000001
 43
0.0000000001
 40
0.0
 40
0.0
 40
0.0
 40
0.0
 40
0.4999999999999641
 40
1.0
 40
1.0
 40
1.0
 40
1.0
 10
20.26652029469222
 20
11.31122511036701
 30
0.0
 10
20.26598097190819
 20
11.33238094970549
 30
0.0
 10
20.26490232634026
 20
11.37469262838245
 30
0.0
 10
20.26598097190825
 20
11.41513603813234
 30
0.0
 10
20.26652029469222
 20
11.43535774300727
 30
0.0
  0
LINE
  5
383
330
2
100
AcDbEntity
  8
0
100
AcDbLine
 10
20.29545906700983
 20
11.32347845636625
 30
0.0
 11
20.26652029469574
 21
11.31122511036533
 31
0.0
  0
SPLINE
  5
384
330
2
100
AcDbEntity
  8
0
100
AcDbSpline
210
0.0
220
0.0
230
1.0
 70
     8
 71
     3
 72
    11
 73
     7
 74
     0
 42
0.000000001
 43
0.0000000001
 40
0.0
 40
0.0
 40
0.0
 40
0.0
 40
0.2819572669450607
 40
0.5639729008901072
 40
0.8478481701106563
 40
1.0
 40
1.0
 40
1.0
 40
1.0
 10
20.5389730263673
 20
10.95467932112557
 30
0.0
 10
20.52632914140338
 20
10.97459967951534
 30
0.0
 10
20.50103875410855
 20
11.01444451993952
 30
0.0
 10
20.47245260542783
 20
11.09188907393286
 30
0.0
 10
20.45704008306799
 20
11.15994267381112
 30
0.0
 10
20.45380107694663
 20
11.19866081928294
 30
0.0
 10
20.45267082447063
 20
11.21217153156547
 30
0.0
  0
ARC
  5
385
330
2
100
AcDbEntity
  8
0
100
AcDbCircle
 10
20.4748289785243
 20
11.40742624421354
 30
0.0
 40
0.4572682311683228
100
AcDbArc
 50
278.0638541181009
 51
294.1403733855993
  0
SPLINE
  5
386
330
2
100
AcDbEntity
  8
0
100
AcDbSpline
210
0.0
220
0.0
230
1.0
 70
     8
 71
     3
 72
    11
 73
     7
 74
     0
 42
0.000000001
 43
0.0000000001
 40
0.0
 40
0.0
 40
0.0
 40
0.0
 40
0.295358243832067
 40
0.5907613611910529
 40
0.8771021526762281
 40
1.0
 40
1.0
 40
1.0
 40
1.0
 10
20.57534983928983
 20
11.24758591267978
 30
0.0
 10
20.5782225768844
 20
11.22082046549313
 30
0.0
 10
20.5839684885261
 20
11.16728550466818
 30
0.0
 10
20.60962249153897
 20
11.08475830238166
 30
0.0
 10
20.6376774302141
 20
11.02561280247291
 30
0.0
 10
20.65625931013221
 20
10.99833854077793
 30
0.0
 10
20.66183960687013
 20
10.9901478477891
 30
0.0
  0
LINE
  5
387
330
2
100
AcDbEntity
  8
0
100
AcDbLine
 10
20.76825440075788
 20
11.45606327096044
 30
0.0
 11
20.73256159674961
 21
11.44965908797882
 31
0.0
  0
SPLINE
  5
388
330
2
100
AcDbEntity
  8
0
100
AcDbSpline
210
0.0
220
0.0
230
1.0
 70
     8
 71
     3
 72
     9
 73
     5
 74
     0
 42
0.000000001
 43
0.0000000001
 40
0.0
 40
0.0
 40
0.0
 40
0.0
 40
0.4999999999998054
 40
1.0
 40
1.0
 40
1.0
 40
1.0
 10
20.76825440075808
 20
11.58019590360717
 30
0.0
 10
20.76771507797409
 20
11.55997419873221
 30
0.0
 10
20.76663643240613
 20
11.51953078898231
 30
0.0
 10
20.76771507797409
 20
11.47721911030537
 30
0.0
 10
20.76825440075805
 20
11.45606327096687
 30
0.0
  0
LINE
  5
389
330
2
100
AcDbEntity
  8
0
100
AcDbLine
 10
20.73256159674961
 20
11.57379172061298
 30
0.0
 11
20.76825440075788
 21
11.58019590361198
 31
0.0
  0
LWPOLYLINE
  5
38A
330
2
100
AcDbEntity
  8
0
100
AcDbPolyline
 90
       12
 70
   128
 43
0.0
 10
20.35638449381213
 20
10.95169415026206
 10
20.36476331304434
 20
10.9447293504988
 10
20.4724899486931
 20
10.89198034543236
 10
20.60160473648762
 20
10.88492741153129
 10
20.73811608570157
 20
10.92433484365076
 10
20.86723087349611
 20
11.00593223501808
 10
20.97495750916221
 20
11.12087724218938
 10
21.04962214018312
 20
11.2567137900762
 10
21.08313369524072
 20
11.3987218809825
 10
21.07186067737479
 20
11.53151273477694
 10
21.01702469296603
 20
11.64069640201662
 10
20.98333632837705
 20
11.67563577116816
  0
SPLINE
  5
38B
330
2
100
AcDbEntity
  8
0
100
AcDbSpline
210
0.0
220
0.0
230
1.0
 70
     8
 71
     3
 72
    12
 73
     8
 74
     0
 42
0.000000001
 43
0.0000000001
 40
0.0
 40
0.0
 40
0.0
 40
0.0
 40
0.2136756813955037
 40
0.4277060761797263
 40
0.6407655103545489
 40
0.8534136605641949
 40
1.0
 40
1.0
 40
1.0
 40
1.0
 10
20.6293661556899
 20
11.42805407537336
 30
0.0
 10
20.62221133363201
 20
11.42569744072849
 30
0.0
 10
20.60788981211786
 20
11.42098025929551
 30
0.0
 10
20.58919797359081
 20
11.40560854329885
 30
0.0
 10
20.57547049952032
 20
11.38615796710254
 30
0.0
 10
20.56852973634929
 20
11.36635103103126
 30
0.0
 10
20.56831888354762
 20
11.35419099926296
 30
0.0
 10
20.56823284464753
 20
11.34922907440409
 30
0.0
  0
ARC
  5
38C
330
2
100
AcDbEntity
  8
0
100
AcDbCircle
 10
21.21397641502586
 20
8.892944434567347
 30
0.0
 40
2.601643720076643
100
AcDbArc
 50
100.6636138398014
 51
102.9857104243986
  0
ARC
  5
38D
330
2
100
AcDbEntity
  8
0
100
AcDbCircle
 10
23.3261917156793
 20
11.49126899420287
 30
0.0
 40
2.761614106486363
100
AcDbArc
 50
182.9482324798015
 51
185.0623272552003
  0
ARC
  5
38E
330
2
100
AcDbEntity
  8
0
100
AcDbCircle
 10
23.20222282339958
 20
11.45306468197194
 30
0.0
 40
2.760084365511103
100
AcDbArc
 50
182.8912885642983
 51
185.0070005113989
  0
ARC
  5
38F
330
2
100
AcDbEntity
  8
0
100
AcDbCircle
 10
21.02213194630636
 20
9.548183701712339
 30
0.0
 40
1.918260915363273
100
AcDbArc
 50
109.4152786346986
 51
112.2605220742992
  0
SPLINE
  5
390
330
2
100
AcDbEntity
  8
0
100
AcDbSpline
210
0.0
220
0.0
230
1.0
 70
     8
 71
     3
 72
    12
 73
     8
 74
     0
 42
0.000000001
 43
0.0000000001
 40
0.0
 40
0.0
 40
0.0
 40
0.0
 40
0.2137038198242897
 40
0.4277627276812379
 40
0.6408403456118429
 40
0.8534856856418613
 40
1.0
 40
1.0
 40
1.0
 40
1.0
 10
20.44565194052953
 20
11.31384301540902
 30
0.0
 10
20.4446585980032
 20
11.32076476802536
 30
0.0
 10
20.44267026242292
 20
11.33461977436978
 30
0.0
 10
20.43180232701368
 20
11.35024983606935
 30
0.0
 10
20.41649189421898
 20
11.35955505969557
 30
0.0
 10
20.39979840155902
 20
11.36160386694579
 30
0.0
 10
20.38891677796915
 20
11.35859025072903
 30
0.0
 10
20.38447776707275
 20
11.35736088682821
 30
0.0
  0
ARC
  5
391
330
2
100
AcDbEntity
  8
0
100
AcDbCircle
 10
21.21397641504322
 20
9.017077067149426
 30
0.0
 40
2.601643720139001
100
AcDbArc
 50
100.6636138398014
 51
102.9857104243986
  0
ARC
  5
392
330
2
100
AcDbEntity
  8
0
100
AcDbCircle
 10
22.44803635556954
 20
11.49106817150866
 30
0.0
 40
1.882711505528515
100
AcDbArc
 50
174.0846479347008
 51
176.815080523801
  0
SPLINE
  5
393
330
2
100
AcDbEntity
  8
0
100
AcDbSpline
210
0.0
220
0.0
230
1.0
 70
     8
 71
     3
 72
    12
 73
     8
 74
     0
 42
0.000000001
 43
0.0000000001
 40
0.0
 40
0.0
 40
0.0
 40
0.0
 40
0.2137038198244068
 40
0.4277627276814759
 40
0.6408403456122
 40
0.8534856856423168
 40
1.0
 40
1.0
 40
1.0
 40
1.0
 10
20.56823284464781
 20
11.59566919154362
 30
0.0
 10
20.56857184636724
 20
11.58931411468884
 30
0.0
 10
20.56925041308779
 20
11.57659340145001
 30
0.0
 10
20.57928163394757
 20
11.56168795580601
 30
0.0
 10
20.59474842699783
 20
11.55224732022635
 30
0.0
 10
20.61246302935521
 20
11.54931420603808
 30
0.0
 10
20.62446863254556
 20
11.5513544273675
 30
0.0
 10
20.6293661556899
 20
11.55218670801363
 30
0.0
  0
SPLINE
  5
394
330
2
100
AcDbEntity
  8
0
100
AcDbSpline
210
0.0
220
0.0
230
1.0
 70
     8
 71
     3
 72
    12
 73
     8
 74
     0
 42
0.000000001
 43
0.0000000001
 40
0.0
 40
0.0
 40
0.0
 40
0.0
 40
0.2136756813955491
 40
0.4277060761798247
 40
0.6407655103546928
 40
0.8534136605643423
 40
1.0
 40
1.0
 40
1.0
 40
1.0
 10
20.38447776707275
 20
11.48149351946848
 30
0.0
 10
20.39098331691952
 20
11.48441244034221
 30
0.0
 10
20.40400521618375
 20
11.4902551276589
 30
0.0
 10
20.42187946399761
 20
11.50633489798303
 30
0.0
 10
20.43578253866096
 20
11.52563339960502
 30
0.0
 10
20.44376068995308
 20
11.54454193120987
 30
0.0
 10
20.44510385811987
 20
11.55572134910688
 30
0.0
 10
20.44565194052978
 20
11.56028313254854
 30
0.0
  0
ARC
  5
395
330
2
100
AcDbEntity
  8
0
100
AcDbCircle
 10
22.32553193666126
 20
11.45766982343017
 30
0.0
 40
1.882678488494668
100
AcDbArc
 50
174.1462230289013
 51
176.8756086671993
  0
ARC
  5
396
330
2
100
AcDbEntity
  8
0
100
AcDbCircle
 10
21.02213194630636
 20
9.672316334363866
 30
0.0
 40
1.918260915359206
100
AcDbArc
 50
109.4152786346986
 51
112.2605220744013
  0
LINE
  5
397
330
2
100
AcDbEntity
  8
0
100
AcDbLine
 10
5.986795386911438
 20
7.24043896668283
 30
0.0
 11
5.989521477309523
 21
7.248327629496191
 31
0.0
  0
LINE
  5
398
330
2
100
AcDbEntity
  8
0
100
AcDbLine
 10
1.589563150096665
 20
5.971067358871199
 30
0.0
 11
1.677405793874029
 21
6.225263256620639
 31
0.0
  0
ARC
  5
399
330
2
100
AcDbEntity
  8
0
100
AcDbCircle
 10
1.716324803235664
 20
6.21296219702852
 30
0.0
 40
0.0408167288845053
100
AcDbArc
 50
90.09026192159844
 51
162.4599132976992
  0
LINE
  5
39A
330
2
100
AcDbEntity
  8
0
100
AcDbLine
 10
1.905780044715413
 20
6.235738718360696
 30
0.0
 11
1.716260501905722
 21
6.253778875262778
 31
0.0
  0
LINE
  5
39B
330
2
100
AcDbEntity
  8
0
100
AcDbLine
 10
3.214277059472038
 20
6.602450198911512
 30
0.0
 11
1.905780044715413
 21
6.235738718360696
 31
0.0
  0
LINE
  5
39C
330
2
100
AcDbEntity
  8
0
100
AcDbLine
 10
3.49957785325968
 20
7.428043422053907
 30
0.0
 11
3.214277059472038
 21
6.602450198911512
 31
0.0
  0
ARC
  5
39D
330
2
100
AcDbEntity
  8
0
100
AcDbCircle
 10
3.539859335292874
 20
7.414568975541186
 30
0.0
 40
0.042475387022445
100
AcDbArc
 50
98.75617838209961
 51
161.504539704501
  0
LINE
  5
39E
330
2
100
AcDbEntity
  8
0
100
AcDbLine
 10
3.838372579625271
 20
7.485307283325905
 30
0.0
 11
3.533393308683898
 21
7.456549316202554
 31
0.0
  0
LINE
  5
39F
330
2
100
AcDbEntity
  8
0
100
AcDbLine
 10
5.972222246738013
 20
7.282188479804016
 30
0.0
 11
3.838372579625271
 21
7.485307283325905
 31
0.0
  0
ARC
  5
3A0
330
2
100
AcDbEntity
  8
0
100
AcDbCircle
 10
5.968745494698396
 20
7.259062793083412
 30
0.0
 40
0.0233855765583099
100
AcDbArc
 50
332.6741368041008
 51
81.45009550810078
  0
ELLIPSE
  5
3A1
330
2
100
AcDbEntity
  8
0
100
AcDbEllipse
 10
6.159521316032552
 20
8.334533101119284
 30
0.0
 11
0.4432251450019264
 21
1.494847747953939
 31
0.0
210
0.0
220
0.0
230
1.0
 40
0.0335502229
 41
2.272822368692144
 42
2.347513666504183
  0
SPLINE
  5
3A2
330
2
100
AcDbEntity
  8
0
100
AcDbSpline
210
0.0
220
0.0
230
1.0
 70
     8
 71
     3
 72
    11
 73
     7
 74
     0
 42
0.000000001
 43
0.0000000001
 40
0.0
 40
0.0
 40
0.0
 40
0.0
 40
0.26045863319046
 40
0.5188771184133957
 40
0.8198408187743231
 40
1.0
 40
1.0
 40
1.0
 40
1.0
 10
5.835008411511921
 20
7.38056530310374
 30
0.0
 10
5.836145342121284
 20
7.38919685964602
 30
0.0
 10
5.838410297869501
 20
7.406392362560364
 30
0.0
 10
5.829902901481375
 20
7.432658817259703
 30
0.0
 10
5.816907876382316
 20
7.452945653069495
 30
0.0
 10
5.806128727992955
 20
7.460570838614728
 30
0.0
 10
5.802092414979256
 20
7.463426132422387
 30
0.0
  0
LINE
  5
3A3
330
2
100
AcDbEntity
  8
0
100
AcDbLine
 10
4.638906429201298
 20
7.660583896078041
 30
0.0
 11
5.409856150737766
 21
7.587198039780162
 31
0.0
  0
LINE
  5
3A4
330
2
100
AcDbEntity
  8
0
100
AcDbLine
 10
5.409856150737766
 20
7.587198039780162
 30
0.0
 11
5.791531198989716
 21
7.468044629937164
 31
0.0
  0
ARC
  5
3A5
330
2
100
AcDbEntity
  8
0
100
AcDbCircle
 10
5.776156014375828
 20
7.418501343280407
 30
0.0
 40
0.0518742089598919
100
AcDbArc
 50
60.00089771199941
 51
72.75887620110063
  0
LINE
  5
3A6
330
2
100
AcDbEntity
  8
0
100
AcDbLine
 10
3.650113662645466
 20
7.46755544160419
 30
0.0
 11
3.55839171259852
 21
7.497140118661011
 31
0.0
  0
LINE
  5
3A7
330
2
100
AcDbEntity
  8
0
100
AcDbLine
 10
2.949532108264563
 20
7.589202272122033
 30
0.0
 11
3.299269381198072
 21
7.286320909124757
 31
0.0
  0
ELLIPSE
  5
3A8
330
2
100
AcDbEntity
  8
0
100
AcDbEllipse
 10
3.0174324165434
 20
7.575887892276231
 30
0.0
 11
0.0801015799267324
 21
-0.0339700978203881
 31
0.0
210
0.0
220
0.0
230
1.0
 40
0.2608406438
 41
2.249785649354853
 42
3.820581976149733
  0
LINE
  5
3A9
330
2
100
AcDbEntity
  8
0
100
AcDbLine
 10
3.532550567929348
 20
7.503961048000721
 30
0.0
 11
2.97402360749578
 21
7.613481023651491
 31
0.0
  0
ELLIPSE
  5
3AA
330
2
100
AcDbEntity
  8
0
100
AcDbEllipse
 10
3.575959376976967
 20
7.466367916625472
 30
0.0
 11
0.0801015799267423
 21
-0.0339700978203881
 31
0.0
210
0.0
220
0.0
230
0.9999999999999998
 40
0.2608406438
 41
1.900719798955794
 42
2.249785649354429
  0
LINE
  5
3AB
330
2
100
AcDbEntity
  8
0
100
AcDbLine
 10
1.796045497446243
 20
6.28322019526599
 30
0.0
 11
1.799636300488486
 21
6.282878390674575
 31
0.0
  0
LWPOLYLINE
  5
3AC
330
2
100
AcDbEntity
  8
0
100
AcDbPolyline
 90
        9
 70
   128
 43
0.0
 10
1.796045497446243
 20
6.28322019526599
 10
1.793216998010322
 20
6.283848758849341
 10
1.790755129965958
 20
6.285145035153373
 10
1.788769733574511
 20
6.287051188677093
 10
1.78734939055333
 20
6.28948217324644
 10
1.786557471825318
 20
6.292329526499855
 10
1.786429310181574
 20
6.295466209119709
 10
1.786970623725636
 20
6.298752272876679
 10
1.788157260872679
 20
6.302041104605049
  0
LINE
  5
3AD
330
2
100
AcDbEntity
  8
0
100
AcDbLine
 10
2.188195269557951
 20
7.169884200684343
 30
0.0
 11
1.788157260872679
 21
6.302041104605049
 31
0.0
  0
ARC
  5
3AE
330
2
100
AcDbEntity
  8
0
100
AcDbCircle
 10
2.243951191210925
 20
7.146541674617065
 30
0.0
 40
0.0604449859289633
100
AcDbArc
 50
89.77060363280143
 51
157.2831062045008
  0
LINE
  5
3AF
330
2
100
AcDbEntity
  8
0
100
AcDbLine
 10
2.502007547958498
 20
7.182445111345735
 30
0.0
 11
2.244193195477635
 21
7.20698617607476
 31
0.0
  0
LINE
  5
3B0
330
2
100
AcDbEntity
  8
0
100
AcDbLine
 10
3.457737689852464
 20
7.306967855074738
 30
0.0
 11
2.502007547958498
 21
7.182445111345735
 31
0.0
  0
LINE
  5
3B1
330
2
100
AcDbEntity
  8
0
100
AcDbLine
 10
1.787245351306324
 20
6.247021905504134
 30
0.0
 11
1.799636300488486
 21
6.282878390674575
 31
0.0
  0
ARC
  5
3B2
330
2
100
AcDbEntity
  8
0
100
AcDbCircle
 10
4.478795554618571
 20
8.446394609396964
 30
0.0
 40
0.8019563387926748
100
AcDbArc
 50
247.608408605999
 51
281.5165139939987
  0
LINE
  5
3B3
330
2
100
AcDbEntity
  8
0
100
AcDbLine
 10
3.830526627381587
 20
7.737532680538262
 30
0.0
 11
4.173302567040423
 21
7.704904215747681
 31
0.0
  0
LINE
  5
3B4
330
2
100
AcDbEntity
  8
0
100
AcDbLine
 10
3.655766177908276
 20
7.778918860312909
 30
0.0
 11
3.830526627381587
 21
7.737532680538262
 31
0.0
  0
ARC
  5
3B5
330
2
100
AcDbEntity
  8
0
100
AcDbCircle
 10
3.609071292949209
 20
7.585954104012269
 30
0.0
 40
0.1985341518684339
100
AcDbArc
 50
76.39669081970158
 51
84.19806675400087
  0
LINE
  5
3B6
330
2
100
AcDbEntity
  8
0
100
AcDbLine
 10
3.629141083743334
 20
7.783471224663916
 30
0.0
 11
3.051759893577241
 21
7.838431505300864
 31
0.0
  0
LWPOLYLINE
  5
3B7
330
2
100
AcDbEntity
  8
0
100
AcDbPolyline
 90
        6
 70
   128
 43
0.0
 10
3.013112481291912
 20
7.829194596358558
 10
3.014840500916207
 20
7.832145293988123
 10
3.02007877605456
 20
7.835807984796328
 10
3.028202714960215
 20
7.838126813070733
 10
3.038900119221253
 20
7.839012667523906
 10
3.051759893577241
 20
7.838431505300864
  0
LINE
  5
3B8
330
2
100
AcDbEntity
  8
0
100
AcDbLine
 10
10.36731254530706
 20
6.7155577446727
 30
0.0
 11
9.608341718895928
 21
6.496461739194028
 31
0.0
  0
LINE
  5
3B9
330
2
100
AcDbEntity
  8
0
100
AcDbLine
 10
9.608341718895928
 20
6.496461739194028
 30
0.0
 11
9.608341718895928
 21
6.451344530001563
 31
0.0
  0
LINE
  5
3BA
330
2
100
AcDbEntity
  8
0
100
AcDbLine
 10
9.608341718895928
 20
6.451344530001563
 30
0.0
 11
1.067182268629082
 21
3.98572417609721
 31
0.0
  0
LINE
  5
3BB
330
2
100
AcDbEntity
  8
0
100
AcDbLine
 10
1.067182268629082
 20
5.457237597051143
 30
0.0
 11
1.067182268629082
 21
3.98572417609721
 31
0.0
  0
ARC
  5
3BC
330
2
100
AcDbEntity
  8
0
100
AcDbCircle
 10
1.265708024942568
 20
5.451457322544264
 30
0.0
 40
0.1986098877030965
100
AcDbArc
 50
141.061371222298
 51
178.3322476556987
  0
LINE
  5
3BD
330
2
100
AcDbEntity
  8
0
100
AcDbLine
 10
1.323884226674095
 20
5.850329366868013
 30
0.0
 11
1.111225361655527
 21
5.576281175366663
 31
0.0
  0
ARC
  5
3BE
330
2
100
AcDbEntity
  8
0
100
AcDbCircle
 10
1.493541893028918
 20
5.721963683311113
 30
0.0
 40
0.2127474382225069
100
AcDbArc
 50
107.3176280148005
 51
142.8882722851991
  0
LINE
  5
3BF
330
2
100
AcDbEntity
  8
0
100
AcDbLine
 10
9.891099923892539
 20
8.367514604388528
 30
0.0
 11
1.430213659183394
 21
5.925067123135843
 31
0.0
  0
LINE
  5
3C0
330
2
100
AcDbEntity
  8
0
100
AcDbLine
 10
9.660432289753074
 20
6.451349981540257
 30
0.0
 11
9.608341718895928
 21
6.496461739194028
 31
0.0
  0
LINE
  5
3C1
330
2
100
AcDbEntity
  8
0
100
AcDbLine
 10
10.54540750405314
 20
6.706820320632875
 30
0.0
 11
9.660432289753074
 21
6.451349981540257
 31
0.0
  0
ARC
  5
3C2
330
2
100
AcDbEntity
  8
0
100
AcDbCircle
 10
9.693349209708742
 20
6.405953755490589
 30
0.0
 40
0.0329181024592601
100
AcDbArc
 50
179.5143498991009
 51
222.5890989715001
  0
LINE
  5
3C3
330
2
100
AcDbEntity
  8
0
100
AcDbLine
 10
12.79454830299065
 20
3.676971433920972
 30
0.0
 11
9.669114051562601
 21
6.38367689351222
 31
0.0
  0
LWPOLYLINE
  5
3C4
330
2
100
AcDbEntity
  8
0
100
AcDbPolyline
 90
        9
 70
   128
 43
0.0
 10
12.79454830299065
 20
3.676971433920972
 10
12.7962420306976
 20
3.675793559293499
 10
12.7978706694131
 20
3.675238822912231
 10
12.7993716314307
 20
3.675328542964837
 10
12.80068723564588
 20
3.67605927159381
 10
12.80176692413126
 20
3.677402927293297
 10
12.80256920504553
 20
3.67930787412158
 10
12.80306324719527
 20
3.681700906056629
 10
12.80323006480017
 20
3.684490060199497
  0
LINE
  5
3C5
330
2
100
AcDbEntity
  8
0
100
AcDbLine
 10
12.80323006480017
 20
3.684490060199497
 30
0.0
 11
12.80323006480017
 21
3.729607269391962
 31
0.0
  0
LINE
  5
3C6
330
2
100
AcDbEntity
  8
0
100
AcDbLine
 10
12.80323006480017
 20
3.729607269391962
 30
0.0
 11
12.85532063565731
 21
3.684495511738187
 31
0.0
  0
LINE
  5
3C7
330
2
100
AcDbEntity
  8
0
100
AcDbLine
 10
12.85532063565731
 20
3.684495511738187
 30
0.0
 11
12.85532063565731
 21
3.639378302545726
 31
0.0
  0
LWPOLYLINE
  5
3C8
330
2
100
AcDbEntity
  8
0
100
AcDbPolyline
 90
        9
 70
   128
 43
0.0
 10
12.85532063565731
 20
3.639378302545726
 10
12.8541529123361
 20
3.619854223510927
 10
12.850694617288
 20
3.603103000017657
 10
12.8450786508707
 20
3.589768372219683
 10
12.83752083154246
 20
3.58036278234066
 10
12.82831160201891
 20
3.575247681955236
 10
12.8178048678609
 20
3.574619641482758
 10
12.80640439693928
 20
3.578502796186352
 10
12.79454830299065
 20
3.586747918596056
  0
LINE
  5
3C9
330
2
100
AcDbEntity
  8
0
100
AcDbLine
 10
12.79454830299065
 20
3.586747918596056
 30
0.0
 11
9.669114051562601
 21
6.29345337820467
 31
0.0
  0
ARC
  5
3CA
330
2
100
AcDbEntity
  8
0
100
AcDbCircle
 10
9.838760158568305
 20
6.449391412001165
 30
0.0
 40
0.2304267172146307
100
AcDbArc
 50
179.5143498991986
 51
222.5890989715988
  0
LINE
  5
3CB
330
2
100
AcDbEntity
  8
0
100
AcDbLine
 10
9.660432289753074
 20
6.406232772347788
 30
0.0
 11
9.660432289753074
 21
6.451349981540257
 31
0.0
  0
ARC
  5
3CC
330
2
100
AcDbEntity
  8
0
100
AcDbCircle
 10
1.297600708284065
 20
3.983771058096809
 30
0.0
 40
0.2304267172145236
100
AcDbArc
 50
179.5143498991009
 51
222.5890989715988
  0
LINE
  5
3CD
330
2
100
AcDbEntity
  8
0
100
AcDbLine
 10
3.973818402720866
 20
1.363242676544377
 30
0.0
 11
4.253388852723801
 21
1.1211275646917
 31
0.0
  0
LWPOLYLINE
  5
3CE
330
2
100
AcDbEntity
  8
0
100
AcDbPolyline
 90
        9
 70
   128
 43
0.0
 10
3.991435639941869
 20
1.417439796042668
 10
3.981207096536707
 20
1.412061599571114
 10
3.97296034664393
 20
1.4058908174907
 10
3.966936451343656
 20
1.399107828196729
 10
3.963311495361722
 20
1.391910905522326
 10
3.96219143994827
 20
1.384510423019953
 10
3.963609025468258
 20
1.377122704478505
 10
3.967522814445558
 20
1.369963700596887
 10
3.973818402720866
 20
1.363242676544377
  0
LWPOLYLINE
  5
3CF
330
2
100
AcDbEntity
  8
0
100
AcDbPolyline
 90
        9
 70
   128
 43
0.0
 10
4.009052877145506
 20
1.471636915558317
 10
4.015348465438165
 20
1.464915891488455
 10
4.019262254398114
 20
1.457756887624199
 10
4.020679839935468
 20
1.450369169082758
 10
4.019559784522016
 20
1.442968686580375
 10
4.015934828540082
 20
1.435771763905965
 10
4.009910933239808
 20
1.428988774612001
 10
4.001664183347031
 20
1.42281799253158
 10
3.991435639941869
 20
1.417439796042668
  0
LINE
  5
3D0
330
2
100
AcDbEntity
  8
0
100
AcDbLine
 10
3.939598782669321
 20
1.531785925769138
 30
0.0
 11
4.009052877145506
 21
1.471636915558317
 31
0.0
  0
ARC
  5
3D1
330
2
100
AcDbEntity
  8
0
100
AcDbCircle
 10
3.863443747868586
 20
1.413904204421555
 30
0.0
 40
0.140341332307659
100
AcDbArc
 50
57.13635930479968
 51
107.6021602703005
  0
LINE
  5
3D2
330
2
100
AcDbEntity
  8
0
100
AcDbLine
 10
3.790929205757123
 20
1.538992890811069
 30
0.0
 11
3.821003710853844
 21
1.547674652620589
 31
0.0
  0
LINE
  5
3D3
330
2
100
AcDbEntity
  8
0
100
AcDbLine
 10
1.650563258473255
 20
3.427331221799988
 30
0.0
 11
1.62048875337652
 21
3.418649459990465
 31
0.0
  0
LWPOLYLINE
  5
3D4
330
2
100
AcDbEntity
  8
0
100
AcDbPolyline
 90
        9
 70
   128
 43
0.0
 10
1.682340712193493
 20
3.486628757699044
 10
1.689364667780097
 20
3.478877657540472
 10
1.693229330765134
 20
3.470590339736837
 10
1.693786184332921
 20
3.462085281228684
 10
1.691013828930351
 20
3.453689326664267
 10
1.685018804585894
 20
3.445725127869739
 10
1.676031496747043
 20
3.43849874453955
 10
1.664397282602351
 20
3.432287882532737
 10
1.650563258473255
 20
3.427331221799988
  0
LINE
  5
3D5
330
2
100
AcDbEntity
  8
0
100
AcDbLine
 10
1.612886617717322
 20
3.546777767909865
 30
0.0
 11
1.682340712193493
 21
3.486628757699044
 31
0.0
  0
ARC
  5
3D6
330
2
100
AcDbEntity
  8
0
100
AcDbCircle
 10
1.538335628197685
 20
3.434105329616901
 30
0.0
 40
0.1351033988883514
100
AcDbArc
 50
56.50893669959823
 51
102.0174374125995
  0
ARC
  5
3D7
330
2
100
AcDbEntity
  8
0
100
AcDbCircle
 10
1.482076040818299
 20
3.698390350740595
 30
0.0
 40
0.1351033988883621
100
AcDbArc
 50
236.5089366995982
 51
282.0174374125986
  0
LINE
  5
3D8
330
2
100
AcDbEntity
  8
0
100
AcDbLine
 10
1.127954601295741
 20
3.827833024300307
 30
0.0
 11
1.407525051281297
 21
3.585717912447631
 31
0.0
  0
LWPOLYLINE
  5
3D9
330
2
100
AcDbEntity
  8
0
100
AcDbPolyline
 90
       17
 70
   128
 43
0.0
 10
6.799826141189839
 20
4.663174501633296
 10
6.834669720625981
 20
4.611851564133406
 10
6.827580114737301
 20
4.557768322332425
 10
6.779636651750777
 20
4.509158459550683
 10
6.698138289298896
 20
4.473422386735478
 10
6.595492414281778
 20
4.456000597017403
 10
6.487325930697153
 20
4.459545399970423
 10
6.390106205133662
 20
4.483517131463685
 10
6.318634059485887
 20
4.524266312680946
 10
6.283790480067096
 20
4.575589250180826
 10
6.290880085955791
 20
4.629672491981818
 10
6.338823548942315
 20
4.67828235476356
 10
6.420321911394182
 20
4.714018427578764
 10
6.522967786393948
 20
4.731440217296839
 10
6.631134269995925
 20
4.727895414361181
 10
6.728353995559416
 20
4.70392368286792
 10
6.799826141189839
 20
4.663174501633296
  0
LWPOLYLINE
  5
3DA
330
2
100
AcDbEntity
  8
0
100
AcDbPolyline
 90
       17
 70
   128
 43
0.0
 10
8.536178503094319
 20
3.159449246310611
 10
8.571022082530475
 20
3.108126308810732
 10
8.563932476641781
 20
3.05404306700975
 10
8.515989013655257
 20
3.005433204227994
 10
8.434490651203375
 20
2.969697131395431
 10
8.331844776186244
 20
2.952275341694718
 10
8.223678292601647
 20
2.955820144630376
 10
8.126458567038142
 20
2.979791876123638
 10
8.054986421390367
 20
3.020541057358261
 10
8.020142841971562
 20
3.071863994858151
 10
8.027232447860257
 20
3.125947236659133
 10
8.075175910846795
 20
3.174557099440885
 10
8.156674273298662
 20
3.21029317225609
 10
8.259320148298428
 20
3.227714961974154
 10
8.367486631900419
 20
3.224170159021131
 10
8.464706357463896
 20
3.200198427527872
 10
8.536178503094319
 20
3.159449246310611
  0
ARC
  5
3DB
330
2
100
AcDbEntity
  8
0
100
AcDbCircle
 10
3.237931688920667
 20
2.810505667143427
 30
0.0
 40
0.0842047993847011
100
AcDbArc
 50
57.1363593049005
 51
107.6021602703005
  0
LINE
  5
3DC
330
2
100
AcDbEntity
  8
0
100
AcDbLine
 10
3.212467666718765
 20
2.890767936062843
 30
0.0
 11
3.0019461309722
 21
2.829995603396191
 31
0.0
  0
LWPOLYLINE
  5
3DD
330
2
100
AcDbEntity
  8
0
100
AcDbPolyline
 90
        9
 70
   128
 43
0.0
 10
2.982879658746981
 20
2.794417081846329
 10
2.978665285401973
 20
2.799067741937999
 10
2.976346487600537
 20
2.804040132634067
 10
2.976012375449442
 20
2.80914316773202
 10
2.977675788701418
 20
2.814180740470671
 10
2.981272803301152
 20
2.818959259750858
 10
2.986665188011386
 20
2.823295089745503
 10
2.993645716505142
 20
2.827021606956527
 10
3.0019461309722
 20
2.829995603396191
  0
LINE
  5
3DE
330
2
100
AcDbEntity
  8
0
100
AcDbLine
 10
2.982879658746981
 20
2.794417081846329
 30
0.0
 11
2.997144531106698
 21
2.782063340003933
 31
0.0
  0
LINE
  5
3DF
330
2
100
AcDbEntity
  8
0
100
AcDbLine
 10
3.551530642004465
 20
2.457330729215687
 30
0.0
 11
3.672601042623455
 21
2.492280743405284
 31
0.0
  0
LWPOLYLINE
  5
3E0
330
2
100
AcDbEntity
  8
0
100
AcDbPolyline
 90
        9
 70
   128
 43
0.0
 10
3.69166751484866
 20
2.527859264955136
 10
3.695881888211033
 20
2.523208604846104
 10
3.698200685995104
 20
2.518236214167398
 10
3.698534798146198
 20
2.513133179069445
 10
3.696871384894237
 20
2.508095606330794
 10
3.693274370294503
 20
2.503317087050607
 10
3.687881985584255
 20
2.498981257055969
 10
3.680901457090484
 20
2.495254739844934
 10
3.672601042623455
 20
2.492280743405284
  0
LINE
  5
3E1
330
2
100
AcDbEntity
  8
0
100
AcDbLine
 10
3.69166751484866
 20
2.527859264955136
 30
0.0
 11
3.283624709801102
 21
2.881234699941554
 31
0.0
  0
ARC
  5
3E2
330
2
100
AcDbEntity
  8
0
100
AcDbCircle
 10
10.83585695738551
 20
4.903589416303763
 30
0.0
 40
0.0842047993847171
100
AcDbArc
 50
57.1363593049005
 51
107.6021602703005
  0
LINE
  5
3E3
330
2
100
AcDbEntity
  8
0
100
AcDbLine
 10
10.8103929351836
 20
4.983851685223189
 30
0.0
 11
10.59987139943703
 21
4.923079352556531
 31
0.0
  0
LWPOLYLINE
  5
3E4
330
2
100
AcDbEntity
  8
0
100
AcDbPolyline
 90
        9
 70
   128
 43
0.0
 10
10.58080492721183
 20
4.887500831024038
 10
10.57659055386681
 20
4.892151491115708
 10
10.57427175606537
 20
4.897123881794414
 10
10.57393764393165
 20
4.902226916892367
 10
10.5756010571836
 20
4.907264489631021
 10
10.57919807178334
 20
4.912043008911194
 10
10.58459045649358
 20
4.916378838905853
 10
10.59157098496999
 20
4.920105356116874
 10
10.59987139943703
 20
4.923079352556531
  0
LINE
  5
3E5
330
2
100
AcDbEntity
  8
0
100
AcDbLine
 10
10.58080492721183
 20
4.887500831024038
 30
0.0
 11
10.81521249606892
 21
4.684497921538639
 31
0.0
  0
ARC
  5
3E6
330
2
100
AcDbEntity
  8
0
100
AcDbCircle
 10
10.85925054518276
 20
4.749090645205786
 30
0.0
 40
0.0781765292180515
100
AcDbArc
 50
235.7146031513006
 51
281.7908983814987
  0
LWPOLYLINE
  5
3E7
330
2
100
AcDbEntity
  8
0
100
AcDbPolyline
 90
        9
 70
   128
 43
0.0
 10
11.1159575471404
 20
4.771315539633864
 10
11.12017192048542
 20
4.76666487954219
 10
11.12249071826949
 20
4.761692488863484
 10
11.12282483042058
 20
4.756589453765531
 10
11.12116141716862
 20
4.751551881026887
 10
11.11756440256889
 20
4.746773361746704
 10
11.11217201785864
 20
4.742437531752049
 10
11.10519148938225
 20
4.738711014541014
 10
11.10041107687027
 20
4.736849241957951
  0
LINE
  5
3E8
330
2
100
AcDbEntity
  8
0
100
AcDbLine
 10
11.1159575471404
 20
4.771315539633864
 30
0.0
 11
10.8815499782833
 21
4.974318449119262
 31
0.0
  0
LINE
  5
3E9
330
2
100
AcDbEntity
  8
0
100
AcDbLine
 10
14.03314835890916
 20
4.084654098478804
 30
0.0
 11
12.80323006480017
 21
3.729607269391962
 31
0.0
  0
LINE
  5
3EA
330
2
100
AcDbEntity
  8
0
100
AcDbLine
 10
13.04204219674345
 20
5.587973996039643
 30
0.0
 11
12.25834991343872
 21
5.361741520660949
 31
0.0
  0
ARC
  5
3EB
330
2
100
AcDbEntity
  8
0
100
AcDbCircle
 10
13.68495845194067
 20
5.247694478618534
 30
0.0
 40
1.214042477480222
100
AcDbArc
 50
286.6665976859017
 51
311.3591967562006
  0
ARC
  5
3EC
330
2
100
AcDbEntity
  8
0
100
AcDbCircle
 10
13.73704902279783
 20
5.2025827209474
 30
0.0
 40
1.214042477480336
100
AcDbArc
 50
286.6665976859017
 51
311.3591967562006
  0
LINE
  5
3ED
330
2
100
AcDbEntity
  8
0
100
AcDbLine
 10
14.08523892976629
 20
4.039542340825018
 30
0.0
 11
12.85532063565731
 21
3.684495511738187
 31
0.0
  0
ARC
  5
3EE
330
2
100
AcDbEntity
  8
0
100
AcDbCircle
 10
3.626328433540763
 20
0.5345518396131901
 30
0.0
 40
0.1497462638735467
100
AcDbArc
 50
287.2086421099016
 51
357.1690928843015
  0
ARC
  5
3EF
330
2
100
AcDbEntity
  8
0
100
AcDbCircle
 10
1.455887981160159
 20
2.414208408792575
 30
0.0
 40
0.1497462638735778
100
AcDbArc
 50
287.2086421099016
 51
357.1690928843015
  0
ARC
  5
3F0
330
2
100
AcDbEntity
  8
0
100
AcDbCircle
 10
1.493861768410283
 20
2.381823908402171
 30
0.0
 40
0.021392323410496
100
AcDbArc
 50
287.2086421099016
 51
357.1690928843015
  0
LINE
  5
3F1
330
2
100
AcDbEntity
  8
0
100
AcDbLine
 10
1.500190732937497
 20
2.271165723791366
 30
0.0
 11
0.2262989244624691
 21
1.903424834518887
 31
0.0
  0
LINE
  5
3F2
330
2
100
AcDbEntity
  8
0
100
AcDbLine
 10
1.500190732937497
 20
2.361389239116284
 30
0.0
 11
0.2262989244624691
 21
1.993648349843795
 31
0.0
  0
LINE
  5
3F3
330
2
100
AcDbEntity
  8
0
100
AcDbLine
 10
2.396739376843058
 20
0.0237682653568392
 30
0.0
 11
3.670631185318086
 21
0.391509154629329
 31
0.0
  0
ARC
  5
3F4
330
2
100
AcDbEntity
  8
0
100
AcDbCircle
 10
2.222599760799184
 20
0.6589400083768276
 30
0.0
 40
0.6586104683353488
100
AcDbArc
 50
262.2006905622009
 51
285.3315751135006
  0
LINE
  5
3F5
330
2
100
AcDbEntity
  8
0
100
AcDbLine
 10
1.936729179893276
 20
0.0327473365130722
 30
0.0
 11
2.133223928582197
 21
0.0064220319005237
 31
0.0
  0
ARC
  5
3F6
330
2
100
AcDbEntity
  8
0
100
AcDbCircle
 10
1.973622671212524
 20
0.4441633834024437
 30
0.0
 40
0.4130669356641996
100
AcDbArc
 50
233.1442893365002
 51
264.8757410123997
  0
LINE
  5
3F7
330
2
100
AcDbEntity
  8
0
100
AcDbLine
 10
0.0465385003390111
 20
1.567987316552137
 30
0.0
 11
1.725864340874849
 21
0.1136484774098925
 31
0.0
  0
ARC
  5
3F8
330
2
100
AcDbEntity
  8
0
100
AcDbCircle
 10
0.1048839426683656
 20
1.653796174940513
 30
0.0
 40
0.1037658461052035
100
AcDbArc
 50
153.7165001093013
 51
235.7863897211017
  0
LINE
  5
3F9
330
2
100
AcDbEntity
  8
0
100
AcDbLine
 10
0.0644966426688001
 20
1.797992415027028
 30
0.0
 11
0.0118460334263801
 21
1.699745040673885
 31
0.0
  0
ARC
  5
3FA
330
2
100
AcDbEntity
  8
0
100
AcDbCircle
 10
0.2780855166955689
 20
1.647078867550245
 30
0.0
 40
0.2615245799520394
100
AcDbArc
 50
101.4210849595992
 51
144.7564667370985
  0
LWPOLYLINE
  5
3FB
330
2
100
AcDbEntity
  8
0
100
AcDbPolyline
 90
        9
 70
   128
 43
0.0
 10
1.614801337622239
 20
1.251643276802429
 10
1.74310868137195
 20
1.273420513945684
 10
1.878316785865735
 20
1.268989510258744
 10
1.999841442828781
 20
1.239024845892163
 10
2.089181624866796
 20
1.18808836936191
 10
2.132736099153305
 20
1.123934697478368
 10
2.123874091796793
 20
1.056330645240166
 10
2.063944763063631
 20
0.9955683167586428
 10
1.962071810003124
 20
0.950898225730949
  0
LINE
  5
3FC
330
2
100
AcDbEntity
  8
0
100
AcDbLine
 10
1.314056286550751
 20
1.164825658707204
 30
0.0
 11
1.614801337622239
 21
1.251643276802429
 31
0.0
  0
LWPOLYLINE
  5
3FD
330
2
100
AcDbEntity
  8
0
100
AcDbPolyline
 90
        9
 70
   128
 43
0.0
 10
1.66132675893165
 20
0.8640806076357243
 10
1.533019415164574
 20
0.8423033704924698
 10
1.397811310688155
 20
0.8467343741794088
 10
1.276286653725108
 20
0.8766990385459898
 10
1.186946471669727
 20
0.9276355150762398
 10
1.143391997400584
 20
0.9917891869597816
 10
1.152254004757097
 20
1.059393239197984
 10
1.212183333490258
 20
1.120155567679507
 10
1.314056286550751
 20
1.164825658707204
  0
LINE
  5
3FE
330
2
100
AcDbEntity
  8
0
100
AcDbLine
 10
1.962071810003124
 20
0.950898225730949
 30
0.0
 11
1.66132675893165
 21
0.8640806076357243
 31
0.0
  0
LINE
  5
3FF
330
2
100
AcDbEntity
  8
0
100
AcDbLine
 10
1.605451500819469
 20
3.399271326528658
 30
0.0
 11
1.605451500819469
 21
2.406812658006654
 31
0.0
  0
LINE
  5
400
330
2
100
AcDbEntity
  8
0
100
AcDbLine
 10
1.515227985494547
 20
3.373226041100085
 30
0.0
 11
1.515227985494547
 21
2.380767372578088
 31
0.0
  0
LINE
  5
401
330
2
100
AcDbEntity
  8
0
100
AcDbLine
 10
3.775891953200073
 20
0.5271560888446274
 30
0.0
 11
3.775891953200073
 21
1.519614757366621
 31
0.0
  0
ARC
  5
402
330
2
100
AcDbEntity
  8
0
100
AcDbCircle
 10
4.280878758261906
 20
1.14650154723062
 30
0.0
 40
0.0374103447684921
100
AcDbArc
 50
222.7079101949012
 51
279.5714872550997
  0
LINE
  5
403
330
2
100
AcDbEntity
  8
0
100
AcDbLine
 10
1.6476136649554
 20
3.516703262813141
 30
0.0
 11
1.62048875337652
 21
3.508872975298022
 31
0.0
  0
ARC
  5
404
330
2
100
AcDbEntity
  8
0
100
AcDbCircle
 10
3.797258170284322
 20
1.518558221542541
 30
0.0
 40
0.0213923234105455
100
AcDbArc
 50
107.2086421100005
 51
177.1690928843014
  0
ARC
  5
405
330
2
100
AcDbEntity
  8
0
100
AcDbCircle
 10
1.626817717903733
 20
3.398214790704574
 30
0.0
 40
0.0213923234105512
100
AcDbArc
 50
107.2086421100005
 51
177.1690928842004
  0
ARC
  5
406
330
2
100
AcDbEntity
  8
0
100
AcDbCircle
 10
1.664791505153857
 20
3.365830290314161
 30
0.0
 40
0.1497462638735669
100
AcDbArc
 50
107.2086421099016
 51
177.1690928843014
  0
ARC
  5
407
330
2
100
AcDbEntity
  8
0
100
AcDbCircle
 10
0.2780855166955689
 20
1.737302382875153
 30
0.0
 40
0.2615245799521115
100
AcDbArc
 50
101.4210849596989
 51
144.7564667370985
  0
LINE
  5
408
330
2
100
AcDbEntity
  8
0
100
AcDbLine
 10
0.0118460334263801
 20
1.789968555981442
 30
0.0
 11
0.0644966426688001
 21
1.888215930334578
 31
0.0
  0
ARC
  5
409
330
2
100
AcDbEntity
  8
0
100
AcDbCircle
 10
0.0941836763603732
 20
1.74426075230053
 30
0.0
 40
0.0941737264944418
100
AcDbArc
 50
150.9641865487011
 51
179.5329236208984
  0
ARC
  5
40A
330
2
100
AcDbEntity
  8
0
100
AcDbCircle
 10
3.994279950029408
 20
1.472216220821962
 30
0.0
 40
0.0322286011745338
100
AcDbArc
 50
122.4585503443002
 51
174.7403479962008
  0
ARC
  5
40B
330
2
100
AcDbEntity
  8
0
100
AcDbCircle
 10
29.13865073838696
 20
9.983837166419473
 30
0.0
 40
0.0987543073775372
100
AcDbArc
 50
179.5143498991009
 51
222.5890989715988
  0
LINE
  5
40C
330
2
100
AcDbEntity
  8
0
100
AcDbLine
 10
29.06594526394852
 20
9.91700658050172
 30
0.0
 11
29.18748992928184
 21
9.811745812637123
 31
0.0
  0
LWPOLYLINE
  5
40D
330
2
100
AcDbEntity
  8
0
100
AcDbPolyline
 90
        9
 70
   128
 43
0.0
 10
29.21353521471039
 20
9.834301691455333
 10
29.21303476186094
 20
9.825934229026731
 10
29.21155263541172
 20
9.818755133238934
 10
29.20914579266889
 20
9.813040292754099
 10
29.20590672723012
 20
9.80900932565564
 10
29.20195991458459
 20
9.806817139786101
 10
29.19745702851443
 20
9.806547979576162
 10
29.19257111240265
 20
9.808212188737325
 10
29.18748992928184
 20
9.811745812637123
  0
LINE
  5
40E
330
2
100
AcDbEntity
  8
0
100
AcDbLine
 10
29.21353521471039
 20
9.834301691455333
 30
0.0
 11
29.21353521471039
 21
10.27038201550551
 31
0.0
  0
ARC
  5
40F
330
2
100
AcDbEntity
  8
0
100
AcDbCircle
 10
29.11478445486071
 20
10.27121906607711
 30
0.0
 40
0.0987543073777639
100
AcDbArc
 50
359.5143498991987
 51
42.58909897160128
  0
LINE
  5
410
330
2
100
AcDbEntity
  8
0
100
AcDbLine
 10
29.18748992928184
 20
10.33804965199485
 30
0.0
 11
29.06594526394852
 21
10.44331041987682
 31
0.0
  0
LWPOLYLINE
  5
411
330
2
100
AcDbEntity
  8
0
100
AcDbPolyline
 90
        9
 70
   128
 43
0.0
 10
29.03989997851994
 20
10.42075454104123
 10
29.04040043138676
 20
10.4291220034872
 10
29.04188255781858
 20
10.43630109925764
 10
29.04428940057878
 20
10.44201593974248
 10
29.04752846600022
 20
10.44604690684094
 10
29.05147527866311
 20
10.44823909272784
 10
29.05597816473326
 20
10.44850825292041
 10
29.06086408082766
 20
10.44684404375924
 10
29.06594526394852
 20
10.44331041987682
  0
LINE
  5
412
330
2
100
AcDbEntity
  8
0
100
AcDbLine
 10
29.03989997851994
 20
10.42075454104123
 30
0.0
 11
29.03989997851994
 21
9.984674216991066
 31
0.0
  0
LWPOLYLINE
  5
413
330
2
100
AcDbEntity
  8
0
100
AcDbPolyline
 90
        7
 70
   128
 43
0.0
 10
29.36248400447926
 20
11.24662664237575
 10
29.36498626876133
 20
11.2884639545882
 10
29.37239690098989
 20
11.32435943347508
 10
29.38443111472142
 20
11.35293363593401
 10
29.40062644189794
 20
11.37308847137419
 10
29.42036050514289
 20
11.38404940077401
 10
29.42047380692685
 20
11.38408225648486
  0
LINE
  5
414
330
2
100
AcDbEntity
  8
0
100
AcDbLine
 10
29.36248400447926
 20
11.24662664237575
 30
0.0
 11
29.36248400447926
 21
10.49476401471441
 31
0.0
  0
ARC
  5
415
330
2
100
AcDbEntity
  8
0
100
AcDbCircle
 10
29.85623780374491
 20
10.49057876185639
 30
0.0
 40
0.4937715368885937
100
AcDbArc
 50
179.5143498991986
 51
222.5890989715988
  0
LINE
  5
416
330
2
100
AcDbEntity
  8
0
100
AcDbLine
 10
29.4927104316221
 20
10.15642583226766
 30
0.0
 11
29.81197153531787
 21
9.879937606015939
 31
0.0
  0
LWPOLYLINE
  5
417
330
2
100
AcDbEntity
  8
0
100
AcDbPolyline
 90
        9
 70
   128
 43
0.0
 10
29.73444092328174
 20
9.864376196569434
 10
29.74638409670777
 20
9.855462761407739
 10
29.75810017233053
 20
9.849578126793321
 10
29.76936637060314
 20
9.846834188290397
 10
29.77996846630939
 20
9.847283121464304
 10
29.78970486206416
 20
9.850916389955354
 10
29.79839042164091
 20
9.857664907619533
 10
29.80585999033943
 20
9.867400352356749
 10
29.81197153531787
 20
9.879937606015939
  0
LINE
  5
418
330
2
100
AcDbEntity
  8
0
100
AcDbLine
 10
29.73444092328174
 20
9.864376196569434
 30
0.0
 11
29.50003335442463
 21
10.06737910603746
 31
0.0
  0
LWPOLYLINE
  5
419
330
2
100
AcDbEntity
  8
0
100
AcDbPolyline
 90
        9
 70
   128
 43
0.0
 10
29.47398806899608
 20
10.0448232272019
 10
29.4744885218629
 20
10.05319068964786
 10
29.47597064829469
 20
10.06036978543565
 10
29.47837749105488
 20
10.06608462592049
 10
29.48161655647633
 20
10.07011559300158
 10
29.48556336913922
 20
10.07230777888849
 10
29.4900662552094
 20
10.07257693908106
 10
29.49495217130376
 20
10.0709127299199
 10
29.50003335442463
 20
10.06737910603746
  0
LINE
  5
41A
330
2
100
AcDbEntity
  8
0
100
AcDbLine
 10
29.47398806899608
 20
10.0448232272019
 30
0.0
 11
29.47398806899608
 21
9.608742903169087
 31
0.0
  0
ARC
  5
41B
330
2
100
AcDbEntity
  8
0
100
AcDbCircle
 10
29.5727388288631
 20
9.607905852597472
 30
0.0
 40
0.0987543073778406
100
AcDbArc
 50
179.5143498991986
 51
222.5890989715988
  0
LINE
  5
41C
330
2
100
AcDbEntity
  8
0
100
AcDbLine
 10
29.50003335442463
 20
9.54107526667973
 30
0.0
 11
29.73444092328174
 21
9.338072357194331
 31
0.0
  0
ARC
  5
41D
330
2
100
AcDbEntity
  8
0
100
AcDbCircle
 10
29.52062415451809
 20
9.132613046830424
 30
0.0
 40
0.2965318512814007
100
AcDbArc
 50
11.18059296269923
 51
43.85807058170157
  0
LINE
  5
41E
330
2
100
AcDbEntity
  8
0
100
AcDbLine
 10
27.90394802047951
 20
9.833124902377985
 30
0.0
 11
26.47281616089791
 21
11.07252144892709
 31
0.0
  0
ARC
  5
41F
330
2
100
AcDbEntity
  8
0
100
AcDbCircle
 10
26.71516774232472
 20
11.2952900686587
 30
0.0
 40
0.329181024592523
100
AcDbArc
 50
179.5143498991986
 51
222.5890989715988
  0
LINE
  5
420
330
2
100
AcDbEntity
  8
0
100
AcDbLine
 10
26.3859985428027
 20
11.29808023723071
 30
0.0
 11
26.3859985428027
 21
12.84691725022453
 31
0.0
  0
LINE
  5
421
330
2
100
AcDbEntity
  8
0
100
AcDbLine
 10
26.71454665257491
 20
12.5623862408048
 30
0.0
 11
26.3859985428027
 21
12.84691725022453
 31
0.0
  0
ARC
  5
422
330
2
100
AcDbEntity
  8
0
100
AcDbCircle
 10
26.77345359300628
 20
12.61675906049633
 30
0.0
 40
0.0801650245039238
100
AcDbArc
 50
222.7079101950007
 51
279.5714872551987
  0
LINE
  5
423
330
2
100
AcDbEntity
  8
0
100
AcDbLine
 10
26.3859985428027
 20
14.10339000406637
 30
0.0
 11
26.3859985428027
 21
14.21706002799629
 31
0.0
  0
ARC
  5
424
330
2
100
AcDbEntity
  8
0
100
AcDbCircle
 10
26.4386865595516
 20
14.2237004247005
 30
0.0
 40
0.0531048206659766
100
AcDbArc
 50
136.0366160700997
 51
187.1832505378004
  0
LINE
  5
425
330
2
100
AcDbEntity
  8
0
100
AcDbLine
 10
26.40046258111599
 20
14.26056571258722
 30
0.0
 11
27.14913041311795
 21
14.77243310324624
 31
0.0
  0
LINE
  5
426
330
2
100
AcDbEntity
  8
0
100
AcDbLine
 10
29.80679450306366
 20
11.31059573446425
 30
0.0
 11
29.05812667106173
 21
13.11919384814807
 31
0.0
  0
ARC
  5
427
330
2
100
AcDbEntity
  8
0
100
AcDbCircle
 10
29.63558197623027
 20
11.23866936581037
 30
0.0
 40
0.1857071130893688
100
AcDbArc
 50
1.039250559601186
 51
22.78727204529944
  0
LINE
  5
428
330
2
100
AcDbEntity
  8
0
100
AcDbLine
 10
29.82125854137698
 20
11.17905616883078
 30
0.0
 11
29.82125854137698
 21
11.24203760061971
 31
0.0
  0
LWPOLYLINE
  5
429
330
2
100
AcDbEntity
  8
0
100
AcDbPolyline
 90
       19
 70
   128
 43
0.0
 10
28.22851081390462
 20
11.3010424713969
 10
28.31433932743826
 20
11.09622859341528
 10
28.35133392634716
 20
10.93843307000927
 10
28.3640813963842
 20
10.78799043950737
 10
28.35133392634716
 20
10.65962707476223
 10
28.31433932743826
 20
10.56590807627087
 10
28.25671888875837
 20
10.51600731258471
 10
28.18411290029542
 20
10.51480941814442
 10
28.10362854209851
 20
10.56243165120376
 10
28.02314418388423
 20
10.65421241577661
 10
27.95053819542128
 20
10.78116757116562
 10
27.89291775674141
 20
10.9308698621893
 10
27.85592315783251
 20
11.08866538559533
 10
27.84317568781285
 20
11.23910801611459
 10
27.85592315783251
 20
11.36747138085973
 10
27.89291775674141
 20
11.46119037935109
 10
27.95053819542128
 20
11.51109114301988
 10
28.02314418388423
 20
11.51228903746017
 10
28.02490774622939
 20
11.51124554554599
  0
ARC
  5
42A
330
2
100
AcDbEntity
  8
0
100
AcDbCircle
 10
26.62494422699979
 20
11.26924478323014
 30
0.0
 40
0.3291810245922092
100
AcDbArc
 50
179.5143498991009
 51
222.5890989715988
  0
LINE
  5
42B
330
2
100
AcDbEntity
  8
0
100
AcDbLine
 10
26.29577502747779
 20
14.19101474256772
 30
0.0
 11
26.29577502747779
 21
14.09558428130111
 31
0.0
  0
LINE
  5
42C
330
2
100
AcDbEntity
  8
0
100
AcDbLine
 10
26.29577502747779
 20
12.82378513830564
 30
0.0
 11
26.29577502747779
 21
11.27203495180213
 31
0.0
  0
LINE
  5
42D
330
2
100
AcDbEntity
  8
0
100
AcDbLine
 10
27.81372450515457
 20
9.807079616949419
 30
0.0
 11
26.382592645573
 21
11.04647616349852
 31
0.0
  0
LWPOLYLINE
  5
42E
330
2
100
AcDbEntity
  8
0
100
AcDbPolyline
 90
       11
 70
   128
 43
0.0
 10
25.4816599284247
 20
12.88315886466916
 10
25.45811464844005
 20
12.72770288066171
 10
25.38978358456498
 20
12.57387013777954
 10
25.28335545740546
 20
12.43671885668397
 10
25.14924819357205
 20
12.32967436036109
 10
25.00058914643884
 20
12.26321490995031
 10
24.85193009932297
 20
12.2438460194915
 10
24.71782283548961
 20
12.27346365093605
 10
24.61139470833007
 20
12.34916862415958
 10
24.54306364445503
 20
12.4635504089268
 10
24.51951836447037
 20
12.6054125191858
  0
LINE
  5
42F
330
2
100
AcDbEntity
  8
0
100
AcDbLine
 10
25.4816599284247
 20
12.88315886466916
 30
0.0
 11
24.51951836447037
 21
12.6054125191858
 31
0.0
  0
LINE
  5
430
330
2
100
AcDbEntity
  8
0
100
AcDbLine
 10
11.57232261634723
 20
10.01707275240444
 30
0.0
 11
26.20356935070743
 21
14.24074987273708
 31
0.0
  0
LINE
  5
431
330
2
100
AcDbEntity
  8
0
100
AcDbLine
 10
26.20356935070743
 20
14.14416384303252
 30
0.0
 11
26.20356935070743
 21
14.24074987273708
 31
0.0
  0
ARC
  5
432
330
2
100
AcDbEntity
  8
0
100
AcDbCircle
 10
26.25865467963882
 20
14.14201392485861
 30
0.0
 40
0.0551272674065989
100
AcDbArc
 50
177.7649448216985
 51
291.3846782332999
  0
LINE
  5
433
330
2
100
AcDbEntity
  8
0
100
AcDbLine
 10
26.29379286603231
 20
14.09502286569321
 30
0.0
 11
26.27875561347528
 21
14.09068198478844
 31
0.0
  0
LINE
  5
434
330
2
100
AcDbEntity
  8
0
100
AcDbLine
 10
26.29379286603231
 20
12.89204266144201
 30
0.0
 11
26.27875561347528
 21
12.88770178053726
 31
0.0
  0
ARC
  5
435
330
2
100
AcDbEntity
  8
0
100
AcDbCircle
 10
26.31040043618086
 20
12.78552843410781
 30
0.0
 40
0.1069616170525976
100
AcDbArc
 50
107.2086421100005
 51
177.1690928843014
  0
LINE
  5
436
330
2
100
AcDbEntity
  8
0
100
AcDbLine
 10
26.20356935070743
 20
12.33969353663835
 30
0.0
 11
26.20356935070743
 21
12.79081111324557
 31
0.0
  0
ARC
  5
437
330
2
100
AcDbEntity
  8
0
100
AcDbCircle
 10
25.98990717976056
 20
12.35025889489652
 30
0.0
 40
0.2139232341050729
100
AcDbArc
 50
287.2086421099016
 51
357.1690928843015
  0
LINE
  5
438
330
2
100
AcDbEntity
  8
0
100
AcDbLine
 10
11.72269514188298
 20
8.009052699817587
 30
0.0
 11
26.05319682517168
 21
12.145912202055
 31
0.0
  0
ARC
  5
439
330
2
100
AcDbEntity
  8
0
100
AcDbCircle
 10
11.68249327421009
 20
8.11171657995791
 30
0.0
 40
0.110254534813184
100
AcDbArc
 50
177.7649448216985
 51
291.3846782332999
  0
LINE
  5
43A
330
2
100
AcDbEntity
  8
0
100
AcDbLine
 10
11.57232261634723
 20
8.116016416305715
 30
0.0
 11
11.57232261634723
 21
10.01707275240444
 31
0.0
  0
LINE
  5
43B
330
2
100
AcDbEntity
  8
0
100
AcDbLine
 10
12.29423203862995
 20
9.076276343614953
 30
0.0
 11
13.25637360258426
 21
9.354022689098314
 31
0.0
  0
LWPOLYLINE
  5
43C
330
2
100
AcDbEntity
  8
0
100
AcDbPolyline
 90
       11
 70
   128
 43
0.0
 10
13.25637360258426
 20
9.354022689098314
 10
13.23282832261696
 20
9.198566705090868
 10
13.16449725872458
 20
9.044733962208692
 10
13.05806913156505
 20
8.90758268111313
 10
12.92396186773163
 20
8.800538184790248
 10
12.77530282061579
 20
8.734078734379469
 10
12.62664377348257
 20
8.714709843920644
 10
12.49253650964918
 20
8.74432747536521
 10
12.38610838248964
 20
8.82003244858873
 10
12.31777731861459
 20
8.934414233355958
 10
12.29423203862995
 20
9.076276343614953
  0
ARC
  5
43D
330
2
100
AcDbEntity
  8
0
100
AcDbCircle
 10
26.0419977506177
 20
12.30514713724275
 30
0.0
 40
0.2139232341051108
100
AcDbArc
 50
287.2086421099016
 51
357.1690928843015
  0
LINE
  5
43E
330
2
100
AcDbEntity
  8
0
100
AcDbLine
 10
11.77478571274011
 20
7.963940942163812
 30
0.0
 11
26.10528739602879
 21
12.10080044440122
 31
0.0
  0
LINE
  5
43F
330
2
100
AcDbEntity
  8
0
100
AcDbLine
 10
26.25565992156456
 20
12.29458177898457
 30
0.0
 11
26.25565992156456
 21
12.74569935557444
 31
0.0
  0
ARC
  5
440
330
2
100
AcDbEntity
  8
0
100
AcDbCircle
 10
26.36169692524899
 20
13.88099014857476
 30
0.0
 40
0.2245461316923411
100
AcDbArc
 50
57.13635930479968
 51
107.6021602703005
  0
ARC
  5
441
330
2
100
AcDbEntity
  8
0
100
AcDbCircle
 10
26.36169692524899
 20
12.6780099443062
 30
0.0
 40
0.2245461316923045
100
AcDbArc
 50
57.13635930479968
 51
107.6021602703005
  0
LINE
  5
442
330
2
100
AcDbEntity
  8
0
100
AcDbLine
 10
26.80477016788248
 20
12.58843152623337
 30
0.0
 11
26.48354498093016
 21
12.86662069846928
 31
0.0
  0
ARC
  5
443
330
2
100
AcDbEntity
  8
0
100
AcDbCircle
 10
26.36597983344618
 20
12.7855380328373
 30
0.0
 40
0.0645612658753712
100
AcDbArc
 50
71.93636643749842
 51
105.5347032061984
  0
LINE
  5
444
330
2
100
AcDbEntity
  8
0
100
AcDbLine
 10
26.34868890713611
 20
12.84774077327424
 30
0.0
 11
26.33084618433239
 21
12.8425900228661
 31
0.0
  0
ARC
  5
445
330
2
100
AcDbEntity
  8
0
100
AcDbCircle
 10
26.36249100703796
 20
12.74041667645404
 30
0.0
 40
0.1069616170525567
100
AcDbArc
 50
107.2086421099016
 51
177.1690928843014
  0
LINE
  5
446
330
2
100
AcDbEntity
  8
0
100
AcDbLine
 10
26.48354498093016
 20
14.06960090272049
 30
0.0
 11
26.80477016788248
 21
13.79141173048457
 31
0.0
  0
ARC
  5
447
330
2
100
AcDbEntity
  8
0
100
AcDbCircle
 10
26.44124279575968
 20
13.45725880089584
 30
0.0
 40
0.4937715368884775
100
AcDbArc
 50
359.5143498991987
 51
42.58909897160128
  0
LINE
  5
448
330
2
100
AcDbEntity
  8
0
100
AcDbLine
 10
26.93499659502533
 20
13.45307354803783
 30
0.0
 11
26.93499659502533
 21
12.70121092037649
 31
0.0
  0
LWPOLYLINE
  5
449
330
2
100
AcDbEntity
  8
0
100
AcDbPolyline
 90
        9
 70
   128
 43
0.0
 10
26.80477016788248
 20
12.58843152623337
 10
26.83017608348669
 20
12.57076340676912
 10
26.85460566401071
 20
12.56244236098067
 10
26.87712009436166
 20
12.56378816197823
 10
26.89685415760661
 20
12.57474909137806
 10
26.91304948478319
 20
12.59490392681823
 10
26.9250836985147
 20
12.62347812927716
 10
26.93249433074325
 20
12.65937360816403
 10
26.93499659502533
 20
12.70121092037649
  0
LINE
  5
44A
330
2
100
AcDbEntity
  8
0
100
AcDbLine
 10
26.25565992156456
 20
14.09905208537873
 30
0.0
 11
26.2565744014012
 21
14.08762520610041
 31
0.0
  0
ARC
  5
44B
330
2
100
AcDbEntity
  8
0
100
AcDbCircle
 10
26.28787017751955
 20
14.25137450749507
 30
0.0
 40
0.0849677130656101
100
AcDbArc
 50
136.0366160700997
 51
187.1832505376989
  0
LINE
  5
44C
330
2
100
AcDbEntity
  8
0
100
AcDbLine
 10
26.22671181201563
 20
14.3103589681069
 30
0.0
 11
27.00856103769871
 21
14.8449126191717
 31
0.0
  0
ARC
  5
44D
330
2
100
AcDbEntity
  8
0
100
AcDbCircle
 10
27.02583393086084
 20
14.81138285788658
 30
0.0
 40
0.0377173399217042
100
AcDbArc
 50
39.65470936019972
 51
117.2553092435992
  0
LINE
  5
44E
330
2
100
AcDbEntity
  8
0
100
AcDbLine
 10
27.05487267086664
 20
14.83545253403007
 30
0.0
 11
27.10645755710573
 21
14.79077871208469
 31
0.0
  0
LINE
  5
44F
330
2
100
AcDbEntity
  8
0
100
AcDbLine
 10
27.04823868380299
 20
14.7509742200403
 30
0.0
 11
27.10645755710573
 21
14.79077871208469
 31
0.0
  0
LINE
  5
450
330
2
100
AcDbEntity
  8
0
100
AcDbLine
 10
27.04823868380299
 20
14.7509742200403
 30
0.0
 11
27.05487267086664
 21
14.74522901870514
 31
0.0
  0
ARC
  5
451
330
2
100
AcDbEntity
  8
0
100
AcDbCircle
 10
27.04761298586087
 20
14.73921159966929
 30
0.0
 40
0.0094293349804709
100
AcDbArc
 50
39.65470936030066
 51
117.2553092434013
  0
LINE
  5
452
330
2
100
AcDbEntity
  8
0
100
AcDbLine
 10
26.26144553690028
 20
14.21304038893009
 30
0.0
 11
27.04329476256598
 21
14.7475940399949
 31
0.0
  0
ARC
  5
453
330
2
100
AcDbEntity
  8
0
100
AcDbCircle
 10
26.27673512826758
 20
14.19829427376846
 30
0.0
 40
0.0212419282665189
100
AcDbArc
 50
136.0366160701983
 51
187.1832505376004
  0
LINE
  5
454
330
2
100
AcDbEntity
  8
0
100
AcDbLine
 10
26.25565992156456
 20
14.09905208537873
 30
0.0
 11
26.25565992156456
 21
14.1956381150833
 31
0.0
  0
ARC
  5
455
330
2
100
AcDbEntity
  8
0
100
AcDbCircle
 10
11.65662344315936
 20
10.02769738716243
 30
0.0
 40
0.084967713065568
100
AcDbArc
 50
136.0366160700997
 51
187.1832505376989
  0
ARC
  5
456
330
2
100
AcDbEntity
  8
0
100
AcDbCircle
 10
26.34846304422669
 20
14.19765513927193
 30
0.0
 40
0.0531048206660329
100
AcDbArc
 50
136.0366160700997
 51
187.1832505376989
  0
ELLIPSE
  5
457
330
2
100
AcDbEntity
  8
0
100
AcDbEllipse
 10
27.02883239269628
 20
14.73770605600815
 30
0.0
 11
0.0357188232472531
 21
0.0148712878944244
 31
0.0
210
0.0
220
0.0
230
1.0
 40
0.1540108756
 41
5.646105992060295
 42
7.216902318855616
  0
ELLIPSE
  5
458
330
2
100
AcDbEntity
  8
0
100
AcDbEllipse
 10
27.02883239269628
 20
14.73770605600815
 30
0.0
 11
0.1428752929890122
 21
0.0594851515776974
 31
0.0
210
0.0
220
0.0
230
1.0
 40
0.1540108756
 41
5.646105992060861
 42
7.216902318855374
  0
LINE
  5
459
330
2
100
AcDbEntity
  8
0
100
AcDbLine
 10
27.05890689779301
 20
14.74638781781767
 30
0.0
 11
26.31023906579108
 21
14.23452042715867
 31
0.0
  0
LINE
  5
45A
330
2
100
AcDbEntity
  8
0
100
AcDbLine
 10
11.59546507765546
 20
10.08668184777426
 30
0.0
 11
12.37731430332116
 21
10.62123549883905
 31
0.0
  0
LINE
  5
45B
330
2
100
AcDbEntity
  8
0
100
AcDbLine
 10
12.37731430332116
 20
10.62123549883905
 30
0.0
 11
27.00856103769871
 21
14.8449126191717
 31
0.0
  0
ELLIPSE
  5
45C
330
2
100
AcDbEntity
  8
0
100
AcDbEllipse
 10
28.93782865064009
 20
13.08446680090998
 30
0.0
 11
-0.0902517885571684
 21
0.1826323692461842
 31
0.0
210
0.0
220
0.0
230
1.0
 40
0.6085398656
 41
4.603382094339914
 42
5.31710647328465
  0
LWPOLYLINE
  5
45D
330
2
100
AcDbEntity
  8
0
100
AcDbPolyline
 90
        3
 70
   128
 43
0.0
 10
12.37731430332116
 20
10.62123549883905
 10
12.38222283221015
 20
10.62392008826262
 10
12.38509973665279
 20
10.62493606433668
  0
ARC
  5
45E
330
2
100
AcDbEntity
  8
0
100
AcDbCircle
 10
29.94646131906981
 20
10.51662404728497
 30
0.0
 40
0.4937715368884629
100
AcDbArc
 50
179.5143498991986
 51
222.5890989715988
  0
LWPOLYLINE
  5
45F
330
2
100
AcDbEntity
  8
0
100
AcDbPolyline
 90
        9
 70
   128
 43
0.0
 10
29.58293394692967
 20
11.38545132196481
 10
29.55752803132543
 20
11.40311944141169
 10
29.53309845080142
 20
11.41144048720013
 10
29.51058402046783
 20
11.41009468620258
 10
29.49084995720549
 20
11.39913375680276
 10
29.47465463004633
 20
11.37897892136258
 10
29.46262041629743
 20
11.35040471890365
 10
29.4552097840689
 20
11.31450924001677
 10
29.45270751978683
 20
11.27267192780432
  0
LINE
  5
460
330
2
100
AcDbEntity
  8
0
100
AcDbLine
 10
29.90415913388196
 20
11.10726214972889
 30
0.0
 11
29.58293394692967
 21
11.38545132196481
 31
0.0
  0
LINE
  5
461
330
2
100
AcDbEntity
  8
0
100
AcDbLine
 10
29.58293394692967
 20
10.18247111769624
 30
0.0
 11
29.90415913388196
 21
9.904281945460329
 31
0.0
  0
LINE
  5
462
330
2
100
AcDbEntity
  8
0
100
AcDbLine
 10
29.45270751978683
 20
11.27267192780432
 30
0.0
 11
29.45270751978683
 21
10.52080930014299
 31
0.0
  0
LWPOLYLINE
  5
463
330
2
100
AcDbEntity
  8
0
100
AcDbPolyline
 90
        9
 70
   128
 43
0.0
 10
29.81458398284292
 20
9.880691754652371
 10
29.81828365203546
 20
9.877546842642605
 10
29.8205872714259
 20
9.87408480651916
 10
29.82139312483307
 20
9.870458512295723
 10
29.82066562981314
 20
9.866828078799255
 10
29.81843690888471
 20
9.863353807590446
 10
29.81480537110284
 20
9.860189104914265
 10
29.80993136678504
 20
9.857473708050566
 10
29.80403010732604
 20
9.855327515168564
  0
LINE
  5
464
330
2
100
AcDbEntity
  8
0
100
AcDbLine
 10
29.81197153531787
 20
9.879937606015939
 30
0.0
 11
29.81458398284292
 21
9.880691754652371
 31
0.0
  0
LWPOLYLINE
  5
465
330
2
100
AcDbEntity
  8
0
100
AcDbPolyline
 90
        9
 70
   128
 43
0.0
 10
29.8533152079365
 20
9.809405888011411
 10
29.87544964653265
 20
9.817336545201175
 10
29.89406438915376
 20
9.827273924419021
 10
29.90844408170281
 20
9.838836137743872
 10
29.91803612064703
 20
9.851578855818569
 10
29.92247188931893
 20
9.865012383104275
 10
29.92158092360006
 20
9.878620476710395
 10
29.91539746281361
 20
9.891880185210087
 10
29.90415913388196
 20
9.904281945460329
  0
LINE
  5
466
330
2
100
AcDbEntity
  8
0
100
AcDbLine
 10
29.8533152079365
 20
9.809405888011411
 30
0.0
 11
29.83827795537946
 21
9.805065007106652
 31
0.0
  0
LINE
  5
467
330
2
100
AcDbEntity
  8
0
100
AcDbLine
 10
29.80403010732604
 20
9.855327515168564
 30
0.0
 11
29.79063839748241
 21
9.851461661531995
 31
0.0
  0
LINE
  5
468
330
2
100
AcDbEntity
  8
0
100
AcDbLine
 10
29.64421740797417
 20
9.838330911140861
 30
0.0
 11
29.47398806899608
 21
9.985753843158772
 31
0.0
  0
ARC
  5
469
330
2
100
AcDbEntity
  8
0
100
AcDbCircle
 10
29.81845139838052
 20
9.74767883213887
 30
0.0
 40
0.1075964840075728
100
AcDbArc
 50
115.1505426326017
 51
177.0127440445993
  0
LINE
  5
46A
330
2
100
AcDbEntity
  8
0
100
AcDbLine
 10
29.71100112175447
 20
9.753286097468752
 30
0.0
 11
29.71100112175447
 21
9.35837182078486
 31
0.0
  0
LINE
  5
46B
330
2
100
AcDbEntity
  8
0
100
AcDbLine
 10
29.7630916926116
 20
9.708174339814988
 30
0.0
 11
29.7630916926116
 21
9.304835755912044
 31
0.0
  0
ARC
  5
46C
330
2
100
AcDbEntity
  8
0
100
AcDbCircle
 10
29.68348870159508
 20
9.874579457607669
 30
0.0
 40
0.0534433496693235
100
AcDbArc
 50
222.7079101950007
 51
279.5714872550997
  0
ARC
  5
46D
330
2
100
AcDbEntity
  8
0
100
AcDbCircle
 10
29.8766230247368
 20
11.07015549005916
 30
0.0
 40
0.0462075913463469
100
AcDbArc
 50
2.95194104650027
 51
53.42162981750089
  0
ARC
  5
46E
330
2
100
AcDbEntity
  8
0
100
AcDbCircle
 10
29.869922778085
 20
9.702891660694579
 30
0.0
 40
0.1069616170525567
100
AcDbArc
 50
107.2086421099016
 51
177.1690928843014
  0
ARC
  5
46F
330
2
100
AcDbEntity
  8
0
100
AcDbCircle
 10
11.73503074962593
 20
8.075063085890409
 30
0.0
 40
0.1180194387335017
100
AcDbArc
 50
231.2220787150998
 51
289.6851342020996
  0
ARC
  5
470
330
2
100
AcDbEntity
  8
0
100
AcDbCircle
 10
11.64235771008978
 20
9.639120575284017
 30
0.0
 40
0.0987543073776935
100
AcDbArc
 50
179.5143498991009
 51
222.5890989715988
  0
LINE
  5
471
330
2
100
AcDbEntity
  8
0
100
AcDbLine
 10
11.54360695024012
 20
9.874807235609559
 30
0.0
 11
11.54360695024012
 21
9.639957625855622
 31
0.0
  0
ARC
  5
472
330
2
100
AcDbEntity
  8
0
100
AcDbCircle
 10
11.64898298373791
 20
9.888088029035358
 30
0.0
 40
0.1062096413319411
100
AcDbArc
 50
136.0366160700997
 51
187.1832505378004
  0
LINE
  5
473
330
2
100
AcDbEntity
  8
0
100
AcDbLine
 10
11.57232261634723
 20
9.569977371850615
 30
0.0
 11
11.56965223566868
 21
9.572289989366275
 31
0.0
  0
ARC
  5
474
330
2
100
AcDbEntity
  8
0
100
AcDbCircle
 10
11.55213419476487
 20
9.613075289855455
 30
0.0
 40
0.098754307377772
100
AcDbArc
 50
179.5143498991986
 51
222.5890989715988
  0
LINE
  5
475
330
2
100
AcDbEntity
  8
0
100
AcDbLine
 10
11.45338343491521
 20
9.613912340427049
 30
0.0
 11
11.45338343491521
 21
9.848761950180996
 31
0.0
  0
LINE
  5
476
330
2
100
AcDbEntity
  8
0
100
AcDbLine
 10
11.47942872034377
 20
9.546244703937702
 30
0.0
 11
11.54318309492556
 21
9.491031795943495
 31
0.0
  0
ARC
  5
477
330
2
100
AcDbEntity
  8
0
100
AcDbCircle
 10
11.55875946843036
 20
9.862042743606785
 30
0.0
 40
0.1062096413319764
100
AcDbArc
 50
136.0366160700997
 51
187.1832505376989
  0
LINE
  5
478
330
2
100
AcDbEntity
  8
0
100
AcDbLine
 10
11.48231151155917
 20
9.935773319380253
 30
0.0
 11
11.57232261634723
 21
9.997314295718137
 31
0.0
  0
LINE
  5
479
330
2
100
AcDbEntity
  8
0
100
AcDbLine
 10
10.10204579948279
 20
6.008747001728266
 30
0.0
 11
10.10206717035139
 21
6.181686364827061
 31
0.0
  0
LINE
  5
47A
330
2
100
AcDbEntity
  8
0
100
AcDbLine
 10
11.83839816138726
 20
4.505021746388219
 30
0.0
 11
11.83841953225587
 21
4.677961109504373
 31
0.0
  0
ARC
  5
47B
330
2
100
AcDbEntity
  8
0
100
AcDbCircle
 10
9.971153017012724
 20
6.147639042603653
 30
0.0
 40
0.0106369325609836
100
AcDbArc
 50
356.4164075229988
 51
86.89896279819894
  0
LINE
  5
47C
330
2
100
AcDbEntity
  8
0
100
AcDbLine
 10
9.926046762363128
 20
6.161166638896904
 30
0.0
 11
9.971728441980303
 21
6.158260399406213
 31
0.0
  0
LINE
  5
47D
330
2
100
AcDbEntity
  8
0
100
AcDbLine
 10
10.01170079050658
 20
6.283262302210129
 30
0.0
 11
9.767093673453487
 21
6.298824051912237
 31
0.0
  0
ARC
  5
47E
330
2
100
AcDbEntity
  8
0
100
AcDbCircle
 10
10.00652196586792
 20
6.18767009095243
 30
0.0
 40
0.0957323930487549
100
AcDbArc
 50
356.4164075229988
 51
86.89896279830003
  0
LINE
  5
47F
330
2
100
AcDbEntity
  8
0
100
AcDbLine
 10
9.981769150850013
 20
6.146974184151066
 30
0.0
 11
9.981764941792974
 21
6.112913280075311
 31
0.0
  0
ARC
  5
480
330
2
100
AcDbEntity
  8
0
100
AcDbCircle
 10
11.73705628022215
 20
4.68205976128479
 30
0.0
 40
0.1014460832730851
100
AcDbArc
 50
357.6844903577004
 51
47.65619405469932
  0
ARC
  5
481
330
2
100
AcDbEntity
  8
0
100
AcDbCircle
 10
10.88424480098632
 20
4.881078053983237
 30
0.0
 40
0.1645905122960829
100
AcDbArc
 50
179.5143498991986
 51
222.5890989715988
  0
ARC
  5
482
330
2
100
AcDbEntity
  8
0
100
AcDbCircle
 10
11.00454282232823
 20
4.915805101481776
 30
0.0
 40
0.1645905122960238
100
AcDbArc
 50
179.5143498991009
 51
222.5890989715988
  0
LINE
  5
483
330
2
100
AcDbEntity
  8
0
100
AcDbLine
 10
11.10041107687027
 20
4.691641397481536
 30
0.0
 11
11.10041107687027
 21
4.784779177839311
 31
0.0
  0
LWPOLYLINE
  5
484
330
2
100
AcDbEntity
  8
0
100
AcDbPolyline
 90
        9
 70
   128
 43
0.0
 10
11.05700226782265
 20
4.654048266088924
 10
11.06547090635737
 20
4.648158892934173
 10
11.07361409984801
 20
4.645385211010474
 10
11.08111890997079
 20
4.645833811342992
 10
11.08769693106403
 20
4.649487454470484
 10
11.09309537343884
 20
4.656205732950539
 10
11.09710677802759
 20
4.665730467109302
 10
11.09957698877623
 20
4.677695626732482
 10
11.10041107687027
 20
4.691641397481536
  0
LINE
  5
485
330
2
100
AcDbEntity
  8
0
100
AcDbLine
 10
11.05700226782265
 20
4.654048266088924
 30
0.0
 11
10.88336703163222
 21
4.804420791624654
 31
0.0
  0
LINE
  5
486
330
2
100
AcDbEntity
  8
0
100
AcDbLine
 10
10.8399582225846
 20
4.917200185767782
 30
0.0
 11
10.8399582225846
 21
4.987281558058381
 31
0.0
  0
LINE
  5
487
330
2
100
AcDbEntity
  8
0
100
AcDbLine
 10
10.71966020122531
 20
4.882473138269244
 30
0.0
 11
10.71966020122531
 21
4.957659401037105
 31
0.0
  0
LINE
  5
488
330
2
100
AcDbEntity
  8
0
100
AcDbLine
 10
10.76306901027291
 20
4.769693744126115
 30
0.0
 11
10.93670424646336
 21
4.619321218590375
 31
0.0
  0
ARC
  5
489
330
2
100
AcDbEntity
  8
0
100
AcDbCircle
 10
10.95633989327382
 20
4.637445491815089
 30
0.0
 40
0.0267216748346569
100
AcDbArc
 50
222.7079101950007
 51
279.5714872550997
  0
ARC
  5
48A
330
2
100
AcDbEntity
  8
0
100
AcDbCircle
 10
3.282027151289355
 20
2.791266376861532
 30
0.0
 40
0.1645905122960968
100
AcDbArc
 50
179.5143498991009
 51
222.5890989715988
  0
LINE
  5
48B
330
2
100
AcDbEntity
  8
0
100
AcDbLine
 10
3.117442551528341
 20
2.792661461147535
 30
0.0
 11
3.117442551528341
 21
2.863336548151764
 31
0.0
  0
ARC
  5
48C
330
2
100
AcDbEntity
  8
0
100
AcDbCircle
 10
3.690429059303994
 20
2.575491828894307
 30
0.0
 40
0.1391515298772876
100
AcDbArc
 50
153.7577712373994
 51
183.4563391805008
  0
LINE
  5
48D
330
2
100
AcDbEntity
  8
0
100
AcDbLine
 10
3.551530642004465
 20
2.416730147308186
 30
0.0
 11
3.551530642004465
 21
2.567102672843926
 31
0.0
  0
LWPOLYLINE
  5
48E
330
2
100
AcDbEntity
  8
0
100
AcDbPolyline
 90
        9
 70
   128
 43
0.0
 10
3.508121832956845
 20
2.379137015932936
 10
3.516590471491582
 20
2.373247642778185
 10
3.524733664999601
 20
2.370473960854489
 10
3.532238475122369
 20
2.370922561187004
 10
3.538816496198236
 20
2.374576204314497
 10
3.544214938590414
 20
2.381294482794555
 10
3.548226343179152
 20
2.390819216953318
 10
3.550696553910441
 20
2.402784376576487
 10
3.551530642004465
 20
2.416730147308186
  0
LINE
  5
48F
330
2
100
AcDbEntity
  8
0
100
AcDbLine
 10
3.508121832956845
 20
2.379137015932936
 30
0.0
 11
3.160851360575961
 21
2.679882067004417
 31
0.0
  0
ARC
  5
490
330
2
100
AcDbEntity
  8
0
100
AcDbCircle
 10
3.161729130867712
 20
2.756539329623443
 30
0.0
 40
0.1645905122961716
100
AcDbArc
 50
179.5143498991986
 51
222.5890989715988
  0
LINE
  5
491
330
2
100
AcDbEntity
  8
0
100
AcDbLine
 10
2.997144531106698
 20
2.757934413909449
 30
0.0
 11
2.997144531106698
 21
2.828427204404629
 31
0.0
  0
LINE
  5
492
330
2
100
AcDbEntity
  8
0
100
AcDbLine
 10
3.040553340154318
 20
2.645155019766331
 30
0.0
 11
3.387823812535202
 21
2.34440996869484
 31
0.0
  0
ARC
  5
493
330
2
100
AcDbEntity
  8
0
100
AcDbCircle
 10
3.407459459345659
 20
2.362534241919565
 30
0.0
 40
0.0267216748346351
100
AcDbArc
 50
222.7079101950007
 51
279.5714872551987
  0
LINE
  5
494
330
2
100
AcDbEntity
  8
0
100
AcDbLine
 10
26.91314754802628
 20
9.45688192731939
 30
0.0
 11
28.2020766090757
 21
9.828963697496647
 31
0.0
  0
ARC
  5
495
330
2
100
AcDbEntity
  8
0
100
AcDbCircle
 10
28.37621622511958
 20
9.193791954476669
 30
0.0
 40
0.6586104683350689
100
AcDbArc
 50
82.20069056220088
 51
105.3315751135007
  0
LINE
  5
496
330
2
100
AcDbEntity
  8
0
100
AcDbLine
 10
28.89927694963907
 20
9.788207172620165
 30
0.0
 11
28.46559205731919
 21
9.846309930952962
 31
0.0
  0
ARC
  5
497
330
2
100
AcDbEntity
  8
0
100
AcDbCircle
 10
28.86238345831984
 20
9.3767911257308
 30
0.0
 40
0.4130669356639539
100
AcDbArc
 50
53.14428933650021
 51
84.87574101239975
  0
LINE
  5
498
330
2
100
AcDbEntity
  8
0
100
AcDbLine
 10
29.11014178865753
 20
9.707306031723344
 30
0.0
 11
30.61583239300293
 21
8.403339718116843
 31
0.0
  0
ARC
  5
499
330
2
100
AcDbEntity
  8
0
100
AcDbCircle
 10
30.55748695067356
 20
8.317530859728464
 30
0.0
 40
0.1037658461051484
100
AcDbArc
 50
333.7165001093012
 51
55.78638972120025
  0
LINE
  5
49A
330
2
100
AcDbEntity
  8
0
100
AcDbLine
 10
30.53431934323257
 20
8.054739547843826
 30
0.0
 11
30.65052485991555
 21
8.271581993995088
 31
0.0
  0
ARC
  5
49B
330
2
100
AcDbEntity
  8
0
100
AcDbCircle
 10
30.32073046920582
 20
8.205653095303251
 30
0.0
 40
0.2615245799519639
100
AcDbArc
 50
281.4210849595993
 51
324.7564667370997
  0
LINE
  5
49C
330
2
100
AcDbEntity
  8
0
100
AcDbLine
 10
30.37251706145631
 20
7.949307128334613
 30
0.0
 11
29.08358800040688
 21
7.577225358157363
 31
0.0
  0
LINE
  5
49D
330
2
100
AcDbEntity
  8
0
100
AcDbLine
 10
29.1343871738149
 20
8.644497495098672
 30
0.0
 11
29.428522978031
 21
8.729407187965687
 31
0.0
  0
LWPOLYLINE
  5
49E
330
2
100
AcDbEntity
  8
0
100
AcDbPolyline
 90
        9
 70
   128
 43
0.0
 10
29.428522978031
 20
8.729407187965687
 10
29.53354974371294
 20
8.773703470528225
 10
29.59600757485288
 20
8.834896369267699
 10
29.606123501795
 20
8.903410842410558
 10
29.56231465421419
 20
8.968526218817217
 10
29.47143593773333
 20
9.020053694475439
 10
29.34770742570996
 20
9.049930606180822
 10
29.21048930044853
 20
9.053482021337277
 10
29.0812525056501
 20
9.030152239037168
  0
LINE
  5
49F
330
2
100
AcDbEntity
  8
0
100
AcDbLine
 10
29.0812525056501
 20
9.030152239037168
 30
0.0
 11
28.787116701434
 21
8.945242546170153
 31
0.0
  0
LWPOLYLINE
  5
4A0
330
2
100
AcDbEntity
  8
0
100
AcDbPolyline
 90
        9
 70
   128
 43
0.0
 10
28.787116701434
 20
8.945242546170153
 10
28.68524374837349
 20
8.900572455142476
 10
28.62531441964035
 20
8.839810126660953
 10
28.61645241228382
 20
8.772206074422729
 10
28.66000688657036
 20
8.708052402539198
 10
28.74934706860833
 20
8.657115926008955
 10
28.87087172557139
 20
8.627151261642357
 10
29.00607983006518
 20
8.622720257955428
 10
29.1343871738149
 20
8.644497495098672
  0
LINE
  5
4A1
330
2
100
AcDbEntity
  8
0
100
AcDbLine
 10
28.46559205731919
 20
9.93653344627787
 30
0.0
 11
28.89927694963907
 21
9.878430687927721
 31
0.0
  0
ARC
  5
4A2
330
2
100
AcDbEntity
  8
0
100
AcDbCircle
 10
28.37621622511958
 20
9.284015469801587
 30
0.0
 40
0.6586104683351082
100
AcDbArc
 50
82.20069056220088
 51
105.3315751135007
  0
LINE
  5
4A3
330
2
100
AcDbEntity
  8
0
100
AcDbLine
 10
26.91314754802628
 20
9.547105442626946
 30
0.0
 11
28.2020766090757
 21
9.919187212804203
 31
0.0
  0
ARC
  5
4A4
330
2
100
AcDbEntity
  8
0
100
AcDbCircle
 10
28.86238345831984
 20
9.467014641055708
 30
0.0
 40
0.4130669356642183
100
AcDbArc
 50
53.14428933650021
 51
84.87574101239975
  0
LINE
  5
4A5
330
2
100
AcDbEntity
  8
0
100
AcDbLine
 10
29.11014178865753
 20
9.797529547030901
 30
0.0
 11
30.61583239300293
 21
8.493563233441758
 31
0.0
  0
ARC
  5
4A6
330
2
100
AcDbEntity
  8
0
100
AcDbCircle
 10
26.47920672670981
 20
11.18766961517626
 30
0.0
 40
0.1975086147553275
100
AcDbArc
 50
179.5143498991009
 51
222.5890989715988
  0
ARC
  5
4A7
330
2
100
AcDbEntity
  8
0
100
AcDbCircle
 10
11.96825801277126
 20
6.998719542081705
 30
0.0
 40
0.1975086147552878
100
AcDbArc
 50
179.5143498991009
 51
222.5890989715988
  0
LINE
  5
4A8
330
2
100
AcDbEntity
  8
0
100
AcDbLine
 10
11.77075649305457
 20
7.000393643224903
 30
0.0
 11
26.28170520699311
 21
11.18934371631945
 31
0.0
  0
LINE
  5
4A9
330
2
100
AcDbEntity
  8
0
100
AcDbLine
 10
26.28170520699311
 20
11.18934371631945
 30
0.0
 11
26.28170520699311
 21
12.81012262538498
 31
0.0
  0
LINE
  5
4AA
330
2
100
AcDbEntity
  8
0
100
AcDbLine
 10
11.77075649305457
 20
7.000393643224903
 30
0.0
 11
11.77075649305457
 21
7.030468148321627
 31
0.0
  0
ARC
  5
4AB
330
2
100
AcDbEntity
  8
0
100
AcDbCircle
 10
11.71567116412315
 20
7.032618066512906
 30
0.0
 40
0.0551272674065997
100
AcDbArc
 50
357.7649448216984
 51
111.3846782332999
  0
LINE
  5
4AC
330
2
100
AcDbEntity
  8
0
100
AcDbLine
 10
10.64296255155389
 20
6.780088343232421
 30
0.0
 11
11.6955702302867
 21
7.083950006565704
 31
0.0
  0
ARC
  5
4AD
330
2
100
AcDbEntity
  8
0
100
AcDbCircle
 10
10.44195321322422
 20
7.293407743864527
 30
0.0
 40
0.5512726740658359
100
AcDbArc
 50
177.7649448216985
 51
291.3846782332999
  0
LINE
  5
4AE
330
2
100
AcDbEntity
  8
0
100
AcDbLine
 10
9.891099923892539
 20
7.314906925655698
 30
0.0
 11
9.891099923892539
 21
8.48781262482753
 31
0.0
  0
ARC
  5
4AF
330
2
100
AcDbEntity
  8
0
100
AcDbCircle
 10
10.67601374891622
 20
8.703566719154306
 30
0.0
 40
0.0330763604439658
100
AcDbArc
 50
177.7649448216985
 51
291.3846782332999
  0
LINE
  5
4B0
330
2
100
AcDbEntity
  8
0
100
AcDbLine
 10
10.68807430922501
 20
8.672767555108727
 30
0.0
 11
10.89859584497159
 21
8.733539887775389
 31
0.0
  0
ARC
  5
4B1
330
2
100
AcDbEntity
  8
0
100
AcDbCircle
 10
10.87960895133784
 20
8.79484389563305
 30
0.0
 40
0.0641769702315579
100
AcDbArc
 50
287.2086421100005
 51
357.1690928843015
  0
LINE
  5
4B2
330
2
100
AcDbEntity
  8
0
100
AcDbLine
 10
10.94370760262535
 20
8.791674288160816
 30
0.0
 11
10.94370760262535
 21
9.017233076447052
 31
0.0
  0
ARC
  5
4B3
330
2
100
AcDbEntity
  8
0
100
AcDbCircle
 10
11.37103194451903
 20
8.9961023599481
 30
0.0
 40
0.4278464682102069
100
AcDbArc
 50
107.2086421099016
 51
177.1690928843014
  0
LINE
  5
4B4
330
2
100
AcDbEntity
  8
0
100
AcDbLine
 10
11.57232261634723
 20
9.49944365120675
 30
0.0
 11
11.24445265369684
 21
9.404795745613764
 31
0.0
  0
LWPOLYLINE
  5
4B5
330
2
100
AcDbEntity
  8
0
100
AcDbPolyline
 90
        9
 70
   128
 43
0.0
 10
26.57239958513685
 20
10.62164567773951
 10
26.5653756295676
 20
10.62939677789809
 10
26.56151096656524
 20
10.63768409570172
 10
26.56095411299745
 20
10.64618915420988
 10
26.56372646841737
 20
10.65458510877429
 10
26.56972149274449
 20
10.66254930756881
 10
26.57870880060065
 20
10.66977569089901
 10
26.59034301472798
 20
10.67598655290582
 10
26.6041770388571
 20
10.68094321365594
  0
LINE
  5
4B6
330
2
100
AcDbEntity
  8
0
100
AcDbLine
 10
26.57239958513685
 20
10.62164567773951
 30
0.0
 11
26.65921720323209
 21
10.54645941497164
 31
0.0
  0
ARC
  5
4B7
330
2
100
AcDbEntity
  8
0
100
AcDbCircle
 10
26.73537223803279
 20
10.66434113631922
 30
0.0
 40
0.1403413323077162
100
AcDbArc
 50
237.1363593049014
 51
287.6021602703013
  0
LINE
  5
4B8
330
2
100
AcDbEntity
  8
0
100
AcDbLine
 10
26.77781227504755
 20
10.53057068812019
 30
0.0
 11
26.7928495276046
 21
10.53491156902495
 31
0.0
  0
LINE
  5
4B9
330
2
100
AcDbEntity
  8
0
100
AcDbLine
 10
15.12191655153023
 20
4.007980385119228
 30
0.0
 11
15.04378069524452
 21
4.075648021608575
 31
0.0
  0
ARC
  5
4BA
330
2
100
AcDbEntity
  8
0
100
AcDbCircle
 10
14.96762566044379
 20
3.957766300260992
 30
0.0
 40
0.1403413323078023
100
AcDbArc
 50
57.1363593049005
 51
107.6021602703005
  0
LINE
  5
4BB
330
2
100
AcDbEntity
  8
0
100
AcDbLine
 10
14.84999936066117
 20
4.069832343936212
 30
0.0
 11
14.92518562342903
 21
4.091536748460018
 31
0.0
  0
LINE
  5
4BC
330
2
100
AcDbEntity
  8
0
100
AcDbLine
 10
11.79401920370928
 20
6.716388793316635
 30
0.0
 11
14.84999936066117
 21
4.069832343936212
 31
0.0
  0
LINE
  5
4BD
330
2
100
AcDbEntity
  8
0
100
AcDbLine
 10
11.79401920370928
 20
6.716388793316635
 30
0.0
 11
11.86920546647715
 21
6.738093197840438
 31
0.0
  0
LWPOLYLINE
  5
4BE
330
2
100
AcDbEntity
  8
0
100
AcDbPolyline
 90
        9
 70
   128
 43
0.0
 10
11.9009829201974
 20
6.797390733756866
 10
11.90800687578401
 20
6.789639633598294
 10
11.91187153876905
 20
6.781352315777297
 10
11.9124283923542
 20
6.772847257286503
 10
11.90965603693425
 20
6.76445130272209
 10
11.90366101258978
 20
6.756487103927565
 10
11.89467370475095
 20
6.749260720597366
 10
11.88303949060625
 20
6.743049858590552
 10
11.86920546647715
 20
6.738093197840438
  0
LINE
  5
4BF
330
2
100
AcDbEntity
  8
0
100
AcDbLine
 10
11.9009829201974
 20
6.797390733756866
 30
0.0
 11
11.82284706391171
 21
6.865058370246213
 31
0.0
  0
LINE
  5
4C0
330
2
100
AcDbEntity
  8
0
100
AcDbLine
 10
26.33379577785027
 20
11.05400844334076
 30
0.0
 11
26.68106625023117
 21
10.75326339226928
 31
0.0
  0
LWPOLYLINE
  5
4C1
330
2
100
AcDbEntity
  8
0
100
AcDbPolyline
 90
        9
 70
   128
 43
0.0
 10
26.64928879651089
 20
10.69396585637021
 10
26.66312282063998
 20
10.69892251710297
 10
26.67475703478468
 20
10.70513337910977
 10
26.68374434262353
 20
10.71235976243998
 10
26.68973936696799
 20
10.7203239612345
 10
26.69251172238791
 20
10.72871991579891
 10
26.69195486880278
 20
10.73722497430707
 10
26.68809020581776
 20
10.7455122921107
 10
26.68106625023117
 20
10.75326339226928
  0
LINE
  5
4C2
330
2
100
AcDbEntity
  8
0
100
AcDbLine
 10
26.64928879651089
 20
10.69396585637021
 30
0.0
 11
26.6041770388571
 21
10.68094321365594
 31
0.0
  0
ARC
  5
4C3
330
2
100
AcDbEntity
  8
0
100
AcDbCircle
 10
26.88500624066217
 20
9.528746643396782
 30
0.0
 40
0.0771781743692218
100
AcDbArc
 50
177.7649448216985
 51
291.3846782332999
  0
ARC
  5
4C4
330
2
100
AcDbEntity
  8
0
100
AcDbCircle
 10
29.05575952623039
 20
7.655010858767717
 30
0.0
 40
0.0826136071135083
100
AcDbArc
 50
231.2220787150998
 51
289.6851342020996
  0
ARC
  5
4C5
330
2
100
AcDbEntity
  8
0
100
AcDbCircle
 10
26.90912736126242
 20
9.557371830647934
 30
0.0
 40
0.0110254534813249
100
AcDbArc
 50
177.7649448217996
 51
291.3846782334013
  0
LINE
  5
4C6
330
2
100
AcDbEntity
  8
0
100
AcDbLine
 10
26.89811029546922
 20
10.55026048280123
 30
0.0
 11
26.89811029546922
 21
9.55780181427924
 31
0.0
  0
LINE
  5
4C7
330
2
100
AcDbEntity
  8
0
100
AcDbLine
 10
26.80788678016166
 20
10.52421519737267
 30
0.0
 11
26.80788678016166
 21
9.531756528850667
 31
0.0
  0
LINE
  5
4C8
330
2
100
AcDbEntity
  8
0
100
AcDbLine
 10
26.60712663237493
 20
10.68179468795034
 30
0.0
 11
26.65921720323209
 21
10.63668293029655
 31
0.0
  0
ARC
  5
4C9
330
2
100
AcDbEntity
  8
0
100
AcDbCircle
 10
26.82099083496868
 20
10.55327036825513
 30
0.0
 40
0.0771781743692229
100
AcDbArc
 50
357.7649448216984
 51
111.3846782332999
  0
ARC
  5
4CA
330
2
100
AcDbEntity
  8
0
100
AcDbCircle
 10
26.7968697143684
 20
10.52464518100398
 30
0.0
 40
0.0110254534813319
100
AcDbArc
 50
357.7649448216984
 51
111.3846782332999
  0
ARC
  5
4CB
330
2
100
AcDbEntity
  8
0
100
AcDbCircle
 10
26.73537223803279
 20
10.75456465164415
 30
0.0
 40
0.1403413323077128
100
AcDbArc
 50
237.1363593049014
 51
287.6021602703013
  0
LINE
  5
4CC
330
2
100
AcDbEntity
  8
0
100
AcDbLine
 10
26.77781227504755
 20
10.62079420342775
 30
0.0
 11
26.7928495276046
 21
10.62513508433251
 31
0.0
  0
ARC
  5
4CD
330
2
100
AcDbEntity
  8
0
100
AcDbCircle
 10
30.54610523744495
 20
8.400321305280225
 30
0.0
 40
0.1164299505689906
100
AcDbArc
 50
3.163042531399394
 51
53.21052833260096
  0
ARC
  5
4CE
330
2
100
AcDbEntity
  8
0
100
AcDbCircle
 10
15.14547932771316
 20
4.029729512992364
 30
0.0
 40
0.0320660098014976
100
AcDbArc
 50
222.7079101949012
 51
279.5714872553012
  0
LINE
  5
4CF
330
2
100
AcDbEntity
  8
0
100
AcDbLine
 10
13.99412261002953
 20
3.877898600451654
 30
0.0
 11
14.76103103502888
 21
4.099285993256646
 31
0.0
  0
ARC
  5
4D0
330
2
100
AcDbEntity
  8
0
100
AcDbCircle
 10
13.79454417537235
 20
4.487500483925671
 30
0.0
 40
0.6414405723998843
100
AcDbArc
 50
248.9142116229008
 51
288.1280034128989
  0
LWPOLYLINE
  5
4D1
330
2
100
AcDbEntity
  8
0
100
AcDbPolyline
 90
        3
 70
   128
 43
0.0
 10
11.76984201323529
 20
7.041895027617318
 10
11.76232891336697
 20
7.041627885222471
 10
11.74766080114385
 20
7.038838248911918
  0
LINE
  5
4D2
330
2
100
AcDbEntity
  8
0
100
AcDbLine
 10
10.69505312241102
 20
6.734976585578635
 30
0.0
 11
11.74766080114385
 21
7.038838248911918
 31
0.0
  0
LINE
  5
4D3
330
2
100
AcDbEntity
  8
0
100
AcDbLine
 10
11.79401920370928
 20
6.905100048891409
 30
0.0
 11
11.79401920370928
 21
6.80661230864155
 31
0.0
  0
ARC
  5
4D4
330
2
100
AcDbEntity
  8
0
100
AcDbCircle
 10
11.76989808310901
 20
6.777987121390399
 30
0.0
 40
0.0661527208879115
100
AcDbArc
 50
177.7649448216985
 51
291.3846782332999
  0
LINE
  5
4D5
330
2
100
AcDbEntity
  8
0
100
AcDbLine
 10
11.70379568840172
 20
7.026175481581081
 30
0.0
 11
11.70379568840172
 21
6.780567023212988
 31
0.0
  0
LINE
  5
4D6
330
2
100
AcDbEntity
  8
0
100
AcDbLine
 10
11.79401920370928
 20
6.80661230864155
 30
0.0
 11
11.86625587295933
 21
6.827465238853591
 31
0.0
  0
ARC
  5
4D7
330
2
100
AcDbEntity
  8
0
100
AcDbCircle
 10
14.82614638280307
 20
4.136505630168695
 30
0.0
 40
0.0708116632400782
100
AcDbArc
 50
231.2220787150998
 51
289.6851342020996
  0
ARC
  5
4D8
330
2
100
AcDbEntity
  8
0
100
AcDbCircle
 10
10.49627830689226
 20
7.290587304228985
 30
0.0
 40
0.5900971936673513
100
AcDbArc
 50
231.2220787150998
 51
289.6851342020996
  0
LWPOLYLINE
  5
4D9
330
2
100
AcDbEntity
  8
0
100
AcDbPolyline
 90
        9
 70
   128
 43
0.0
 10
10.69505312241102
 20
8.749968427719363
 10
10.68489075616934
 20
8.75703567550159
 10
10.67511892396321
 20
8.760364093823916
 10
10.66611315182281
 20
8.759825773421422
 10
10.65821952653178
 20
8.755441401664956
 10
10.65174139567158
 20
8.747379467485423
 10
10.64692771016855
 20
8.735949786498377
 10
10.64396345727019
 20
8.721591594940147
 10
10.64296255155389
 20
8.704856670065591
  0
LWPOLYLINE
  5
4DA
330
2
100
AcDbEntity
  8
0
100
AcDbPolyline
 90
        7
 70
   128
 43
0.0
 10
9.891099923892539
 20
8.48781262482753
 10
9.892100829608835
 20
8.504547549702088
 10
9.895065082507215
 20
8.518905741260319
 10
9.899878767992873
 20
8.530335422247365
 10
9.906356898870441
 20
8.538397356426898
 10
9.914250524161474
 20
8.54278172818336
 10
9.914295844885472
 20
8.542794870460756
  0
LINE
  5
4DB
330
2
100
AcDbEntity
  8
0
100
AcDbLine
 10
10.69505312241102
 20
8.749968427719363
 30
0.0
 11
10.76016633598243
 21
8.693578730647804
 31
0.0
  0
LINE
  5
4DC
330
2
100
AcDbEntity
  8
0
100
AcDbLine
 10
14.04621318088667
 20
3.832786842780517
 30
0.0
 11
14.96229943647111
 21
4.097238165916653
 31
0.0
  0
ARC
  5
4DD
330
2
100
AcDbEntity
  8
0
100
AcDbCircle
 10
13.84859772297815
 20
4.42187947573819
 30
0.0
 40
0.6213549705323228
100
AcDbArc
 50
240.2742217211986
 51
288.5444067958994
  0
LINE
  5
4DE
330
2
100
AcDbEntity
  8
0
100
AcDbLine
 10
12.03634519277815
 20
5.206970523753479
 30
0.0
 11
12.00852807436352
 21
5.208740231201176
 31
0.0
  0
LINE
  5
4DF
330
2
100
AcDbEntity
  8
0
100
AcDbLine
 10
1.796045497446243
 20
6.28322019526599
 30
0.0
 11
1.798900109815903
 21
6.280748028429595
 31
0.0
  0
LINE
  5
4E0
330
2
100
AcDbEntity
  8
0
100
AcDbLine
 10
12.80323006480017
 20
3.684490060199497
 30
0.0
 11
12.79020742208588
 21
3.680730747060234
 31
0.0
  0
ARC
  5
4E1
330
2
100
AcDbEntity
  8
0
100
AcDbCircle
 10
43.5571035505531
 20
7.388069402678286
 30
0.0
 40
16.07014897283048
100
AcDbArc
 50
112.5944358869499
 51
167.1801845515507
  0
ARC
  5
4E2
330
2
100
AcDbEntity
  8
0
100
AcDbCircle
 10
43.55710355055306
 20
7.38806940267831
 30
0.0
 40
15.82014897283043
100
AcDbArc
 50
113.5667786606456
 51
168.2714534359288
  0
ELLIPSE
  5
4E3
330
2
100
AcDbEntity
  8
0
100
AcDbEllipse
 10
29.95520077405686
 20
8.841888167817028
 30
0.0
 11
0.4800515768065914
 21
0.1923966916688468
 31
0.0
210
0.0
220
0.0
230
1.0
 40
0.5932024121473689
 41
2.221720097935128
 42
7.79106145079668
  0
ARC
  5
4E4
330
2
100
AcDbEntity
  8
0
100
AcDbCircle
 10
61.91833281374896
 20
-4.643744464205149
 30
0.0
 40
34.32597910638917
100
AcDbArc
 50
136.0528443758193
 51
156.517149740233
  0
LINE
  5
4E5
330
2
100
AcDbEntity
  8
0
100
AcDbLine
 10
1.500190732937497
 20
2.271165723791366
 30
0.0
 11
3.670631185318086
 21
0.391509154629329
 31
0.0
  0
LINE
  5
4E6
330
2
100
AcDbEntity
  8
0
100
AcDbLine
 10
1.693229330765134
 20
3.470590339736837
 30
0.0
 11
3.790929205757123
 21
1.538992890811069
 31
0.0
  0
ARC
  5
4E7
330
2
100
AcDbEntity
  8
0
100
AcDbCircle
 10
43.98146972913798
 20
19.93191861058228
 30
0.0
 40
0.0259376315670922
100
AcDbArc
 50
345.5453413073142
 51
4.305738626021113
  0
ARC
  5
4E8
330
2
100
AcDbEntity
  8
0
100
AcDbCircle
 10
37.4718191238061
 20
19.09650916101055
 30
0.0
 40
0.0447319043480182
100
AcDbArc
 50
170.9934952279748
 51
207.8464160377234
  0
ARC
  5
4E9
330
2
100
AcDbEntity
  8
0
100
AcDbCircle
 10
41.6769402107447
 20
13.75266086437899
 30
0.0
 40
0.0947870990723529
100
AcDbArc
 50
197.5213031335198
 51
227.6872705160876
  0
ARC
  5
4EA
330
2
100
AcDbEntity
  8
0
100
AcDbCircle
 10
41.64097656981016
 20
13.7440892592965
 30
0.0
 40
0.0579721684056506
100
AcDbArc
 50
176.0176580541099
 51
200.1445634596894
  0
ENDSEC
  0
SECTION
  2
OBJECTS
  0
DICTIONARY
  5
9
330
0
100
AcDbDictionary
281
     1
  3
ACAD_COLOR
350
43
  3
ACAD_GROUP
350
30
  3
ACAD_LAYOUT
350
16
  3
ACAD_MATERIAL
350
B
  3
ACAD_MLEADERSTYLE
350
46
  3
ACAD_MLINESTYLE
350
31
  3
ACAD_PLOTSETTINGS
350
32
  3
ACAD_PLOTSTYLENAME
350
8
  3
ACAD_SCALELIST
350
44
  3
ACAD_TABLESTYLE
350
45
  3
ACAD_VISUALSTYLE
350
29
  3
ACDB_RECOMPOSE_DATA
350
4F4
  3
AcDbVariableDictionary
350
4EB
  3
AcDsDecomposeData
350
4FA
  0
DICTIONARY
  5
1C
330
1B
100
AcDbDictionary
280
     1
281
     1
  3
ACAD_LAYERSTATES
360
1D
  0
DICTIONARY
  5
5
330
4
100
AcDbDictionary
280
     1
281
     1
  3
ADSK_XREC_LAYER_RECONCILED
360
6
  0
DICTIONARY
  5
43
102
{ACAD_REACTORS
330
9
102
}
330
9
100
AcDbDictionary
281
     1
  0
DICTIONARY
  5
30
102
{ACAD_REACTORS
330
9
102
}
330
9
100
AcDbDictionary
281
     1
  0
DICTIONARY
  5
16
102
{ACAD_REACTORS
330
9
102
}
330
9
100
AcDbDictionary
281
     1
  3
Layout1
350
1A
  3
Model
350
15
  0
DICTIONARY
  5
B
102
{ACAD_REACTORS
330
9
102
}
330
9
100
AcDbDictionary
281
     1
  3
ByBlock
350
3B
  3
ByLayer
350
33
  3
Global
350
A
  0
DICTIONARY
  5
46
102
{ACAD_REACTORS
330
9
102
}
330
9
100
AcDbDictionary
281
     1
  0
DICTIONARY
  5
31
102
{ACAD_REACTORS
330
9
102
}
330
9
100
AcDbDictionary
281
     1
  3
Standard
350
47
  0
DICTIONARY
  5
32
102
{ACAD_REACTORS
330
9
102
}
330
9
100
AcDbDictionary
281
     1
  0
ACDBDICTIONARYWDFLT
  5
8
102
{ACAD_REACTORS
330
9
102
}
330
9
100
AcDbDictionary
281
     1
  3
Normal
350
7
100
AcDbDictionaryWithDefault
340
7
  0
DICTIONARY
  5
44
102
{ACAD_REACTORS
330
9
102
}
330
9
100
AcDbDictionary
281
     1
  3
A0
350
4B
  3
A1
350
4C
  3
A2
350
4D
  3
A3
350
4E
  3
A4
350
4F
  3
A5
350
50
  3
A6
350
51
  3
A7
350
52
  3
A8
350
53
  3
A9
350
54
  3
B0
350
55
  3
B1
350
56
  3
B2
350
57
  3
B3
350
58
  3
B4
350
59
  3
B5
350
5A
  3
B6
350
5B
  3
B7
350
5C
  3
B8
350
5D
  3
B9
350
5E
  3
C0
350
5F
  3
C1
350
60
  3
C2
350
61
  3
C3
350
62
  3
C4
350
63
  3
C5
350
64
  3
C6
350
65
  3
C7
350
66
  3
C8
350
67
  3
C9
350
68
  3
D0
350
69
  3
D1
350
6A
  3
D2
350
6B
  0
DICTIONARY
  5
45
102
{ACAD_REACTORS
330
9
102
}
330
9
100
AcDbDictionary
281
     1
  3
Standard
350
48
  0
DICTIONARY
  5
29
102
{ACAD_REACTORS
330
9
102
}
330
9
100
AcDbDictionary
281
     1
  3
2dWireframe
350
28
  3
Realistic
350
49
  3
Wireframe
350
4A
  0
XRECORD
  5
4F4
102
{ACAD_REACTORS
330
9
102
}
330
9
100
AcDbXrecord
280
     1
 90
        1
330
48
  0
DICTIONARY
  5
4EB
102
{ACAD_REACTORS
330
9
102
}
330
9
100
AcDbDictionary
281
     1
  3
CANNOSCALE
350
4F0
  3
CMLEADERSTYLE
350
4ED
  3
CTABLESTYLE
350
4EC
  3
CVIEWDETAILSTYLE
350
4EE
  3
CVIEWSECTIONSTYLE
350
4EF
  3
XCLIPFRAME
350
4F1
  0
DICTIONARY
  5
4FA
102
{ACAD_REACTORS
330
9
102
}
330
9
100
AcDbDictionary
281
     1
  3
AcDsRecords
350
4FC
  3
AcDsSchemas
350
4FB
1001
ACAD
1070
     2
  0
DICTIONARY
  5
1D
102
{ACAD_REACTORS
330
1C
102
}
330
1C
100
AcDbDictionary
281
     1
  0
XRECORD
  5
6
102
{ACAD_REACTORS
330
5
102
}
330
5
100
AcDbXrecord
280
     1
290
     1
  0
LAYOUT
  5
1A
102
{ACAD_REACTORS
330
16
102
}
330
16
100
AcDbPlotSettings
  1

  2
none_device
  4

  6

 40
0.0
 41
0.0
 42
0.0
 43
0.0
 44
0.0
 45
0.0
 46
0.0
 47
0.0
 48
0.0
 49
0.0
140
0.0
141
0.0
142
1.0
143
1.0
 70
   688
 72
     1
 73
     0
 74
     5
  7

 75
    16
147
1.0
 76
     0
 77
     2
 78
   300
148
0.0
149
0.0
100
AcDbLayout
  1
Layout1
 70
     1
 71
     1
 10
0.0
 20
0.0
 11
420.0
 21
297.0
 12
0.0
 22
0.0
 32
0.0
 14
1.000000000000000E+20
 24
1.000000000000000E+20
 34
1.000000000000000E+20
 15
-1.000000000000000E+20
 25
-1.000000000000000E+20
 35
-1.000000000000000E+20
146
0.0
 13
0.0
 23
0.0
 33
0.0
 16
1.0
 26
0.0
 36
0.0
 17
0.0
 27
1.0
 37
0.0
 76
     0
330
17
  0
LAYOUT
  5
15
102
{ACAD_REACTORS
330
16
102
}
330
16
100
AcDbPlotSettings
  1

  2
none_device
  4
Letter_(8.50_x_11.00_Inches)
  6

 40
6.349999999999999
 41
6.349999999999999
 42
6.350005079999999
 43
6.350005079999999
 44
215.9
 45
279.4
 46
0.0
 47
0.0
 48
0.0
 49
0.0
140
0.0
141
0.0
142
1.0
143
1.0
 70
  1712
 72
     1
 73
     0
 74
     0
  7

 75
     0
147
1.0
 76
     0
 77
     2
 78
   300
148
0.0
149
0.0
100
AcDbLayout
  1
Model
 70
     1
 71
     0
 10
0.0
 20
0.0
 11
841.0
 21
594.0
 12
0.0
 22
0.0
 32
0.0
 14
0.0
 24
0.0
 34
0.0
 15
841.0
 25
594.0
 35
0.0
146
0.0
 13
0.0
 23
0.0
 33
0.0
 16
1.0
 26
0.0
 36
0.0
 17
0.0
 27
1.0
 37
0.0
 76
     0
330
2
331
27
  0
MATERIAL
  5
3B
102
{ACAD_XDICTIONARY
360
3C
102
}
102
{ACAD_REACTORS
330
B
102
}
330
B
100
AcDbMaterial
  1
ByBlock
 72
     0
 43
0.0008202099737533
 43
0.0
 43
0.0
 43
0.0
 43
0.0
 43
0.0008202099737533
 43
0.0
 43
0.0
 43
0.0
 43
0.0
 43
1.0
 43
0.0
 43
0.0
 43
0.0
 43
0.0
 43
1.0
 77
     0
 47
0.0008202099737533
 47
0.0
 47
0.0
 47
0.0
 47
0.0
 47
0.0008202099737533
 47
0.0
 47
0.0
 47
0.0
 47
0.0
 47
1.0
 47
0.0
 47
0.0
 47
0.0
 47
0.0
 47
1.0
171
     0
 49
0.0008202099737533
 49
0.0
 49
0.0
 49
0.0
 49
0.0
 49
0.0008202099737533
 49
0.0
 49
0.0
 49
0.0
 49
0.0
 49
1.0
 49
0.0
 49
0.0
 49
0.0
 49
0.0
 49
1.0
175
     0
142
0.0008202099737533
142
0.0
142
0.0
142
0.0
142
0.0
142
0.0008202099737533
142
0.0
142
0.0
142
0.0
142
0.0
142
1.0
142
0.0
142
0.0
142
0.0
142
0.0
142
1.0
179
     0
144
0.0008202099737533
144
0.0
144
0.0
144
0.0
144
0.0
144
0.0008202099737533
144
0.0
144
0.0
144
0.0
144
0.0
144
1.0
144
0.0
144
0.0
144
0.0
144
0.0
144
1.0
147
0.0008202099737533
147
0.0
147
0.0
147
0.0
147
0.0
147
0.0008202099737533
147
0.0
147
0.0
147
0.0
147
0.0
147
1.0
147
0.0
147
0.0
147
0.0
147
0.0
147
1.0
  0
MATERIAL
  5
33
102
{ACAD_XDICTIONARY
360
34
102
}
102
{ACAD_REACTORS
330
B
102
}
330
B
100
AcDbMaterial
  1
ByLayer
 72
     0
 43
0.0008202099737533
 43
0.0
 43
0.0
 43
0.0
 43
0.0
 43
0.0008202099737533
 43
0.0
 43
0.0
 43
0.0
 43
0.0
 43
1.0
 43
0.0
 43
0.0
 43
0.0
 43
0.0
 43
1.0
 77
     0
 47
0.0008202099737533
 47
0.0
 47
0.0
 47
0.0
 47
0.0
 47
0.0008202099737533
 47
0.0
 47
0.0
 47
0.0
 47
0.0
 47
1.0
 47
0.0
 47
0.0
 47
0.0
 47
0.0
 47
1.0
171
     0
 49
0.0008202099737533
 49
0.0
 49
0.0
 49
0.0
 49
0.0
 49
0.0008202099737533
 49
0.0
 49
0.0
 49
0.0
 49
0.0
 49
1.0
 49
0.0
 49
0.0
 49
0.0
 49
0.0
 49
1.0
175
     0
142
0.0008202099737533
142
0.0
142
0.0
142
0.0
142
0.0
142
0.0008202099737533
142
0.0
142
0.0
142
0.0
142
0.0
142
1.0
142
0.0
142
0.0
142
0.0
142
0.0
142
1.0
179
     0
144
0.0008202099737533
144
0.0
144
0.0
144
0.0
144
0.0
144
0.0008202099737533
144
0.0
144
0.0
144
0.0
144
0.0
144
1.0
144
0.0
144
0.0
144
0.0
144
0.0
144
1.0
147
0.0008202099737533
147
0.0
147
0.0
147
0.0
147
0.0
147
0.0008202099737533
147
0.0
147
0.0
147
0.0
147
0.0
147
1.0
147
0.0
147
0.0
147
0.0
147
0.0
147
1.0
  0
MATERIAL
  5
A
102
{ACAD_XDICTIONARY
360
C
102
}
102
{ACAD_REACTORS
330
B
102
}
330
B
100
AcDbMaterial
  1
Global
 72
     0
 43
0.0008202099737533
 43
0.0
 43
0.0
 43
0.0
 43
0.0
 43
0.0008202099737533
 43
0.0
 43
0.0
 43
0.0
 43
0.0
 43
1.0
 43
0.0
 43
0.0
 43
0.0
 43
0.0
 43
1.0
 77
     0
 47
0.0008202099737533
 47
0.0
 47
0.0
 47
0.0
 47
0.0
 47
0.0008202099737533
 47
0.0
 47
0.0
 47
0.0
 47
0.0
 47
1.0
 47
0.0
 47
0.0
 47
0.0
 47
0.0
 47
1.0
171
     0
 49
0.0008202099737533
 49
0.0
 49
0.0
 49
0.0
 49
0.0
 49
0.0008202099737533
 49
0.0
 49
0.0
 49
0.0
 49
0.0
 49
1.0
 49
0.0
 49
0.0
 49
0.0
 49
0.0
 49
1.0
175
     0
142
0.0008202099737533
142
0.0
142
0.0
142
0.0
142
0.0
142
0.0008202099737533
142
0.0
142
0.0
142
0.0
142
0.0
142
1.0
142
0.0
142
0.0
142
0.0
142
0.0
142
1.0
179
     0
144
0.0008202099737533
144
0.0
144
0.0
144
0.0
144
0.0
144
0.0008202099737533
144
0.0
144
0.0
144
0.0
144
0.0
144
1.0
144
0.0
144
0.0
144
0.0
144
0.0
144
1.0
147
0.0008202099737533
147
0.0
147
0.0
147
0.0
147
0.0
147
0.0008202099737533
147
0.0
147
0.0
147
0.0
147
0.0
147
1.0
147
0.0
147
0.0
147
0.0
147
0.0
147
1.0
  0
MLINESTYLE
  5
47
102
{ACAD_REACTORS
330
31
102
}
330
31
100
AcDbMlineStyle
  2
STANDARD
 70
     0
  3

 62
   256
 51
90.0
 52
90.0
 71
     2
 49
0.5
 62
   256
  6
BYLAYER
 49
-0.5
 62
   256
  6
BYLAYER
  0
ACDBPLACEHOLDER
  5
7
102
{ACAD_REACTORS
330
8
102
}
330
8
  0
SCALE
  5
4B
102
{ACAD_REACTORS
330
44
102
}
330
44
100
AcDbScale
 70
     0
300
1:1
140
1.0
141
1.0
290
     1
  0
SCALE
  5
4C
102
{ACAD_REACTORS
330
44
102
}
330
44
100
AcDbScale
 70
     0
300
1:2
140
1.0
141
2.0
290
     0
  0
SCALE
  5
4D
102
{ACAD_REACTORS
330
44
102
}
330
44
100
AcDbScale
 70
     0
300
1:4
140
1.0
141
4.0
290
     0
  0
SCALE
  5
4E
102
{ACAD_REACTORS
330
44
102
}
330
44
100
AcDbScale
 70
     0
300
1:5
140
1.0
141
5.0
290
     0
  0
SCALE
  5
4F
102
{ACAD_REACTORS
330
44
102
}
330
44
100
AcDbScale
 70
     0
300
1:8
140
1.0
141
8.0
290
     0
  0
SCALE
  5
50
102
{ACAD_REACTORS
330
44
102
}
330
44
100
AcDbScale
 70
     0
300
1:10
140
1.0
141
10.0
290
     0
  0
SCALE
  5
51
102
{ACAD_REACTORS
330
44
102
}
330
44
100
AcDbScale
 70
     0
300
1:16
140
1.0
141
16.0
290
     0
  0
SCALE
  5
52
102
{ACAD_REACTORS
330
44
102
}
330
44
100
AcDbScale
 70
     0
300
1:20
140
1.0
141
20.0
290
     0
  0
SCALE
  5
53
102
{ACAD_REACTORS
330
44
102
}
330
44
100
AcDbScale
 70
     0
300
1:30
140
1.0
141
30.0
290
     0
  0
SCALE
  5
54
102
{ACAD_REACTORS
330
44
102
}
330
44
100
AcDbScale
 70
     0
300
1:40
140
1.0
141
40.0
290
     0
  0
SCALE
  5
55
102
{ACAD_REACTORS
330
44
102
}
330
44
100
AcDbScale
 70
     0
300
1:50
140
1.0
141
50.0
290
     0
  0
SCALE
  5
56
102
{ACAD_REACTORS
330
44
102
}
330
44
100
AcDbScale
 70
     0
300
1:100
140
1.0
141
100.0
290
     0
  0
SCALE
  5
57
102
{ACAD_REACTORS
330
44
102
}
330
44
100
AcDbScale
 70
     0
300
2:1
140
2.0
141
1.0
290
     0
  0
SCALE
  5
58
102
{ACAD_REACTORS
330
44
102
}
330
44
100
AcDbScale
 70
     0
300
4:1
140
4.0
141
1.0
290
     0
  0
SCALE
  5
59
102
{ACAD_REACTORS
330
44
102
}
330
44
100
AcDbScale
 70
     0
300
8:1
140
8.0
141
1.0
290
     0
  0
SCALE
  5
5A
102
{ACAD_REACTORS
330
44
102
}
330
44
100
AcDbScale
 70
     0
300
10:1
140
10.0
141
1.0
290
     0
  0
SCALE
  5
5B
102
{ACAD_REACTORS
330
44
102
}
330
44
100
AcDbScale
 70
     0
300
100:1
140
100.0
141
1.0
290
     0
  0
SCALE
  5
5C
102
{ACAD_REACTORS
330
44
102
}
330
44
100
AcDbScale
 70
     0
300
1/128" = 1'-0"
140
0.0078125
141
12.0
290
     0
  0
SCALE
  5
5D
102
{ACAD_REACTORS
330
44
102
}
330
44
100
AcDbScale
 70
     0
300
1/64" = 1'-0"
140
0.015625
141
12.0
290
     0
  0
SCALE
  5
5E
102
{ACAD_REACTORS
330
44
102
}
330
44
100
AcDbScale
 70
     0
300
1/32" = 1'-0"
140
0.03125
141
12.0
290
     0
  0
SCALE
  5
5F
102
{ACAD_REACTORS
330
44
102
}
330
44
100
AcDbScale
 70
     0
300
1/16" = 1'-0"
140
0.0625
141
12.0
290
     0
  0
SCALE
  5
60
102
{ACAD_REACTORS
330
44
102
}
330
44
100
AcDbScale
 70
     0
300
3/32" = 1'-0"
140
0.09375
141
12.0
290
     0
  0
SCALE
  5
61
102
{ACAD_REACTORS
330
44
102
}
330
44
100
AcDbScale
 70
     0
300
1/8" = 1'-0"
140
0.125
141
12.0
290
     0
  0
SCALE
  5
62
102
{ACAD_REACTORS
330
44
102
}
330
44
100
AcDbScale
 70
     0
300
3/16" = 1'-0"
140
0.1875
141
12.0
290
     0
  0
SCALE
  5
63
102
{ACAD_REACTORS
330
44
102
}
330
44
100
AcDbScale
 70
     0
300
1/4" = 1'-0"
140
0.25
141
12.0
290
     0
  0
SCALE
  5
64
102
{ACAD_REACTORS
330
44
102
}
330
44
100
AcDbScale
 70
     0
300
3/8" = 1'-0"
140
0.375
141
12.0
290
     0
  0
SCALE
  5
65
102
{ACAD_REACTORS
330
44
102
}
330
44
100
AcDbScale
 70
     0
300
1/2" = 1'-0"
140
0.5
141
12.0
290
     0
  0
SCALE
  5
66
102
{ACAD_REACTORS
330
44
102
}
330
44
100
AcDbScale
 70
     0
300
3/4" = 1'-0"
140
0.75
141
12.0
290
     0
  0
SCALE
  5
67
102
{ACAD_REACTORS
330
44
102
}
330
44
100
AcDbScale
 70
     0
300
1" = 1'-0"
140
1.0
141
12.0
290
     0
  0
SCALE
  5
68
102
{ACAD_REACTORS
330
44
102
}
330
44
100
AcDbScale
 70
     0
300
1-1/2" = 1'-0"
140
1.5
141
12.0
290
     0
  0
SCALE
  5
69
102
{ACAD_REACTORS
330
44
102
}
330
44
100
AcDbScale
 70
     0
300
3" = 1'-0"
140
3.0
141
12.0
290
     0
  0
SCALE
  5
6A
102
{ACAD_REACTORS
330
44
102
}
330
44
100
AcDbScale
 70
     0
300
6" = 1'-0"
140
6.0
141
12.0
290
     0
  0
SCALE
  5
6B
102
{ACAD_REACTORS
330
44
102
}
330
44
100
AcDbScale
 70
     0
300
1'-0" = 1'-0"
140
12.0
141
12.0
290
     0
  0
TABLESTYLE
  5
48
102
{ACAD_XDICTIONARY
360
4F2
102
}
102
{ACAD_REACTORS
330
45
102
}
330
45
100
AcDbTableStyle
  3
Standard
 70
     0
 71
     0
 40
1.5
 41
1.5
280
     0
281
     0
  7
Standard
140
4.5
170
     2
 62
     0
 63
     7
283
     0
274
    -2
284
     1
 64
     0
275
    -2
285
     1
 65
     0
276
    -2
286
     1
 66
     0
277
    -2
287
     1
 67
     0
278
    -2
288
     1
 68
     0
279
    -2
289
     1
 69
     0
  7
Standard
140
6.0
170
     5
 62
     0
 63
     7
283
     0
274
    -2
284
     1
 64
     0
275
    -2
285
     1
 65
     0
276
    -2
286
     1
 66
     0
277
    -2
287
     1
 67
     0
278
    -2
288
     1
 68
     0
279
    -2
289
     1
 69
     0
  7
Standard
140
4.5
170
     5
 62
     0
 63
     7
283
     0
274
    -2
284
     1
 64
     0
275
    -2
285
     1
 65
     0
276
    -2
286
     1
 66
     0
277
    -2
287
     1
 67
     0
278
    -2
288
     1
 68
     0
279
    -2
289
     1
 69
     0
  0
VISUALSTYLE
  5
28
102
{ACAD_XDICTIONARY
360
4FE
102
}
102
{ACAD_REACTORS
330
29
102
}
330
29
100
AcDbVisualStyle
  2
2dWireframe
 70
     4
 71
     0
 72
     2
 73
     0
 90
        0
 40
-0.6
 41
-30.0
 62
     5
 63
     7
421
 16777215
 74
     1
 91
        4
 64
     7
 65
   257
 75
     1
175
     1
 42
1.0
 92
        0
 66
   257
 43
1.0
 76
     1
 77
     6
 78
     2
 67
     7
 79
     5
170
     0
171
     0
290
     0
174
     0
 93
        1
 44
0.0
173
     0
291
     0
 45
0.0
1001
ACAD
1000
AcDbSavedByObjectVersion
1070
     0
  0
VISUALSTYLE
  5
49
102
{ACAD_XDICTIONARY
360
503
102
}
102
{ACAD_REACTORS
330
29
102
}
330
29
100
AcDbVisualStyle
  2
Realistic
 70
     8
 71
     2
 72
     3
 73
     0
 90
        2
 40
-0.6
 41
30.0
 62
     5
 63
     7
421
 16777215
 74
     0
 91
        0
 64
     7
 65
   257
 75
     1
175
     1
 42
1.0
 92
        8
 66
   257
 43
1.0
 76
     1
 77
     6
 78
     2
 67
     7
 79
     3
170
     0
171
     0
290
     0
174
     0
 93
       13
 44
0.0
173
     0
291
     0
 45
0.0
1001
ACAD
1000
AcDbSavedByObjectVersion
1070
     0
  0
VISUALSTYLE
  5
4A
102
{ACAD_XDICTIONARY
360
505
102
}
102
{ACAD_REACTORS
330
29
102
}
330
29
100
AcDbVisualStyle
  2
Wireframe
 70
     5
 71
     0
 72
     2
 73
     0
 90
        0
 40
-0.6
 41
-30.0
 62
     5
 63
     7
421
 16777215
 74
     1
 91
        4
 64
     7
 65
   257
 75
     1
175
     1
 42
1.0
 92
        0
 66
   257
 43
1.0
 76
     1
 77
     6
 78
     2
 67
     7
 79
     3
170
     0
171
     0
290
     0
174
     0
 93
        1
 44
0.0
173
     0
291
     0
 45
0.0
1001
ACAD
1000
AcDbSavedByObjectVersion
1070
     0
  0
DICTIONARYVAR
  5
4F0
102
{ACAD_REACTORS
330
4EB
102
}
330
4EB
100
DictionaryVariables
280
     0
  1
1:1
  0
DICTIONARYVAR
  5
4ED
102
{ACAD_REACTORS
330
4EB
102
}
330
4EB
100
DictionaryVariables
280
     0
  1
STANDARD
  0
DICTIONARYVAR
  5
4EC
102
{ACAD_REACTORS
330
4EB
102
}
330
4EB
100
DictionaryVariables
280
     0
  1
STANDARD
  0
DICTIONARYVAR
  5
4EE
102
{ACAD_REACTORS
330
4EB
102
}
330
4EB
100
DictionaryVariables
280
     0
  1

  0
DICTIONARYVAR
  5
4EF
102
{ACAD_REACTORS
330
4EB
102
}
330
4EB
100
DictionaryVariables
280
     0
  1

  0
DICTIONARYVAR
  5
4F1
102
{ACAD_REACTORS
330
4EB
102
}
330
4EB
100
DictionaryVariables
280
     0
  1
2
  0
DICTIONARY
  5
4FC
102
{ACAD_REACTORS
330
4FA
102
}
330
4FA
100
AcDbDictionary
281
     1
  0
DICTIONARY
  5
4FB
102
{ACAD_REACTORS
330
4FA
102
}
330
4FA
100
AcDbDictionary
281
     1
  3
1446501456
350
4F5
  3
1446501472
350
4F6
  3
1446501488
350
4F7
  3
1446501504
350
4F8
  3
1446501520
350
4F9
  0
DICTIONARY
  5
3C
330
3B
100
AcDbDictionary
280
     1
281
     1
  3
ACAD_XREC_ROUNDTRIP
360
501
  3
BUMPTILE
360
3D
  3
DIFFUSETILE
360
3E
  3
OPACITYTILE
360
3F
  3
REFLECTIONTILE
360
40
  3
REFRACTIONTILE
360
41
  3
SPECULARTILE
360
42
  0
DICTIONARY
  5
34
330
33
100
AcDbDictionary
280
     1
281
     1
  3
ACAD_XREC_ROUNDTRIP
360
500
  3
BUMPTILE
360
35
  3
DIFFUSETILE
360
36
  3
OPACITYTILE
360
37
  3
REFLECTIONTILE
360
38
  3
REFRACTIONTILE
360
39
  3
SPECULARTILE
360
3A
  0
DICTIONARY
  5
C
330
A
100
AcDbDictionary
280
     1
281
     1
  3
ACAD_XREC_ROUNDTRIP
360
4FD
  3
BUMPTILE
360
D
  3
DIFFUSETILE
360
E
  3
OPACITYTILE
360
F
  3
REFLECTIONTILE
360
10
  3
REFRACTIONTILE
360
11
  3
SPECULARTILE
360
12
  0
DICTIONARY
  5
4F2
330
48
100
AcDbDictionary
280
     1
281
     1
  3
ACAD_ROUNDTRIP_2008_TABLESTYLE_CELLSTYLEMAP
360
4F3
  3
ACAD_XREC_ROUNDTRIP
360
502
  0
DICTIONARY
  5
4FE
330
28
100
AcDbDictionary
280
     1
281
     1
  3
ACAD_XREC_ROUNDTRIP
360
4FF
  0
DICTIONARY
  5
503
330
49
100
AcDbDictionary
280
     1
281
     1
  3
ACAD_XREC_ROUNDTRIP
360
504
  0
DICTIONARY
  5
505
330
4A
100
AcDbDictionary
280
     1
281
     1
  3
ACAD_XREC_ROUNDTRIP
360
506
  0
XRECORD
  5
4F5
102
{ACAD_REACTORS
330
4FB
102
}
330
4FB
100
AcDbXrecord
280
     1
  1
AcDb_Thumbnail_Schema
102
{ATTRRECORD
341
4F6
  2
AcDbDs::TreatedAsObjectData
280
     1
291
     1
102
ATTRRECORD}
102
{ATTRRECORD
341
4F7
  2
AcDbDs::Legacy
280
     1
291
     1
102
ATTRRECORD}
  2
AcDbDs::ID
280
    10
 91
        8
102
{ATTRRECORD
341
4F8
  2
AcDs:Indexable
280
     1
291
     1
102
ATTRRECORD}
102
{ATTRRECORD
341
4F9
  2
AcDbDs::HandleAttribute
280
     7
282
     1
102
ATTRRECORD}
  2
Thumbnail_Data
280
    15
 91
        0
  0
XRECORD
  5
4F6
102
{ACAD_REACTORS
330
4FB
102
}
330
4FB
100
AcDbXrecord
280
     1
  1
AcDbDs::TreatedAsObjectDataSchema
  2
AcDbDs::TreatedAsObjectData
280
     1
 91
        0
  0
XRECORD
  5
4F7
102
{ACAD_REACTORS
330
4FB
102
}
330
4FB
100
AcDbXrecord
280
     1
  1
AcDbDs::LegacySchema
  2
AcDbDs::Legacy
280
     1
 91
        0
  0
XRECORD
  5
4F8
102
{ACAD_REACTORS
330
4FB
102
}
330
4FB
100
AcDbXrecord
280
     1
  1
AcDbDs::IndexedPropertySchema
  2
AcDs:Indexable
280
     1
 91
        0
  0
XRECORD
  5
4F9
102
{ACAD_REACTORS
330
4FB
102
}
330
4FB
100
AcDbXrecord
280
     1
  1
AcDbDs::HandleAttributeSchema
  2
AcDbDs::HandleAttribute
280
     7
 91
        1
284
     1
  0
XRECORD
  5
501
102
{ACAD_REACTORS
330
3C
102
}
330
3C
100
AcDbXrecord
280
     1
102
MATERIAL
148
0.0
149
0.0
149
0.0
 93
        0
 94
      127
282
     0
 72
     0
 77
     0
171
     0
175
     0
179
     0
273
     0
  0
XRECORD
  5
3D
102
{ACAD_REACTORS
330
3C
102
}
330
3C
100
AcDbXrecord
280
     1
270
     1
271
     1
  0
XRECORD
  5
3E
102
{ACAD_REACTORS
330
3C
102
}
330
3C
100
AcDbXrecord
280
     1
270
     1
271
     1
  0
XRECORD
  5
3F
102
{ACAD_REACTORS
330
3C
102
}
330
3C
100
AcDbXrecord
280
     1
270
     1
271
     1
  0
XRECORD
  5
40
102
{ACAD_REACTORS
330
3C
102
}
330
3C
100
AcDbXrecord
280
     1
270
     1
271
     1
  0
XRECORD
  5
41
102
{ACAD_REACTORS
330
3C
102
}
330
3C
100
AcDbXrecord
280
     1
270
     1
271
     1
  0
XRECORD
  5
42
102
{ACAD_REACTORS
330
3C
102
}
330
3C
100
AcDbXrecord
280
     1
270
     1
271
     1
  0
XRECORD
  5
500
102
{ACAD_REACTORS
330
34
102
}
330
34
100
AcDbXrecord
280
     1
102
MATERIAL
148
0.0
149
0.0
149
0.0
 93
        0
 94
      127
282
     0
 72
     0
 77
     0
171
     0
175
     0
179
     0
273
     0
  0
XRECORD
  5
35
102
{ACAD_REACTORS
330
34
102
}
330
34
100
AcDbXrecord
280
     1
270
     1
271
     1
  0
XRECORD
  5
36
102
{ACAD_REACTORS
330
34
102
}
330
34
100
AcDbXrecord
280
     1
270
     1
271
     1
  0
XRECORD
  5
37
102
{ACAD_REACTORS
330
34
102
}
330
34
100
AcDbXrecord
280
     1
270
     1
271
     1
  0
XRECORD
  5
38
102
{ACAD_REACTORS
330
34
102
}
330
34
100
AcDbXrecord
280
     1
270
     1
271
     1
  0
XRECORD
  5
39
102
{ACAD_REACTORS
330
34
102
}
330
34
100
AcDbXrecord
280
     1
270
     1
271
     1
  0
XRECORD
  5
3A
102
{ACAD_REACTORS
330
34
102
}
330
34
100
AcDbXrecord
280
     1
270
     1
271
     1
  0
XRECORD
  5
4FD
102
{ACAD_REACTORS
330
C
102
}
330
C
100
AcDbXrecord
280
     1
102
MATERIAL
148
0.0
149
0.0
149
0.0
 93
        0
 94
      127
282
     0
 72
     0
 77
     0
171
     0
175
     0
179
     0
273
     0
  0
XRECORD
  5
D
102
{ACAD_REACTORS
330
C
102
}
330
C
100
AcDbXrecord
280
     1
270
     1
271
     1
  0
XRECORD
  5
E
102
{ACAD_REACTORS
330
C
102
}
330
C
100
AcDbXrecord
280
     1
270
     1
271
     1
  0
XRECORD
  5
F
102
{ACAD_REACTORS
330
C
102
}
330
C
100
AcDbXrecord
280
     1
270
     1
271
     1
  0
XRECORD
  5
10
102
{ACAD_REACTORS
330
C
102
}
330
C
100
AcDbXrecord
280
     1
270
     1
271
     1
  0
XRECORD
  5
11
102
{ACAD_REACTORS
330
C
102
}
330
C
100
AcDbXrecord
280
     1
270
     1
271
     1
  0
XRECORD
  5
12
102
{ACAD_REACTORS
330
C
102
}
330
C
100
AcDbXrecord
280
     1
270
     1
271
     1
  0
CELLSTYLEMAP
  5
4F3
102
{ACAD_REACTORS
330
4F2
102
}
330
4F2
100
AcDbCellStyleMap
 90
        3
300
CELLSTYLE
  1
TABLEFORMAT_BEGIN
 90
        5
170
     1
 91
        0
 92
    32768
 62
   257
 93
        1
300
CONTENTFORMAT
  1
CONTENTFORMAT_BEGIN
 90
        0
 91
        0
 92
      512
 93
        0
300

 40
0.0
140
1.0
 94
        5
 62
     0
340
1F
144
6.0
309
CONTENTFORMAT_END
171
     1
301
MARGIN
  1
CELLMARGIN_BEGIN
 40
1.5
 40
1.5
 40
1.5
 40
1.5
 40
4.5
 40
4.5
309
CELLMARGIN_END
 94
        6
 95
        1
302
GRIDFORMAT
  1
GRIDFORMAT_BEGIN
 90
        0
 91
        1
 62
     0
 92
       -2
340
0
 93
        0
 40
1.125
309
GRIDFORMAT_END
 95
        2
302
GRIDFORMAT
  1
GRIDFORMAT_BEGIN
 90
        0
 91
        1
 62
     0
 92
       -2
340
0
 93
        0
 40
1.125
309
GRIDFORMAT_END
 95
        4
302
GRIDFORMAT
  1
GRIDFORMAT_BEGIN
 90
        0
 91
        1
 62
     0
 92
       -2
340
0
 93
        0
 40
1.125
309
GRIDFORMAT_END
 95
        8
302
GRIDFORMAT
  1
GRIDFORMAT_BEGIN
 90
        0
 91
        1
 62
     0
 92
       -2
340
0
 93
        0
 40
1.125
309
GRIDFORMAT_END
 95
       16
302
GRIDFORMAT
  1
GRIDFORMAT_BEGIN
 90
        0
 91
        1
 62
     0
 92
       -2
340
0
 93
        0
 40
1.125
309
GRIDFORMAT_END
 95
       32
302
GRIDFORMAT
  1
GRIDFORMAT_BEGIN
 90
        0
 91
        1
 62
     0
 92
       -2
340
0
 93
        0
 40
1.125
309
GRIDFORMAT_END
309
TABLEFORMAT_END
  1
CELLSTYLE_BEGIN
 90
        1
 91
        1
300
_TITLE
309
CELLSTYLE_END
300
CELLSTYLE
  1
TABLEFORMAT_BEGIN
 90
        5
170
     1
 91
        0
 92
        0
 62
   257
 93
        1
300
CONTENTFORMAT
  1
CONTENTFORMAT_BEGIN
 90
        0
 91
        0
 92
      512
 93
        0
300

 40
0.0
140
1.0
 94
        5
 62
     0
340
1F
144
4.5
309
CONTENTFORMAT_END
171
     1
301
MARGIN
  1
CELLMARGIN_BEGIN
 40
1.5
 40
1.5
 40
1.5
 40
1.5
 40
4.5
 40
4.5
309
CELLMARGIN_END
 94
        6
 95
        1
302
GRIDFORMAT
  1
GRIDFORMAT_BEGIN
 90
        0
 91
        1
 62
     0
 92
       -2
340
0
 93
        0
 40
1.125
309
GRIDFORMAT_END
 95
        2
302
GRIDFORMAT
  1
GRIDFORMAT_BEGIN
 90
        0
 91
        1
 62
     0
 92
       -2
340
0
 93
        0
 40
1.125
309
GRIDFORMAT_END
 95
        4
302
GRIDFORMAT
  1
GRIDFORMAT_BEGIN
 90
        0
 91
        1
 62
     0
 92
       -2
340
0
 93
        0
 40
1.125
309
GRIDFORMAT_END
 95
        8
302
GRIDFORMAT
  1
GRIDFORMAT_BEGIN
 90
        0
 91
        1
 62
     0
 92
       -2
340
0
 93
        0
 40
1.125
309
GRIDFORMAT_END
 95
       16
302
GRIDFORMAT
  1
GRIDFORMAT_BEGIN
 90
        0
 91
        1
 62
     0
 92
       -2
340
0
 93
        0
 40
1.125
309
GRIDFORMAT_END
 95
       32
302
GRIDFORMAT
  1
GRIDFORMAT_BEGIN
 90
        0
 91
        1
 62
     0
 92
       -2
340
0
 93
        0
 40
1.125
309
GRIDFORMAT_END
309
TABLEFORMAT_END
  1
CELLSTYLE_BEGIN
 90
        2
 91
        1
300
_HEADER
309
CELLSTYLE_END
300
CELLSTYLE
  1
TABLEFORMAT_BEGIN
 90
        5
170
     1
 91
        0
 92
        0
 62
   257
 93
        1
300
CONTENTFORMAT
  1
CONTENTFORMAT_BEGIN
 90
        0
 91
        0
 92
      512
 93
        0
300

 40
0.0
140
1.0
 94
        2
 62
     0
340
1F
144
4.5
309
CONTENTFORMAT_END
171
     1
301
MARGIN
  1
CELLMARGIN_BEGIN
 40
1.5
 40
1.5
 40
1.5
 40
1.5
 40
4.5
 40
4.5
309
CELLMARGIN_END
 94
        6
 95
        1
302
GRIDFORMAT
  1
GRIDFORMAT_BEGIN
 90
        0
 91
        1
 62
     0
 92
       -2
340
0
 93
        0
 40
1.125
309
GRIDFORMAT_END
 95
        2
302
GRIDFORMAT
  1
GRIDFORMAT_BEGIN
 90
        0
 91
        1
 62
     0
 92
       -2
340
0
 93
        0
 40
1.125
309
GRIDFORMAT_END
 95
        4
302
GRIDFORMAT
  1
GRIDFORMAT_BEGIN
 90
        0
 91
        1
 62
     0
 92
       -2
340
0
 93
        0
 40
1.125
309
GRIDFORMAT_END
 95
        8
302
GRIDFORMAT
  1
GRIDFORMAT_BEGIN
 90
        0
 91
        1
 62
     0
 92
       -2
340
0
 93
        0
 40
1.125
309
GRIDFORMAT_END
 95
       16
302
GRIDFORMAT
  1
GRIDFORMAT_BEGIN
 90
        0
 91
        1
 62
     0
 92
       -2
340
0
 93
        0
 40
1.125
309
GRIDFORMAT_END
 95
       32
302
GRIDFORMAT
  1
GRIDFORMAT_BEGIN
 90
        0
 91
        1
 62
     0
 92
       -2
340
0
 93
        0
 40
1.125
309
GRIDFORMAT_END
309
TABLEFORMAT_END
  1
CELLSTYLE_BEGIN
 90
        3
 91
        2
300
_DATA
309
CELLSTYLE_END
  0
XRECORD
  5
502
102
{ACAD_REACTORS
330
4F2
102
}
330
4F2
100
AcDbXrecord
280
     1
102
ACAD_ROUNDTRIP_PRE2007_TABLESTYLE
 90
      512
 91
        0
  1

 92
      512
 93
        0
  2

 94
      512
 95
        0
  3

  0
XRECORD
  5
4FF
102
{ACAD_REACTORS
330
4FE
102
}
330
4FE
100
AcDbXrecord
280
     1
102
RTVSPost2010Prop28
280
     1
102
RTVSPost2010PropOp28
 70
     1
102
RTVSPost2010Prop29
280
     1
102
RTVSPost2010PropOp29
 70
     1
102
RTVSPost2010Prop30
280
     0
102
RTVSPost2010PropOp30
 70
     1
102
RTVSPost2010Prop31
280
     0
102
RTVSPost2010PropOp31
 70
     1
102
RTVSPost2010Prop32
280
     0
102
RTVSPost2010PropOp32
 70
     1
102
RTVSPost2010Prop33
280
     0
102
RTVSPost2010PropOp33
 70
     1
102
RTVSPost2010Prop34
280
     0
102
RTVSPost2010PropOp34
 70
     1
102
RTVSPost2010Prop35
280
     0
102
RTVSPost2010PropOp35
 70
     1
102
RTVSPost2010Prop36
280
     0
102
RTVSPost2010PropOp36
 70
     1
102
RTVSPost2010Prop37
 90
       50
102
RTVSPost2010PropOp37
 70
     1
102
RTVSPost2010Prop38
140
0.0
102
RTVSPost2010PropOp38
 70
     1
102
RTVSPost2010Prop39
140
1.0
102
RTVSPost2010PropOp39
 70
     1
102
RTVSPost2010Prop40
 90
        0
102
RTVSPost2010PropOp40
 70
     1
102
RTVSPost2010Prop41ColorIndex
 90
       18
102
RTVSPost2010Prop41ColorRGB
 90
        0
102
RTVSPost2010PropOp41
 70
     1
102
RTVSPost2010Prop42
 90
       50
102
RTVSPost2010PropOp42
 70
     1
102
RTVSPost2010Prop43
 90
        3
102
RTVSPost2010PropOp43
 70
     1
102
RTVSPost2010Prop44ColorIndex
 90
        5
102
RTVSPost2010Prop44ColorRGB
 90
      255
102
RTVSPost2010PropOp44
 70
     1
102
RTVSPost2010Prop45
280
     0
102
RTVSPost2010PropOp45
 70
     1
102
RTVSPost2010Prop46
 90
       50
102
RTVSPost2010PropOp46
 70
     1
102
RTVSPost2010Prop47
 90
       50
102
RTVSPost2010PropOp47
 70
     1
102
RTVSPost2010Prop48
 90
       50
102
RTVSPost2010PropOp48
 70
     1
102
RTVSPost2010Prop49
280
     0
102
RTVSPost2010PropOp49
 70
     1
102
RTVSPost2010Prop50
 90
       50
102
RTVSPost2010PropOp50
 70
     1
102
RTVSPost2010Prop51ColorIndex
 90
      256
102
RTVSPost2010Prop51ColorRGB
 90
-16777216
102
RTVSPost2010PropOp51
 70
     0
102
RTVSPost2010Prop52
140
1.0
102
RTVSPost2010PropOp52
 70
     0
102
RTVSPost2010Prop53
 90
        2
102
RTVSPost2010PropOp53
 70
     1
102
RTVSPost2010Prop54
  1
strokes_ogs.tif
102
RTVSPost2010PropOp54
 70
     1
102
RTVSPost2010Prop55
280
     0
102
RTVSPost2010PropOp55
 70
     1
102
RTVSPost2010Prop56
140
1.0
102
RTVSPost2010PropOp56
 70
     1
102
RTVSPost2010Prop57
140
1.0
102
RTVSPost2010PropOp57
 70
     1
102
RTVSPropertyOp0
 70
     1
102
RTVSPropertyOp1
 70
     1
102
RTVSPropertyOp2
 70
     1
102
RTVSPropertyOp3
 70
     1
102
RTVSPropertyOp4
 70
     1
102
RTVSPropertyOp5
 70
     1
102
RTVSPropertyOp6
 70
     1
102
RTVSPropertyOp7
 70
     1
102
RTVSPropertyOp8
 70
     1
102
RTVSPropertyOp9
 70
     1
102
RTVSPropertyOp10
 70
     1
102
RTVSPropertyOp11
 70
     1
102
RTVSPropertyOp12
 70
     1
102
RTVSPropertyOp13
 70
     1
102
RTVSPropertyOp14
 70
     1
102
RTVSPropertyOp15
 70
     1
102
RTVSPropertyOp16
 70
     1
102
RTVSPropertyOp17
 70
     1
102
RTVSPropertyOp18
 70
     1
102
RTVSPropertyOp19
 70
     1
102
RTVSPropertyOp20
 70
     1
102
RTVSPropertyOp21
 70
     1
102
RTVSPropertyOp22
 70
     1
102
RTVSPropertyOp23
 70
     1
102
RTVSPropertyOp24
 70
     1
102
RTVSPropertyOp25
 70
     1
102
RTVSPropertyOp26
 70
     1
102
RTVSPropertyOp27
 70
     1
102
RTVSPropertyOp28
 70
     1
102
RTVSPropertyOp29
 70
     1
102
RTVSPropertyOp30
 70
     1
102
RTVSPropertyOp31
 70
     1
102
RTVSPropertyOp32
 70
     1
102
RTVSPropertyOp33
 70
     1
102
RTVSPropertyOp34
 70
     1
102
RTVSPropertyOp35
 70
     1
102
RTVSPropertyOp36
 70
     1
102
RTVSPropertyOp37
 70
     1
102
RTVSPropertyOp38
 70
     1
102
RTVSPropertyOp39
 70
     1
102
RTVSPropertyOp40
 70
     1
102
RTVSPropertyOp41
 70
     1
102
RTVSPropertyOp42
 70
     1
102
RTVSPropertyOp43
 70
     1
102
RTVSPropertyOp44
 70
     1
102
RTVSPropertyOp45
 70
     1
102
RTVSPropertyOp46
 70
     1
102
RTVSPropertyOp47
 70
     1
102
RTVSPropertyOp48
 70
     1
102
RTVSPropertyOp49
 70
     1
102
RTVSPropertyOp50
 70
     1
102
RTVSPropertyOp51
 70
     0
102
RTVSPropertyOp52
 70
     0
102
RTVSPropertyOp53
 70
     1
102
RTVSPropertyOp54
 70
     1
102
RTVSPropertyOp55
 70
     1
102
RTVSPropertyOp56
 70
     1
102
RTVSPropertyOp57
 70
     1
102
RTVSPropertyOp58
 70
     1
102
RTVSPropertyOp59
 70
     1
102
RTVSPropertyOp60
 70
     1
102
RTVSPropertyOp61
 70
     1
102
RTVSPropertyOp62
 70
     1
  0
XRECORD
  5
504
102
{ACAD_REACTORS
330
503
102
}
330
503
100
AcDbXrecord
280
     1
102
RTVSPost2010Prop28
280
     0
102
RTVSPost2010PropOp28
 70
     1
102
RTVSPost2010Prop29
280
     1
102
RTVSPost2010PropOp29
 70
     1
102
RTVSPost2010Prop30
280
     1
102
RTVSPost2010PropOp30
 70
     1
102
RTVSPost2010Prop31
280
     0
102
RTVSPost2010PropOp31
 70
     1
102
RTVSPost2010Prop32
280
     0
102
RTVSPost2010PropOp32
 70
     1
102
RTVSPost2010Prop33
280
     0
102
RTVSPost2010PropOp33
 70
     1
102
RTVSPost2010Prop34
280
     0
102
RTVSPost2010PropOp34
 70
     1
102
RTVSPost2010Prop35
280
     0
102
RTVSPost2010PropOp35
 70
     1
102
RTVSPost2010Prop36
280
     0
102
RTVSPost2010PropOp36
 70
     1
102
RTVSPost2010Prop37
 90
       50
102
RTVSPost2010PropOp37
 70
     1
102
RTVSPost2010Prop38
140
0.0
102
RTVSPost2010PropOp38
 70
     1
102
RTVSPost2010Prop39
140
1.0
102
RTVSPost2010PropOp39
 70
     1
102
RTVSPost2010Prop40
 90
        0
102
RTVSPost2010PropOp40
 70
     1
102
RTVSPost2010Prop41ColorIndex
 90
       18
102
RTVSPost2010Prop41ColorRGB
 90
        0
102
RTVSPost2010PropOp41
 70
     1
102
RTVSPost2010Prop42
 90
       50
102
RTVSPost2010PropOp42
 70
     1
102
RTVSPost2010Prop43
 90
        3
102
RTVSPost2010PropOp43
 70
     1
102
RTVSPost2010Prop44ColorIndex
 90
        5
102
RTVSPost2010Prop44ColorRGB
 90
      255
102
RTVSPost2010PropOp44
 70
     1
102
RTVSPost2010Prop45
280
     0
102
RTVSPost2010PropOp45
 70
     1
102
RTVSPost2010Prop46
 90
       50
102
RTVSPost2010PropOp46
 70
     1
102
RTVSPost2010Prop47
 90
       50
102
RTVSPost2010PropOp47
 70
     1
102
RTVSPost2010Prop48
 90
       50
102
RTVSPost2010PropOp48
 70
     1
102
RTVSPost2010Prop49
280
     0
102
RTVSPost2010PropOp49
 70
     1
102
RTVSPost2010Prop50
 90
       50
102
RTVSPost2010PropOp50
 70
     1
102
RTVSPost2010Prop51ColorIndex
 90
      256
102
RTVSPost2010Prop51ColorRGB
 90
-16777216
102
RTVSPost2010PropOp51
 70
     0
102
RTVSPost2010Prop52
140
1.0
102
RTVSPost2010PropOp52
 70
     0
102
RTVSPost2010Prop53
 90
        2
102
RTVSPost2010PropOp53
 70
     1
102
RTVSPost2010Prop54
  1
strokes_ogs.tif
102
RTVSPost2010PropOp54
 70
     1
102
RTVSPost2010Prop55
280
     0
102
RTVSPost2010PropOp55
 70
     1
102
RTVSPost2010Prop56
140
1.0
102
RTVSPost2010PropOp56
 70
     1
102
RTVSPost2010Prop57
140
1.0
102
RTVSPost2010PropOp57
 70
     1
102
RTVSPropertyOp0
 70
     1
102
RTVSPropertyOp1
 70
     1
102
RTVSPropertyOp2
 70
     1
102
RTVSPropertyOp3
 70
     1
102
RTVSPropertyOp4
 70
     1
102
RTVSPropertyOp5
 70
     1
102
RTVSPropertyOp6
 70
     1
102
RTVSPropertyOp7
 70
     1
102
RTVSPropertyOp8
 70
     1
102
RTVSPropertyOp9
 70
     1
102
RTVSPropertyOp10
 70
     1
102
RTVSPropertyOp11
 70
     1
102
RTVSPropertyOp12
 70
     1
102
RTVSPropertyOp13
 70
     1
102
RTVSPropertyOp14
 70
     1
102
RTVSPropertyOp15
 70
     1
102
RTVSPropertyOp16
 70
     1
102
RTVSPropertyOp17
 70
     1
102
RTVSPropertyOp18
 70
     1
102
RTVSPropertyOp19
 70
     1
102
RTVSPropertyOp20
 70
     1
102
RTVSPropertyOp21
 70
     1
102
RTVSPropertyOp22
 70
     1
102
RTVSPropertyOp23
 70
     1
102
RTVSPropertyOp24
 70
     1
102
RTVSPropertyOp25
 70
     1
102
RTVSPropertyOp26
 70
     1
102
RTVSPropertyOp27
 70
     1
102
RTVSPropertyOp28
 70
     1
102
RTVSPropertyOp29
 70
     1
102
RTVSPropertyOp30
 70
     1
102
RTVSPropertyOp31
 70
     1
102
RTVSPropertyOp32
 70
     1
102
RTVSPropertyOp33
 70
     1
102
RTVSPropertyOp34
 70
     1
102
RTVSPropertyOp35
 70
     1
102
RTVSPropertyOp36
 70
     1
102
RTVSPropertyOp37
 70
     1
102
RTVSPropertyOp38
 70
     1
102
RTVSPropertyOp39
 70
     1
102
RTVSPropertyOp40
 70
     1
102
RTVSPropertyOp41
 70
     1
102
RTVSPropertyOp42
 70
     1
102
RTVSPropertyOp43
 70
     1
102
RTVSPropertyOp44
 70
     1
102
RTVSPropertyOp45
 70
     1
102
RTVSPropertyOp46
 70
     1
102
RTVSPropertyOp47
 70
     1
102
RTVSPropertyOp48
 70
     1
102
RTVSPropertyOp49
 70
     1
102
RTVSPropertyOp50
 70
     1
102
RTVSPropertyOp51
 70
     0
102
RTVSPropertyOp52
 70
     0
102
RTVSPropertyOp53
 70
     1
102
RTVSPropertyOp54
 70
     1
102
RTVSPropertyOp55
 70
     1
102
RTVSPropertyOp56
 70
     1
102
RTVSPropertyOp57
 70
     1
102
RTVSPropertyOp58
 70
     1
102
RTVSPropertyOp59
 70
     1
102
RTVSPropertyOp60
 70
     1
102
RTVSPropertyOp61
 70
     1
102
RTVSPropertyOp62
 70
     1
  0
XRECORD
  5
506
102
{ACAD_REACTORS
330
505
102
}
330
505
100
AcDbXrecord
280
     1
102
RTVSPost2010Prop28
280
     0
102
RTVSPost2010PropOp28
 70
     1
102
RTVSPost2010Prop29
280
     1
102
RTVSPost2010PropOp29
 70
     1
102
RTVSPost2010Prop30
280
     1
102
RTVSPost2010PropOp30
 70
     1
102
RTVSPost2010Prop31
280
     0
102
RTVSPost2010PropOp31
 70
     1
102
RTVSPost2010Prop32
280
     0
102
RTVSPost2010PropOp32
 70
     1
102
RTVSPost2010Prop33
280
     0
102
RTVSPost2010PropOp33
 70
     1
102
RTVSPost2010Prop34
280
     0
102
RTVSPost2010PropOp34
 70
     1
102
RTVSPost2010Prop35
280
     0
102
RTVSPost2010PropOp35
 70
     1
102
RTVSPost2010Prop36
280
     0
102
RTVSPost2010PropOp36
 70
     1
102
RTVSPost2010Prop37
 90
       50
102
RTVSPost2010PropOp37
 70
     1
102
RTVSPost2010Prop38
140
0.0
102
RTVSPost2010PropOp38
 70
     1
102
RTVSPost2010Prop39
140
1.0
102
RTVSPost2010PropOp39
 70
     1
102
RTVSPost2010Prop40
 90
        0
102
RTVSPost2010PropOp40
 70
     1
102
RTVSPost2010Prop41ColorIndex
 90
       18
102
RTVSPost2010Prop41ColorRGB
 90
        0
102
RTVSPost2010PropOp41
 70
     1
102
RTVSPost2010Prop42
 90
       50
102
RTVSPost2010PropOp42
 70
     1
102
RTVSPost2010Prop43
 90
        3
102
RTVSPost2010PropOp43
 70
     1
102
RTVSPost2010Prop44ColorIndex
 90
        5
102
RTVSPost2010Prop44ColorRGB
 90
      255
102
RTVSPost2010PropOp44
 70
     1
102
RTVSPost2010Prop45
280
     0
102
RTVSPost2010PropOp45
 70
     1
102
RTVSPost2010Prop46
 90
       50
102
RTVSPost2010PropOp46
 70
     1
102
RTVSPost2010Prop47
 90
       50
102
RTVSPost2010PropOp47
 70
     1
102
RTVSPost2010Prop48
 90
       50
102
RTVSPost2010PropOp48
 70
     1
102
RTVSPost2010Prop49
280
     0
102
RTVSPost2010PropOp49
 70
     1
102
RTVSPost2010Prop50
 90
       50
102
RTVSPost2010PropOp50
 70
     1
102
RTVSPost2010Prop51ColorIndex
 90
      256
102
RTVSPost2010Prop51ColorRGB
 90
-16777216
102
RTVSPost2010PropOp51
 70
     0
102
RTVSPost2010Prop52
140
1.0
102
RTVSPost2010PropOp52
 70
     0
102
RTVSPost2010Prop53
 90
        2
102
RTVSPost2010PropOp53
 70
     1
102
RTVSPost2010Prop54
  1
strokes_ogs.tif
102
RTVSPost2010PropOp54
 70
     1
102
RTVSPost2010Prop55
280
     0
102
RTVSPost2010PropOp55
 70
     1
102
RTVSPost2010Prop56
140
1.0
102
RTVSPost2010PropOp56
 70
     1
102
RTVSPost2010Prop57
140
1.0
102
RTVSPost2010PropOp57
 70
     1
102
RTVSPropertyOp0
 70
     1
102
RTVSPropertyOp1
 70
     1
102
RTVSPropertyOp2
 70
     1
102
RTVSPropertyOp3
 70
     1
102
RTVSPropertyOp4
 70
     1
102
RTVSPropertyOp5
 70
     1
102
RTVSPropertyOp6
 70
     1
102
RTVSPropertyOp7
 70
     1
102
RTVSPropertyOp8
 70
     1
102
RTVSPropertyOp9
 70
     1
102
RTVSPropertyOp10
 70
     1
102
RTVSPropertyOp11
 70
     1
102
RTVSPropertyOp12
 70
     1
102
RTVSPropertyOp13
 70
     1
102
RTVSPropertyOp14
 70
     1
102
RTVSPropertyOp15
 70
     1
102
RTVSPropertyOp16
 70
     1
102
RTVSPropertyOp17
 70
     1
102
RTVSPropertyOp18
 70
     1
102
RTVSPropertyOp19
 70
     1
102
RTVSPropertyOp20
 70
     1
102
RTVSPropertyOp21
 70
     1
102
RTVSPropertyOp22
 70
     1
102
RTVSPropertyOp23
 70
     1
102
RTVSPropertyOp24
 70
     1
102
RTVSPropertyOp25
 70
     1
102
RTVSPropertyOp26
 70
     1
102
RTVSPropertyOp27
 70
     1
102
RTVSPropertyOp28
 70
     1
102
RTVSPropertyOp29
 70
     1
102
RTVSPropertyOp30
 70
     1
102
RTVSPropertyOp31
 70
     1
102
RTVSPropertyOp32
 70
     1
102
RTVSPropertyOp33
 70
     1
102
RTVSPropertyOp34
 70
     1
102
RTVSPropertyOp35
 70
     1
102
RTVSPropertyOp36
 70
     1
102
RTVSPropertyOp37
 70
     1
102
RTVSPropertyOp38
 70
     1
102
RTVSPropertyOp39
 70
     1
102
RTVSPropertyOp40
 70
     1
102
RTVSPropertyOp41
 70
     1
102
RTVSPropertyOp42
 70
     1
102
RTVSPropertyOp43
 70
     1
102
RTVSPropertyOp44
 70
     1
102
RTVSPropertyOp45
 70
     1
102
RTVSPropertyOp46
 70
     1
102
RTVSPropertyOp47
 70
     1
102
RTVSPropertyOp48
 70
     1
102
RTVSPropertyOp49
 70
     1
102
RTVSPropertyOp50
 70
     1
102
RTVSPropertyOp51
 70
     0
102
RTVSPropertyOp52
 70
     0
102
RTVSPropertyOp53
 70
     1
102
RTVSPropertyOp54
 70
     1
102
RTVSPropertyOp55
 70
     1
102
RTVSPropertyOp56
 70
     1
102
RTVSPropertyOp57
 70
     1
102
RTVSPropertyOp58
 70
     1
102
RTVSPropertyOp59
 70
     1
102
RTVSPropertyOp60
 70
     1
102
RTVSPropertyOp61
 70
     1
102
RTVSPropertyOp62
 70
     1
  0
ENDSEC
  0
EOF
